  0
SECTION
  2
HEADER
  9
$ACADVER
  1
AC1009
  9
$INSBASE
 10
0.0
 20
0.0
 30
0.0
  9
$EXTMIN
 10
-597.56519
 20
83.271171
 30
-0.001526
  9
$EXTMAX
 10
1124.485963
 20
1039.905839
 30
0.0
  9
$LIMMIN
 10
0.0
 20
0.0
  9
$LIMMAX
 10
420.0
 20
297.0
  9
$ORTHOMODE
 70
     0
  9
$REGENMODE
 70
     1
  9
$FILLMODE
 70
     1
  9
$QTEXTMODE
 70
     0
  9
$MIRRTEXT
 70
     1
  9
$DRAGMODE
 70
     2
  9
$LTSCALE
 40
7.0
  9
$OSMODE
 70
     5
  9
$ATTMODE
 70
     1
  9
$TEXTSIZE
 40
3.5
  9
$TRACEWID
 40
0.05
  9
$TEXTSTYLE
  7
STANDARD
  9
$CLAYER
  8
1
  9
$CELTYPE
  6
BYLAYER
  9
$CECOLOR
 62
   256
  9
$DIMSCALE
 40
1.0
  9
$DIMASZ
 40
3.5
  9
$DIMEXO
 40
0.0
  9
$DIMDLI
 40
10.0
  9
$DIMRND
 40
0.0
  9
$DIMDLE
 40
0.0
  9
$DIMEXE
 40
2.0
  9
$DIMTP
 40
0.0
  9
$DIMTM
 40
0.0
  9
$DIMTXT
 40
3.5
  9
$DIMCEN
 40
2.5
  9
$DIMTSZ
 40
0.0
  9
$DIMTOL
 70
     0
  9
$DIMLIM
 70
     0
  9
$DIMTIH
 70
     0
  9
$DIMTOH
 70
     0
  9
$DIMSE1
 70
     0
  9
$DIMSE2
 70
     0
  9
$DIMTAD
 70
     1
  9
$DIMZIN
 70
     8
  9
$DIMBLK
  1

  9
$DIMASO
 70
     1
  9
$DIMSHO
 70
     1
  9
$DIMPOST
  1

  9
$DIMAPOST
  1

  9
$DIMALT
 70
     0
  9
$DIMALTD
 70
     2
  9
$DIMALTF
 40
25.4
  9
$DIMLFAC
 40
1.0
  9
$DIMTOFL
 70
     1
  9
$DIMTVP
 40
0.0
  9
$DIMTIX
 70
     0
  9
$DIMSOXD
 70
     0
  9
$DIMSAH
 70
     0
  9
$DIMBLK1
  1

  9
$DIMBLK2
  1

  9
$DIMSTYLE
  2
ACADUS
  9
$DIMCLRD
 70
   256
  9
$DIMCLRE
 70
   256
  9
$DIMCLRT
 70
     3
  9
$DIMTFAC
 40
1.0
  9
$DIMGAP
 40
2.0
  9
$LUNITS
 70
     2
  9
$LUPREC
 70
     1
  9
$SKETCHINC
 40
1.0
  9
$FILLETRAD
 40
0.0
  9
$AUNITS
 70
     0
  9
$AUPREC
 70
     2
  9
$MENU
  1
CAESAR
  9
$ELEVATION
 40
0.0
  9
$PELEVATION
 40
0.0
  9
$THICKNESS
 40
0.0
  9
$LIMCHECK
 70
     0
  9
$BLIPMODE
 70
     0
  9
$CHAMFERA
 40
5.0
  9
$CHAMFERB
 40
5.0
  9
$SKPOLY
 70
     0
  9
$TDCREATE
 40
2449172.562035
  9
$TDUPDATE
 40
2453061.398796
  9
$TDINDWG
 40
0.083914
  9
$TDUSRTIMER
 40
0.083914
  9
$USRTIMER
 70
     1
  9
$ANGBASE
 50
0.0
  9
$ANGDIR
 70
     0
  9
$PDMODE
 70
     0
  9
$PDSIZE
 40
0.0
  9
$PLINEWID
 40
0.0
  9
$COORDS
 70
     2
  9
$SPLFRAME
 70
     0
  9
$SPLINETYPE
 70
     6
  9
$SPLINESEGS
 70
     8
  9
$ATTDIA
 70
     0
  9
$ATTREQ
 70
     1
  9
$HANDLING
 70
     1
  9
$HANDSEED
  5
4323
  9
$SURFTAB1
 70
     6
  9
$SURFTAB2
 70
     6
  9
$SURFTYPE
 70
     6
  9
$SURFU
 70
     6
  9
$SURFV
 70
     6
  9
$UCSNAME
  2

  9
$UCSORG
 10
0.0
 20
0.0
 30
0.0
  9
$UCSXDIR
 10
1.0
 20
0.0
 30
0.0
  9
$UCSYDIR
 10
0.0
 20
1.0
 30
0.0
  9
$PUCSNAME
  2

  9
$PUCSORG
 10
0.0
 20
0.0
 30
0.0
  9
$PUCSXDIR
 10
1.0
 20
0.0
 30
0.0
  9
$PUCSYDIR
 10
0.0
 20
1.0
 30
0.0
  9
$USERI1
 70
     0
  9
$USERI2
 70
     0
  9
$USERI3
 70
     0
  9
$USERI4
 70
     0
  9
$USERI5
 70
     0
  9
$USERR1
 40
1.0
  9
$USERR2
 40
0.0
  9
$USERR3
 40
3.5
  9
$USERR4
 40
0.0
  9
$USERR5
 40
0.0
  9
$WORLDVIEW
 70
     1
  9
$SHADEDGE
 70
     3
  9
$SHADEDIF
 70
    70
  9
$TILEMODE
 70
     1
  9
$MAXACTVP
 70
    16
  9
$PLIMCHECK
 70
     0
  9
$PEXTMIN
 10
1.000000E+020
 20
1.000000E+020
 30
1.000000E+020
  9
$PEXTMAX
 10
-1.000000E+020
 20
-1.000000E+020
 30
-1.000000E+020
  9
$PLIMMIN
 10
0.0
 20
0.0
  9
$PLIMMAX
 10
420.0
 20
297.0
  9
$UNITMODE
 70
     0
  9
$VISRETAIN
 70
     0
  9
$PLINEGEN
 70
     0
  9
$PSLTSCALE
 70
     0
  0
ENDSEC
  0
SECTION
  2
TABLES
  0
TABLE
  2
VPORT
 70
     3
  0
VPORT
  2
*ACTIVE
 70
     0
 10
0.0
 20
0.0
 11
1.0
 21
1.0
 12
-68.110928
 22
-255.952088
 13
0.0
 23
0.0
 14
1.0
 24
1.0
 15
10.0
 25
10.0
 16
0.0
 26
0.0
 36
1.0
 17
413.252975
 27
759.610135
 37
0.0
 40
1209.537221
 41
1.616838
 42
50.0
 43
0.0
 44
0.0
 50
0.0
 51
0.0
 71
     0
 72
   100
 73
     1
 74
     1
 75
     0
 76
     0
 77
     0
 78
     1
  0
ENDTAB
  0
TABLE
  2
LTYPE
 70
    13
  0
LTYPE
  2
CONTINUOUS
 70
     0
  3
Solid line
 72
    65
 73
     0
 40
0.0
  0
LTYPE
  2
CENTER
 70
     0
  3
____ _ ____ _ ____ _ ____ _ ____ _ ____ _ ____ 
 72
    65
 73
     4
 40
2.0
 49
1.25
 49
-0.25
 49
0.25
 49
-0.25
  0
LTYPE
  2
DASHDOT
 70
     0
  3
__ . __ . __ . __ . __ . __ . __ . __ . __ . __
 72
    65
 73
     4
 40
1.0
 49
0.5
 49
-0.25
 49
0.0
 49
-0.25
  0
LTYPE
  2
DASHED
 70
     0
  3
__ __ __ __ __ __ __ __ __ __ __ __ __ __ __ __
 72
    65
 73
     2
 40
0.75
 49
0.5
 49
-0.25
  0
LTYPE
  2
HIDDEN
 70
     0
  3
__ __ __ __ __ __ __ __ __ __ __ __ __ __ __ __
 72
    65
 73
     2
 40
0.375
 49
0.25
 49
-0.125
  0
LTYPE
  2
PHANTOM2
 70
     0
  3
Phantom (.5x) ___ _ _ ___ _ _ ___ _ _ ___ _ _
 72
    65
 73
     6
 40
1.25
 49
0.625
 49
-0.125
 49
0.125
 49
-0.125
 49
0.125
 49
-0.125
  0
LTYPE
  2
AM_ISO02W050
 70
     0
  3
__ __ __ __ __ __ __ __ __ __ __ __ __ __ __
 72
    65
 73
     2
 40
7.5
 49
6.0
 49
-1.5
  0
LTYPE
  2
AM_ISO08W050
 70
     0
  3
____ . ____ . ____ . ____ . ____ . ____ . ____
 72
    65
 73
     4
 40
18.0
 49
12.0
 49
-1.5
 49
3.0
 49
-1.5
  0
LTYPE
  2
AM_ISO09W050
 70
     0
  3
_____ . . _____ . . _____ . . ____ .. ____
 72
    65
 73
     6
 40
22.5
 49
12.0
 49
-1.5
 49
3.0
 49
-1.5
 49
3.0
 49
-1.5
  0
LTYPE
  2
AMCONSTR
 70
     0
  3
_______________________
 72
    65
 73
     2
 40
9999.0
 49
9999.0
 49
0.0
  0
LTYPE
  2
AM_ISO08W050X2
 70
     0
  3
__ . __ . __ . __ . __ . __
 72
    65
 73
     4
 40
9.0
 49
6.0
 49
-0.75
 49
1.5
 49
-0.75
  0
LTYPE
  2
AM_ISO02W050X2
 70
     0
  3
 _ _ _ _ _ _ _ _ _ _ _ _
 72
    65
 73
     2
 40
3.75
 49
3.0
 49
-0.75
  0
LTYPE
  2
AMZIGZAG
 70
     0
  3
/\/-/\/-/\/-/\/-/\/-/\/
 72
    65
 73
     2
 40
11.0001
 49
0.0001
 49
-11.0
  0
ENDTAB
  0
TABLE
  2
LAYER
 70
    26
  0
LAYER
  2
0
 70
     0
 62
     7
  6
CONTINUOUS
  0
LAYER
  2
L20
 70
     0
 62
     3
  6
CONTINUOUS
  0
LAYER
  2
DEFPOINTS
 70
     0
 62
    -7
  6
CONTINUOUS
  0
LAYER
  2
1
 70
     0
 62
     7
  6
CONTINUOUS
  0
LAYER
  2
11
 70
     0
 62
     7
  6
CONTINUOUS
  0
LAYER
  2
12
 70
     0
 62
     1
  6
CONTINUOUS
  0
LAYER
  2
13
 70
     0
 62
     1
  6
CENTER
  0
LAYER
  2
14
 70
     0
 62
     1
  6
DASHED
  0
LAYER
  2
21
 70
     0
 62
     7
  6
CONTINUOUS
  0
LAYER
  2
22
 70
     0
 62
     1
  6
CONTINUOUS
  0
LAYER
  2
23
 70
     0
 62
     1
  6
CENTER
  0
LAYER
  2
24
 70
     0
 62
     1
  6
DASHED
  0
LAYER
  2
31
 70
     0
 62
     7
  6
CONTINUOUS
  0
LAYER
  2
32
 70
     0
 62
     1
  6
CONTINUOUS
  0
LAYER
  2
33
 70
     0
 62
     1
  6
CENTER
  0
LAYER
  2
34
 70
     0
 62
     1
  6
DASHED
  0
LAYER
  2
41
 70
     0
 62
     7
  6
CONTINUOUS
  0
LAYER
  2
42
 70
     0
 62
     1
  6
CONTINUOUS
  0
LAYER
  2
43
 70
     0
 62
     1
  6
CENTER
  0
LAYER
  2
44
 70
     0
 62
     1
  6
DASHED
  0
LAYER
  2
51
 70
     0
 62
     7
  6
CONTINUOUS
  0
LAYER
  2
52
 70
     0
 62
     1
  6
CONTINUOUS
  0
LAYER
  2
53
 70
     0
 62
     1
  6
CENTER
  0
LAYER
  2
61
 70
     0
 62
     7
  6
CONTINUOUS
  0
LAYER
  2
62
 70
     0
 62
     1
  6
CONTINUOUS
  0
LAYER
  2
63
 70
     0
 62
     1
  6
CENTER
  0
ENDTAB
  0
TABLE
  2
STYLE
 70
    10
  0
STYLE
  2
STANDARD
 70
     0
 40
0.0
 41
1.0
 50
0.0
 71
     0
 42
3.5
  3
CAEISO
  4

  0
STYLE
  2
TXT
 70
     0
 40
0.0
 41
1.0
 50
0.0
 71
     0
 42
0.2
  3
ROMANS.SHX
  4

  0
STYLE
  2
USER
 70
     0
 40
0.0
 41
1.0
 50
0.0
 71
     0
 42
0.2
  3
KIRJAIN
  4

  0
STYLE
  2
SIMPLEX
 70
     0
 40
0.0
 41
0.8
 50
0.0
 71
     0
 42
5.0
  3
KIRJAIN
  4

  0
STYLE
  2
COMPLEX
 70
     0
 40
0.0
 41
1.0
 50
0.0
 71
     0
 42
0.2
  3
COMPLEX
  4

  0
STYLE
  2
ITALIC
 70
     0
 40
0.0
 41
1.0
 50
0.0
 71
     0
 42
0.2
  3
ITALIC
  4

  0
STYLE
  2
MONO
 70
     0
 40
0.0
 41
1.0
 50
0.0
 71
     0
 42
9.5
  3
MONOTXT
  4

  0
STYLE
  2
ROMAND
 70
     0
 40
10.0
 41
0.8
 50
0.0
 71
     0
 42
5.0
  3
ROMAND
  4

  0
STYLE
  2
TKKISO
 70
     0
 40
0.0
 41
1.0
 50
0.0
 71
     0
 42
5.0
  3
caeiso
  4

  0
STYLE
  2

 70
     1
 40
0.0
 41
1.0
 50
0.0
 71
     0
 42
3.5
  3
ltypeshp.shx
  4

  0
ENDTAB
  0
TABLE
  2
VIEW
 70
     0
  0
ENDTAB
  0
TABLE
  2
UCS
 70
     0
  0
ENDTAB
  0
TABLE
  2
APPID
 70
    11
  0
APPID
  2
ACAD
 70
     0
  0
APPID
  2
MCAD_NO_VIS
 70
     0
  0
APPID
  2
ACAD_TEMP_GRAPHIC
 70
     0
  0
APPID
  2
AD_DRAW
 70
     0
  0
APPID
  2
ACATTRIBSERVICES
 70
     0
  0
APPID
  2
GENIUS_GENDIM_13
 70
     0
  0
APPID
  2
GENIUS_GENDTOL_13
 70
     0
  0
APPID
  2
GENIUS_GE3DTOL_13
 70
     0
  0
APPID
  2
ASURF_PCURVE_APPNAME
 70
     0
  0
APPID
  2
DESIGNERASSEMBLIES
 70
     0
  0
APPID
  2
ACADM_DIM_EDIT
 70
     0
  0
ENDTAB
  0
TABLE
  2
DIMSTYLE
 70
     1
  0
DIMSTYLE
  2
ACADUS
 70
     0
  3

  4

  5

  6

  7

 40
1.0
 41
0.18
 42
0.0625
 43
0.38
 44
0.18
 45
0.0
 46
0.0
 47
0.0
 48
0.0
140
0.18
141
0.09
142
0.0
143
25.4
144
1.0
145
0.0
146
1.0
147
0.09
 71
     0
 72
     0
 73
     1
 74
     1
 75
     0
 76
     0
 77
     0
 78
     0
170
     0
171
     2
172
     0
173
     0
174
     0
175
     0
176
     0
177
     0
178
     0
  0
ENDTAB
  0
ENDSEC
  0
SECTION
  2
BLOCKS
  0
BLOCK
  8
0
  2
$MODEL_SPACE
 70
     0
 10
0.0
 20
0.0
 30
0.0
  3
$MODEL_SPACE
  1

  0
ENDBLK
  5
41C6
  8
0
  0
BLOCK
 67
     1
  8
0
  2
$PAPER_SPACE
 70
     0
 10
0.0
 20
0.0
 30
0.0
  3
$PAPER_SPACE
  1

  0
ENDBLK
  5
41C4
 67
     1
  8
0
  0
BLOCK
  8
0
  2
*U0
 70
     1
 10
0.0
 20
0.0
 30
0.0
  3
*U0
  1

  0
ENDBLK
  5
427F
  8
0
  0
ENDSEC
  0
SECTION
  2
ENTITIES
  0
CIRCLE
  5
34D8
  8
61
 10
323.774101
 20
381.658511
 30
0.0
 40
10.125
  0
CIRCLE
  5
34D9
  8
61
 10
323.774101
 20
381.658511
 30
0.0
 40
6.75
  0
CIRCLE
  5
34DA
  8
61
 10
323.774101
 20
381.658511
 30
0.0
 40
7.5
  0
CIRCLE
  5
34DB
  8
61
 10
323.774101
 20
381.658511
 30
0.0
 40
3.5
  0
LINE
  5
34E1
  8
61
 10
590.774101
 20
369.658511
 30
0.0
 11
323.774101
 21
369.658511
 31
0.0
  0
ARC
  5
34E3
  8
61
 10
590.774101
 20
381.658511
 30
0.0
 40
3.5
 50
90.0
 51
270.0
  0
ARC
  5
34E4
  8
61
 10
590.774101
 20
381.658511
 30
0.0
 40
7.5
 50
90.0
 51
270.0
  0
ARC
  5
34E5
  8
61
 10
590.774101
 20
381.658511
 30
0.0
 40
6.75
 50
90.0
 51
270.0
  0
ARC
  5
34E6
  8
61
 10
590.774101
 20
381.658511
 30
0.0
 40
10.125
 50
90.0
 51
270.0
  0
LINE
  5
34E8
  8
61
 10
311.774101
 20
381.658511
 30
0.0
 11
311.774101
 21
558.658511
 31
0.0
  0
ARC
  5
34E9
  8
61
 10
323.774101
 20
381.658511
 30
0.0
 40
12.0
 50
180.0
 51
270.0
  0
LINE
  5
34EB
  8
61
 10
321.774101
 20
395.458511
 30
0.0
 11
321.774101
 21
558.658511
 31
0.0
  0
LINE
  5
34EC
  8
61
 10
576.974101
 20
379.658511
 30
0.0
 11
337.574101
 21
379.658511
 31
0.0
  0
LINE
  5
34ED
  8
61
 10
316.274101
 20
398.783511
 30
0.0
 11
316.274101
 21
558.658511
 31
0.0
  0
LINE
  5
34EE
  8
61
 10
318.274101
 20
399.158511
 30
0.0
 11
318.274101
 21
558.658511
 31
0.0
  0
LINE
  5
34EF
  8
61
 10
573.374101
 20
376.158511
 30
0.0
 11
341.274101
 21
376.158511
 31
0.0
  0
LINE
  5
34F0
  8
61
 10
573.249101
 20
374.158511
 30
0.0
 11
340.899101
 21
374.158511
 31
0.0
  0
ARC
  5
34F1
  8
61
 10
323.774101
 20
381.658511
 30
0.0
 40
12.0
 50
0.0
 51
90.0
  0
LINE
  5
34F2
  8
61
 10
323.774101
 20
393.658511
 30
0.0
 11
323.774101
 21
393.658511
 31
0.0
  0
LINE
  5
34F3
  8
61
 10
335.774101
 20
381.658511
 30
0.0
 11
335.774101
 21
381.658511
 31
0.0
  0
LINE
  5
34F4
  8
61
 10
323.774101
 20
391.783511
 30
0.0
 11
323.274101
 21
391.783511
 31
0.0
  0
LINE
  5
34F5
  8
61
 10
333.899101
 20
381.658511
 30
0.0
 11
333.899101
 21
381.158511
 31
0.0
  0
ARC
  5
34F6
  8
61
 10
323.274101
 20
398.783511
 30
0.0
 40
7.0
 50
180.0
 51
270.0
  0
ARC
  5
34F7
  8
61
 10
340.899101
 20
381.158511
 30
0.0
 40
7.0
 50
180.0
 51
270.0
  0
ARC
  5
34F8
  8
61
 10
323.774101
 20
399.158511
 30
0.0
 40
5.5
 50
180.0
 51
270.0
  0
ARC
  5
34F9
  8
61
 10
341.274101
 20
381.658511
 30
0.0
 40
5.5
 50
180.0
 51
270.0
  0
LINE
  5
34FA
  8
61
 10
323.774101
 20
393.658511
 30
0.0
 11
323.574101
 21
393.658511
 31
0.0
  0
ARC
  5
34FB
  8
61
 10
323.574101
 20
395.458511
 30
0.0
 40
1.8
 50
180.0
 51
270.0
  0
LINE
  5
34FC
  8
61
 10
335.774101
 20
381.658511
 30
0.0
 11
335.774101
 21
381.458511
 31
0.0
  0
ARC
  5
34FD
  8
61
 10
337.574101
 20
381.458511
 30
0.0
 40
1.8
 50
180.0
 51
270.0
  0
ARC
  5
3500
  8
61
 10
590.774101
 20
381.658511
 30
0.0
 40
12.0
 50
90.0
 51
180.0
  0
LINE
  5
3501
  8
61
 10
578.774101
 20
381.658511
 30
0.0
 11
578.774101
 21
381.558511
 31
0.0
  0
LINE
  5
3502
  8
61
 10
580.649101
 20
381.658511
 30
0.0
 11
580.649101
 21
381.558511
 31
0.0
  0
ARC
  5
3503
  8
61
 10
573.249101
 20
381.558511
 30
0.0
 40
7.4
 50
270.0
 51
0.0
  0
ARC
  5
3504
  8
61
 10
573.374101
 20
381.558511
 30
0.0
 40
5.4
 50
270.0
 51
0.0
  0
LINE
  5
3505
  8
61
 10
578.774101
 20
381.658511
 30
0.0
 11
578.774101
 21
381.458511
 31
0.0
  0
ARC
  5
3506
  8
61
 10
576.974101
 20
381.458511
 30
0.0
 40
1.8
 50
270.0
 51
0.0
  0
LINE
  5
350C
  8
62
 10
570.774101
 20
554.658511
 30
0.0
 11
453.593783
 21
554.658511
 31
0.0
  0
LINE
  5
350D
  8
61
 10
570.774101
 20
555.658511
 30
0.0
 11
453.061048
 21
555.658511
 31
0.0
  0
LINE
  5
350E
  8
61
 10
430.774101
 20
554.658511
 30
0.0
 11
433.420693
 21
555.658511
 31
0.0
  0
LINE
  5
350F
  8
61
 10
570.774101
 20
379.658511
 30
0.0
 11
570.774101
 21
555.658511
 31
0.0
  0
LINE
  5
3510
  8
61
 10
445.831525
 20
555.658511
 30
0.0
 11
433.420693
 21
555.658511
 31
0.0
  0
LINE
  5
3511
  8
62
 10
443.95442
 20
554.658511
 30
0.0
 11
430.774101
 21
554.658511
 31
0.0
  0
LINE
  5
3512
  8
62
 10
443.95442
 20
562.658511
 30
0.0
 11
430.774101
 21
562.658511
 31
0.0
  0
LINE
  5
3513
  8
61
 10
445.831525
 20
561.658511
 30
0.0
 11
433.420693
 21
561.658511
 31
0.0
  0
LINE
  5
3514
  8
61
 10
453.061048
 20
561.658511
 30
0.0
 11
351.654837
 21
711.003764
 31
0.0
  0
LINE
  5
3515
  8
61
 10
445.831525
 20
561.658511
 30
0.0
 11
346.664848
 21
707.671248
 31
0.0
  0
LINE
  5
3516
  8
62
 10
443.95442
 20
562.658511
 30
0.0
 11
345.426049
 21
707.718746
 31
0.0
  0
LINE
  5
3517
  8
62
 10
453.593783
 20
562.658511
 30
0.0
 11
352.083105
 21
712.156685
 31
0.0
  0
LINE
  5
3519
  8
61
 10
570.774101
 20
737.658511
 30
0.0
 11
570.774101
 21
561.658511
 31
0.0
  0
LINE
  5
351A
  8
61
 10
430.774101
 20
562.658511
 30
0.0
 11
433.420693
 21
561.658511
 31
0.0
  0
LINE
  5
351B
  8
61
 10
570.774101
 20
561.658511
 30
0.0
 11
453.061048
 21
561.658511
 31
0.0
  0
LINE
  5
351C
  8
62
 10
570.774101
 20
562.658511
 30
0.0
 11
453.593783
 21
562.658511
 31
0.0
  0
ARC
  5
3525
  8
61
 10
576.974101
 20
735.858511
 30
0.0
 40
1.8
 50
0.0
 51
90.0
  0
LINE
  5
3526
  8
61
 10
578.774101
 20
735.658511
 30
0.0
 11
578.774101
 21
735.858511
 31
0.0
  0
ARC
  5
3527
  8
61
 10
573.374101
 20
735.758511
 30
0.0
 40
5.4
 50
0.0
 51
90.0
  0
ARC
  5
3528
  8
61
 10
573.249101
 20
735.758511
 30
0.0
 40
7.4
 50
0.0
 51
90.0
  0
LINE
  5
3529
  8
61
 10
580.649101
 20
735.658511
 30
0.0
 11
580.649101
 21
735.758511
 31
0.0
  0
LINE
  5
352A
  8
61
 10
578.774101
 20
735.658511
 30
0.0
 11
578.774101
 21
735.758511
 31
0.0
  0
ARC
  5
352B
  8
61
 10
590.774101
 20
735.658511
 30
0.0
 40
12.0
 50
180.0
 51
270.0
  0
ARC
  5
352E
  8
61
 10
337.574101
 20
735.858511
 30
0.0
 40
1.8
 50
90.0
 51
180.0
  0
LINE
  5
352F
  8
61
 10
335.774101
 20
735.658511
 30
0.0
 11
335.774101
 21
735.858511
 31
0.0
  0
ARC
  5
3530
  8
61
 10
323.574101
 20
721.858511
 30
0.0
 40
1.8
 50
90.0
 51
180.0
  0
LINE
  5
3531
  8
61
 10
323.774101
 20
723.658511
 30
0.0
 11
323.574101
 21
723.658511
 31
0.0
  0
ARC
  5
3533
  8
61
 10
323.774101
 20
718.158511
 30
0.0
 40
5.5
 50
90.0
 51
163.621828
  0
ARC
  5
3535
  8
61
 10
323.274101
 20
718.533511
 30
0.0
 40
7.0
 50
90.0
 51
168.459696
  0
LINE
  5
3536
  8
61
 10
333.899101
 20
735.658511
 30
0.0
 11
333.899101
 21
736.158511
 31
0.0
  0
LINE
  5
3537
  8
61
 10
323.774101
 20
725.533511
 30
0.0
 11
323.274101
 21
725.533511
 31
0.0
  0
LINE
  5
3538
  8
61
 10
335.774101
 20
735.658511
 30
0.0
 11
335.774101
 21
735.658511
 31
0.0
  0
LINE
  5
3539
  8
61
 10
323.774101
 20
723.658511
 30
0.0
 11
323.774101
 21
723.658511
 31
0.0
  0
ARC
  5
353A
  8
61
 10
323.774101
 20
735.658511
 30
0.0
 40
12.0
 50
270.0
 51
0.0
  0
LINE
  5
353B
  8
61
 10
573.249101
 20
743.158511
 30
0.0
 11
340.891801
 21
743.158511
 31
0.0
  0
LINE
  5
353C
  8
61
 10
573.374101
 20
741.158511
 30
0.0
 11
341.274101
 21
741.158511
 31
0.0
  0
LINE
  5
353D
  8
61
 10
318.497283
 20
719.709379
 30
0.0
 11
318.274101
 21
558.658511
 31
0.0
  0
LINE
  5
353E
  8
61
 10
316.415612
 20
719.933912
 30
0.0
 11
316.274101
 21
558.658511
 31
0.0
  0
LINE
  5
353F
  8
61
 10
576.974101
 20
737.658511
 30
0.0
 11
337.574101
 21
737.658511
 31
0.0
  0
ARC
  5
3540
  8
61
 10
323.774101
 20
735.658511
 30
0.0
 40
12.0
 50
90.0
 51
180.0
  0
LINE
  5
3541
  8
61
 10
311.774101
 20
735.658511
 30
0.0
 11
311.774101
 21
558.658511
 31
0.0
  0
ARC
  5
3542
  8
61
 10
590.774101
 20
735.658511
 30
0.0
 40
10.125
 50
90.0
 51
270.0
  0
ARC
  5
3543
  8
61
 10
590.774101
 20
735.658511
 30
0.0
 40
6.75
 50
90.0
 51
270.0
  0
ARC
  5
3544
  8
61
 10
590.774101
 20
735.658511
 30
0.0
 40
7.5
 50
90.0
 51
270.0
  0
ARC
  5
3545
  8
61
 10
590.774101
 20
735.658511
 30
0.0
 40
3.5
 50
90.0
 51
270.0
  0
LINE
  5
3547
  8
61
 10
590.774101
 20
747.658511
 30
0.0
 11
323.774101
 21
747.658511
 31
0.0
  0
LINE
  5
3548
  8
63
  6
DASHDOT
 10
590.774101
 20
558.658511
 30
0.0
 11
301.774101
 21
558.658511
 31
0.0
  0
CIRCLE
  5
354D
  8
61
 10
323.774101
 20
735.658511
 30
0.0
 40
3.5
  0
CIRCLE
  5
354E
  8
61
 10
323.774101
 20
735.658511
 30
0.0
 40
7.5
  0
CIRCLE
  5
354F
  8
61
 10
323.774101
 20
735.658511
 30
0.0
 40
6.75
  0
CIRCLE
  5
3550
  8
61
 10
323.774101
 20
735.658511
 30
0.0
 40
10.125
  0
LINE
  5
3551
  8
63
  6
DASHDOT
 10
590.774101
 20
757.658511
 30
0.0
 11
590.774101
 21
558.658511
 31
0.0
  0
LINE
  5
3552
  8
21
 10
311.774101
 20
1023.840288
 30
0.0
 11
590.774101
 21
1023.840288
 31
0.0
  0
LINE
  5
3553
  8
21
 10
311.774101
 20
1023.840288
 30
0.0
 11
313.065678
 21
875.840288
 31
0.0
  0
LINE
  5
3554
  8
21
 10
315.774101
 20
873.840288
 30
0.0
 11
331.774101
 21
873.840288
 31
0.0
  0
LINE
  5
3555
  8
21
 10
313.065678
 20
875.840288
 30
0.0
 11
590.774101
 21
875.840288
 31
0.0
  0
LINE
  5
3557
  8
21
 10
315.774101
 20
873.840288
 30
0.0
 11
315.756648
 21
875.840211
 31
0.0
  0
LINE
  5
3558
  8
21
 10
331.774101
 20
873.840288
 30
0.0
 11
331.791554
 21
875.840211
 31
0.0
  0
LINE
  5
3559
  8
21
 10
334.704286
 20
1015.840288
 30
0.0
 11
334.482525
 21
875.840288
 31
0.0
  0
LINE
  5
355A
  8
21
 10
323.774101
 20
1015.840288
 30
0.0
 11
590.774101
 21
1015.840288
 31
0.0
  0
LINE
  5
355B
  8
21
 10
323.774101
 20
1021.840288
 30
0.0
 11
345.774101
 21
1021.840288
 31
0.0
  0
LINE
  5
355C
  8
21
 10
323.774101
 20
1017.840288
 30
0.0
 11
345.774101
 21
1017.840288
 31
0.0
  0
LINE
  5
355D
  8
21
 10
345.774101
 20
1017.840288
 30
0.0
 11
345.774101
 21
1021.840288
 31
0.0
  0
LINE
  5
355E
  8
21
 10
351.774101
 20
1017.840288
 30
0.0
 11
351.774101
 21
1021.840288
 31
0.0
  0
LINE
  5
355F
  8
21
 10
359.774101
 20
1017.840288
 30
0.0
 11
359.774101
 21
1021.840288
 31
0.0
  0
LINE
  5
3560
  8
21
 10
365.774101
 20
1017.840288
 30
0.0
 11
365.774101
 21
1021.840288
 31
0.0
  0
LINE
  5
3561
  8
21
 10
372.774101
 20
1017.840288
 30
0.0
 11
372.774101
 21
1021.840288
 31
0.0
  0
LINE
  5
3562
  8
21
 10
378.774101
 20
1017.840288
 30
0.0
 11
378.774101
 21
1021.840288
 31
0.0
  0
LINE
  5
3563
  8
21
 10
386.774101
 20
1017.840288
 30
0.0
 11
386.774101
 21
1021.840288
 31
0.0
  0
LINE
  5
3564
  8
21
 10
392.774101
 20
1017.840288
 30
0.0
 11
392.774101
 21
1021.840288
 31
0.0
  0
LINE
  5
3565
  8
21
 10
351.774101
 20
1017.840288
 30
0.0
 11
359.774101
 21
1017.840288
 31
0.0
  0
LINE
  5
3566
  8
21
 10
365.774101
 20
1017.840288
 30
0.0
 11
372.774101
 21
1017.840288
 31
0.0
  0
LINE
  5
3567
  8
21
 10
378.774101
 20
1017.840288
 30
0.0
 11
386.774101
 21
1017.840288
 31
0.0
  0
LINE
  5
3568
  8
21
 10
392.774101
 20
1017.840288
 30
0.0
 11
521.774101
 21
1017.840288
 31
0.0
  0
LINE
  5
3569
  8
21
 10
392.774101
 20
1021.840288
 30
0.0
 11
521.774101
 21
1021.840288
 31
0.0
  0
LINE
  5
356A
  8
21
 10
378.774101
 20
1021.840288
 30
0.0
 11
386.774101
 21
1021.840288
 31
0.0
  0
LINE
  5
356B
  8
21
 10
365.774101
 20
1021.840288
 30
0.0
 11
372.774101
 21
1021.840288
 31
0.0
  0
LINE
  5
356C
  8
21
 10
351.774101
 20
1021.840288
 30
0.0
 11
359.774101
 21
1021.840288
 31
0.0
  0
LINE
  5
356E
  8
21
 10
527.774101
 20
1021.840288
 30
0.0
 11
535.774101
 21
1021.840288
 31
0.0
  0
LINE
  5
356F
  8
21
 10
541.774101
 20
1021.840288
 30
0.0
 11
548.774101
 21
1021.840288
 31
0.0
  0
LINE
  5
3570
  8
21
 10
554.774101
 20
1021.840288
 30
0.0
 11
562.774101
 21
1021.840288
 31
0.0
  0
LINE
  5
3571
  8
21
 10
554.774101
 20
1017.840288
 30
0.0
 11
562.774101
 21
1017.840288
 31
0.0
  0
LINE
  5
3572
  8
21
 10
541.774101
 20
1017.840288
 30
0.0
 11
548.774101
 21
1017.840288
 31
0.0
  0
LINE
  5
3573
  8
21
 10
527.774101
 20
1017.840288
 30
0.0
 11
535.774101
 21
1017.840288
 31
0.0
  0
LINE
  5
3574
  8
21
 10
568.774101
 20
1017.840288
 30
0.0
 11
568.774101
 21
1021.840288
 31
0.0
  0
LINE
  5
3575
  8
21
 10
562.774101
 20
1017.840288
 30
0.0
 11
562.774101
 21
1021.840288
 31
0.0
  0
LINE
  5
3576
  8
21
 10
554.774101
 20
1017.840288
 30
0.0
 11
554.774101
 21
1021.840288
 31
0.0
  0
LINE
  5
3577
  8
21
 10
548.774101
 20
1017.840288
 30
0.0
 11
548.774101
 21
1021.840288
 31
0.0
  0
LINE
  5
3578
  8
21
 10
541.774101
 20
1017.840288
 30
0.0
 11
541.774101
 21
1021.840288
 31
0.0
  0
LINE
  5
3579
  8
21
 10
535.774101
 20
1017.840288
 30
0.0
 11
535.774101
 21
1021.840288
 31
0.0
  0
LINE
  5
357A
  8
21
 10
527.774101
 20
1017.840288
 30
0.0
 11
527.774101
 21
1021.840288
 31
0.0
  0
LINE
  5
357B
  8
21
 10
521.774101
 20
1017.840288
 30
0.0
 11
521.774101
 21
1021.840288
 31
0.0
  0
LINE
  5
357C
  8
21
 10
527.774101
 20
1021.840288
 30
0.0
 11
535.774101
 21
1021.840288
 31
0.0
  0
LINE
  5
357D
  8
21
 10
527.774101
 20
1017.840288
 30
0.0
 11
535.774101
 21
1017.840288
 31
0.0
  0
LINE
  5
357E
  8
21
 10
541.774101
 20
1017.840288
 30
0.0
 11
548.774101
 21
1017.840288
 31
0.0
  0
LINE
  5
357F
  8
21
 10
541.774101
 20
1021.840288
 30
0.0
 11
548.774101
 21
1021.840288
 31
0.0
  0
LINE
  5
3580
  8
21
 10
554.774101
 20
1021.840288
 30
0.0
 11
562.774101
 21
1021.840288
 31
0.0
  0
LINE
  5
3581
  8
21
 10
554.774101
 20
1017.840288
 30
0.0
 11
562.774101
 21
1017.840288
 31
0.0
  0
LINE
  5
3582
  8
21
 10
568.774101
 20
1017.840288
 30
0.0
 11
590.774101
 21
1017.840288
 31
0.0
  0
LINE
  5
3583
  8
21
 10
568.774101
 20
1021.840288
 30
0.0
 11
590.774101
 21
1021.840288
 31
0.0
  0
ARC
  5
3584
  8
21
 10
346.774101
 20
893.540288
 30
0.0
 40
19.5
 50
245.188368
 51
294.811632
  0
ARC
  5
3585
  8
21
 10
556.274101
 20
893.540288
 30
0.0
 40
19.5
 50
245.188368
 51
294.811632
  0
LINE
  5
3586
  8
21
 10
582.774101
 20
873.840288
 30
0.0
 11
582.756648
 21
875.840211
 31
0.0
  0
LINE
  5
3587
  8
21
 10
582.774101
 20
873.840288
 30
0.0
 11
590.774101
 21
873.840288
 31
0.0
  0
LINE
  5
3588
  8
21
 10
578.843916
 20
1015.840288
 30
0.0
 11
580.065678
 21
875.840288
 31
0.0
  0
LINE
  5
3589
  8
21
 10
602.704286
 20
1015.840288
 30
0.0
 11
601.482525
 21
875.840288
 31
0.0
  0
LINE
  5
358A
  8
21
 10
598.774101
 20
873.840288
 30
0.0
 11
590.774101
 21
873.840288
 31
0.0
  0
LINE
  5
358B
  8
21
 10
598.774101
 20
873.840288
 30
0.0
 11
598.791554
 21
875.840211
 31
0.0
  0
ARC
  5
358C
  8
21
 10
625.274101
 20
893.540288
 30
0.0
 40
19.5
 50
245.188368
 51
294.811632
  0
ARC
  5
358D
  8
21
 10
834.774101
 20
893.540288
 30
0.0
 40
19.5
 50
245.188368
 51
294.811632
  0
LINE
  5
358E
  8
21
 10
612.774101
 20
1021.840288
 30
0.0
 11
590.774101
 21
1021.840288
 31
0.0
  0
LINE
  5
358F
  8
21
 10
612.774101
 20
1017.840288
 30
0.0
 11
590.774101
 21
1017.840288
 31
0.0
  0
LINE
  5
3590
  8
21
 10
626.774101
 20
1017.840288
 30
0.0
 11
618.774101
 21
1017.840288
 31
0.0
  0
LINE
  5
3591
  8
21
 10
626.774101
 20
1021.840288
 30
0.0
 11
618.774101
 21
1021.840288
 31
0.0
  0
LINE
  5
3592
  8
21
 10
639.774101
 20
1021.840288
 30
0.0
 11
632.774101
 21
1021.840288
 31
0.0
  0
LINE
  5
3593
  8
21
 10
639.774101
 20
1017.840288
 30
0.0
 11
632.774101
 21
1017.840288
 31
0.0
  0
LINE
  5
3594
  8
21
 10
653.774101
 20
1017.840288
 30
0.0
 11
645.774101
 21
1017.840288
 31
0.0
  0
LINE
  5
3595
  8
21
 10
653.774101
 20
1021.840288
 30
0.0
 11
645.774101
 21
1021.840288
 31
0.0
  0
LINE
  5
3596
  8
21
 10
659.774101
 20
1017.840288
 30
0.0
 11
659.774101
 21
1021.840288
 31
0.0
  0
LINE
  5
3597
  8
21
 10
653.774101
 20
1017.840288
 30
0.0
 11
653.774101
 21
1021.840288
 31
0.0
  0
LINE
  5
3598
  8
21
 10
645.774101
 20
1017.840288
 30
0.0
 11
645.774101
 21
1021.840288
 31
0.0
  0
LINE
  5
3599
  8
21
 10
639.774101
 20
1017.840288
 30
0.0
 11
639.774101
 21
1021.840288
 31
0.0
  0
LINE
  5
359A
  8
21
 10
632.774101
 20
1017.840288
 30
0.0
 11
632.774101
 21
1021.840288
 31
0.0
  0
LINE
  5
359B
  8
21
 10
626.774101
 20
1017.840288
 30
0.0
 11
626.774101
 21
1021.840288
 31
0.0
  0
LINE
  5
359C
  8
21
 10
618.774101
 20
1017.840288
 30
0.0
 11
618.774101
 21
1021.840288
 31
0.0
  0
LINE
  5
359D
  8
21
 10
612.774101
 20
1017.840288
 30
0.0
 11
612.774101
 21
1021.840288
 31
0.0
  0
LINE
  5
359E
  8
21
 10
653.774101
 20
1017.840288
 30
0.0
 11
645.774101
 21
1017.840288
 31
0.0
  0
LINE
  5
359F
  8
21
 10
639.774101
 20
1017.840288
 30
0.0
 11
632.774101
 21
1017.840288
 31
0.0
  0
LINE
  5
35A0
  8
21
 10
626.774101
 20
1017.840288
 30
0.0
 11
618.774101
 21
1017.840288
 31
0.0
  0
LINE
  5
35A1
  8
21
 10
626.774101
 20
1021.840288
 30
0.0
 11
618.774101
 21
1021.840288
 31
0.0
  0
LINE
  5
35A2
  8
21
 10
639.774101
 20
1021.840288
 30
0.0
 11
632.774101
 21
1021.840288
 31
0.0
  0
LINE
  5
35A3
  8
21
 10
653.774101
 20
1021.840288
 30
0.0
 11
645.774101
 21
1021.840288
 31
0.0
  0
LINE
  5
35A4
  8
21
 10
829.774101
 20
1021.840288
 30
0.0
 11
821.774101
 21
1021.840288
 31
0.0
  0
LINE
  5
35A5
  8
21
 10
815.774101
 20
1021.840288
 30
0.0
 11
808.774101
 21
1021.840288
 31
0.0
  0
LINE
  5
35A6
  8
21
 10
802.774101
 20
1021.840288
 30
0.0
 11
794.774101
 21
1021.840288
 31
0.0
  0
LINE
  5
35A7
  8
21
 10
788.774101
 20
1021.840288
 30
0.0
 11
659.774101
 21
1021.840288
 31
0.0
  0
LINE
  5
35A8
  8
21
 10
788.774101
 20
1017.840288
 30
0.0
 11
659.774101
 21
1017.840288
 31
0.0
  0
LINE
  5
35A9
  8
21
 10
802.774101
 20
1017.840288
 30
0.0
 11
794.774101
 21
1017.840288
 31
0.0
  0
LINE
  5
35AA
  8
21
 10
815.774101
 20
1017.840288
 30
0.0
 11
808.774101
 21
1017.840288
 31
0.0
  0
LINE
  5
35AB
  8
21
 10
829.774101
 20
1017.840288
 30
0.0
 11
821.774101
 21
1017.840288
 31
0.0
  0
LINE
  5
35AC
  8
21
 10
788.774101
 20
1017.840288
 30
0.0
 11
788.774101
 21
1021.840288
 31
0.0
  0
LINE
  5
35AD
  8
21
 10
794.774101
 20
1017.840288
 30
0.0
 11
794.774101
 21
1021.840288
 31
0.0
  0
LINE
  5
35AE
  8
21
 10
802.774101
 20
1017.840288
 30
0.0
 11
802.774101
 21
1021.840288
 31
0.0
  0
LINE
  5
35AF
  8
21
 10
808.774101
 20
1017.840288
 30
0.0
 11
808.774101
 21
1021.840288
 31
0.0
  0
LINE
  5
35B0
  8
21
 10
815.774101
 20
1017.840288
 30
0.0
 11
815.774101
 21
1021.840288
 31
0.0
  0
LINE
  5
35B1
  8
21
 10
821.774101
 20
1017.840288
 30
0.0
 11
821.774101
 21
1021.840288
 31
0.0
  0
LINE
  5
35B2
  8
21
 10
829.774101
 20
1017.840288
 30
0.0
 11
829.774101
 21
1021.840288
 31
0.0
  0
LINE
  5
35B3
  8
21
 10
835.774101
 20
1017.840288
 30
0.0
 11
835.774101
 21
1021.840288
 31
0.0
  0
LINE
  5
35B4
  8
21
 10
857.774101
 20
1017.840288
 30
0.0
 11
835.774101
 21
1017.840288
 31
0.0
  0
LINE
  5
35B5
  8
21
 10
857.774101
 20
1021.840288
 30
0.0
 11
835.774101
 21
1021.840288
 31
0.0
  0
LINE
  5
35B6
  8
21
 10
857.774101
 20
1015.840288
 30
0.0
 11
590.774101
 21
1015.840288
 31
0.0
  0
LINE
  5
35B7
  8
21
 10
845.843916
 20
1015.840288
 30
0.0
 11
847.065678
 21
875.840288
 31
0.0
  0
LINE
  5
35B8
  8
21
 10
849.774101
 20
873.840288
 30
0.0
 11
849.756648
 21
875.840211
 31
0.0
  0
LINE
  5
35B9
  8
21
 10
865.774101
 20
873.840288
 30
0.0
 11
865.791554
 21
875.840211
 31
0.0
  0
LINE
  5
35BB
  8
21
 10
868.482525
 20
875.840288
 30
0.0
 11
590.774101
 21
875.840288
 31
0.0
  0
LINE
  5
35BC
  8
21
 10
865.774101
 20
873.840288
 30
0.0
 11
849.774101
 21
873.840288
 31
0.0
  0
LINE
  5
35BD
  8
21
 10
869.774101
 20
1023.840288
 30
0.0
 11
868.482525
 21
875.840288
 31
0.0
  0
LINE
  5
35BE
  8
21
 10
869.774101
 20
1023.840288
 30
0.0
 11
590.774101
 21
1023.840288
 31
0.0
  0
LINE
  5
35BF
  8
21
 10
369.774101
 20
1015.840288
 30
0.0
 11
369.774101
 21
1003.840288
 31
0.0
  0
LINE
  5
35C0
  8
21
 10
337.774101
 20
1015.840288
 30
0.0
 11
337.774101
 21
1003.840288
 31
0.0
  0
LINE
  5
35C1
  8
21
 10
339.774101
 20
1001.840288
 30
0.0
 11
367.774101
 21
1001.840288
 31
0.0
  0
ARC
  5
35C2
  8
21
 10
367.774101
 20
1003.840288
 30
0.0
 40
2.0
 50
270.0
 51
0.0
  0
ARC
  5
35C3
  8
21
 10
339.774101
 20
1003.840288
 30
0.0
 40
2.0
 50
180.0
 51
270.0
  0
LINE
  5
35C9
  8
62
 10
453.593783
 20
554.658511
 30
0.0
 11
352.083105
 21
405.160338
 31
0.0
  0
LINE
  5
35CA
  8
62
 10
443.95442
 20
554.658511
 30
0.0
 11
345.426049
 21
409.598276
 31
0.0
  0
LINE
  5
35CB
  8
61
 10
445.831525
 20
555.658511
 30
0.0
 11
346.664848
 21
409.645774
 31
0.0
  0
LINE
  5
35CC
  8
61
 10
453.061048
 20
555.658511
 30
0.0
 11
351.654837
 21
406.313259
 31
0.0
  0
LINE
  5
35CD
  8
61
 10
728.487155
 20
555.658511
 30
0.0
 11
829.893366
 21
406.313259
 31
0.0
  0
LINE
  5
35CE
  8
61
 10
735.716677
 20
555.658511
 30
0.0
 11
834.883355
 21
409.645774
 31
0.0
  0
LINE
  5
35CF
  8
62
 10
737.593783
 20
554.658511
 30
0.0
 11
836.122154
 21
409.598276
 31
0.0
  0
LINE
  5
35D0
  8
62
 10
727.95442
 20
554.658511
 30
0.0
 11
829.465098
 21
405.160338
 31
0.0
  0
CIRCLE
  5
35D5
  8
61
 10
857.774101
 20
735.658511
 30
0.0
 40
10.125
  0
CIRCLE
  5
35D6
  8
61
 10
857.774101
 20
735.658511
 30
0.0
 40
6.75
  0
CIRCLE
  5
35D7
  8
61
 10
857.774101
 20
735.658511
 30
0.0
 40
7.5
  0
CIRCLE
  5
35D8
  8
61
 10
857.774101
 20
735.658511
 30
0.0
 40
3.5
  0
LINE
  5
35DE
  8
61
 10
590.774101
 20
747.658511
 30
0.0
 11
857.774101
 21
747.658511
 31
0.0
  0
ARC
  5
35E0
  8
61
 10
590.774101
 20
735.658511
 30
0.0
 40
3.5
 50
270.0
 51
90.0
  0
ARC
  5
35E1
  8
61
 10
590.774101
 20
735.658511
 30
0.0
 40
7.5
 50
270.0
 51
90.0
  0
ARC
  5
35E2
  8
61
 10
590.774101
 20
735.658511
 30
0.0
 40
6.75
 50
270.0
 51
90.0
  0
ARC
  5
35E3
  8
61
 10
590.774101
 20
735.658511
 30
0.0
 40
10.125
 50
270.0
 51
90.0
  0
LINE
  5
35E4
  8
61
 10
869.774101
 20
735.658511
 30
0.0
 11
869.774101
 21
558.658511
 31
0.0
  0
ARC
  5
35E5
  8
61
 10
857.774101
 20
735.658511
 30
0.0
 40
12.0
 50
360.0
 51
90.0
  0
LINE
  5
35E6
  8
61
 10
859.774101
 20
721.858511
 30
0.0
 11
859.774101
 21
558.658511
 31
0.0
  0
LINE
  5
35E7
  8
61
 10
604.574101
 20
737.658511
 30
0.0
 11
843.974101
 21
737.658511
 31
0.0
  0
LINE
  5
35E8
  8
61
 10
865.274101
 20
718.533511
 30
0.0
 11
865.274101
 21
558.658511
 31
0.0
  0
LINE
  5
35E9
  8
61
 10
863.274101
 20
718.158511
 30
0.0
 11
863.274101
 21
558.658511
 31
0.0
  0
LINE
  5
35EB
  8
61
 10
608.174101
 20
741.158511
 30
0.0
 11
840.274101
 21
741.158511
 31
0.0
  0
LINE
  5
35EC
  8
61
 10
608.299101
 20
743.158511
 30
0.0
 11
840.249101
 21
743.158511
 31
0.0
  0
ARC
  5
35ED
  8
61
 10
857.774101
 20
735.658511
 30
0.0
 40
12.0
 50
180.0
 51
270.0
  0
LINE
  5
35EE
  8
61
 10
857.774101
 20
723.658511
 30
0.0
 11
857.774101
 21
723.658511
 31
0.0
  0
LINE
  5
35EF
  8
61
 10
845.774101
 20
735.658511
 30
0.0
 11
845.774101
 21
735.658511
 31
0.0
  0
LINE
  5
35F0
  8
61
 10
857.774101
 20
725.533511
 30
0.0
 11
858.274101
 21
725.533511
 31
0.0
  0
LINE
  5
35F1
  8
61
 10
847.649101
 20
735.658511
 30
0.0
 11
847.649101
 21
736.158511
 31
0.0
  0
ARC
  5
35F2
  8
61
 10
858.274101
 20
718.533511
 30
0.0
 40
7.0
 50
360.0
 51
90.0
  0
ARC
  5
35F3
  8
61
 10
857.774101
 20
718.158511
 30
0.0
 40
5.5
 50
360.0
 51
90.0
  0
ARC
  5
35F4
  8
61
 10
840.274101
 20
735.658511
 30
0.0
 40
5.5
 50
0.0
 51
90.0
  0
LINE
  5
35F5
  8
61
 10
857.774101
 20
723.658511
 30
0.0
 11
857.974101
 21
723.658511
 31
0.0
  0
ARC
  5
35F6
  8
61
 10
857.974101
 20
721.858511
 30
0.0
 40
1.8
 50
360.0
 51
90.0
  0
LINE
  5
35F7
  8
61
 10
845.774101
 20
735.658511
 30
0.0
 11
845.774101
 21
735.858511
 31
0.0
  0
ARC
  5
35F8
  8
61
 10
843.974101
 20
735.858511
 30
0.0
 40
1.8
 50
360.0
 51
90.0
  0
ARC
  5
35FB
  8
61
 10
590.774101
 20
735.658511
 30
0.0
 40
12.0
 50
270.0
 51
360.0
  0
LINE
  5
35FC
  8
61
 10
602.774101
 20
735.658511
 30
0.0
 11
602.774101
 21
735.758511
 31
0.0
  0
LINE
  5
35FD
  8
61
 10
600.899101
 20
735.658511
 30
0.0
 11
600.899101
 21
735.758511
 31
0.0
  0
ARC
  5
35FE
  8
61
 10
608.299101
 20
735.758511
 30
0.0
 40
7.4
 50
90.0
 51
180.0
  0
ARC
  5
35FF
  8
61
 10
608.174101
 20
735.758511
 30
0.0
 40
5.4
 50
90.0
 51
180.0
  0
LINE
  5
3600
  8
61
 10
602.774101
 20
735.658511
 30
0.0
 11
602.774101
 21
735.858511
 31
0.0
  0
ARC
  5
3601
  8
61
 10
604.574101
 20
735.858511
 30
0.0
 40
1.8
 50
90.0
 51
180.0
  0
LINE
  5
360A
  8
62
 10
610.774101
 20
562.658511
 30
0.0
 11
727.95442
 21
562.658511
 31
0.0
  0
LINE
  5
360B
  8
61
 10
610.774101
 20
561.658511
 30
0.0
 11
728.487155
 21
561.658511
 31
0.0
  0
LINE
  5
360C
  8
61
 10
750.774101
 20
562.658511
 30
0.0
 11
748.12751
 21
561.658511
 31
0.0
  0
LINE
  5
360D
  8
61
 10
610.774101
 20
737.658511
 30
0.0
 11
610.774101
 21
561.658511
 31
0.0
  0
LINE
  5
360F
  8
62
 10
727.95442
 20
562.658511
 30
0.0
 11
829.465098
 21
712.156685
 31
0.0
  0
LINE
  5
3610
  8
62
 10
737.593783
 20
562.658511
 30
0.0
 11
836.122154
 21
707.718746
 31
0.0
  0
LINE
  5
3611
  8
61
 10
735.716677
 20
561.658511
 30
0.0
 11
834.883355
 21
707.671248
 31
0.0
  0
LINE
  5
3612
  8
61
 10
728.487155
 20
561.658511
 30
0.0
 11
829.893366
 21
711.003764
 31
0.0
  0
LINE
  5
3613
  8
61
 10
735.716677
 20
561.658511
 30
0.0
 11
748.12751
 21
561.658511
 31
0.0
  0
LINE
  5
3614
  8
62
 10
737.593783
 20
562.658511
 30
0.0
 11
750.774101
 21
562.658511
 31
0.0
  0
LINE
  5
3615
  8
62
 10
737.593783
 20
554.658511
 30
0.0
 11
750.774101
 21
554.658511
 31
0.0
  0
LINE
  5
3616
  8
61
 10
735.716677
 20
555.658511
 30
0.0
 11
748.12751
 21
555.658511
 31
0.0
  0
LINE
  5
3617
  8
61
 10
610.774101
 20
379.658511
 30
0.0
 11
610.774101
 21
555.658511
 31
0.0
  0
LINE
  5
3618
  8
61
 10
750.774101
 20
554.658511
 30
0.0
 11
748.12751
 21
555.658511
 31
0.0
  0
LINE
  5
3619
  8
61
 10
610.774101
 20
555.658511
 30
0.0
 11
728.487155
 21
555.658511
 31
0.0
  0
LINE
  5
361A
  8
62
 10
610.774101
 20
554.658511
 30
0.0
 11
727.95442
 21
554.658511
 31
0.0
  0
ARC
  5
361E
  8
61
 10
604.574101
 20
381.458511
 30
0.0
 40
1.8
 50
180.0
 51
270.0
  0
LINE
  5
361F
  8
61
 10
602.774101
 20
381.658511
 30
0.0
 11
602.774101
 21
381.458511
 31
0.0
  0
ARC
  5
3620
  8
61
 10
608.174101
 20
381.558511
 30
0.0
 40
5.4
 50
180.0
 51
270.0
  0
LINE
  5
3621
  8
61
 10
600.899101
 20
381.658511
 30
0.0
 11
600.899101
 21
381.558511
 31
0.0
  0
LINE
  5
3622
  8
61
 10
602.774101
 20
381.658511
 30
0.0
 11
602.774101
 21
381.558511
 31
0.0
  0
ARC
  5
3623
  8
61
 10
590.774101
 20
381.658511
 30
0.0
 40
12.0
 50
0.0
 51
90.0
  0
ARC
  5
3626
  8
61
 10
843.974101
 20
381.458511
 30
0.0
 40
1.8
 50
270.0
 51
0.0
  0
LINE
  5
3627
  8
61
 10
845.774101
 20
381.658511
 30
0.0
 11
845.774101
 21
381.458511
 31
0.0
  0
ARC
  5
3628
  8
61
 10
857.974101
 20
395.458511
 30
0.0
 40
1.8
 50
270.0
 51
0.0
  0
LINE
  5
3629
  8
61
 10
857.774101
 20
393.658511
 30
0.0
 11
857.974101
 21
393.658511
 31
0.0
  0
ARC
  5
362A
  8
61
 10
840.274101
 20
381.658511
 30
0.0
 40
5.5
 50
270.0
 51
360.0
  0
ARC
  5
362B
  8
61
 10
857.774101
 20
399.158511
 30
0.0
 40
5.5
 50
270.0
 51
0.0
  0
ARC
  5
362C
  8
61
 10
840.649101
 20
381.158511
 30
0.0
 40
7.0
 50
270.0
 51
360.0
  0
ARC
  5
362D
  8
61
 10
858.274101
 20
398.783511
 30
0.0
 40
7.0
 50
270.0
 51
0.0
  0
LINE
  5
362E
  8
61
 10
847.649101
 20
381.658511
 30
0.0
 11
847.649101
 21
381.158511
 31
0.0
  0
LINE
  5
362F
  8
61
 10
857.774101
 20
391.783511
 30
0.0
 11
858.274101
 21
391.783511
 31
0.0
  0
LINE
  5
3630
  8
61
 10
845.774101
 20
381.658511
 30
0.0
 11
845.774101
 21
381.658511
 31
0.0
  0
LINE
  5
3631
  8
61
 10
857.774101
 20
393.658511
 30
0.0
 11
857.774101
 21
393.658511
 31
0.0
  0
ARC
  5
3632
  8
61
 10
857.774101
 20
381.658511
 30
0.0
 40
12.0
 50
90.0
 51
180.0
  0
LINE
  5
3633
  8
61
 10
608.299101
 20
374.158511
 30
0.0
 11
840.649101
 21
374.158511
 31
0.0
  0
LINE
  5
3634
  8
61
 10
608.174101
 20
376.158511
 30
0.0
 11
840.274101
 21
376.158511
 31
0.0
  0
LINE
  5
3636
  8
61
 10
863.274101
 20
399.158511
 30
0.0
 11
863.274101
 21
558.658511
 31
0.0
  0
LINE
  5
3637
  8
61
 10
865.274101
 20
398.783511
 30
0.0
 11
865.274101
 21
558.658511
 31
0.0
  0
LINE
  5
3638
  8
61
 10
604.574101
 20
379.658511
 30
0.0
 11
843.974101
 21
379.658511
 31
0.0
  0
LINE
  5
3639
  8
61
 10
859.774101
 20
395.458511
 30
0.0
 11
859.774101
 21
558.658511
 31
0.0
  0
ARC
  5
363B
  8
61
 10
857.774101
 20
381.658511
 30
0.0
 40
12.0
 50
270.0
 51
0.0
  0
LINE
  5
363C
  8
61
 10
869.774101
 20
381.658511
 30
0.0
 11
869.774101
 21
558.658511
 31
0.0
  0
ARC
  5
363D
  8
61
 10
590.774101
 20
381.658511
 30
0.0
 40
10.125
 50
270.0
 51
90.0
  0
ARC
  5
363E
  8
61
 10
590.774101
 20
381.658511
 30
0.0
 40
6.75
 50
270.0
 51
90.0
  0
ARC
  5
363F
  8
61
 10
590.774101
 20
381.658511
 30
0.0
 40
7.5
 50
270.0
 51
90.0
  0
ARC
  5
3640
  8
61
 10
590.774101
 20
381.658511
 30
0.0
 40
3.5
 50
270.0
 51
90.0
  0
LINE
  5
3642
  8
61
 10
590.774101
 20
369.658511
 30
0.0
 11
857.774101
 21
369.658511
 31
0.0
  0
LINE
  5
3643
  8
63
  6
DASHDOT
 10
590.774101
 20
558.658511
 30
0.0
 11
879.774101
 21
558.658511
 31
0.0
  0
CIRCLE
  5
3648
  8
61
 10
857.774101
 20
381.658511
 30
0.0
 40
3.5
  0
CIRCLE
  5
3649
  8
61
 10
857.774101
 20
381.658511
 30
0.0
 40
7.5
  0
CIRCLE
  5
364A
  8
61
 10
857.774101
 20
381.658511
 30
0.0
 40
6.75
  0
CIRCLE
  5
364B
  8
61
 10
857.774101
 20
381.658511
 30
0.0
 40
10.125
  0
ARC
  5
364C
  8
41
 10
197.850941
 20
404.658511
 30
0.0
 40
19.5
 50
337.380135
 51
22.619865
  0
LINE
  5
364D
  8
41
 10
75.850941
 20
381.658511
 30
0.0
 11
75.850941
 21
558.658511
 31
0.0
  0
LINE
  5
364E
  8
41
 10
75.850941
 20
393.588696
 30
0.0
 11
215.850941
 21
392.366935
 31
0.0
  0
LINE
  5
364F
  8
41
 10
217.850941
 20
389.658511
 30
0.0
 11
215.851017
 21
389.675964
 31
0.0
  0
LINE
  5
3650
  8
41
 10
217.850941
 20
373.658511
 30
0.0
 11
215.851017
 21
373.641058
 31
0.0
  0
LINE
  5
3652
  8
41
 10
215.850941
 20
370.950088
 30
0.0
 11
215.850941
 21
558.658511
 31
0.0
  0
LINE
  5
3653
  8
41
 10
217.850941
 20
373.658511
 30
0.0
 11
217.850941
 21
389.658511
 31
0.0
  0
LINE
  5
3654
  8
41
 10
67.850941
 20
369.658511
 30
0.0
 11
215.850941
 21
370.950088
 31
0.0
  0
LINE
  5
3655
  8
41
 10
67.850941
 20
369.658511
 30
0.0
 11
67.850941
 21
558.658511
 31
0.0
  0
LINE
  5
3656
  8
43
  6
DASHDOT
 10
225.850941
 20
558.658511
 30
0.0
 11
57.114794
 21
558.658511
 31
0.0
  0
LINE
  5
3657
  8
21
 10
864.274101
 20
1026.840288
 30
0.0
 11
590.774101
 21
1026.840288
 31
0.0
  0
LINE
  5
3658
  8
21
 10
865.274101
 20
1023.840288
 30
0.0
 11
865.274101
 21
1025.840288
 31
0.0
  0
ARC
  5
3659
  8
21
 10
864.274101
 20
1025.840288
 30
0.0
 40
1.0
 50
0.0
 51
90.0
  0
LINE
  5
365A
  8
22
 10
844.870295
 20
1023.840288
 30
0.0
 11
844.870295
 21
1026.840288
 31
0.0
  0
ARC
  5
365B
  8
21
 10
317.274101
 20
1025.840288
 30
0.0
 40
1.0
 50
90.0
 51
180.0
  0
LINE
  5
365C
  8
21
 10
316.274101
 20
1023.840288
 30
0.0
 11
316.274101
 21
1025.840288
 31
0.0
  0
LINE
  5
365D
  8
21
 10
317.274101
 20
1026.840288
 30
0.0
 11
590.774101
 21
1026.840288
 31
0.0
  0
LINE
  5
36D2
  8
41
 10
64.850941
 20
375.158511
 30
0.0
 11
64.850941
 21
558.658511
 31
0.0
  0
LINE
  5
36D3
  8
41
 10
67.850941
 20
374.158511
 30
0.0
 11
65.850941
 21
374.158511
 31
0.0
  0
ARC
  5
36D4
  8
41
 10
65.850941
 20
375.158511
 30
0.0
 40
1.0
 50
180.0
 51
270.0
  0
LINE
  5
36D6
  8
42
 10
67.850941
 20
722.754705
 30
0.0
 11
64.850941
 21
722.754705
 31
0.0
  0
ARC
  5
36D7
  8
41
 10
65.850941
 20
742.158511
 30
0.0
 40
1.0
 50
90.0
 51
180.0
  0
LINE
  5
36D8
  8
41
 10
67.850941
 20
743.158511
 30
0.0
 11
65.850941
 21
743.158511
 31
0.0
  0
LINE
  5
36D9
  8
41
 10
64.850941
 20
742.158511
 30
0.0
 11
64.850941
 21
558.658511
 31
0.0
  0
LINE
  5
36DA
  8
41
 10
67.850941
 20
747.658511
 30
0.0
 11
67.850941
 21
743.158511
 31
0.0
  0
LINE
  5
36DB
  8
41
 10
67.850941
 20
747.658511
 30
0.0
 11
215.850941
 21
746.366935
 31
0.0
  0
LINE
  5
36DC
  8
41
 10
217.850941
 20
743.658511
 30
0.0
 11
217.850941
 21
727.658511
 31
0.0
  0
LINE
  5
36DD
  8
41
 10
215.850941
 20
746.366935
 30
0.0
 11
215.850941
 21
558.658511
 31
0.0
  0
LINE
  5
36DE
  8
41
 10
217.850941
 20
743.658511
 30
0.0
 11
215.851017
 21
743.675964
 31
0.0
  0
LINE
  5
36DF
  8
41
 10
217.850941
 20
727.658511
 30
0.0
 11
215.851017
 21
727.641058
 31
0.0
  0
LINE
  5
36E0
  8
41
 10
75.850941
 20
723.728326
 30
0.0
 11
215.850941
 21
724.950088
 31
0.0
  0
LINE
  5
36E1
  8
41
 10
75.850941
 20
735.658511
 30
0.0
 11
75.850941
 21
558.658511
 31
0.0
  0
ARC
  5
36E2
  8
41
 10
197.850941
 20
712.658511
 30
0.0
 40
19.5
 50
337.380135
 51
22.619865
  0
ARC
  5
36EA
  8
51
 10
-41.512644
 20
735.658511
 30
0.0
 40
12.0
 50
360.0
 51
90.0
  0
LINE
  5
36EB
  8
51
 10
-29.512644
 20
735.658511
 30
0.0
 11
-29.512644
 21
558.658511
 31
0.0
  0
ARC
  5
36EC
  8
51
 10
-308.512644
 20
735.658511
 30
0.0
 40
3.5
 50
270.0
 51
90.0
  0
LINE
  5
36EE
  8
51
 10
-308.512644
 20
747.658511
 30
0.0
 11
-41.512644
 21
747.658511
 31
0.0
  0
LINE
  5
36EF
  8
53
  6
DASHDOT
 10
-308.512644
 20
558.658511
 30
0.0
 11
-19.512644
 21
558.658511
 31
0.0
  0
CIRCLE
  5
36F4
  8
51
 10
-41.512644
 20
735.658511
 30
0.0
 40
3.5
  0
LINE
  5
36F6
  8
53
  6
DASHDOT
 10
-308.512644
 20
757.658511
 30
0.0
 11
-308.512644
 21
558.658511
 31
0.0
  0
CIRCLE
  5
36F8
  8
52
 10
-64.012644
 20
713.658511
 30
0.0
 40
7.5
  0
CIRCLE
  5
36F9
  8
51
 10
-41.512644
 20
735.658511
 30
0.0
 40
8.0
  0
CIRCLE
  5
3767
  8
52
 10
-274.012644
 20
713.658511
 30
0.0
 40
7.5
  0
ARC
  5
3768
  8
51
 10
-308.512644
 20
735.658511
 30
0.0
 40
8.0
 50
270.0
 51
90.0
  0
ARC
  5
3769
  8
51
 10
-308.512644
 20
735.658511
 30
0.0
 40
10.5
 50
20.691333
 51
90.0
  0
LINE
  5
376A
  8
51
 10
-298.689921
 20
739.368511
 30
0.0
 11
-51.335368
 21
739.368511
 31
0.0
  0
LINE
  5
376B
  8
51
 10
-37.802644
 20
725.835788
 30
0.0
 11
-37.802644
 21
558.658511
 31
0.0
  0
LINE
  5
376C
  8
52
 10
-35.602644
 20
726.979692
 30
0.0
 11
-35.602644
 21
558.658511
 31
0.0
  0
LINE
  5
376D
  8
52
 10
-299.833825
 20
741.568511
 30
0.0
 11
-50.191463
 21
741.568511
 31
0.0
  0
ARC
  5
376E
  8
51
 10
-41.512644
 20
735.658511
 30
0.0
 40
10.5
 50
290.691333
 51
159.308667
  0
LINE
  5
376F
  8
51
 10
-307.512644
 20
725.206239
 30
0.0
 11
-307.512644
 21
561.288511
 31
0.0
  0
LINE
  5
3770
  8
51
 10
-300.512644
 20
728.857776
 30
0.0
 11
-300.512644
 21
561.288511
 31
0.0
  0
LINE
  5
3771
  8
51
 10
-298.512644
 20
736.158511
 30
0.0
 11
-298.512644
 21
561.288511
 31
0.0
  0
LINE
  5
3772
  8
51
 10
-291.512644
 20
736.158511
 30
0.0
 11
-291.512644
 21
561.288511
 31
0.0
  0
LINE
  5
3773
  8
51
 10
-291.512644
 20
736.158511
 30
0.0
 11
-298.512644
 21
736.158511
 31
0.0
  0
ARC
  5
3774
  8
51
 10
-308.512644
 20
735.658511
 30
0.0
 40
10.5
 50
275.465024
 51
319.632406
  0
LINE
  5
3775
  8
52
 10
-291.512644
 20
562.408511
 30
0.0
 11
-192.012644
 21
562.408511
 31
0.0
  0
LINE
  5
3776
  8
51
 10
-308.512644
 20
561.288511
 30
0.0
 11
-192.012644
 21
561.288511
 31
0.0
  0
ARC
  5
3777
  8
51
 10
-192.012644
 20
558.658511
 30
0.0
 40
2.63
 50
0.0
 51
90.0
  0
ARC
  5
3778
  8
52
 10
-192.012644
 20
558.658511
 30
0.0
 40
3.75
 50
0.0
 51
90.0
  0
LINE
  5
3779
  8
52
 10
-307.512644
 20
563.288511
 30
0.0
 11
-300.512644
 21
563.288511
 31
0.0
  0
LINE
  5
377A
  8
52
 10
-298.512644
 20
563.288511
 30
0.0
 11
-291.512644
 21
563.288511
 31
0.0
  0
LINE
  5
377B
  8
52
 10
-298.512644
 20
554.028511
 30
0.0
 11
-291.512644
 21
554.028511
 31
0.0
  0
LINE
  5
377C
  8
52
 10
-307.512644
 20
554.028511
 30
0.0
 11
-300.512644
 21
554.028511
 31
0.0
  0
ARC
  5
377D
  8
52
 10
-192.012644
 20
558.658511
 30
0.0
 40
3.75
 50
270.0
 51
0.0
  0
ARC
  5
377E
  8
51
 10
-192.012644
 20
558.658511
 30
0.0
 40
2.63
 50
270.0
 51
0.0
  0
LINE
  5
377F
  8
51
 10
-308.512644
 20
556.028511
 30
0.0
 11
-192.012644
 21
556.028511
 31
0.0
  0
LINE
  5
3780
  8
52
 10
-291.512644
 20
554.908511
 30
0.0
 11
-192.012644
 21
554.908511
 31
0.0
  0
ARC
  5
3781
  8
51
 10
-308.512644
 20
381.658511
 30
0.0
 40
10.5
 50
40.367594
 51
84.534976
  0
LINE
  5
3782
  8
51
 10
-291.512644
 20
381.158511
 30
0.0
 11
-298.512644
 21
381.158511
 31
0.0
  0
LINE
  5
3783
  8
51
 10
-291.512644
 20
381.158511
 30
0.0
 11
-291.512644
 21
556.028511
 31
0.0
  0
LINE
  5
3784
  8
51
 10
-298.512644
 20
381.158511
 30
0.0
 11
-298.512644
 21
556.028511
 31
0.0
  0
LINE
  5
3785
  8
51
 10
-300.512644
 20
388.459247
 30
0.0
 11
-300.512644
 21
556.028511
 31
0.0
  0
LINE
  5
3786
  8
51
 10
-307.512644
 20
392.110784
 30
0.0
 11
-307.512644
 21
556.028511
 31
0.0
  0
ARC
  5
3787
  8
51
 10
-41.512644
 20
381.658511
 30
0.0
 40
10.5
 50
200.691333
 51
69.308667
  0
LINE
  5
3788
  8
52
 10
-299.833825
 20
375.748511
 30
0.0
 11
-50.191463
 21
375.748511
 31
0.0
  0
LINE
  5
3789
  8
52
 10
-35.602644
 20
390.33733
 30
0.0
 11
-35.602644
 21
558.658511
 31
0.0
  0
LINE
  5
378A
  8
51
 10
-37.802644
 20
391.481235
 30
0.0
 11
-37.802644
 21
558.658511
 31
0.0
  0
LINE
  5
378B
  8
51
 10
-298.689921
 20
377.948511
 30
0.0
 11
-51.335368
 21
377.948511
 31
0.0
  0
ARC
  5
378C
  8
51
 10
-308.512644
 20
381.658511
 30
0.0
 40
10.5
 50
270.0
 51
339.308667
  0
ARC
  5
378D
  8
51
 10
-308.512644
 20
381.658511
 30
0.0
 40
8.0
 50
270.0
 51
90.0
  0
CIRCLE
  5
378E
  8
52
 10
-274.012644
 20
403.658511
 30
0.0
 40
7.5
  0
CIRCLE
  5
378F
  8
51
 10
-41.512644
 20
381.658511
 30
0.0
 40
8.0
  0
CIRCLE
  5
3790
  8
52
 10
-64.012644
 20
403.658511
 30
0.0
 40
7.5
  0
LINE
  5
3792
  8
53
  6
DASHDOT
 10
-308.512644
 20
359.658511
 30
0.0
 11
-308.512644
 21
558.658511
 31
0.0
  0
CIRCLE
  5
3794
  8
51
 10
-41.512644
 20
381.658511
 30
0.0
 40
3.5
  0
LINE
  5
3799
  8
51
 10
-308.512644
 20
369.658511
 30
0.0
 11
-41.512644
 21
369.658511
 31
0.0
  0
ARC
  5
379B
  8
51
 10
-308.512644
 20
381.658511
 30
0.0
 40
3.5
 50
270.0
 51
90.0
  0
LINE
  5
379C
  8
51
 10
-29.512644
 20
381.658511
 30
0.0
 11
-29.512644
 21
558.658511
 31
0.0
  0
ARC
  5
379D
  8
51
 10
-41.512644
 20
381.658511
 30
0.0
 40
12.0
 50
270.0
 51
0.0
  0
ARC
  5
37AA
  8
51
 10
-575.512644
 20
381.658511
 30
0.0
 40
12.0
 50
180.0
 51
270.0
  0
LINE
  5
37AB
  8
51
 10
-587.512644
 20
381.658511
 30
0.0
 11
-587.512644
 21
558.658511
 31
0.0
  0
ARC
  5
37AC
  8
51
 10
-308.512644
 20
381.658511
 30
0.0
 40
3.5
 50
90.0
 51
270.0
  0
LINE
  5
37AE
  8
51
 10
-308.512644
 20
369.658511
 30
0.0
 11
-575.512644
 21
369.658511
 31
0.0
  0
CIRCLE
  5
37B3
  8
51
 10
-575.512644
 20
381.658511
 30
0.0
 40
3.5
  0
CIRCLE
  5
37B6
  8
52
 10
-553.012644
 20
403.658511
 30
0.0
 40
7.5
  0
CIRCLE
  5
37B7
  8
51
 10
-575.512644
 20
381.658511
 30
0.0
 40
8.0
  0
CIRCLE
  5
37B8
  8
52
 10
-343.012644
 20
403.658511
 30
0.0
 40
7.5
  0
ARC
  5
37B9
  8
51
 10
-308.512644
 20
381.658511
 30
0.0
 40
8.0
 50
90.0
 51
270.0
  0
ARC
  5
37BA
  8
51
 10
-308.512644
 20
381.658511
 30
0.0
 40
10.5
 50
200.691333
 51
270.0
  0
LINE
  5
37BB
  8
51
 10
-318.335368
 20
377.948511
 30
0.0
 11
-565.689921
 21
377.948511
 31
0.0
  0
LINE
  5
37BC
  8
51
 10
-579.222644
 20
391.481235
 30
0.0
 11
-579.222644
 21
558.658511
 31
0.0
  0
LINE
  5
37BD
  8
52
 10
-581.422644
 20
390.33733
 30
0.0
 11
-581.422644
 21
558.658511
 31
0.0
  0
LINE
  5
37BE
  8
52
 10
-317.191463
 20
375.748511
 30
0.0
 11
-566.833825
 21
375.748511
 31
0.0
  0
ARC
  5
37BF
  8
51
 10
-575.512644
 20
381.658511
 30
0.0
 40
10.5
 50
110.691333
 51
339.308667
  0
LINE
  5
37C0
  8
51
 10
-309.512644
 20
392.110784
 30
0.0
 11
-309.512644
 21
556.028511
 31
0.0
  0
LINE
  5
37C1
  8
51
 10
-316.512644
 20
388.459247
 30
0.0
 11
-316.512644
 21
556.028511
 31
0.0
  0
LINE
  5
37C2
  8
51
 10
-318.512644
 20
381.158511
 30
0.0
 11
-318.512644
 21
556.028511
 31
0.0
  0
LINE
  5
37C3
  8
51
 10
-325.512644
 20
381.158511
 30
0.0
 11
-325.512644
 21
556.028511
 31
0.0
  0
LINE
  5
37C4
  8
51
 10
-325.512644
 20
381.158511
 30
0.0
 11
-318.512644
 21
381.158511
 31
0.0
  0
ARC
  5
37C5
  8
51
 10
-308.512644
 20
381.658511
 30
0.0
 40
10.5
 50
95.465024
 51
139.632406
  0
LINE
  5
37C6
  8
52
 10
-325.512644
 20
554.908511
 30
0.0
 11
-425.012644
 21
554.908511
 31
0.0
  0
LINE
  5
37C7
  8
51
 10
-308.512644
 20
556.028511
 30
0.0
 11
-425.012644
 21
556.028511
 31
0.0
  0
ARC
  5
37C8
  8
51
 10
-425.012644
 20
558.658511
 30
0.0
 40
2.63
 50
180.0
 51
270.0
  0
ARC
  5
37C9
  8
52
 10
-425.012644
 20
558.658511
 30
0.0
 40
3.75
 50
180.0
 51
270.0
  0
LINE
  5
37CA
  8
52
 10
-309.512644
 20
554.028511
 30
0.0
 11
-316.512644
 21
554.028511
 31
0.0
  0
LINE
  5
37CB
  8
52
 10
-318.512644
 20
554.028511
 30
0.0
 11
-325.512644
 21
554.028511
 31
0.0
  0
LINE
  5
37CC
  8
52
 10
-318.512644
 20
563.288511
 30
0.0
 11
-325.512644
 21
563.288511
 31
0.0
  0
LINE
  5
37CD
  8
52
 10
-309.512644
 20
563.288511
 30
0.0
 11
-316.512644
 21
563.288511
 31
0.0
  0
ARC
  5
37CE
  8
52
 10
-425.012644
 20
558.658511
 30
0.0
 40
3.75
 50
90.0
 51
180.0
  0
ARC
  5
37CF
  8
51
 10
-425.012644
 20
558.658511
 30
0.0
 40
2.63
 50
90.0
 51
180.0
  0
LINE
  5
37D0
  8
51
 10
-308.512644
 20
561.288511
 30
0.0
 11
-425.012644
 21
561.288511
 31
0.0
  0
LINE
  5
37D1
  8
52
 10
-325.512644
 20
562.408511
 30
0.0
 11
-425.012644
 21
562.408511
 31
0.0
  0
ARC
  5
37D2
  8
51
 10
-308.512644
 20
735.658511
 30
0.0
 40
10.5
 50
220.367594
 51
264.534976
  0
LINE
  5
37D3
  8
51
 10
-325.512644
 20
736.158511
 30
0.0
 11
-318.512644
 21
736.158511
 31
0.0
  0
LINE
  5
37D4
  8
51
 10
-325.512644
 20
736.158511
 30
0.0
 11
-325.512644
 21
561.288511
 31
0.0
  0
LINE
  5
37D5
  8
51
 10
-318.512644
 20
736.158511
 30
0.0
 11
-318.512644
 21
561.288511
 31
0.0
  0
LINE
  5
37D6
  8
51
 10
-316.512644
 20
728.857776
 30
0.0
 11
-316.512644
 21
561.288511
 31
0.0
  0
LINE
  5
37D7
  8
51
 10
-309.512644
 20
725.206239
 30
0.0
 11
-309.512644
 21
561.288511
 31
0.0
  0
ARC
  5
37D8
  8
51
 10
-575.512644
 20
735.658511
 30
0.0
 40
10.5
 50
27.180809
 51
242.819191
  0
LINE
  5
37D9
  8
52
 10
-317.191463
 20
741.568511
 30
0.0
 11
-566.833825
 21
741.568511
 31
0.0
  0
LINE
  5
37DA
  8
52
 10
-581.422644
 20
726.979692
 30
0.0
 11
-581.422644
 21
558.658511
 31
0.0
  0
LINE
  5
37DB
  8
51
 10
-579.222644
 20
724.538894
 30
0.0
 11
-579.222644
 21
558.658511
 31
0.0
  0
LINE
  5
37DC
  8
51
 10
-318.335368
 20
739.368511
 30
0.0
 11
-564.393027
 21
739.368511
 31
0.0
  0
ARC
  5
37DD
  8
51
 10
-308.512644
 20
735.658511
 30
0.0
 40
10.5
 50
90.0
 51
159.308667
  0
ARC
  5
37DE
  8
51
 10
-308.512644
 20
735.658511
 30
0.0
 40
8.0
 50
90.0
 51
270.0
  0
CIRCLE
  5
37DF
  8
52
 10
-343.012644
 20
713.658511
 30
0.0
 40
7.5
  0
CIRCLE
  5
37E0
  8
51
 10
-575.512644
 20
735.658511
 30
0.0
 40
8.0
  0
CIRCLE
  5
37E1
  8
52
 10
-553.012644
 20
713.658511
 30
0.0
 40
7.5
  0
CIRCLE
  5
37E4
  8
51
 10
-575.512644
 20
735.658511
 30
0.0
 40
3.5
  0
LINE
  5
37E8
  8
53
  6
DASHDOT
 10
-308.512644
 20
558.658511
 30
0.0
 11
-597.512644
 21
558.658511
 31
0.0
  0
LINE
  5
37E9
  8
51
 10
-308.512644
 20
747.658511
 30
0.0
 11
-575.512644
 21
747.658511
 31
0.0
  0
ARC
  5
37EB
  8
51
 10
-308.512644
 20
735.658511
 30
0.0
 40
3.5
 50
90.0
 51
270.0
  0
LINE
  5
37EC
  8
51
 10
-587.512644
 20
735.658511
 30
0.0
 11
-587.512644
 21
558.658511
 31
0.0
  0
ARC
  5
37ED
  8
51
 10
-575.512644
 20
735.658511
 30
0.0
 40
12.0
 50
90.0
 51
180.0
  0
CIRCLE
  5
37F5
  8
51
 10
-163.512644
 20
558.658511
 30
0.0
 40
7.5
  0
CIRCLE
  5
37F6
  8
51
 10
-163.512644
 20
558.658511
 30
0.0
 40
3.5
  0
CIRCLE
  5
37F7
  8
51
 10
-453.512644
 20
558.658511
 30
0.0
 40
7.5
  0
CIRCLE
  5
37F8
  8
51
 10
-453.512644
 20
558.658511
 30
0.0
 40
3.5
  0
LINE
  5
38B0
  8
61
 10
847.649101
 20
735.658511
 30
0.0
 11
847.649101
 21
735.758511
 31
0.0
  0
ARC
  5
38B1
  8
61
 10
840.249101
 20
735.758511
 30
0.0
 40
7.4
 50
0.0
 51
90.0
  0
ARC
  5
38FE
  8
51
 10
-581.222644
 20
724.538894
 30
0.0
 40
2.0
 50
0.0
 51
62.819191
  0
ARC
  5
38FF
  8
51
 10
-564.393027
 20
741.368511
 30
0.0
 40
2.0
 50
207.180809
 51
270.0
  0
LINE
  5
3900
  8
53
 10
-163.512644
 20
558.658511
 30
0.0
 11
-163.512644
 21
525.98501
 31
0.0
  0
LINE
  5
3901
  8
53
 10
-163.512644
 20
558.658511
 30
0.0
 11
-163.512644
 21
590.893779
 31
0.0
  0
LINE
  5
3902
  8
53
 10
-453.512644
 20
558.658511
 30
0.0
 11
-453.512644
 21
525.98501
 31
0.0
  0
LINE
  5
3903
  8
53
 10
-453.512644
 20
558.658511
 30
0.0
 11
-453.512644
 21
590.893779
 31
0.0
  0
LINE
  5
3945
  8
21
 10
445.774101
 20
874.340288
 30
0.0
 11
552.866756
 21
874.340288
 31
0.0
  0
LINE
  5
3946
  8
21
 10
445.774101
 20
874.340288
 30
0.0
 11
445.642868
 21
875.840288
 31
0.0
  0
LINE
  5
3947
  8
21
 10
735.774101
 20
874.340288
 30
0.0
 11
735.905334
 21
875.840288
 31
0.0
  0
LINE
  5
3948
  8
21
 10
735.774101
 20
874.340288
 30
0.0
 11
628.681446
 21
874.340288
 31
0.0
  0
ARC
  5
3A4F
  8
41
 10
65.850941
 20
742.158511
 30
0.0
 40
1.0
 50
90.0
 51
180.0
  0
LINE
  5
3A50
  8
41
 10
67.850941
 20
747.658511
 30
0.0
 11
67.850941
 21
743.158511
 31
0.0
  0
LINE
  5
3A51
  8
41
 10
67.850941
 20
747.658511
 30
0.0
 11
69.913498
 21
747.658511
 31
0.0
  0
LINE
  5
3A54
  8
41
 10
64.850941
 20
742.158511
 30
0.0
 11
64.850941
 21
742.108511
 31
0.0
  0
LINE
  5
3A60
  8
41
 10
67.850941
 20
743.158511
 30
0.0
 11
67.850941
 21
558.658511
 31
0.0
  0
LINE
  5
3ADE
  8
51
 10
-291.512644
 20
734.158511
 30
0.0
 11
-298.512644
 21
734.158511
 31
0.0
  0
ARC
  5
3ADF
  8
51
 10
-308.512644
 20
735.658511
 30
0.0
 40
12.5
 50
275.465024
 51
309.791819
  0
ARC
  5
3AE0
  8
51
 10
-308.512644
 20
735.658511
 30
0.0
 40
12.5
 50
230.208181
 51
264.534976
  0
LINE
  5
3AE1
  8
51
 10
-325.512644
 20
734.158511
 30
0.0
 11
-318.512644
 21
734.158511
 31
0.0
  0
LINE
  5
3AE2
  8
51
 10
-291.512644
 20
383.158511
 30
0.0
 11
-298.512644
 21
383.158511
 31
0.0
  0
ARC
  5
3AE3
  8
51
 10
-308.512644
 20
381.658511
 30
0.0
 40
12.5
 50
50.208181
 51
84.534976
  0
ARC
  5
3AE4
  8
51
 10
-308.512644
 20
381.658511
 30
0.0
 40
12.5
 50
95.465024
 51
129.791819
  0
LINE
  5
3AE5
  8
51
 10
-325.512644
 20
383.158511
 30
0.0
 11
-318.512644
 21
383.158511
 31
0.0
  0
LINE
  5
3AF3
  8
63
  6
DASHDOT
 10
590.774101
 20
356.423947
 30
0.0
 11
590.774101
 21
558.658511
 31
0.0
  0
ARC
  5
3B00
  8
21
 10
497.774101
 20
1003.840288
 30
0.0
 40
2.0
 50
180.0
 51
270.0
  0
ARC
  5
3B01
  8
21
 10
525.774101
 20
1003.840288
 30
0.0
 40
2.0
 50
270.0
 51
0.0
  0
LINE
  5
3B02
  8
21
 10
497.774101
 20
1001.840288
 30
0.0
 11
525.774101
 21
1001.840288
 31
0.0
  0
LINE
  5
3B03
  8
21
 10
495.774101
 20
1015.840288
 30
0.0
 11
495.774101
 21
1003.840288
 31
0.0
  0
LINE
  5
3B04
  8
21
 10
527.774101
 20
1015.840288
 30
0.0
 11
527.774101
 21
1003.840288
 31
0.0
  0
LINE
  5
3BB2
  8
24
 10
610.576619
 20
879.831561
 30
0.0
 11
610.532677
 21
882.349014
 31
0.0
  0
LINE
  5
3BB3
  8
24
 10
571.006686
 20
879.835924
 30
0.0
 11
571.028503
 21
882.335924
 31
0.0
  0
LINE
  5
3BB4
  8
24
 10
571.528484
 20
882.840288
 30
0.0
 11
576.774101
 21
882.840288
 31
0.0
  0
LINE
  5
3BB5
  8
24
 10
570.506705
 20
879.340288
 30
0.0
 11
339.167452
 21
879.340288
 31
0.0
  0
LINE
  5
3BBE
  8
23
 10
590.774101
 20
873.840288
 30
0.0
 11
590.774101
 21
1039.874102
 31
0.0
  0
ARC
  5
3BCA
  8
24
 10
611.076543
 20
879.840288
 30
0.0
 40
0.5
 50
181.0
 51
270.0
  0
ARC
  5
3BCB
  8
24
 10
610.032753
 20
882.340288
 30
0.0
 40
0.5
 50
1.0
 51
90.0
  0
ARC
  5
3BCC
  8
24
 10
571.528484
 20
882.340288
 30
0.0
 40
0.5
 50
90.0
 51
180.5
  0
ARC
  5
3BCD
  8
24
 10
570.506705
 20
879.840288
 30
0.0
 40
0.5
 50
270.0
 51
359.5
  0
LINE
  5
3BD9
  8
24
 10
604.774101
 20
882.840288
 30
0.0
 11
610.032753
 21
882.840288
 31
0.0
  0
LINE
  5
3BDC
  8
24
 10
576.774101
 20
882.840288
 30
0.0
 11
604.774101
 21
882.840288
 31
0.0
  0
ARC
  5
3CF2
  8
21
 10
841.774101
 20
1003.840288
 30
0.0
 40
2.0
 50
270.0
 51
0.0
  0
ARC
  5
3CF3
  8
21
 10
813.774101
 20
1003.840288
 30
0.0
 40
2.0
 50
180.0
 51
270.0
  0
LINE
  5
3CF4
  8
21
 10
841.774101
 20
1001.840288
 30
0.0
 11
813.774101
 21
1001.840288
 31
0.0
  0
LINE
  5
3CF5
  8
21
 10
843.774101
 20
1015.840288
 30
0.0
 11
843.774101
 21
1003.840288
 31
0.0
  0
LINE
  5
3CF6
  8
21
 10
811.774101
 20
1015.840288
 30
0.0
 11
811.774101
 21
1003.840288
 31
0.0
  0
LINE
  5
3CF7
  8
21
 10
653.774101
 20
1015.840288
 30
0.0
 11
653.774101
 21
1003.840288
 31
0.0
  0
LINE
  5
3CF8
  8
21
 10
685.774101
 20
1015.840288
 30
0.0
 11
685.774101
 21
1003.840288
 31
0.0
  0
LINE
  5
3CF9
  8
21
 10
683.774101
 20
1001.840288
 30
0.0
 11
655.774101
 21
1001.840288
 31
0.0
  0
ARC
  5
3CFA
  8
21
 10
655.774101
 20
1003.840288
 30
0.0
 40
2.0
 50
180.0
 51
270.0
  0
ARC
  5
3CFB
  8
21
 10
683.774101
 20
1003.840288
 30
0.0
 40
2.0
 50
270.0
 51
0.0
  0
LINE
  5
3DB8
  8
61
 10
321.774101
 20
721.858511
 30
0.0
 11
321.774101
 21
558.658511
 31
0.0
  0
ARC
  5
3E22
  8
61
 10
608.299101
 20
381.558511
 30
0.0
 40
7.4
 50
180.0
 51
270.0
  0
CIRCLE
  5
3EE5
  8
61
 10
835.274101
 20
713.658511
 30
0.0
 40
6.0
  0
CIRCLE
  5
3EE6
  8
61
 10
835.274101
 20
713.658511
 30
0.0
 40
3.0
  0
CIRCLE
  5
3EE7
  8
61
 10
835.274101
 20
403.658511
 30
0.0
 40
6.0
  0
CIRCLE
  5
3EE8
  8
61
 10
835.274101
 20
403.658511
 30
0.0
 40
3.0
  0
CIRCLE
  5
3EE9
  8
61
 10
625.274101
 20
403.658511
 30
0.0
 40
3.0
  0
CIRCLE
  5
3EEA
  8
61
 10
625.274101
 20
403.658511
 30
0.0
 40
6.0
  0
CIRCLE
  5
3EEB
  8
61
 10
625.274101
 20
403.658511
 30
0.0
 40
3.0
  0
CIRCLE
  5
3EEC
  8
61
 10
625.274101
 20
403.658511
 30
0.0
 40
6.0
  0
CIRCLE
  5
3EED
  8
61
 10
556.274101
 20
403.658511
 30
0.0
 40
6.0
  0
CIRCLE
  5
3EEE
  8
61
 10
556.274101
 20
403.658511
 30
0.0
 40
3.0
  0
CIRCLE
  5
3EEF
  8
61
 10
625.274101
 20
713.658511
 30
0.0
 40
3.0
  0
CIRCLE
  5
3EF0
  8
61
 10
625.274101
 20
713.658511
 30
0.0
 40
6.0
  0
CIRCLE
  5
3EF1
  8
61
 10
556.274101
 20
713.658511
 30
0.0
 40
3.0
  0
CIRCLE
  5
3EF2
  8
61
 10
556.274101
 20
713.658511
 30
0.0
 40
6.0
  0
CIRCLE
  5
3EF3
  8
61
 10
346.274101
 20
713.658511
 30
0.0
 40
6.0
  0
CIRCLE
  5
3EF4
  8
61
 10
346.274101
 20
713.658511
 30
0.0
 40
3.0
  0
CIRCLE
  5
3EF5
  8
61
 10
346.274101
 20
403.658511
 30
0.0
 40
6.0
  0
CIRCLE
  5
3EF6
  8
61
 10
346.274101
 20
403.658511
 30
0.0
 40
3.0
  0
CIRCLE
  5
3EF9
  8
51
 10
-163.512644
 20
558.658511
 30
0.0
 40
19.0
  0
CIRCLE
  5
3F06
  8
51
 10
-453.512644
 20
558.658511
 30
0.0
 40
19.0
  0
LINE
  5
3F17
  8
62
 10
839.267244
 20
718.136772
 30
0.0
 11
839.262229
 21
737.658511
 31
0.0
  0
LINE
  5
3F18
  8
61
 10
838.269871
 20
718.857104
 30
0.0
 11
838.264279
 21
737.658511
 31
0.0
  0
LINE
  5
3F19
  8
61
 10
832.271972
 20
718.853434
 30
0.0
 11
832.264328
 21
737.658511
 31
0.0
  0
LINE
  5
3F1A
  8
62
 10
831.27024
 20
718.12719
 30
0.0
 11
831.262357
 21
737.658511
 31
0.0
  0
LINE
  5
3F1B
  8
62
 10
350.267244
 20
718.136772
 30
0.0
 11
350.262229
 21
737.658511
 31
0.0
  0
LINE
  5
3F1C
  8
61
 10
349.269871
 20
718.857104
 30
0.0
 11
349.264279
 21
737.658511
 31
0.0
  0
LINE
  5
3F1D
  8
61
 10
343.271972
 20
718.853434
 30
0.0
 11
343.264328
 21
737.658511
 31
0.0
  0
LINE
  5
3F1E
  8
62
 10
342.27024
 20
718.12719
 30
0.0
 11
342.262357
 21
737.658511
 31
0.0
  0
LINE
  5
3F1F
  8
61
 10
349.269871
 20
398.459919
 30
0.0
 11
349.264279
 21
379.658511
 31
0.0
  0
LINE
  5
3F20
  8
61
 10
343.271972
 20
398.463589
 30
0.0
 11
343.264328
 21
379.658511
 31
0.0
  0
LINE
  5
3F21
  8
62
 10
342.27024
 20
399.189832
 30
0.0
 11
342.262357
 21
379.658511
 31
0.0
  0
LINE
  5
3F22
  8
62
 10
350.267244
 20
399.180251
 30
0.0
 11
350.262229
 21
379.658511
 31
0.0
  0
LINE
  5
3F23
  8
62
 10
839.267244
 20
399.180251
 30
0.0
 11
839.262229
 21
379.658511
 31
0.0
  0
LINE
  5
3F24
  8
61
 10
838.269871
 20
398.459919
 30
0.0
 11
838.264279
 21
379.658511
 31
0.0
  0
LINE
  5
3F25
  8
62
 10
831.27024
 20
399.189832
 30
0.0
 11
831.262357
 21
379.658511
 31
0.0
  0
LINE
  5
3F26
  8
61
 10
832.271972
 20
398.463589
 30
0.0
 11
832.264328
 21
379.658511
 31
0.0
  0
LINE
  5
3F27
  8
21
 10
559.681446
 20
874.340288
 30
0.0
 11
582.769738
 21
874.340288
 31
0.0
  0
LINE
  5
3F28
  8
21
 10
621.866756
 20
874.340288
 30
0.0
 11
598.778465
 21
874.340288
 31
0.0
  0
ARC
  5
3F29
  8
62
 10
445.774101
 20
558.658511
 30
0.0
 40
19.0
 50
12.153197
 51
96.870304
  0
ARC
  5
3F2A
  8
62
 10
735.774101
 20
558.658511
 30
0.0
 40
19.0
 50
192.153197
 51
276.870304
  0
ARC
  5
3F2B
  8
62
 10
735.774101
 20
558.658511
 30
0.0
 40
19.0
 50
301.946566
 51
58.053434
  0
ARC
  5
3F2C
  8
62
 10
735.774101
 20
558.658511
 30
0.0
 40
19.0
 50
83.129696
 51
167.846803
  0
ARC
  5
3F2D
  8
62
 10
445.774101
 20
558.658511
 30
0.0
 40
19.0
 50
263.129696
 51
347.846803
  0
ARC
  5
3F2E
  8
62
 10
445.774101
 20
558.658511
 30
0.0
 40
19.0
 50
121.946566
 51
238.053434
  0
ARC
  5
3F9C
  8
44
 10
206.850941
 20
397.021318
 30
0.0
 40
2.0
 50
270.5
 51
0.0
  0
LINE
  5
3F9E
  8
44
 10
64.850941
 20
393.782026
 30
0.0
 11
206.868394
 21
395.021394
 31
0.0
  0
LINE
  5
3F9F
  8
44
 10
208.850941
 20
558.658511
 30
0.0
 11
208.850941
 21
397.021318
 31
0.0
  0
LINE
  5
3FA0
  8
44
 10
208.850941
 20
558.658511
 30
0.0
 11
208.850941
 21
720.295705
 31
0.0
  0
LINE
  5
3FA1
  8
44
 10
64.850941
 20
723.534996
 30
0.0
 11
206.868394
 21
722.295629
 31
0.0
  0
ARC
  5
3FA2
  8
44
 10
206.850941
 20
720.295705
 30
0.0
 40
2.0
 50
360.0
 51
89.5
  0
ARC
  5
3FA4
  8
61
 10
341.274101
 20
735.658511
 30
0.0
 40
5.5
 50
90.0
 51
180.0
  0
ARC
  5
3FA8
  8
61
 10
340.891801
 20
736.158511
 30
0.0
 40
7.0
 50
90.0
 51
181.673107
  0
LINE
  5
3FD1
  8
24
 10
350.230391
 20
879.340288
 30
0.0
 11
339.167452
 21
879.340288
 31
0.0
  0
ARC
  5
3FD5
  8
24
 10
335.104567
 20
1026.040288
 30
0.0
 40
0.8
 50
0.5
 51
90.0
  0
LINE
  5
3FD6
  8
24
 10
335.904537
 20
1026.047269
 30
0.0
 11
337.167528
 21
881.322835
 31
0.0
  0
ARC
  5
3FD7
  8
24
 10
339.167452
 20
881.340288
 30
0.0
 40
2.0
 50
180.5
 51
270.0
  0
ARC
  5
3FD9
  8
24
 10
633.317812
 20
881.340288
 30
0.0
 40
2.0
 50
180.5
 51
270.0
  0
LINE
  5
3FDA
  8
24
 10
628.274101
 20
886.340288
 30
0.0
 11
630.28279
 21
886.340288
 31
0.0
  0
LINE
  5
3FDB
  8
24
 10
620.265413
 20
886.340288
 30
0.0
 11
622.274101
 21
886.340288
 31
0.0
  0
ARC
  5
3FDF
  8
24
 10
630.28279
 20
885.340288
 30
0.0
 40
1.0
 50
0.5
 51
90.0
  0
ARC
  5
3FE0
  8
24
 10
620.265413
 20
885.340288
 30
0.0
 40
1.0
 50
90.0
 51
179.5
  0
LINE
  5
3FE2
  8
24
 10
628.274101
 20
886.340288
 30
0.0
 11
622.274101
 21
886.340288
 31
0.0
  0
LINE
  5
3FE3
  8
24
 10
631.282752
 20
885.349014
 30
0.0
 11
631.317888
 21
881.322835
 31
0.0
  0
LINE
  5
3FE4
  8
24
 10
619.265451
 20
885.349014
 30
0.0
 11
619.230315
 21
881.322835
 31
0.0
  0
ARC
  5
3FE8
  8
24
 10
606.136908
 20
884.840288
 30
0.0
 40
2.0
 50
180.5
 51
270.0
  0
ARC
  5
3FE9
  8
24
 10
602.104567
 20
1026.040288
 30
0.0
 40
0.8
 50
0.5
 51
90.0
  0
LINE
  5
3FEA
  8
24
 10
602.904537
 20
1026.047269
 30
0.0
 11
604.136984
 21
884.822835
 31
0.0
  0
ARC
  5
4000
  8
24
 10
617.230391
 20
881.340288
 30
0.0
 40
2.0
 50
270.0
 51
359.5
  0
LINE
  5
4001
  8
24
 10
845.643666
 20
1026.047269
 30
0.0
 11
844.380675
 21
881.322835
 31
0.0
  0
ARC
  5
4002
  8
24
 10
842.380751
 20
881.340288
 30
0.0
 40
2.0
 50
270.0
 51
359.5
  0
LINE
  5
4003
  8
24
 10
611.041498
 20
879.340288
 30
0.0
 11
842.380751
 21
879.340288
 31
0.0
  0
ARC
  5
4004
  8
24
 10
611.041498
 20
879.840288
 30
0.0
 40
0.5
 50
180.5
 51
270.0
  0
LINE
  5
4005
  8
24
 10
604.774101
 20
882.840288
 30
0.0
 11
576.774101
 21
882.840288
 31
0.0
  0
ARC
  5
4006
  8
24
 10
610.019719
 20
882.340288
 30
0.0
 40
0.5
 50
359.5
 51
90.0
  0
LINE
  5
4007
  8
24
 10
578.643666
 20
1026.047269
 30
0.0
 11
577.411219
 21
884.822835
 31
0.0
  0
ARC
  5
4008
  8
24
 10
579.443635
 20
1026.040288
 30
0.0
 40
0.8
 50
90.0
 51
179.5
  0
ARC
  5
4009
  8
24
 10
846.443635
 20
1026.040288
 30
0.0
 40
0.8
 50
90.0
 51
179.5
  0
ARC
  5
400A
  8
24
 10
575.411295
 20
884.840288
 30
0.0
 40
2.0
 50
270.0
 51
359.5
  0
ARC
  5
400C
  8
44
 10
206.850941
 20
395.614801
 30
0.0
 40
2.0
 50
0.0
 51
89.5
  0
LINE
  5
400D
  8
44
 10
202.842214
 20
397.649861
 30
0.0
 11
206.868394
 21
397.614725
 31
0.0
  0
LINE
  5
400E
  8
44
 10
202.842214
 20
409.667162
 30
0.0
 11
206.868394
 21
409.702298
 31
0.0
  0
LINE
  5
400F
  8
44
 10
201.850941
 20
406.658511
 30
0.0
 11
201.850941
 21
400.658511
 31
0.0
  0
ARC
  5
4010
  8
44
 10
202.850941
 20
398.649823
 30
0.0
 40
1.0
 50
180.0
 51
269.5
  0
ARC
  5
4011
  8
44
 10
202.850941
 20
408.6672
 30
0.0
 40
1.0
 50
90.5
 51
180.0
  0
LINE
  5
4015
  8
44
 10
201.850941
 20
398.649823
 30
0.0
 11
201.850941
 21
400.658511
 31
0.0
  0
LINE
  5
4016
  8
44
 10
201.850941
 20
406.658511
 30
0.0
 11
201.850941
 21
408.6672
 31
0.0
  0
ARC
  5
4017
  8
44
 10
206.850941
 20
411.702222
 30
0.0
 40
2.0
 50
270.5
 51
0.0
  0
ARC
  5
4018
  8
34
 10
974.697262
 20
411.702222
 30
0.0
 40
2.0
 50
180.0
 51
269.5
  0
LINE
  5
4019
  8
34
 10
979.697262
 20
406.658511
 30
0.0
 11
979.697262
 21
408.6672
 31
0.0
  0
LINE
  5
401A
  8
34
 10
979.697262
 20
398.649823
 30
0.0
 11
979.697262
 21
400.658511
 31
0.0
  0
ARC
  5
401B
  8
34
 10
978.697262
 20
408.6672
 30
0.0
 40
1.0
 50
0.0
 51
89.5
  0
ARC
  5
401C
  8
34
 10
978.697262
 20
398.649823
 30
0.0
 40
1.0
 50
270.5
 51
0.0
  0
LINE
  5
401D
  8
34
 10
979.697262
 20
406.658511
 30
0.0
 11
979.697262
 21
400.658511
 31
0.0
  0
LINE
  5
401E
  8
34
 10
978.705988
 20
409.667162
 30
0.0
 11
974.679809
 21
409.702298
 31
0.0
  0
LINE
  5
401F
  8
34
 10
978.705988
 20
397.649861
 30
0.0
 11
974.679809
 21
397.614725
 31
0.0
  0
ARC
  5
4020
  8
34
 10
974.697262
 20
395.614801
 30
0.0
 40
2.0
 50
90.5
 51
180.0
  0
ARC
  5
4021
  8
34
 10
974.697262
 20
720.295705
 30
0.0
 40
2.0
 50
90.5
 51
180.0
  0
LINE
  5
4022
  8
34
 10
1116.697262
 20
723.534996
 30
0.0
 11
974.679809
 21
722.295629
 31
0.0
  0
LINE
  5
4023
  8
34
 10
972.697262
 20
558.658511
 30
0.0
 11
972.697262
 21
720.295705
 31
0.0
  0
LINE
  5
4024
  8
34
 10
972.697262
 20
558.658511
 30
0.0
 11
972.697262
 21
397.021318
 31
0.0
  0
LINE
  5
4025
  8
34
 10
1116.697262
 20
393.782026
 30
0.0
 11
974.679809
 21
395.021394
 31
0.0
  0
ARC
  5
4027
  8
34
 10
974.697262
 20
397.021318
 30
0.0
 40
2.0
 50
180.0
 51
269.5
  0
LINE
  5
403B
  8
31
 10
1113.697262
 20
743.158511
 30
0.0
 11
1113.697262
 21
558.658511
 31
0.0
  0
LINE
  5
4047
  8
31
 10
1116.697262
 20
742.158511
 30
0.0
 11
1116.697262
 21
742.108511
 31
0.0
  0
LINE
  5
404A
  8
31
 10
1113.697262
 20
747.658511
 30
0.0
 11
1111.634705
 21
747.658511
 31
0.0
  0
LINE
  5
404B
  8
31
 10
1113.697262
 20
747.658511
 30
0.0
 11
1113.697262
 21
743.158511
 31
0.0
  0
ARC
  5
404C
  8
31
 10
1115.697262
 20
742.158511
 30
0.0
 40
1.0
 50
0.0
 51
90.0
  0
ARC
  5
404E
  8
31
 10
983.697262
 20
712.658511
 30
0.0
 40
19.5
 50
157.380135
 51
202.619865
  0
LINE
  5
404F
  8
31
 10
1105.697262
 20
735.658511
 30
0.0
 11
1105.697262
 21
558.658511
 31
0.0
  0
LINE
  5
4050
  8
31
 10
1105.697262
 20
723.728326
 30
0.0
 11
965.697262
 21
724.950088
 31
0.0
  0
LINE
  5
4051
  8
31
 10
963.697262
 20
727.658511
 30
0.0
 11
965.697186
 21
727.641058
 31
0.0
  0
LINE
  5
4052
  8
31
 10
963.697262
 20
743.658511
 30
0.0
 11
965.697186
 21
743.675964
 31
0.0
  0
LINE
  5
4053
  8
31
 10
965.697262
 20
746.366935
 30
0.0
 11
965.697262
 21
558.658511
 31
0.0
  0
LINE
  5
4054
  8
31
 10
963.697262
 20
743.658511
 30
0.0
 11
963.697262
 21
727.658511
 31
0.0
  0
LINE
  5
4055
  8
31
 10
1113.697262
 20
747.658511
 30
0.0
 11
965.697262
 21
746.366935
 31
0.0
  0
LINE
  5
4056
  8
31
 10
1113.697262
 20
747.658511
 30
0.0
 11
1113.697262
 21
743.158511
 31
0.0
  0
LINE
  5
4057
  8
31
 10
1116.697262
 20
742.158511
 30
0.0
 11
1116.697262
 21
558.658511
 31
0.0
  0
LINE
  5
4058
  8
31
 10
1113.697262
 20
743.158511
 30
0.0
 11
1115.697262
 21
743.158511
 31
0.0
  0
ARC
  5
4059
  8
31
 10
1115.697262
 20
742.158511
 30
0.0
 40
1.0
 50
360.0
 51
90.0
  0
LINE
  5
405A
  8
32
 10
1113.697262
 20
722.754705
 30
0.0
 11
1116.697262
 21
722.754705
 31
0.0
  0
ARC
  5
405B
  8
31
 10
1115.697262
 20
375.158511
 30
0.0
 40
1.0
 50
270.0
 51
0.0
  0
LINE
  5
405C
  8
31
 10
1113.697262
 20
374.158511
 30
0.0
 11
1115.697262
 21
374.158511
 31
0.0
  0
LINE
  5
405D
  8
31
 10
1116.697262
 20
375.158511
 30
0.0
 11
1116.697262
 21
558.658511
 31
0.0
  0
LINE
  5
405E
  8
33
  6
DASHDOT
 10
955.697262
 20
558.658511
 30
0.0
 11
1124.433409
 21
558.658511
 31
0.0
  0
LINE
  5
405F
  8
31
 10
1113.697262
 20
369.658511
 30
0.0
 11
1113.697262
 21
558.658511
 31
0.0
  0
LINE
  5
4060
  8
31
 10
1113.697262
 20
369.658511
 30
0.0
 11
965.697262
 21
370.950088
 31
0.0
  0
LINE
  5
4061
  8
31
 10
963.697262
 20
373.658511
 30
0.0
 11
963.697262
 21
389.658511
 31
0.0
  0
LINE
  5
4062
  8
31
 10
965.697262
 20
370.950088
 30
0.0
 11
965.697262
 21
558.658511
 31
0.0
  0
LINE
  5
4064
  8
31
 10
963.697262
 20
373.658511
 30
0.0
 11
965.697186
 21
373.641058
 31
0.0
  0
LINE
  5
4065
  8
31
 10
963.697262
 20
389.658511
 30
0.0
 11
965.697186
 21
389.675964
 31
0.0
  0
LINE
  5
4066
  8
31
 10
1105.697262
 20
393.588696
 30
0.0
 11
965.697262
 21
392.366935
 31
0.0
  0
LINE
  5
4067
  8
31
 10
1105.697262
 20
381.658511
 30
0.0
 11
1105.697262
 21
558.658511
 31
0.0
  0
ARC
  5
4068
  8
31
 10
983.697262
 20
404.658511
 30
0.0
 40
19.5
 50
157.380135
 51
202.619865
  0
ARC
  5
4069
  8
14
 10
575.411295
 20
232.476735
 30
0.0
 40
2.0
 50
0.5
 51
90.0
  0
ARC
  5
406A
  8
14
 10
846.443635
 20
91.276735
 30
0.0
 40
0.8
 50
180.5
 51
270.0
  0
ARC
  5
406B
  8
14
 10
579.443635
 20
91.276735
 30
0.0
 40
0.8
 50
180.5
 51
270.0
  0
LINE
  5
406C
  8
14
 10
578.643666
 20
91.269754
 30
0.0
 11
577.411219
 21
232.494188
 31
0.0
  0
ARC
  5
406D
  8
14
 10
610.019719
 20
234.976735
 30
0.0
 40
0.5
 50
270.0
 51
0.5
  0
LINE
  5
406E
  8
14
 10
604.774101
 20
234.476735
 30
0.0
 11
576.774101
 21
234.476735
 31
0.0
  0
ARC
  5
406F
  8
14
 10
611.041498
 20
237.476735
 30
0.0
 40
0.5
 50
90.0
 51
179.5
  0
LINE
  5
4070
  8
14
 10
611.041498
 20
237.976735
 30
0.0
 11
842.380751
 21
237.976735
 31
0.0
  0
ARC
  5
4071
  8
14
 10
842.380751
 20
235.976735
 30
0.0
 40
2.0
 50
0.5
 51
90.0
  0
LINE
  5
4072
  8
14
 10
845.643666
 20
91.269754
 30
0.0
 11
844.380675
 21
235.994188
 31
0.0
  0
ARC
  5
4073
  8
14
 10
617.230391
 20
235.976735
 30
0.0
 40
2.0
 50
0.5
 51
90.0
  0
LINE
  5
4074
  8
14
 10
602.904537
 20
91.269754
 30
0.0
 11
604.136984
 21
232.494188
 31
0.0
  0
ARC
  5
4075
  8
14
 10
602.104567
 20
91.276735
 30
0.0
 40
0.8
 50
270.0
 51
359.5
  0
ARC
  5
4076
  8
14
 10
606.136908
 20
232.476735
 30
0.0
 40
2.0
 50
90.0
 51
179.5
  0
LINE
  5
4077
  8
14
 10
619.265451
 20
231.968009
 30
0.0
 11
619.230315
 21
235.994188
 31
0.0
  0
LINE
  5
4078
  8
14
 10
631.282752
 20
231.968009
 30
0.0
 11
631.317888
 21
235.994188
 31
0.0
  0
LINE
  5
4079
  8
14
 10
628.274101
 20
230.976735
 30
0.0
 11
622.274101
 21
230.976735
 31
0.0
  0
ARC
  5
407A
  8
14
 10
620.265413
 20
231.976735
 30
0.0
 40
1.0
 50
180.5
 51
270.0
  0
ARC
  5
407B
  8
14
 10
630.28279
 20
231.976735
 30
0.0
 40
1.0
 50
270.0
 51
359.5
  0
LINE
  5
407C
  8
14
 10
620.265413
 20
230.976735
 30
0.0
 11
622.274101
 21
230.976735
 31
0.0
  0
LINE
  5
407D
  8
14
 10
628.274101
 20
230.976735
 30
0.0
 11
630.28279
 21
230.976735
 31
0.0
  0
ARC
  5
407E
  8
14
 10
633.317812
 20
235.976735
 30
0.0
 40
2.0
 50
90.0
 51
179.5
  0
ARC
  5
407F
  8
14
 10
339.167452
 20
235.976735
 30
0.0
 40
2.0
 50
90.0
 51
179.5
  0
LINE
  5
4080
  8
14
 10
335.904537
 20
91.269754
 30
0.0
 11
337.167528
 21
235.994188
 31
0.0
  0
ARC
  5
4081
  8
14
 10
335.104567
 20
91.276735
 30
0.0
 40
0.8
 50
270.0
 51
359.5
  0
LINE
  5
4082
  8
14
 10
350.230391
 20
237.976735
 30
0.0
 11
339.167452
 21
237.976735
 31
0.0
  0
LINE
  5
4083
  8
11
 10
621.866756
 20
242.976735
 30
0.0
 11
598.778465
 21
242.976735
 31
0.0
  0
LINE
  5
4084
  8
11
 10
559.681446
 20
242.976735
 30
0.0
 11
582.769738
 21
242.976735
 31
0.0
  0
ARC
  5
4086
  8
11
 10
683.774101
 20
113.476735
 30
0.0
 40
2.0
 50
0.0
 51
90.0
  0
ARC
  5
4087
  8
11
 10
655.774101
 20
113.476735
 30
0.0
 40
2.0
 50
90.0
 51
180.0
  0
LINE
  5
4088
  8
11
 10
683.774101
 20
115.476735
 30
0.0
 11
655.774101
 21
115.476735
 31
0.0
  0
LINE
  5
4089
  8
11
 10
685.774101
 20
101.476735
 30
0.0
 11
685.774101
 21
113.476735
 31
0.0
  0
LINE
  5
408A
  8
11
 10
653.774101
 20
101.476735
 30
0.0
 11
653.774101
 21
113.476735
 31
0.0
  0
LINE
  5
408B
  8
11
 10
811.774101
 20
101.476735
 30
0.0
 11
811.774101
 21
113.476735
 31
0.0
  0
LINE
  5
408C
  8
11
 10
843.774101
 20
101.476735
 30
0.0
 11
843.774101
 21
113.476735
 31
0.0
  0
LINE
  5
408D
  8
11
 10
841.774101
 20
115.476735
 30
0.0
 11
813.774101
 21
115.476735
 31
0.0
  0
ARC
  5
408E
  8
11
 10
813.774101
 20
113.476735
 30
0.0
 40
2.0
 50
90.0
 51
180.0
  0
ARC
  5
408F
  8
11
 10
841.774101
 20
113.476735
 30
0.0
 40
2.0
 50
0.0
 51
90.0
  0
LINE
  5
4090
  8
14
 10
576.774101
 20
234.476735
 30
0.0
 11
604.774101
 21
234.476735
 31
0.0
  0
LINE
  5
4091
  8
14
 10
604.774101
 20
234.476735
 30
0.0
 11
610.032753
 21
234.476735
 31
0.0
  0
ARC
  5
4092
  8
14
 10
570.506705
 20
237.476735
 30
0.0
 40
0.5
 50
0.5
 51
90.0
  0
ARC
  5
4093
  8
14
 10
571.528484
 20
234.976735
 30
0.0
 40
0.5
 50
179.5
 51
270.0
  0
ARC
  5
4094
  8
14
 10
610.032753
 20
234.976735
 30
0.0
 40
0.5
 50
270.0
 51
359.0
  0
ARC
  5
4095
  8
14
 10
611.076543
 20
237.476735
 30
0.0
 40
0.5
 50
90.0
 51
179.0
  0
LINE
  5
4096
  8
13
 10
590.774101
 20
243.476735
 30
0.0
 11
590.774101
 21
83.336664
 31
0.0
  0
LINE
  5
4097
  8
14
 10
570.506705
 20
237.976735
 30
0.0
 11
339.167452
 21
237.976735
 31
0.0
  0
LINE
  5
4098
  8
14
 10
571.528484
 20
234.476735
 30
0.0
 11
576.774101
 21
234.476735
 31
0.0
  0
LINE
  5
4099
  8
14
 10
571.006686
 20
237.481098
 30
0.0
 11
571.028503
 21
234.981098
 31
0.0
  0
LINE
  5
409A
  8
14
 10
610.576619
 20
237.485461
 30
0.0
 11
610.532677
 21
234.968009
 31
0.0
  0
LINE
  5
409B
  8
11
 10
527.774101
 20
101.476735
 30
0.0
 11
527.774101
 21
113.476735
 31
0.0
  0
LINE
  5
409C
  8
11
 10
495.774101
 20
101.476735
 30
0.0
 11
495.774101
 21
113.476735
 31
0.0
  0
LINE
  5
409D
  8
11
 10
497.774101
 20
115.476735
 30
0.0
 11
525.774101
 21
115.476735
 31
0.0
  0
ARC
  5
409E
  8
11
 10
525.774101
 20
113.476735
 30
0.0
 40
2.0
 50
0.0
 51
90.0
  0
ARC
  5
409F
  8
11
 10
497.774101
 20
113.476735
 30
0.0
 40
2.0
 50
90.0
 51
180.0
  0
LINE
  5
40A0
  8
11
 10
735.774101
 20
242.976735
 30
0.0
 11
628.681446
 21
242.976735
 31
0.0
  0
LINE
  5
40A1
  8
11
 10
735.774101
 20
242.976735
 30
0.0
 11
735.905334
 21
241.476735
 31
0.0
  0
LINE
  5
40A2
  8
11
 10
445.774101
 20
242.976735
 30
0.0
 11
445.642868
 21
241.476735
 31
0.0
  0
LINE
  5
40A3
  8
11
 10
445.774101
 20
242.976735
 30
0.0
 11
552.866756
 21
242.976735
 31
0.0
  0
LINE
  5
40A4
  8
11
 10
317.274101
 20
90.476735
 30
0.0
 11
590.774101
 21
90.476735
 31
0.0
  0
LINE
  5
40A5
  8
11
 10
316.274101
 20
93.476735
 30
0.0
 11
316.274101
 21
91.476735
 31
0.0
  0
ARC
  5
40A6
  8
11
 10
317.274101
 20
91.476735
 30
0.0
 40
1.0
 50
180.0
 51
270.0
  0
LINE
  5
40A7
  8
12
 10
844.870295
 20
93.476735
 30
0.0
 11
844.870295
 21
90.476735
 31
0.0
  0
ARC
  5
40A8
  8
11
 10
864.274101
 20
91.476735
 30
0.0
 40
1.0
 50
270.0
 51
0.0
  0
LINE
  5
40A9
  8
11
 10
865.274101
 20
93.476735
 30
0.0
 11
865.274101
 21
91.476735
 31
0.0
  0
LINE
  5
40AA
  8
11
 10
864.274101
 20
90.476735
 30
0.0
 11
590.774101
 21
90.476735
 31
0.0
  0
ARC
  5
40AB
  8
11
 10
339.774101
 20
113.476735
 30
0.0
 40
2.0
 50
90.0
 51
180.0
  0
ARC
  5
40AC
  8
11
 10
367.774101
 20
113.476735
 30
0.0
 40
2.0
 50
0.0
 51
90.0
  0
LINE
  5
40AD
  8
11
 10
339.774101
 20
115.476735
 30
0.0
 11
367.774101
 21
115.476735
 31
0.0
  0
LINE
  5
40AE
  8
11
 10
337.774101
 20
101.476735
 30
0.0
 11
337.774101
 21
113.476735
 31
0.0
  0
LINE
  5
40AF
  8
11
 10
369.774101
 20
101.476735
 30
0.0
 11
369.774101
 21
113.476735
 31
0.0
  0
LINE
  5
40B0
  8
11
 10
869.774101
 20
93.476735
 30
0.0
 11
590.774101
 21
93.476735
 31
0.0
  0
LINE
  5
40B1
  8
11
 10
869.774101
 20
93.476735
 30
0.0
 11
868.482525
 21
241.476735
 31
0.0
  0
LINE
  5
40B2
  8
11
 10
865.774101
 20
243.476735
 30
0.0
 11
849.774101
 21
243.476735
 31
0.0
  0
LINE
  5
40B3
  8
11
 10
868.482525
 20
241.476735
 30
0.0
 11
590.774101
 21
241.476735
 31
0.0
  0
LINE
  5
40B5
  8
11
 10
865.774101
 20
243.476735
 30
0.0
 11
865.791554
 21
241.476811
 31
0.0
  0
LINE
  5
40B6
  8
11
 10
849.774101
 20
243.476735
 30
0.0
 11
849.756648
 21
241.476811
 31
0.0
  0
LINE
  5
40B7
  8
11
 10
845.843916
 20
101.476735
 30
0.0
 11
847.065678
 21
241.476735
 31
0.0
  0
LINE
  5
40B8
  8
11
 10
857.774101
 20
101.476735
 30
0.0
 11
590.774101
 21
101.476735
 31
0.0
  0
LINE
  5
40B9
  8
11
 10
857.774101
 20
95.476735
 30
0.0
 11
835.774101
 21
95.476735
 31
0.0
  0
LINE
  5
40BA
  8
11
 10
857.774101
 20
99.476735
 30
0.0
 11
835.774101
 21
99.476735
 31
0.0
  0
LINE
  5
40BB
  8
11
 10
835.774101
 20
99.476735
 30
0.0
 11
835.774101
 21
95.476735
 31
0.0
  0
LINE
  5
40BC
  8
11
 10
829.774101
 20
99.476735
 30
0.0
 11
829.774101
 21
95.476735
 31
0.0
  0
LINE
  5
40BD
  8
11
 10
821.774101
 20
99.476735
 30
0.0
 11
821.774101
 21
95.476735
 31
0.0
  0
LINE
  5
40BE
  8
11
 10
815.774101
 20
99.476735
 30
0.0
 11
815.774101
 21
95.476735
 31
0.0
  0
LINE
  5
40BF
  8
11
 10
808.774101
 20
99.476735
 30
0.0
 11
808.774101
 21
95.476735
 31
0.0
  0
LINE
  5
40C0
  8
11
 10
802.774101
 20
99.476735
 30
0.0
 11
802.774101
 21
95.476735
 31
0.0
  0
LINE
  5
40C1
  8
11
 10
794.774101
 20
99.476735
 30
0.0
 11
794.774101
 21
95.476735
 31
0.0
  0
LINE
  5
40C2
  8
11
 10
788.774101
 20
99.476735
 30
0.0
 11
788.774101
 21
95.476735
 31
0.0
  0
LINE
  5
40C3
  8
11
 10
829.774101
 20
99.476735
 30
0.0
 11
821.774101
 21
99.476735
 31
0.0
  0
LINE
  5
40C4
  8
11
 10
815.774101
 20
99.476735
 30
0.0
 11
808.774101
 21
99.476735
 31
0.0
  0
LINE
  5
40C5
  8
11
 10
802.774101
 20
99.476735
 30
0.0
 11
794.774101
 21
99.476735
 31
0.0
  0
LINE
  5
40C6
  8
11
 10
788.774101
 20
99.476735
 30
0.0
 11
659.774101
 21
99.476735
 31
0.0
  0
LINE
  5
40C7
  8
11
 10
788.774101
 20
95.476735
 30
0.0
 11
659.774101
 21
95.476735
 31
0.0
  0
LINE
  5
40C8
  8
11
 10
802.774101
 20
95.476735
 30
0.0
 11
794.774101
 21
95.476735
 31
0.0
  0
LINE
  5
40C9
  8
11
 10
815.774101
 20
95.476735
 30
0.0
 11
808.774101
 21
95.476735
 31
0.0
  0
LINE
  5
40CA
  8
11
 10
829.774101
 20
95.476735
 30
0.0
 11
821.774101
 21
95.476735
 31
0.0
  0
LINE
  5
40CB
  8
11
 10
653.774101
 20
95.476735
 30
0.0
 11
645.774101
 21
95.476735
 31
0.0
  0
LINE
  5
40CC
  8
11
 10
639.774101
 20
95.476735
 30
0.0
 11
632.774101
 21
95.476735
 31
0.0
  0
LINE
  5
40CD
  8
11
 10
626.774101
 20
95.476735
 30
0.0
 11
618.774101
 21
95.476735
 31
0.0
  0
LINE
  5
40CE
  8
11
 10
626.774101
 20
99.476735
 30
0.0
 11
618.774101
 21
99.476735
 31
0.0
  0
LINE
  5
40CF
  8
11
 10
639.774101
 20
99.476735
 30
0.0
 11
632.774101
 21
99.476735
 31
0.0
  0
LINE
  5
40D0
  8
11
 10
653.774101
 20
99.476735
 30
0.0
 11
645.774101
 21
99.476735
 31
0.0
  0
LINE
  5
40D1
  8
11
 10
612.774101
 20
99.476735
 30
0.0
 11
612.774101
 21
95.476735
 31
0.0
  0
LINE
  5
40D2
  8
11
 10
618.774101
 20
99.476735
 30
0.0
 11
618.774101
 21
95.476735
 31
0.0
  0
LINE
  5
40D3
  8
11
 10
626.774101
 20
99.476735
 30
0.0
 11
626.774101
 21
95.476735
 31
0.0
  0
LINE
  5
40D4
  8
11
 10
632.774101
 20
99.476735
 30
0.0
 11
632.774101
 21
95.476735
 31
0.0
  0
LINE
  5
40D5
  8
11
 10
639.774101
 20
99.476735
 30
0.0
 11
639.774101
 21
95.476735
 31
0.0
  0
LINE
  5
40D6
  8
11
 10
645.774101
 20
99.476735
 30
0.0
 11
645.774101
 21
95.476735
 31
0.0
  0
LINE
  5
40D7
  8
11
 10
653.774101
 20
99.476735
 30
0.0
 11
653.774101
 21
95.476735
 31
0.0
  0
LINE
  5
40D8
  8
11
 10
659.774101
 20
99.476735
 30
0.0
 11
659.774101
 21
95.476735
 31
0.0
  0
LINE
  5
40D9
  8
11
 10
653.774101
 20
95.476735
 30
0.0
 11
645.774101
 21
95.476735
 31
0.0
  0
LINE
  5
40DA
  8
11
 10
653.774101
 20
99.476735
 30
0.0
 11
645.774101
 21
99.476735
 31
0.0
  0
LINE
  5
40DB
  8
11
 10
639.774101
 20
99.476735
 30
0.0
 11
632.774101
 21
99.476735
 31
0.0
  0
LINE
  5
40DC
  8
11
 10
639.774101
 20
95.476735
 30
0.0
 11
632.774101
 21
95.476735
 31
0.0
  0
LINE
  5
40DD
  8
11
 10
626.774101
 20
95.476735
 30
0.0
 11
618.774101
 21
95.476735
 31
0.0
  0
LINE
  5
40DE
  8
11
 10
626.774101
 20
99.476735
 30
0.0
 11
618.774101
 21
99.476735
 31
0.0
  0
LINE
  5
40DF
  8
11
 10
612.774101
 20
99.476735
 30
0.0
 11
590.774101
 21
99.476735
 31
0.0
  0
LINE
  5
40E0
  8
11
 10
612.774101
 20
95.476735
 30
0.0
 11
590.774101
 21
95.476735
 31
0.0
  0
ARC
  5
40E1
  8
11
 10
834.774101
 20
223.776735
 30
0.0
 40
19.5
 50
65.188368
 51
114.811632
  0
ARC
  5
40E2
  8
11
 10
625.274101
 20
223.776735
 30
0.0
 40
19.5
 50
65.188368
 51
114.811632
  0
LINE
  5
40E3
  8
11
 10
598.774101
 20
243.476735
 30
0.0
 11
598.791554
 21
241.476811
 31
0.0
  0
LINE
  5
40E4
  8
11
 10
598.774101
 20
243.476735
 30
0.0
 11
590.774101
 21
243.476735
 31
0.0
  0
LINE
  5
40E5
  8
11
 10
602.704286
 20
101.476735
 30
0.0
 11
601.482525
 21
241.476735
 31
0.0
  0
LINE
  5
40E6
  8
11
 10
578.843916
 20
101.476735
 30
0.0
 11
580.065678
 21
241.476735
 31
0.0
  0
LINE
  5
40E7
  8
11
 10
582.774101
 20
243.476735
 30
0.0
 11
590.774101
 21
243.476735
 31
0.0
  0
LINE
  5
40E8
  8
11
 10
582.774101
 20
243.476735
 30
0.0
 11
582.756648
 21
241.476811
 31
0.0
  0
ARC
  5
40E9
  8
11
 10
556.274101
 20
223.776735
 30
0.0
 40
19.5
 50
65.188368
 51
114.811632
  0
ARC
  5
40EA
  8
11
 10
346.774101
 20
223.776735
 30
0.0
 40
19.5
 50
65.188368
 51
114.811632
  0
LINE
  5
40EB
  8
11
 10
568.774101
 20
95.476735
 30
0.0
 11
590.774101
 21
95.476735
 31
0.0
  0
LINE
  5
40EC
  8
11
 10
568.774101
 20
99.476735
 30
0.0
 11
590.774101
 21
99.476735
 31
0.0
  0
LINE
  5
40ED
  8
11
 10
554.774101
 20
99.476735
 30
0.0
 11
562.774101
 21
99.476735
 31
0.0
  0
LINE
  5
40EE
  8
11
 10
554.774101
 20
95.476735
 30
0.0
 11
562.774101
 21
95.476735
 31
0.0
  0
LINE
  5
40EF
  8
11
 10
541.774101
 20
95.476735
 30
0.0
 11
548.774101
 21
95.476735
 31
0.0
  0
LINE
  5
40F0
  8
11
 10
541.774101
 20
99.476735
 30
0.0
 11
548.774101
 21
99.476735
 31
0.0
  0
LINE
  5
40F1
  8
11
 10
527.774101
 20
99.476735
 30
0.0
 11
535.774101
 21
99.476735
 31
0.0
  0
LINE
  5
40F2
  8
11
 10
527.774101
 20
95.476735
 30
0.0
 11
535.774101
 21
95.476735
 31
0.0
  0
LINE
  5
40F3
  8
11
 10
521.774101
 20
99.476735
 30
0.0
 11
521.774101
 21
95.476735
 31
0.0
  0
LINE
  5
40F4
  8
11
 10
527.774101
 20
99.476735
 30
0.0
 11
527.774101
 21
95.476735
 31
0.0
  0
LINE
  5
40F5
  8
11
 10
535.774101
 20
99.476735
 30
0.0
 11
535.774101
 21
95.476735
 31
0.0
  0
LINE
  5
40F6
  8
11
 10
541.774101
 20
99.476735
 30
0.0
 11
541.774101
 21
95.476735
 31
0.0
  0
LINE
  5
40F7
  8
11
 10
548.774101
 20
99.476735
 30
0.0
 11
548.774101
 21
95.476735
 31
0.0
  0
LINE
  5
40F8
  8
11
 10
554.774101
 20
99.476735
 30
0.0
 11
554.774101
 21
95.476735
 31
0.0
  0
LINE
  5
40F9
  8
11
 10
562.774101
 20
99.476735
 30
0.0
 11
562.774101
 21
95.476735
 31
0.0
  0
LINE
  5
40FA
  8
11
 10
568.774101
 20
99.476735
 30
0.0
 11
568.774101
 21
95.476735
 31
0.0
  0
LINE
  5
40FB
  8
11
 10
527.774101
 20
99.476735
 30
0.0
 11
535.774101
 21
99.476735
 31
0.0
  0
LINE
  5
40FC
  8
11
 10
541.774101
 20
99.476735
 30
0.0
 11
548.774101
 21
99.476735
 31
0.0
  0
LINE
  5
40FD
  8
11
 10
554.774101
 20
99.476735
 30
0.0
 11
562.774101
 21
99.476735
 31
0.0
  0
LINE
  5
40FE
  8
11
 10
554.774101
 20
95.476735
 30
0.0
 11
562.774101
 21
95.476735
 31
0.0
  0
LINE
  5
40FF
  8
11
 10
541.774101
 20
95.476735
 30
0.0
 11
548.774101
 21
95.476735
 31
0.0
  0
LINE
  5
4100
  8
11
 10
527.774101
 20
95.476735
 30
0.0
 11
535.774101
 21
95.476735
 31
0.0
  0
LINE
  5
4102
  8
11
 10
351.774101
 20
95.476735
 30
0.0
 11
359.774101
 21
95.476735
 31
0.0
  0
LINE
  5
4103
  8
11
 10
365.774101
 20
95.476735
 30
0.0
 11
372.774101
 21
95.476735
 31
0.0
  0
LINE
  5
4104
  8
11
 10
378.774101
 20
95.476735
 30
0.0
 11
386.774101
 21
95.476735
 31
0.0
  0
LINE
  5
4105
  8
11
 10
392.774101
 20
95.476735
 30
0.0
 11
521.774101
 21
95.476735
 31
0.0
  0
LINE
  5
4106
  8
11
 10
392.774101
 20
99.476735
 30
0.0
 11
521.774101
 21
99.476735
 31
0.0
  0
LINE
  5
4107
  8
11
 10
378.774101
 20
99.476735
 30
0.0
 11
386.774101
 21
99.476735
 31
0.0
  0
LINE
  5
4108
  8
11
 10
365.774101
 20
99.476735
 30
0.0
 11
372.774101
 21
99.476735
 31
0.0
  0
LINE
  5
4109
  8
11
 10
351.774101
 20
99.476735
 30
0.0
 11
359.774101
 21
99.476735
 31
0.0
  0
LINE
  5
410A
  8
11
 10
392.774101
 20
99.476735
 30
0.0
 11
392.774101
 21
95.476735
 31
0.0
  0
LINE
  5
410B
  8
11
 10
386.774101
 20
99.476735
 30
0.0
 11
386.774101
 21
95.476735
 31
0.0
  0
LINE
  5
410C
  8
11
 10
378.774101
 20
99.476735
 30
0.0
 11
378.774101
 21
95.476735
 31
0.0
  0
LINE
  5
410D
  8
11
 10
372.774101
 20
99.476735
 30
0.0
 11
372.774101
 21
95.476735
 31
0.0
  0
LINE
  5
410E
  8
11
 10
365.774101
 20
99.476735
 30
0.0
 11
365.774101
 21
95.476735
 31
0.0
  0
LINE
  5
410F
  8
11
 10
359.774101
 20
99.476735
 30
0.0
 11
359.774101
 21
95.476735
 31
0.0
  0
LINE
  5
4110
  8
11
 10
351.774101
 20
99.476735
 30
0.0
 11
351.774101
 21
95.476735
 31
0.0
  0
LINE
  5
4111
  8
11
 10
345.774101
 20
99.476735
 30
0.0
 11
345.774101
 21
95.476735
 31
0.0
  0
LINE
  5
4112
  8
11
 10
323.774101
 20
99.476735
 30
0.0
 11
345.774101
 21
99.476735
 31
0.0
  0
LINE
  5
4113
  8
11
 10
323.774101
 20
95.476735
 30
0.0
 11
345.774101
 21
95.476735
 31
0.0
  0
LINE
  5
4114
  8
11
 10
323.774101
 20
101.476735
 30
0.0
 11
590.774101
 21
101.476735
 31
0.0
  0
LINE
  5
4115
  8
11
 10
334.704286
 20
101.476735
 30
0.0
 11
334.482525
 21
241.476735
 31
0.0
  0
LINE
  5
4116
  8
11
 10
331.774101
 20
243.476735
 30
0.0
 11
331.791554
 21
241.476811
 31
0.0
  0
LINE
  5
4117
  8
11
 10
315.774101
 20
243.476735
 30
0.0
 11
315.756648
 21
241.476811
 31
0.0
  0
LINE
  5
4119
  8
11
 10
313.065678
 20
241.476735
 30
0.0
 11
590.774101
 21
241.476735
 31
0.0
  0
LINE
  5
411A
  8
11
 10
315.774101
 20
243.476735
 30
0.0
 11
331.774101
 21
243.476735
 31
0.0
  0
LINE
  5
411B
  8
11
 10
311.774101
 20
93.476735
 30
0.0
 11
313.065678
 21
241.476735
 31
0.0
  0
LINE
  5
411C
  8
11
 10
311.774101
 20
93.476735
 30
0.0
 11
590.774101
 21
93.476735
 31
0.0
  0
TEXT
  5
411D
  8
L20
 10
-495.744913
 20
871.062578
 30
0.0
 40
21.0
  1
FIBOX EK-U 378x558X150 BASE
  0
VIEWPORT
  5
1
 67
     1
  8
0
 10
210.0
 20
152.094241
 30
0.0
 40
420.0
 41
304.188482
 68
    -1
 69
     1
1001
ACAD
1000
MVIEW
1002
{
1070
    16
1010
0.0
1020
0.0
1030
0.0
1010
0.0
1020
0.0
1030
1.0
1040
0.0
1040
304.188482
1040
210.0
1040
152.094241
1040
50.0
1040
0.0
1040
0.0
1070
     0
1070
   100
1070
     1
1070
     1
1070
     1
1070
     0
1070
     0
1070
     0
1040
0.0
1040
0.0
1040
0.0
1040
1.0
1040
1.0
1040
0.0
1040
0.0
1070
     0
1002
{
1002
}
1002
}
  0
ENDSEC
  0
EOF
