  0
SECTION
  2
HEADER
  9
$ACADVER
  1
AC1009
  9
$INSBASE
 10
0.0
 20
0.0
 30
0.0
  9
$EXTMIN
 10
-0.000001
 20
0.0
 30
0.0
  9
$EXTMAX
 10
1160.477701
 20
626.0
 30
0.0
  9
$LIMMIN
 10
0.0
 20
0.0
  9
$LIMMAX
 10
420.0
 20
297.0
  9
$ORTHOMODE
 70
     0
  9
$REGENMODE
 70
     1
  9
$FILLMODE
 70
     1
  9
$QTEXTMODE
 70
     0
  9
$MIRRTEXT
 70
     1
  9
$DRAGMODE
 70
     2
  9
$LTSCALE
 40
1.0
  9
$OSMODE
 70
     0
  9
$ATTMODE
 70
     1
  9
$TEXTSIZE
 40
2.5
  9
$TRACEWID
 40
1.0
  9
$TEXTSTYLE
  7
STANDARD
  9
$CLAYER
  8
0
  9
$CELTYPE
  6
BYLAYER
  9
$CECOLOR
 62
   256
  9
$DIMSCALE
 40
1.0
  9
$DIMASZ
 40
2.5
  9
$DIMEXO
 40
0.625
  9
$DIMDLI
 40
3.75
  9
$DIMRND
 40
0.0
  9
$DIMDLE
 40
0.0
  9
$DIMEXE
 40
1.25
  9
$DIMTP
 40
0.0
  9
$DIMTM
 40
0.0
  9
$DIMTXT
 40
2.5
  9
$DIMCEN
 40
2.5
  9
$DIMTSZ
 40
0.0
  9
$DIMTOL
 70
     0
  9
$DIMLIM
 70
     0
  9
$DIMTIH
 70
     0
  9
$DIMTOH
 70
     0
  9
$DIMSE1
 70
     0
  9
$DIMSE2
 70
     0
  9
$DIMTAD
 70
     1
  9
$DIMZIN
 70
     8
  9
$DIMBLK
  1

  9
$DIMASO
 70
     1
  9
$DIMSHO
 70
     1
  9
$DIMPOST
  1

  9
$DIMAPOST
  1

  9
$DIMALT
 70
     0
  9
$DIMALTD
 70
     4
  9
$DIMALTF
 40
0.0394
  9
$DIMLFAC
 40
1.0
  9
$DIMTOFL
 70
     1
  9
$DIMTVP
 40
0.0
  9
$DIMTIX
 70
     0
  9
$DIMSOXD
 70
     0
  9
$DIMSAH
 70
     0
  9
$DIMBLK1
  1

  9
$DIMBLK2
  1

  9
$DIMSTYLE
  2
STANDARD
  9
$DIMCLRD
 70
     0
  9
$DIMCLRE
 70
     0
  9
$DIMCLRT
 70
     0
  9
$DIMTFAC
 40
1.0
  9
$DIMGAP
 40
0.625
  9
$LUNITS
 70
     2
  9
$LUPREC
 70
     4
  9
$SKETCHINC
 40
1.0
  9
$FILLETRAD
 40
10.0
  9
$AUNITS
 70
     0
  9
$AUPREC
 70
     0
  9
$MENU
  1
acad
  9
$ELEVATION
 40
0.0
  9
$PELEVATION
 40
0.0
  9
$THICKNESS
 40
0.0
  9
$LIMCHECK
 70
     0
  9
$BLIPMODE
 70
     0
  9
$CHAMFERA
 40
10.0
  9
$CHAMFERB
 40
10.0
  9
$SKPOLY
 70
     0
  9
$TDCREATE
 40
2453059.648157
  9
$TDUPDATE
 40
2453061.394283
  9
$TDINDWG
 40
0.00114
  9
$TDUSRTIMER
 40
0.00114
  9
$USRTIMER
 70
     1
  9
$ANGBASE
 50
0.0
  9
$ANGDIR
 70
     0
  9
$PDMODE
 70
     0
  9
$PDSIZE
 40
0.0
  9
$PLINEWID
 40
0.0
  9
$COORDS
 70
     1
  9
$SPLFRAME
 70
     0
  9
$SPLINETYPE
 70
     6
  9
$SPLINESEGS
 70
     8
  9
$ATTDIA
 70
     0
  9
$ATTREQ
 70
     1
  9
$HANDLING
 70
     1
  9
$HANDSEED
  5
A21
  9
$SURFTAB1
 70
     6
  9
$SURFTAB2
 70
     6
  9
$SURFTYPE
 70
     6
  9
$SURFU
 70
     6
  9
$SURFV
 70
     6
  9
$UCSNAME
  2

  9
$UCSORG
 10
0.0
 20
0.0
 30
0.0
  9
$UCSXDIR
 10
1.0
 20
0.0
 30
0.0
  9
$UCSYDIR
 10
0.0
 20
1.0
 30
0.0
  9
$PUCSNAME
  2

  9
$PUCSORG
 10
0.0
 20
0.0
 30
0.0
  9
$PUCSXDIR
 10
1.0
 20
0.0
 30
0.0
  9
$PUCSYDIR
 10
0.0
 20
1.0
 30
0.0
  9
$USERI1
 70
     0
  9
$USERI2
 70
     0
  9
$USERI3
 70
     0
  9
$USERI4
 70
     0
  9
$USERI5
 70
     0
  9
$USERR1
 40
0.0
  9
$USERR2
 40
0.0
  9
$USERR3
 40
0.0
  9
$USERR4
 40
0.0
  9
$USERR5
 40
0.0
  9
$WORLDVIEW
 70
     1
  9
$SHADEDGE
 70
     3
  9
$SHADEDIF
 70
    70
  9
$TILEMODE
 70
     1
  9
$MAXACTVP
 70
    48
  9
$PLIMCHECK
 70
     0
  9
$PEXTMIN
 10
1.000000E+020
 20
1.000000E+020
 30
1.000000E+020
  9
$PEXTMAX
 10
-1.000000E+020
 20
-1.000000E+020
 30
-1.000000E+020
  9
$PLIMMIN
 10
0.0
 20
0.0
  9
$PLIMMAX
 10
420.0
 20
297.0
  9
$UNITMODE
 70
     0
  9
$VISRETAIN
 70
     1
  9
$PLINEGEN
 70
     0
  9
$PSLTSCALE
 70
     1
  0
ENDSEC
  0
SECTION
  2
TABLES
  0
TABLE
  2
VPORT
 70
     3
  0
VPORT
  2
*ACTIVE
 70
     0
 10
0.0
 20
0.0
 11
1.0
 21
1.0
 12
577.794801
 22
313.006532
 13
0.0
 23
0.0
 14
10.0
 24
10.0
 15
10.0
 25
10.0
 16
0.0
 26
0.0
 36
1.0
 17
0.0
 27
0.0
 37
0.0
 40
725.390164
 41
1.616838
 42
50.0
 43
0.0
 44
0.0
 50
0.0
 51
0.0
 71
     0
 72
   100
 73
     1
 74
     1
 75
     0
 76
     0
 77
     0
 78
     0
  0
ENDTAB
  0
TABLE
  2
LTYPE
 70
     4
  0
LTYPE
  2
CONTINUOUS
 70
     0
  3
Solid line
 72
    65
 73
     0
 40
0.0
  0
LTYPE
  2
CENTER
 70
     0
  3
____ _ ____ _ ____ _ ____ _ ____ _ ____ _ ____ 
 72
    65
 73
     4
 40
2.0
 49
1.25
 49
-0.25
 49
0.25
 49
-0.25
  0
LTYPE
  2
DASHDOT
 70
     0
  3
__ . __ . __ . __ . __ . __ . __ . __ . __ . __
 72
    65
 73
     4
 40
1.0
 49
0.5
 49
-0.25
 49
0.0
 49
-0.25
  0
LTYPE
  2
DASHED
 70
     0
  3
__ __ __ __ __ __ __ __ __ __ __ __ __ __ __ __
 72
    65
 73
     2
 40
0.75
 49
0.5
 49
-0.25
  0
ENDTAB
  0
TABLE
  2
LAYER
 70
    19
  0
LAYER
  2
0
 70
     0
 62
     7
  6
CONTINUOUS
  0
LAYER
  2
L1
 70
     0
 62
     7
  6
CONTINUOUS
  0
LAYER
  2
L2
 70
     0
 62
     1
  6
CONTINUOUS
  0
LAYER
  2
L6
 70
     0
 62
     1
  6
CENTER
  0
LAYER
  2
L20
 70
     0
 62
     7
  6
CONTINUOUS
  0
LAYER
  2
L21
 70
     0
 62
     1
  6
CONTINUOUS
  0
LAYER
  2
1
 70
     0
 62
     7
  6
CONTINUOUS
  0
LAYER
  2
11
 70
     0
 62
     7
  6
CONTINUOUS
  0
LAYER
  2
13
 70
     0
 62
     1
  6
CENTER
  0
LAYER
  2
14
 70
     0
 62
     1
  6
DASHED
  0
LAYER
  2
21
 70
     0
 62
     7
  6
CONTINUOUS
  0
LAYER
  2
23
 70
     0
 62
     1
  6
CENTER
  0
LAYER
  2
24
 70
     0
 62
     1
  6
DASHED
  0
LAYER
  2
31
 70
     0
 62
     7
  6
CONTINUOUS
  0
LAYER
  2
33
 70
     0
 62
     1
  6
CENTER
  0
LAYER
  2
34
 70
     0
 62
     1
  6
DASHED
  0
LAYER
  2
41
 70
     0
 62
     7
  6
CONTINUOUS
  0
LAYER
  2
43
 70
     0
 62
     1
  6
CENTER
  0
LAYER
  2
44
 70
     0
 62
     1
  6
DASHED
  0
ENDTAB
  0
TABLE
  2
STYLE
 70
     1
  0
STYLE
  2
STANDARD
 70
     0
 40
0.0
 41
1.0
 50
0.0
 71
     0
 42
2.5
  3
txt
  4

  0
ENDTAB
  0
TABLE
  2
VIEW
 70
     0
  0
ENDTAB
  0
TABLE
  2
UCS
 70
     0
  0
ENDTAB
  0
TABLE
  2
APPID
 70
     1
  0
APPID
  2
ACAD
 70
     0
  0
ENDTAB
  0
TABLE
  2
DIMSTYLE
 70
     2
  0
DIMSTYLE
  2
STANDARD
 70
     0
  3

  4

  5

  6

  7

 40
1.0
 41
0.18
 42
0.0625
 43
0.38
 44
0.18
 45
0.0
 46
0.0
 47
0.0
 48
0.0
140
0.18
141
0.09
142
0.0
143
25.4
144
1.0
145
0.0
146
1.0
147
0.09
 71
     0
 72
     0
 73
     1
 74
     1
 75
     0
 76
     0
 77
     0
 78
     0
170
     0
171
     2
172
     0
173
     0
174
     0
175
     0
176
     0
177
     0
178
     0
  0
DIMSTYLE
  2
ACADUS
 70
     0
  3

  4

  5

  6

  7

 40
1.0
 41
0.18
 42
0.0625
 43
0.38
 44
0.18
 45
0.0
 46
0.0
 47
0.0
 48
0.0
140
0.18
141
0.09
142
0.0
143
25.4
144
1.0
145
0.0
146
1.0
147
0.09
 71
     0
 72
     0
 73
     1
 74
     1
 75
     0
 76
     0
 77
     0
 78
     0
170
     0
171
     2
172
     0
173
     0
174
     0
175
     0
176
     0
177
     0
178
     0
  0
ENDTAB
  0
ENDSEC
  0
SECTION
  2
BLOCKS
  0
BLOCK
  8
0
  2
$MODEL_SPACE
 70
     0
 10
0.0
 20
0.0
 30
0.0
  3
$MODEL_SPACE
  1

  0
ENDBLK
  5
1A
  8
0
  0
BLOCK
 67
     1
  8
0
  2
$PAPER_SPACE
 70
     0
 10
0.0
 20
0.0
 30
0.0
  3
$PAPER_SPACE
  1

  0
ENDBLK
  5
17
 67
     1
  8
0
  0
BLOCK
  8
0
  2
A$C11E97A9A
 70
     0
 10
0.0
 20
0.0
 30
0.0
  3
A$C11E97A9A
  1

  0
LINE
  5
37
  8
L6
 10
612.527449
 20
303.661624
 30
0.0
 11
1015.46217
 21
303.661624
 31
0.0
  0
ARC
  5
38
  8
L1
 10
675.643473
 20
416.161624
 30
0.0
 40
5.0
 50
180.0
 51
351.373073
  0
ARC
  5
39
  8
L1
 10
675.643473
 20
416.161624
 30
0.0
 40
5.0
 50
8.626927
 51
180.0
  0
LINE
  5
3A
  8
L1
 10
653.543473
 20
436.161624
 30
0.0
 11
813.143473
 21
436.161624
 31
0.0
  0
LINE
  5
3B
  8
L1
 10
646.468473
 20
438.161624
 30
0.0
 11
813.143473
 21
438.161624
 31
0.0
  0
LINE
  5
3C
  8
L1
 10
636.143473
 20
442.661624
 30
0.0
 11
813.143473
 21
442.661624
 31
0.0
  0
LINE
  5
3D
  8
L1
 10
650.048176
 20
433.991624
 30
0.0
 11
813.143473
 21
433.991624
 31
0.0
  0
LINE
  5
3E
  8
L2
 10
651.733131
 20
432.011624
 30
0.0
 11
813.143473
 21
432.011624
 31
0.0
  0
ARC
  5
3F
  8
L1
 10
675.643473
 20
191.161624
 30
0.0
 40
5.0
 50
8.626927
 51
180.0
  0
ARC
  5
40
  8
L1
 10
675.643473
 20
191.161624
 30
0.0
 40
5.0
 50
180.0
 51
351.373073
  0
LINE
  5
41
  8
L1
 10
636.143473
 20
164.661624
 30
0.0
 11
813.143473
 21
164.661624
 31
0.0
  0
LINE
  5
42
  8
L1
 10
646.468473
 20
169.161624
 30
0.0
 11
813.143473
 21
169.161624
 31
0.0
  0
LINE
  5
43
  8
L1
 10
653.543473
 20
171.161624
 30
0.0
 11
813.143473
 21
171.161624
 31
0.0
  0
LINE
  5
44
  8
L1
 10
650.048176
 20
173.331624
 30
0.0
 11
813.143473
 21
173.331624
 31
0.0
  0
LINE
  5
45
  8
L2
 10
651.733131
 20
175.311624
 30
0.0
 11
813.143473
 21
175.311624
 31
0.0
  0
LINE
  5
46
  8
21
 10
813.143473
 20
594.85661
 30
0.0
 11
624.143473
 21
594.85661
 31
0.0
  0
LINE
  5
47
  8
21
 10
813.143473
 20
597.85661
 30
0.0
 11
629.62617
 21
597.85661
 31
0.0
  0
LINE
  5
48
  8
21
 10
813.143473
 20
496.85661
 30
0.0
 11
626.418744
 21
496.85661
 31
0.0
  0
LINE
  5
49
  8
21
 10
813.143473
 20
587.60661
 30
0.0
 11
636.143473
 21
587.60661
 31
0.0
  0
LINE
  5
4A
  8
21
 10
672.143473
 20
589.89661
 30
0.0
 11
664.143473
 21
589.89661
 31
0.0
  0
LINE
  5
4B
  8
21
 10
672.143473
 20
593.25661
 30
0.0
 11
664.143473
 21
593.25661
 31
0.0
  0
LINE
  5
4C
  8
21
 10
678.143473
 20
573.85661
 30
0.0
 11
650.143473
 21
573.85661
 31
0.0
  0
LINE
  5
4D
  8
24
 10
792.591031
 20
500.85661
 30
0.0
 11
650.338297
 21
500.85661
 31
0.0
  0
LINE
  5
4E
  8
14
 10
792.591031
 20
106.466638
 30
0.0
 11
650.338297
 21
106.466638
 31
0.0
  0
LINE
  5
4F
  8
11
 10
678.143473
 20
33.466638
 30
0.0
 11
650.143473
 21
33.466638
 31
0.0
  0
LINE
  5
50
  8
11
 10
672.143473
 20
14.066638
 30
0.0
 11
664.143473
 21
14.066638
 31
0.0
  0
LINE
  5
51
  8
11
 10
672.143473
 20
17.426638
 30
0.0
 11
664.143473
 21
17.426638
 31
0.0
  0
LINE
  5
52
  8
11
 10
813.143473
 20
19.716638
 30
0.0
 11
636.143473
 21
19.716638
 31
0.0
  0
LINE
  5
53
  8
11
 10
813.143473
 20
110.466638
 30
0.0
 11
626.418744
 21
110.466638
 31
0.0
  0
LINE
  5
54
  8
11
 10
813.143473
 20
9.466638
 30
0.0
 11
629.62617
 21
9.466638
 31
0.0
  0
LINE
  5
55
  8
11
 10
813.143473
 20
12.466638
 30
0.0
 11
624.143473
 21
12.466638
 31
0.0
  0
LINE
  5
56
  8
L21
 10
337.297565
 20
411.151578
 30
0.0
 11
236.307611
 21
310.161624
 31
0.0
  0
LINE
  5
57
  8
L21
 10
346.489953
 20
401.95919
 30
0.0
 11
248.192387
 21
303.661624
 31
0.0
  0
LINE
  5
58
  8
L21
 10
346.489953
 20
205.364059
 30
0.0
 11
248.192387
 21
303.661624
 31
0.0
  0
LINE
  5
59
  8
L21
 10
337.297565
 20
196.171671
 30
0.0
 11
236.307611
 21
297.161624
 31
0.0
  0
CIRCLE
  5
5A
  8
L20
 10
251.499999
 20
191.161624
 30
0.0
 40
4.25
  0
LINE
  5
5B
  8
L1
 10
19.499999
 20
167.161624
 30
0.0
 11
358.66856
 21
167.161624
 31
0.0
  0
LINE
  5
5C
  8
L1
 10
365.999999
 20
164.661624
 30
0.0
 11
188.999999
 21
164.661624
 31
0.0
  0
LINE
  5
5D
  8
L1
 10
359.83518
 20
169.161624
 30
0.0
 11
188.999999
 21
169.161624
 31
0.0
  0
CIRCLE
  5
5E
  8
L20
 10
251.499999
 20
416.161624
 30
0.0
 40
4.25
  0
LINE
  5
5F
  8
L1
 10
365.999999
 20
442.661624
 30
0.0
 11
188.999999
 21
442.661624
 31
0.0
  0
LINE
  5
60
  8
L1
 10
358.499999
 20
440.161624
 30
0.0
 11
19.331438
 21
440.161624
 31
0.0
  0
LINE
  5
61
  8
L1
 10
359.83518
 20
438.161624
 30
0.0
 11
188.999999
 21
438.161624
 31
0.0
  0
TEXT
  5
62
  8
L20
 10
112.203337
 20
527.140048
 30
0.0
 40
14.849242
  1
FIBOX EK-P 278x378x100 BASE
  0
LINE
  5
63
  8
L21
 10
40.702434
 20
411.151578
 30
0.0
 11
141.692387
 21
310.161624
 31
0.0
  0
LINE
  5
64
  8
L21
 10
31.510046
 20
401.95919
 30
0.0
 11
129.807611
 21
303.661624
 31
0.0
  0
CIRCLE
  5
65
  8
L20
 10
26.499999
 20
341.161624
 30
0.0
 40
4.25
  0
LINE
  5
66
  8
L1
 10
2.499999
 20
423.161624
 30
0.0
 11
2.499999
 21
184.161624
 31
0.0
  0
LINE
  5
67
  8
L1
 10
4.499999
 20
424.496805
 30
0.0
 11
4.499999
 21
303.661624
 31
0.0
  0
LINE
  5
68
  8
L1
 10
-0.000001
 20
430.661624
 30
0.0
 11
-0.000001
 21
303.661624
 31
0.0
  0
LINE
  5
69
  8
L21
 10
31.510046
 20
205.364059
 30
0.0
 11
129.807611
 21
303.661624
 31
0.0
  0
CIRCLE
  5
6A
  8
L20
 10
33.999999
 20
198.661624
 30
0.0
 40
7.15
  0
LINE
  5
6B
  8
L1
 10
11.999999
 20
164.661624
 30
0.0
 11
188.999999
 21
164.661624
 31
0.0
  0
LINE
  5
6C
  8
L1
 10
18.164818
 20
169.161624
 30
0.0
 11
188.999999
 21
169.161624
 31
0.0
  0
LINE
  5
6D
  8
L1
 10
4.499999
 20
182.826443
 30
0.0
 11
4.499999
 21
303.661624
 31
0.0
  0
LINE
  5
6E
  8
L1
 10
-0.000001
 20
176.661624
 30
0.0
 11
-0.000001
 21
303.661624
 31
0.0
  0
ARC
  5
6F
  8
L1
 10
11.999999
 20
176.661624
 30
0.0
 40
12.0
 50
143.130102
 51
306.869898
  0
LINE
  5
70
  8
L21
 10
10.049557
 20
183.90357
 30
0.0
 11
27.297565
 21
201.151578
 31
0.0
  0
CIRCLE
  5
71
  8
L1
 10
11.999999
 20
176.661624
 30
0.0
 40
3.25
  0
CIRCLE
  5
72
  8
L1
 10
11.999999
 20
176.661624
 30
0.0
 40
7.5
  0
ARC
  5
73
  8
L1
 10
11.846327
 20
176.833286
 30
0.0
 40
9.82954
 50
241.100183
 51
307.711911
  0
ARC
  5
74
  8
L1
 10
1.999999
 20
184.161624
 30
0.0
 40
0.5
 50
323.130102
 51
0.0
  0
ARC
  5
75
  8
L1
 10
3.999999
 20
182.826443
 30
0.0
 40
0.5
 50
322.288089
 51
0.0
  0
ARC
  5
76
  8
L1
 10
11.445427
 20
176.107052
 30
0.0
 40
9.0
 50
208.899817
 51
241.100183
  0
ARC
  5
77
  8
L1
 10
12.171661
 20
176.507952
 30
0.0
 40
9.82954
 50
142.288089
 51
208.899817
  0
LINE
  5
78
  8
L21
 10
19.241945
 20
174.711182
 30
0.0
 11
36.489953
 21
191.95919
 31
0.0
  0
ARC
  5
79
  8
L1
 10
18.164818
 20
168.661624
 30
0.0
 40
0.5
 50
90.0
 51
127.711911
  0
ARC
  5
7A
  8
L1
 10
19.499999
 20
166.661624
 30
0.0
 40
0.5
 50
90.0
 51
126.869898
  0
CIRCLE
  5
7B
  8
L20
 10
26.499999
 20
216.161624
 30
0.0
 40
4.25
  0
CIRCLE
  5
7C
  8
L20
 10
26.499999
 20
241.161624
 30
0.0
 40
4.25
  0
CIRCLE
  5
7D
  8
L20
 10
26.499999
 20
266.161624
 30
0.0
 40
4.25
  0
CIRCLE
  5
7E
  8
L20
 10
26.499999
 20
316.161624
 30
0.0
 40
4.25
  0
CIRCLE
  5
7F
  8
L20
 10
26.499999
 20
291.161624
 30
0.0
 40
4.25
  0
ARC
  5
80
  8
L20
 10
26.499999
 20
303.661624
 30
0.0
 40
4.25
 50
180.0
 51
0.0
  0
ARC
  5
81
  8
L20
 10
26.499999
 20
303.661624
 30
0.0
 40
4.25
 50
0.0
 51
180.0
  0
LINE
  5
82
  8
L21
 10
141.692387
 20
310.161624
 30
0.0
 11
175.481493
 21
310.161624
 31
0.0
  0
LINE
  5
83
  8
L21
 10
141.692387
 20
297.161624
 30
0.0
 11
175.481493
 21
297.161624
 31
0.0
  0
LINE
  5
84
  8
L21
 10
40.702434
 20
196.171671
 30
0.0
 11
141.692387
 21
297.161624
 31
0.0
  0
CIRCLE
  5
85
  8
L20
 10
51.499999
 20
191.161624
 30
0.0
 40
4.25
  0
CIRCLE
  5
86
  8
L20
 10
51.499999
 20
191.161624
 30
0.0
 40
4.25
  0
CIRCLE
  5
87
  8
L20
 10
76.499999
 20
191.161624
 30
0.0
 40
4.25
  0
CIRCLE
  5
88
  8
L20
 10
101.499999
 20
191.161624
 30
0.0
 40
4.25
  0
CIRCLE
  5
89
  8
L20
 10
126.499999
 20
191.161624
 30
0.0
 40
4.25
  0
CIRCLE
  5
8A
  8
L20
 10
151.499999
 20
191.161624
 30
0.0
 40
4.25
  0
CIRCLE
  5
8B
  8
L20
 10
176.499999
 20
191.161624
 30
0.0
 40
4.25
  0
CIRCLE
  5
8C
  8
L20
 10
188.999999
 20
191.161624
 30
0.0
 40
4.25
  0
CIRCLE
  5
8D
  8
L20
 10
201.499999
 20
191.161624
 30
0.0
 40
4.25
  0
CIRCLE
  5
8E
  8
L20
 10
226.499999
 20
191.161624
 30
0.0
 40
4.25
  0
ARC
  5
8F
  8
L2
 10
188.999999
 20
303.661624
 30
0.0
 40
15.0
 50
180.0
 51
0.0
  0
ARC
  5
90
  8
L2
 10
188.999999
 20
303.661624
 30
0.0
 40
15.0
 50
0.0
 51
180.0
  0
LINE
  5
91
  8
L21
 10
236.307611
 20
310.161624
 30
0.0
 11
202.518505
 21
310.161624
 31
0.0
  0
LINE
  5
92
  8
L21
 10
236.307611
 20
297.161624
 30
0.0
 11
202.518505
 21
297.161624
 31
0.0
  0
LINE
  5
93
  8
L1
 10
11.999999
 20
442.661624
 30
0.0
 11
188.999999
 21
442.661624
 31
0.0
  0
LINE
  5
94
  8
L1
 10
18.164818
 20
438.161624
 30
0.0
 11
188.999999
 21
438.161624
 31
0.0
  0
CIRCLE
  5
95
  8
L20
 10
33.999999
 20
408.661624
 30
0.0
 40
7.15
  0
CIRCLE
  5
96
  8
L20
 10
26.499999
 20
366.161624
 30
0.0
 40
4.25
  0
CIRCLE
  5
97
  8
L20
 10
26.499999
 20
391.161624
 30
0.0
 40
4.25
  0
LINE
  5
98
  8
L21
 10
10.049557
 20
423.419679
 30
0.0
 11
27.297565
 21
406.171671
 31
0.0
  0
CIRCLE
  5
99
  8
L1
 10
11.999999
 20
430.661624
 30
0.0
 40
3.25
  0
ARC
  5
9A
  8
L1
 10
11.846327
 20
430.489963
 30
0.0
 40
9.82954
 50
52.288089
 51
118.899817
  0
CIRCLE
  5
9B
  8
L1
 10
11.999999
 20
430.661624
 30
0.0
 40
7.5
  0
ARC
  5
9C
  8
L1
 10
11.999999
 20
430.661624
 30
0.0
 40
12.0
 50
52.341538
 51
216.869898
  0
ARC
  5
9D
  8
L1
 10
12.171661
 20
430.815297
 30
0.0
 40
9.82954
 50
151.100183
 51
217.711911
  0
ARC
  5
9E
  8
L1
 10
1.999999
 20
423.161624
 30
0.0
 40
0.5
 50
0.0
 51
36.869898
  0
ARC
  5
9F
  8
L1
 10
3.999999
 20
424.496805
 30
0.0
 40
0.5
 50
0.0
 51
37.711911
  0
ARC
  5
A0
  8
L1
 10
11.445427
 20
431.216197
 30
0.0
 40
9.0
 50
118.899817
 51
151.100183
  0
LINE
  5
A1
  8
L21
 10
19.241945
 20
432.612067
 30
0.0
 11
36.489953
 21
415.364059
 31
0.0
  0
ARC
  5
A2
  8
L1
 10
18.164818
 20
438.661624
 30
0.0
 40
0.5
 50
232.288089
 51
270.0
  0
CIRCLE
  5
A3
  8
L20
 10
51.499999
 20
416.161624
 30
0.0
 40
4.25
  0
CIRCLE
  5
A4
  8
L20
 10
51.499999
 20
416.161624
 30
0.0
 40
4.25
  0
CIRCLE
  5
A5
  8
L20
 10
76.499999
 20
416.161624
 30
0.0
 40
4.25
  0
CIRCLE
  5
A6
  8
L20
 10
101.499999
 20
416.161624
 30
0.0
 40
4.25
  0
CIRCLE
  5
A7
  8
L20
 10
126.499999
 20
416.161624
 30
0.0
 40
4.25
  0
CIRCLE
  5
A8
  8
L20
 10
151.499999
 20
416.161624
 30
0.0
 40
4.25
  0
CIRCLE
  5
A9
  8
L20
 10
176.499999
 20
416.161624
 30
0.0
 40
4.25
  0
CIRCLE
  5
AA
  8
L20
 10
188.999999
 20
416.161624
 30
0.0
 40
4.25
  0
CIRCLE
  5
AB
  8
L20
 10
201.499999
 20
416.161624
 30
0.0
 40
4.25
  0
CIRCLE
  5
AC
  8
L20
 10
226.499999
 20
416.161624
 30
0.0
 40
4.25
  0
CIRCLE
  5
AD
  8
L1
 10
650.643473
 20
341.161624
 30
0.0
 40
2.4
  0
ARC
  5
AE
  8
L1
 10
650.643473
 20
341.161624
 30
0.0
 40
5.0
 50
278.626927
 51
81.373073
  0
ARC
  5
AF
  8
L1
 10
650.643473
 20
341.161624
 30
0.0
 40
5.0
 50
98.626927
 51
261.373073
  0
LINE
  5
B0
  8
L1
 10
630.643473
 20
413.261624
 30
0.0
 11
630.643473
 21
303.661624
 31
0.0
  0
LINE
  5
B1
  8
L1
 10
632.813473
 20
416.756921
 30
0.0
 11
632.813473
 21
303.661624
 31
0.0
  0
LINE
  5
B2
  8
L2
 10
634.793473
 20
415.071966
 30
0.0
 11
634.793473
 21
303.661624
 31
0.0
  0
LINE
  5
B3
  8
L1
 10
626.643473
 20
361.307522
 30
0.0
 11
626.643473
 21
303.661624
 31
0.0
  0
LINE
  5
B4
  8
L1
 10
628.643473
 20
420.336796
 30
0.0
 11
628.643473
 21
303.661624
 31
0.0
  0
LINE
  5
B5
  8
L1
 10
624.143473
 20
430.661624
 30
0.0
 11
624.143473
 21
303.661624
 31
0.0
  0
CIRCLE
  5
B6
  8
L20
 10
351.499999
 20
341.161624
 30
0.0
 40
4.25
  0
LINE
  5
B7
  8
L1
 10
373.499999
 20
424.496805
 30
0.0
 11
373.499999
 21
303.661624
 31
0.0
  0
LINE
  5
B8
  8
L1
 10
375.499999
 20
423.161624
 30
0.0
 11
375.499999
 21
183.993063
 31
0.0
  0
LINE
  5
B9
  8
L1
 10
377.999999
 20
430.661624
 30
0.0
 11
377.999999
 21
303.661624
 31
0.0
  0
LINE
  5
BA
  8
44
 10
572.809245
 20
303.661624
 30
0.0
 11
572.809245
 21
416.4668
 31
0.0
  0
LINE
  5
BB
  8
41
 10
478.809245
 20
303.661624
 30
0.0
 11
478.809245
 21
436.213685
 31
0.0
  0
LINE
  5
BC
  8
41
 10
475.809245
 20
303.661624
 30
0.0
 11
475.809245
 21
437.178927
 31
0.0
  0
LINE
  5
BD
  8
41
 10
576.809245
 20
303.661624
 30
0.0
 11
576.809245
 21
440.386354
 31
0.0
  0
LINE
  5
BE
  8
41
 10
578.309245
 20
337.77765
 30
0.0
 11
578.309245
 21
344.545599
 31
0.0
  0
LINE
  5
BF
  8
41
 10
480.409245
 20
303.661624
 30
0.0
 11
480.409245
 21
361.661624
 31
0.0
  0
LINE
  5
C0
  8
41
 10
483.769245
 20
303.661624
 30
0.0
 11
483.769245
 21
361.661624
 31
0.0
  0
LINE
  5
C1
  8
41
 10
486.059245
 20
303.661624
 30
0.0
 11
486.059245
 21
430.661624
 31
0.0
  0
LINE
  5
C2
  8
L21
 10
358.758054
 20
174.711182
 30
0.0
 11
341.510046
 21
191.95919
 31
0.0
  0
LINE
  5
C3
  8
L21
 10
367.950442
 20
183.90357
 30
0.0
 11
350.702434
 21
201.151578
 31
0.0
  0
ARC
  5
C4
  8
L20
 10
351.499999
 20
303.661624
 30
0.0
 40
4.25
 50
180.0
 51
360.0
  0
CIRCLE
  5
C5
  8
L20
 10
351.499999
 20
291.161624
 30
0.0
 40
4.25
  0
CIRCLE
  5
C6
  8
L20
 10
351.499999
 20
266.161624
 30
0.0
 40
4.25
  0
CIRCLE
  5
C7
  8
L20
 10
351.499999
 20
216.161624
 30
0.0
 40
4.25
  0
CIRCLE
  5
C8
  8
L20
 10
351.499999
 20
241.161624
 30
0.0
 40
4.25
  0
ARC
  5
C9
  8
L20
 10
351.499999
 20
303.661624
 30
0.0
 40
4.25
 50
0.0
 51
180.0
  0
CIRCLE
  5
CA
  8
L20
 10
351.499999
 20
316.161624
 30
0.0
 40
4.25
  0
CIRCLE
  5
CB
  8
L20
 10
301.499999
 20
191.161624
 30
0.0
 40
4.25
  0
CIRCLE
  5
CC
  8
L20
 10
276.499999
 20
191.161624
 30
0.0
 40
4.25
  0
CIRCLE
  5
CD
  8
L20
 10
326.499999
 20
191.161624
 30
0.0
 40
4.25
  0
CIRCLE
  5
CE
  8
L20
 10
326.499999
 20
191.161624
 30
0.0
 40
4.25
  0
CIRCLE
  5
CF
  8
L20
 10
343.999999
 20
198.661624
 30
0.0
 40
7.15
  0
LINE
  5
D0
  8
L1
 10
373.499999
 20
182.826443
 30
0.0
 11
373.499999
 21
303.661624
 31
0.0
  0
LINE
  5
D1
  8
L1
 10
377.999999
 20
176.661624
 30
0.0
 11
377.999999
 21
303.661624
 31
0.0
  0
ARC
  5
D2
  8
L1
 10
365.999999
 20
176.661624
 30
0.0
 40
12.0
 50
232.341538
 51
37.658462
  0
CIRCLE
  5
D3
  8
L1
 10
365.999999
 20
176.661624
 30
0.0
 40
3.25
  0
CIRCLE
  5
D4
  8
L1
 10
365.999999
 20
176.661624
 30
0.0
 40
7.5
  0
ARC
  5
D5
  8
L1
 10
366.153672
 20
176.833286
 30
0.0
 40
9.82954
 50
232.288089
 51
298.899817
  0
ARC
  5
D6
  8
L1
 10
359.83518
 20
168.661624
 30
0.0
 40
0.5
 50
52.288089
 51
90.0
  0
ARC
  5
D7
  8
L1
 10
358.499999
 20
166.661624
 30
0.0
 40
0.5
 50
53.130102
 51
90.0
  0
ARC
  5
D8
  8
L1
 10
375.999999
 20
184.161624
 30
0.0
 40
0.5
 50
180.0
 51
216.869898
  0
ARC
  5
D9
  8
L1
 10
373.999999
 20
182.826443
 30
0.0
 40
0.5
 50
180.0
 51
217.711911
  0
ARC
  5
DA
  8
L1
 10
366.554572
 20
176.107052
 30
0.0
 40
9.0
 50
298.899817
 51
331.100183
  0
ARC
  5
DB
  8
L1
 10
365.828338
 20
176.507952
 30
0.0
 40
9.82954
 50
331.100183
 51
37.711911
  0
ARC
  5
DC
  8
14
 10
650.338297
 20
104.466638
 30
0.0
 40
2.0
 50
90.0
 51
180.0
  0
LINE
  5
DD
  8
11
 10
645.868202
 20
110.466638
 30
0.0
 11
646.475149
 21
19.716638
 31
0.0
  0
LINE
  5
DE
  8
11
 10
626.418744
 20
110.466638
 30
0.0
 11
624.143473
 21
12.466638
 31
0.0
  0
LINE
  5
DF
  8
14
 10
648.338297
 20
9.466638
 30
0.0
 11
648.338297
 21
104.466638
 31
0.0
  0
LINE
  5
E0
  8
11
 10
658.143473
 20
14.066638
 30
0.0
 11
636.143473
 21
14.066638
 31
0.0
  0
LINE
  5
E1
  8
11
 10
658.143473
 20
17.426638
 30
0.0
 11
636.143473
 21
17.426638
 31
0.0
  0
ARC
  5
E2
  8
11
 10
629.62617
 20
10.466638
 30
0.0
 40
1.0
 50
181.0
 51
270.0
  0
LINE
  5
E3
  8
11
 10
628.591108
 20
12.466638
 30
0.0
 11
628.626322
 21
10.449186
 31
0.0
  0
LINE
  5
E4
  8
11
 10
658.143473
 20
17.426638
 30
0.0
 11
658.143473
 21
14.066638
 31
0.0
  0
LINE
  5
E5
  8
11
 10
664.143473
 20
17.426638
 30
0.0
 11
664.143473
 21
14.066638
 31
0.0
  0
LINE
  5
E6
  8
11
 10
648.143473
 20
31.466638
 30
0.0
 11
648.143473
 21
19.716638
 31
0.0
  0
ARC
  5
E7
  8
11
 10
650.143473
 20
31.466638
 30
0.0
 40
2.0
 50
90.0
 51
180.0
  0
LINE
  5
E8
  8
41
 10
576.809245
 20
186.386354
 30
0.0
 11
486.059245
 21
188.493301
 31
0.0
  0
LINE
  5
E9
  8
41
 10
576.809245
 20
166.936895
 30
0.0
 11
486.059245
 21
164.829948
 31
0.0
  0
LINE
  5
EA
  8
43
  6
DASHDOT
 10
586.809245
 20
303.661624
 30
0.0
 11
465.809245
 21
303.661624
 31
0.0
  0
LINE
  5
EB
  8
44
 10
572.808902
 20
286.139656
 30
0.0
 11
563.809245
 21
286.218194
 31
0.0
  0
LINE
  5
EC
  8
44
 10
572.808902
 20
281.083086
 30
0.0
 11
563.809245
 21
281.161624
 31
0.0
  0
LINE
  5
ED
  8
44
 10
572.808902
 20
301.240163
 30
0.0
 11
563.809245
 21
301.161624
 31
0.0
  0
LINE
  5
EE
  8
44
 10
572.808902
 20
296.183593
 30
0.0
 11
563.809245
 21
296.105054
 31
0.0
  0
LINE
  5
EF
  8
44
 10
475.809245
 20
188.856448
 30
0.0
 11
570.809245
 21
188.856448
 31
0.0
  0
LINE
  5
F0
  8
41
 10
480.409245
 20
225.661624
 30
0.0
 11
480.409245
 21
218.661624
 31
0.0
  0
LINE
  5
F1
  8
41
 10
483.769245
 20
225.661624
 30
0.0
 11
483.769245
 21
218.661624
 31
0.0
  0
LINE
  5
F2
  8
41
 10
486.059245
 20
303.661624
 30
0.0
 11
486.059245
 21
176.661624
 31
0.0
  0
LINE
  5
F3
  8
41
 10
475.809245
 20
303.661624
 30
0.0
 11
475.809245
 21
170.144322
 31
0.0
  0
LINE
  5
F4
  8
41
 10
478.809245
 20
303.661624
 30
0.0
 11
478.809245
 21
171.109564
 31
0.0
  0
LINE
  5
F5
  8
41
 10
492.829309
 20
164.987129
 30
0.0
 11
486.059245
 21
164.829948
 31
0.0
  0
LINE
  5
F6
  8
41
 10
480.409245
 20
198.661624
 30
0.0
 11
480.409245
 21
176.661624
 31
0.0
  0
LINE
  5
F7
  8
41
 10
483.769245
 20
198.661624
 30
0.0
 11
483.769245
 21
176.661624
 31
0.0
  0
ARC
  5
F8
  8
41
 10
476.809245
 20
170.144322
 30
0.0
 40
1.0
 50
180.0
 51
269.0
  0
LINE
  5
F9
  8
41
 10
478.809245
 20
169.109259
 30
0.0
 11
476.791793
 21
169.144474
 31
0.0
  0
LINE
  5
FA
  8
41
 10
475.809245
 20
181.539085
 30
0.0
 11
475.809245
 21
170.144317
 31
0.0
  0
LINE
  5
FB
  8
41
 10
478.809245
 20
169.109259
 30
0.0
 11
476.791793
 21
169.144474
 31
0.0
  0
ARC
  5
FC
  8
41
 10
476.809245
 20
170.144322
 30
0.0
 40
1.0
 50
180.0
 51
269.0
  0
LINE
  5
FD
  8
41
 10
478.809245
 20
164.661624
 30
0.0
 11
478.809245
 21
169.109259
 31
0.0
  0
LINE
  5
FE
  8
41
 10
478.809245
 20
164.661624
 30
0.0
 11
480.446824
 21
164.661624
 31
0.0
  0
LINE
  5
FF
  8
41
 10
475.809245
 20
170.144322
 30
0.0
 11
475.809245
 21
170.144322
 31
0.0
  0
LINE
  5
100
  8
41
 10
478.809245
 20
164.661624
 30
0.0
 11
478.809245
 21
174.661624
 31
0.0
  0
LINE
  5
101
  8
41
 10
478.809245
 20
174.661624
 30
0.0
 11
478.809245
 21
183.314157
 31
0.0
  0
LINE
  5
102
  8
41
 10
484.421666
 20
164.661624
 30
0.0
 11
486.059245
 21
164.661624
 31
0.0
  0
LINE
  5
103
  8
41
 10
480.446824
 20
164.661624
 30
0.0
 11
484.421666
 21
164.661624
 31
0.0
  0
LINE
  5
104
  8
41
 10
480.409245
 20
212.661624
 30
0.0
 11
480.409245
 21
204.661624
 31
0.0
  0
LINE
  5
105
  8
41
 10
483.769245
 20
212.661624
 30
0.0
 11
483.769245
 21
204.661624
 31
0.0
  0
LINE
  5
106
  8
41
 10
483.769245
 20
198.661624
 30
0.0
 11
480.409245
 21
198.661624
 31
0.0
  0
LINE
  5
107
  8
41
 10
483.769245
 20
204.661624
 30
0.0
 11
480.409245
 21
204.661624
 31
0.0
  0
LINE
  5
108
  8
41
 10
483.769245
 20
212.661624
 30
0.0
 11
480.409245
 21
212.661624
 31
0.0
  0
LINE
  5
109
  8
41
 10
483.769245
 20
218.661624
 30
0.0
 11
480.409245
 21
218.661624
 31
0.0
  0
LINE
  5
10A
  8
41
 10
483.769245
 20
303.661624
 30
0.0
 11
483.769245
 21
245.661624
 31
0.0
  0
LINE
  5
10B
  8
41
 10
480.409245
 20
303.661624
 30
0.0
 11
480.409245
 21
245.661624
 31
0.0
  0
LINE
  5
10C
  8
41
 10
480.409245
 20
239.661624
 30
0.0
 11
480.409245
 21
231.661624
 31
0.0
  0
LINE
  5
10D
  8
41
 10
483.769245
 20
239.661624
 30
0.0
 11
483.769245
 21
231.661624
 31
0.0
  0
LINE
  5
10E
  8
41
 10
483.769245
 20
225.661624
 30
0.0
 11
480.409245
 21
225.661624
 31
0.0
  0
LINE
  5
10F
  8
41
 10
483.769245
 20
231.661624
 30
0.0
 11
480.409245
 21
231.661624
 31
0.0
  0
LINE
  5
110
  8
41
 10
483.769245
 20
239.661624
 30
0.0
 11
480.409245
 21
239.661624
 31
0.0
  0
LINE
  5
111
  8
41
 10
483.769245
 20
245.661624
 30
0.0
 11
480.409245
 21
245.661624
 31
0.0
  0
LINE
  5
112
  8
44
 10
563.809245
 20
291.161624
 30
0.0
 11
563.809245
 21
281.161624
 31
0.0
  0
LINE
  5
113
  8
44
 10
563.809245
 20
291.161624
 30
0.0
 11
563.809245
 21
301.161624
 31
0.0
  0
LINE
  5
114
  8
L1
 10
651.393473
 20
221.105054
 30
0.0
 11
651.393473
 21
236.218194
 31
0.0
  0
LINE
  5
115
  8
L1
 10
649.893473
 20
221.105054
 30
0.0
 11
649.893473
 21
236.218194
 31
0.0
  0
LINE
  5
116
  8
L1
 10
626.643473
 20
218.015726
 30
0.0
 11
626.643473
 21
225.307522
 31
0.0
  0
LINE
  5
117
  8
L1
 10
624.143473
 20
176.661624
 30
0.0
 11
624.143473
 21
303.661624
 31
0.0
  0
LINE
  5
118
  8
L1
 10
630.643473
 20
194.061624
 30
0.0
 11
630.643473
 21
303.661624
 31
0.0
  0
LINE
  5
119
  8
L1
 10
628.643473
 20
186.986453
 30
0.0
 11
628.643473
 21
303.661624
 31
0.0
  0
LINE
  5
11A
  8
L1
 10
632.813473
 20
190.566327
 30
0.0
 11
632.813473
 21
303.661624
 31
0.0
  0
LINE
  5
11B
  8
L2
 10
634.793473
 20
192.251283
 30
0.0
 11
634.793473
 21
303.661624
 31
0.0
  0
LINE
  5
11C
  8
41
 10
576.809245
 20
303.661624
 30
0.0
 11
576.809245
 21
166.936895
 31
0.0
  0
LINE
  5
11D
  8
44
 10
572.809245
 20
303.661624
 30
0.0
 11
572.809245
 21
190.856448
 31
0.0
  0
LINE
  5
11E
  8
41
 10
578.309245
 20
204.295599
 30
0.0
 11
578.309245
 21
193.02765
 31
0.0
  0
LINE
  5
11F
  8
41
 10
578.309245
 20
194.545599
 30
0.0
 11
578.309245
 21
187.77765
 31
0.0
  0
LINE
  5
120
  8
41
 10
578.809245
 20
168.661624
 30
0.0
 11
576.809245
 21
168.626714
 31
0.0
  0
LINE
  5
121
  8
41
 10
578.809245
 20
184.661624
 30
0.0
 11
576.809245
 21
184.696534
 31
0.0
  0
LINE
  5
122
  8
41
 10
578.309245
 20
193.02765
 30
0.0
 11
576.809245
 21
192.161624
 31
0.0
  0
LINE
  5
123
  8
41
 10
578.309245
 20
187.77765
 30
0.0
 11
576.809245
 21
186.911624
 31
0.0
  0
ARC
  5
124
  8
44
 10
570.809245
 20
190.856448
 30
0.0
 40
2.0
 50
270.0
 51
0.0
  0
LINE
  5
125
  8
41
 10
578.809245
 20
184.661624
 30
0.0
 11
578.809245
 21
168.661624
 31
0.0
  0
LINE
  5
126
  8
41
 10
578.309245
 20
204.295599
 30
0.0
 11
576.809245
 21
205.161624
 31
0.0
  0
LINE
  5
127
  8
41
 10
578.309245
 20
219.545599
 30
0.0
 11
578.309245
 21
212.77765
 31
0.0
  0
LINE
  5
128
  8
41
 10
578.309245
 20
212.77765
 30
0.0
 11
576.809245
 21
211.911624
 31
0.0
  0
LINE
  5
129
  8
41
 10
578.309245
 20
219.545599
 30
0.0
 11
576.809245
 21
220.411624
 31
0.0
  0
ARC
  5
12A
  8
L1
 10
636.143473
 20
176.661624
 30
0.0
 40
12.0
 50
180.0
 51
270.0
  0
LINE
  5
12B
  8
11
 10
644.143473
 20
112.466638
 30
0.0
 11
628.143473
 21
112.466638
 31
0.0
  0
LINE
  5
12C
  8
11
 10
628.143473
 20
112.466638
 30
0.0
 11
628.108563
 21
110.466638
 31
0.0
  0
LINE
  5
12D
  8
11
 10
644.143473
 20
112.466638
 30
0.0
 11
644.178383
 21
110.466638
 31
0.0
  0
LINE
  5
12E
  8
11
 10
663.777447
 20
111.966638
 30
0.0
 11
652.509498
 21
111.966638
 31
0.0
  0
LINE
  5
12F
  8
11
 10
646.759498
 20
111.966638
 30
0.0
 11
645.893473
 21
110.466638
 31
0.0
  0
LINE
  5
130
  8
11
 10
653.527447
 20
111.966638
 30
0.0
 11
646.759498
 21
111.966638
 31
0.0
  0
LINE
  5
131
  8
11
 10
652.509498
 20
111.966638
 30
0.0
 11
651.643473
 21
110.466638
 31
0.0
  0
LINE
  5
132
  8
11
 10
663.777447
 20
111.966638
 30
0.0
 11
664.643473
 21
110.466638
 31
0.0
  0
LINE
  5
133
  8
L1
 10
643.253738
 20
172.379787
 30
0.0
 11
644.576077
 21
171.057447
 31
0.0
  0
ARC
  5
134
  8
L1
 10
636.143473
 20
176.661624
 30
0.0
 40
12.0
 50
0.0
 51
90.0
  0
ARC
  5
135
  8
L2
 10
636.143473
 20
176.661624
 30
0.0
 40
14.200352
 50
0.0
 51
90.0
  0
CIRCLE
  5
136
  8
L1
 10
636.143473
 20
176.661624
 30
0.0
 40
10.125
  0
LINE
  5
137
  8
L1
 10
643.253738
 20
180.943462
 30
0.0
 11
644.576077
 21
182.265802
 31
0.0
  0
LINE
  5
138
  8
L1
 10
626.643473
 20
186.986453
 30
0.0
 11
626.643473
 21
197.307522
 31
0.0
  0
ARC
  5
139
  8
L1
 10
636.043473
 20
194.186453
 30
0.0
 40
7.4
 50
180.0
 51
270.0
  0
ARC
  5
13A
  8
L1
 10
636.043473
 20
194.061624
 30
0.0
 40
5.4
 50
180.0
 51
243.666854
  0
LINE
  5
13B
  8
L1
 10
631.861635
 20
183.771889
 30
0.0
 11
630.539295
 21
185.094229
 31
0.0
  0
LINE
  5
13C
  8
L1
 10
631.861635
 20
169.55136
 30
0.0
 11
630.539295
 21
168.22902
 31
0.0
  0
CIRCLE
  5
13D
  8
L2
 10
636.143473
 20
176.661624
 30
0.0
 40
5.424871
  0
CIRCLE
  5
13E
  8
L1
 10
636.143473
 20
176.661624
 30
0.0
 40
8.325
  0
ARC
  5
13F
  8
L2
 10
636.143473
 20
176.661624
 30
0.0
 40
8.0
 50
260.0
 51
170.0
  0
CIRCLE
  5
140
  8
L1
 10
636.143473
 20
176.661624
 30
0.0
 40
6.75
  0
LINE
  5
141
  8
L1
 10
628.443473
 20
186.786453
 30
0.0
 11
626.843473
 21
186.786453
 31
0.0
  0
ARC
  5
142
  8
L1
 10
628.443473
 20
186.986453
 30
0.0
 40
0.2
 50
270.0
 51
0.0
  0
ARC
  5
143
  8
L1
 10
626.843473
 20
186.986453
 30
0.0
 40
0.2
 50
180.0
 51
270.0
  0
LINE
  5
144
  8
L1
 10
629.033208
 20
172.379787
 30
0.0
 11
627.710868
 21
171.057447
 31
0.0
  0
LINE
  5
145
  8
L1
 10
629.033208
 20
180.943462
 30
0.0
 11
627.710868
 21
182.265802
 31
0.0
  0
LINE
  5
146
  8
L1
 10
636.143473
 20
188.661624
 30
0.0
 11
636.043473
 21
188.661624
 31
0.0
  0
LINE
  5
147
  8
L1
 10
636.202397
 20
186.786453
 30
0.0
 11
636.043473
 21
186.786453
 31
0.0
  0
ARC
  5
148
  8
L1
 10
636.043473
 20
194.061624
 30
0.0
 40
5.4
 50
243.666854
 51
270.0
  0
LINE
  5
149
  8
L1
 10
640.425311
 20
183.771889
 30
0.0
 11
641.74765
 21
185.094229
 31
0.0
  0
ARC
  5
14A
  8
L2
 10
636.293473
 20
192.251283
 30
0.0
 40
1.5
 50
180.0
 51
242.774096
  0
ARC
  5
14B
  8
L1
 10
634.313473
 20
190.566327
 30
0.0
 40
1.5
 50
180.0
 51
243.666854
  0
LINE
  5
14C
  8
L1
 10
640.425311
 20
169.55136
 30
0.0
 11
641.74765
 21
168.22902
 31
0.0
  0
CIRCLE
  5
14D
  8
L1
 10
636.143473
 20
176.661624
 30
0.0
 40
3.25
  0
LINE
  5
14E
  8
L1
 10
630.781655
 20
217.680538
 30
0.0
 11
632.951655
 21
217.680538
 31
0.0
  0
LINE
  5
14F
  8
L1
 10
630.689533
 20
211.642711
 30
0.0
 11
632.859533
 21
211.642711
 31
0.0
  0
LINE
  5
150
  8
L1
 10
630.781655
 20
203.680538
 30
0.0
 11
632.951655
 21
203.680538
 31
0.0
  0
LINE
  5
151
  8
L1
 10
630.689533
 20
197.642711
 30
0.0
 11
632.859533
 21
197.642711
 31
0.0
  0
LINE
  5
152
  8
L1
 10
623.643473
 20
213.911624
 30
0.0
 11
624.143473
 21
213.911624
 31
0.0
  0
LINE
  5
153
  8
L1
 10
623.643473
 20
213.911624
 30
0.0
 11
623.643473
 21
211.961624
 31
0.0
  0
LINE
  5
154
  8
L1
 10
628.643473
 20
218.015726
 30
0.0
 11
626.643473
 21
218.015726
 31
0.0
  0
LINE
  5
155
  8
L1
 10
626.643473
 20
204.015726
 30
0.0
 11
626.643473
 21
211.307522
 31
0.0
  0
LINE
  5
156
  8
L1
 10
628.643473
 20
211.307522
 30
0.0
 11
626.643473
 21
211.307522
 31
0.0
  0
LINE
  5
157
  8
L1
 10
623.643473
 20
202.361624
 30
0.0
 11
623.643473
 21
200.429085
 31
0.0
  0
LINE
  5
158
  8
L1
 10
624.143473
 20
200.411624
 30
0.0
 11
623.643473
 21
200.429085
 31
0.0
  0
LINE
  5
159
  8
L1
 10
628.643473
 20
204.015726
 30
0.0
 11
626.643473
 21
204.015726
 31
0.0
  0
LINE
  5
15A
  8
L1
 10
628.643473
 20
197.307522
 30
0.0
 11
626.643473
 21
197.307522
 31
0.0
  0
LINE
  5
15B
  8
L1
 10
623.643473
 20
211.961624
 30
0.0
 11
623.643473
 21
202.361624
 31
0.0
  0
CIRCLE
  5
15C
  8
L1
 10
658.143473
 20
198.661624
 30
0.0
 40
6.0
  0
ARC
  5
15D
  8
L1
 10
653.543473
 20
176.561624
 30
0.0
 40
5.4
 50
180.0
 51
270.0
  0
LINE
  5
15E
  8
L1
 10
648.143473
 20
176.661624
 30
0.0
 11
648.143473
 21
176.561624
 31
0.0
  0
ARC
  5
15F
  8
L1
 10
650.048176
 20
174.831624
 30
0.0
 40
1.5
 50
206.333146
 51
270.0
  0
ARC
  5
160
  8
L2
 10
651.733131
 20
176.811624
 30
0.0
 40
1.5
 50
207.225904
 51
270.0
  0
LINE
  5
161
  8
L1
 10
657.124559
 20
171.207685
 30
0.0
 11
657.124559
 21
173.331624
 31
0.0
  0
LINE
  5
162
  8
L1
 10
656.789371
 20
169.161624
 30
0.0
 11
656.789371
 21
167.161624
 31
0.0
  0
LINE
  5
163
  8
L1
 10
646.268473
 20
176.661624
 30
0.0
 11
646.268473
 21
176.561624
 31
0.0
  0
LINE
  5
164
  8
L1
 10
646.268473
 20
168.961624
 30
0.0
 11
646.268473
 21
167.361624
 31
0.0
  0
ARC
  5
165
  8
L1
 10
646.468473
 20
168.961624
 30
0.0
 40
0.2
 50
90.0
 51
180.0
  0
ARC
  5
166
  8
L1
 10
646.468473
 20
167.361624
 30
0.0
 40
0.2
 50
180.0
 51
270.0
  0
LINE
  5
167
  8
L1
 10
646.468473
 20
167.161624
 30
0.0
 11
656.789371
 21
167.161624
 31
0.0
  0
ARC
  5
168
  8
L1
 10
653.668473
 20
176.561624
 30
0.0
 40
7.4
 50
180.0
 51
270.0
  0
LINE
  5
169
  8
L1
 10
663.654372
 20
176.661624
 30
0.0
 11
668.902412
 21
176.661624
 31
0.0
  0
LINE
  5
16A
  8
L1
 10
668.902412
 20
176.661624
 30
0.0
 11
668.902412
 21
181.661624
 31
0.0
  0
LINE
  5
16B
  8
L1
 10
663.162386
 20
171.299807
 30
0.0
 11
663.162386
 21
173.331624
 31
0.0
  0
LINE
  5
16C
  8
L1
 10
670.789371
 20
169.161624
 30
0.0
 11
670.789371
 21
167.161624
 31
0.0
  0
LINE
  5
16D
  8
L1
 10
663.497575
 20
169.161624
 30
0.0
 11
663.497575
 21
167.161624
 31
0.0
  0
LINE
  5
16E
  8
L1
 10
663.497575
 20
167.161624
 30
0.0
 11
670.789371
 21
167.161624
 31
0.0
  0
CIRCLE
  5
16F
  8
L1
 10
658.143473
 20
198.661624
 30
0.0
 40
3.0
  0
CIRCLE
  5
170
  8
L1
 10
650.643473
 20
216.161624
 30
0.0
 40
2.4
  0
ARC
  5
171
  8
L1
 10
650.643473
 20
216.161624
 30
0.0
 40
5.0
 50
270.0
 51
81.373073
  0
ARC
  5
172
  8
L1
 10
650.643473
 20
216.161624
 30
0.0
 40
5.0
 50
98.626927
 51
270.0
  0
LINE
  5
173
  8
41
 10
578.309245
 20
244.545599
 30
0.0
 11
576.809245
 21
245.411624
 31
0.0
  0
LINE
  5
174
  8
41
 10
578.309245
 20
237.77765
 30
0.0
 11
576.809245
 21
236.911624
 31
0.0
  0
LINE
  5
175
  8
41
 10
578.309245
 20
244.545599
 30
0.0
 11
578.309245
 21
237.77765
 31
0.0
  0
LINE
  5
176
  8
41
 10
578.309245
 20
269.545599
 30
0.0
 11
576.809245
 21
270.411624
 31
0.0
  0
LINE
  5
177
  8
41
 10
578.309245
 20
262.77765
 30
0.0
 11
576.809245
 21
261.911624
 31
0.0
  0
LINE
  5
178
  8
41
 10
578.309245
 20
269.545599
 30
0.0
 11
578.309245
 21
262.77765
 31
0.0
  0
LINE
  5
179
  8
41
 10
578.309245
 20
312.77765
 30
0.0
 11
576.809245
 21
311.911624
 31
0.0
  0
LINE
  5
17A
  8
41
 10
578.309245
 20
294.545599
 30
0.0
 11
576.809245
 21
295.411624
 31
0.0
  0
LINE
  5
17B
  8
41
 10
578.309245
 20
287.77765
 30
0.0
 11
576.809245
 21
286.911624
 31
0.0
  0
LINE
  5
17C
  8
41
 10
578.309245
 20
294.545599
 30
0.0
 11
578.309245
 21
287.77765
 31
0.0
  0
LINE
  5
17D
  8
41
 10
578.309245
 20
337.77765
 30
0.0
 11
576.809245
 21
336.911624
 31
0.0
  0
LINE
  5
17E
  8
41
 10
578.309245
 20
312.77765
 30
0.0
 11
578.309245
 21
319.545599
 31
0.0
  0
LINE
  5
17F
  8
41
 10
578.309245
 20
319.545599
 30
0.0
 11
576.809245
 21
320.411624
 31
0.0
  0
LINE
  5
180
  8
L1
 10
651.393473
 20
271.105054
 30
0.0
 11
651.393473
 21
286.218194
 31
0.0
  0
LINE
  5
181
  8
L1
 10
649.893473
 20
271.105054
 30
0.0
 11
649.893473
 21
286.218194
 31
0.0
  0
LINE
  5
182
  8
L1
 10
626.643473
 20
246.015726
 30
0.0
 11
626.643473
 21
303.661624
 31
0.0
  0
LINE
  5
183
  8
L1
 10
630.781655
 20
245.680538
 30
0.0
 11
632.951655
 21
245.680538
 31
0.0
  0
LINE
  5
184
  8
L1
 10
630.689533
 20
239.642711
 30
0.0
 11
632.859533
 21
239.642711
 31
0.0
  0
LINE
  5
185
  8
L1
 10
630.781655
 20
231.680538
 30
0.0
 11
632.951655
 21
231.680538
 31
0.0
  0
LINE
  5
186
  8
L1
 10
630.689533
 20
225.642711
 30
0.0
 11
632.859533
 21
225.642711
 31
0.0
  0
LINE
  5
187
  8
L1
 10
628.643473
 20
246.015726
 30
0.0
 11
626.643473
 21
246.015726
 31
0.0
  0
LINE
  5
188
  8
L1
 10
626.643473
 20
232.015726
 30
0.0
 11
626.643473
 21
239.307522
 31
0.0
  0
LINE
  5
189
  8
L1
 10
628.643473
 20
239.307522
 30
0.0
 11
626.643473
 21
239.307522
 31
0.0
  0
LINE
  5
18A
  8
L1
 10
628.643473
 20
232.015726
 30
0.0
 11
626.643473
 21
232.015726
 31
0.0
  0
LINE
  5
18B
  8
L1
 10
628.643473
 20
225.307522
 30
0.0
 11
626.643473
 21
225.307522
 31
0.0
  0
LINE
  5
18C
  8
L1
 10
649.893473
 20
246.105054
 30
0.0
 11
649.893473
 21
261.218194
 31
0.0
  0
LINE
  5
18D
  8
L1
 10
651.393473
 20
246.105054
 30
0.0
 11
651.393473
 21
261.218194
 31
0.0
  0
ARC
  5
18E
  8
L1
 10
650.643473
 20
241.161624
 30
0.0
 40
5.0
 50
98.626927
 51
261.373073
  0
ARC
  5
18F
  8
L1
 10
650.643473
 20
241.161624
 30
0.0
 40
5.0
 50
278.626927
 51
81.373073
  0
CIRCLE
  5
190
  8
L1
 10
650.643473
 20
241.161624
 30
0.0
 40
2.4
  0
ARC
  5
191
  8
L1
 10
650.643473
 20
266.161624
 30
0.0
 40
5.0
 50
278.626927
 51
81.373073
  0
CIRCLE
  5
192
  8
L1
 10
650.643473
 20
266.161624
 30
0.0
 40
2.4
  0
ARC
  5
193
  8
L1
 10
650.643473
 20
266.161624
 30
0.0
 40
5.0
 50
98.626927
 51
261.373073
  0
ARC
  5
194
  8
L1
 10
650.643473
 20
316.161624
 30
0.0
 40
5.0
 50
278.626927
 51
81.373073
  0
ARC
  5
195
  8
L1
 10
650.643473
 20
316.161624
 30
0.0
 40
5.0
 50
98.626927
 51
261.373073
  0
LINE
  5
196
  8
L1
 10
658.143473
 20
303.661624
 30
0.0
 11
655.643473
 21
303.661624
 31
0.0
  0
CIRCLE
  5
197
  8
L1
 10
650.643473
 20
303.661624
 30
0.0
 40
2.4
  0
LINE
  5
198
  8
L1
 10
651.393473
 20
308.605054
 30
0.0
 11
651.393473
 21
311.218194
 31
0.0
  0
LINE
  5
199
  8
L1
 10
649.893473
 20
308.605054
 30
0.0
 11
649.893473
 21
311.218194
 31
0.0
  0
CIRCLE
  5
19A
  8
L1
 10
650.643473
 20
291.161624
 30
0.0
 40
2.4
  0
ARC
  5
19B
  8
L1
 10
650.643473
 20
291.161624
 30
0.0
 40
5.0
 50
278.626927
 51
81.373073
  0
LINE
  5
19C
  8
L1
 10
649.893473
 20
296.105054
 30
0.0
 11
649.893473
 21
298.718194
 31
0.0
  0
LINE
  5
19D
  8
L1
 10
651.393473
 20
296.105054
 30
0.0
 11
651.393473
 21
298.718194
 31
0.0
  0
ARC
  5
19E
  8
L1
 10
650.643473
 20
291.161624
 30
0.0
 40
5.0
 50
98.626927
 51
261.373073
  0
ARC
  5
19F
  8
L1
 10
650.643473
 20
303.661624
 30
0.0
 40
5.0
 50
98.626927
 51
261.373073
  0
ARC
  5
1A0
  8
L1
 10
650.643473
 20
303.661624
 30
0.0
 40
5.0
 50
278.626927
 51
81.373073
  0
LINE
  5
1A1
  8
L1
 10
658.143473
 20
308.512556
 30
0.0
 11
658.143473
 21
303.661624
 31
0.0
  0
CIRCLE
  5
1A2
  8
L1
 10
650.643473
 20
316.161624
 30
0.0
 40
2.4
  0
LINE
  5
1A3
  8
L1
 10
651.393473
 20
321.105054
 30
0.0
 11
651.393473
 21
336.218194
 31
0.0
  0
LINE
  5
1A4
  8
L1
 10
649.893473
 20
321.105054
 30
0.0
 11
649.893473
 21
336.218194
 31
0.0
  0
LINE
  5
1A5
  8
L21
 10
367.950442
 20
423.419679
 30
0.0
 11
350.702434
 21
406.171671
 31
0.0
  0
LINE
  5
1A6
  8
L21
 10
358.758054
 20
432.612067
 30
0.0
 11
341.510046
 21
415.364059
 31
0.0
  0
CIRCLE
  5
1A7
  8
L20
 10
351.499999
 20
391.161624
 30
0.0
 40
4.25
  0
CIRCLE
  5
1A8
  8
L20
 10
351.499999
 20
366.161624
 30
0.0
 40
4.25
  0
CIRCLE
  5
1A9
  8
L20
 10
301.499999
 20
416.161624
 30
0.0
 40
4.25
  0
CIRCLE
  5
1AA
  8
L20
 10
276.499999
 20
416.161624
 30
0.0
 40
4.25
  0
CIRCLE
  5
1AB
  8
L20
 10
326.499999
 20
416.161624
 30
0.0
 40
4.25
  0
CIRCLE
  5
1AC
  8
L20
 10
326.499999
 20
416.161624
 30
0.0
 40
4.25
  0
CIRCLE
  5
1AD
  8
L20
 10
343.999999
 20
408.661624
 30
0.0
 40
7.15
  0
ARC
  5
1AE
  8
L1
 10
365.999999
 20
430.661624
 30
0.0
 40
12.0
 50
323.130102
 51
126.869898
  0
CIRCLE
  5
1AF
  8
L1
 10
365.999999
 20
430.661624
 30
0.0
 40
3.25
  0
ARC
  5
1B0
  8
L1
 10
365.828338
 20
430.815297
 30
0.0
 40
9.82954
 50
322.288089
 51
28.899817
  0
CIRCLE
  5
1B1
  8
L1
 10
365.999999
 20
430.661624
 30
0.0
 40
7.5
  0
ARC
  5
1B2
  8
L1
 10
375.999999
 20
423.161624
 30
0.0
 40
0.5
 50
143.130102
 51
180.0
  0
ARC
  5
1B3
  8
L1
 10
373.999999
 20
424.496805
 30
0.0
 40
0.5
 50
142.288089
 51
180.0
  0
ARC
  5
1B4
  8
L1
 10
366.153672
 20
430.489963
 30
0.0
 40
9.82954
 50
61.100183
 51
127.711911
  0
ARC
  5
1B5
  8
L1
 10
359.83518
 20
438.661624
 30
0.0
 40
0.5
 50
270.0
 51
307.711911
  0
ARC
  5
1B6
  8
L1
 10
358.499999
 20
440.661624
 30
0.0
 40
0.5
 50
270.0
 51
306.869898
  0
ARC
  5
1B7
  8
L1
 10
366.554572
 20
431.216197
 30
0.0
 40
9.0
 50
28.899817
 51
61.100183
  0
LINE
  5
1B8
  8
21
 10
626.418744
 20
496.85661
 30
0.0
 11
624.143473
 21
594.85661
 31
0.0
  0
LINE
  5
1B9
  8
21
 10
645.868202
 20
496.85661
 30
0.0
 11
646.475149
 21
587.60661
 31
0.0
  0
LINE
  5
1BA
  8
21
 10
648.143473
 20
575.85661
 30
0.0
 11
648.143473
 21
587.60661
 31
0.0
  0
LINE
  5
1BB
  8
24
 10
648.338297
 20
597.85661
 30
0.0
 11
648.338297
 21
502.85661
 31
0.0
  0
LINE
  5
1BC
  8
44
 10
475.809245
 20
418.4668
 30
0.0
 11
570.809245
 21
418.4668
 31
0.0
  0
LINE
  5
1BD
  8
41
 10
576.809245
 20
440.386354
 30
0.0
 11
486.059245
 21
442.493301
 31
0.0
  0
LINE
  5
1BE
  8
41
 10
576.809245
 20
420.936895
 30
0.0
 11
486.059245
 21
418.829948
 31
0.0
  0
LINE
  5
1BF
  8
41
 10
483.769245
 20
394.661624
 30
0.0
 11
483.769245
 21
402.661624
 31
0.0
  0
LINE
  5
1C0
  8
41
 10
480.409245
 20
394.661624
 30
0.0
 11
480.409245
 21
402.661624
 31
0.0
  0
LINE
  5
1C1
  8
41
 10
483.769245
 20
367.661624
 30
0.0
 11
483.769245
 21
375.661624
 31
0.0
  0
LINE
  5
1C2
  8
41
 10
480.409245
 20
367.661624
 30
0.0
 11
480.409245
 21
375.661624
 31
0.0
  0
LINE
  5
1C3
  8
41
 10
483.769245
 20
361.661624
 30
0.0
 11
480.409245
 21
361.661624
 31
0.0
  0
LINE
  5
1C4
  8
41
 10
483.769245
 20
367.661624
 30
0.0
 11
480.409245
 21
367.661624
 31
0.0
  0
LINE
  5
1C5
  8
41
 10
483.769245
 20
375.661624
 30
0.0
 11
480.409245
 21
375.661624
 31
0.0
  0
LINE
  5
1C6
  8
41
 10
483.769245
 20
381.661624
 30
0.0
 11
480.409245
 21
381.661624
 31
0.0
  0
LINE
  5
1C7
  8
41
 10
483.769245
 20
388.661624
 30
0.0
 11
480.409245
 21
388.661624
 31
0.0
  0
LINE
  5
1C8
  8
41
 10
483.769245
 20
394.661624
 30
0.0
 11
480.409245
 21
394.661624
 31
0.0
  0
LINE
  5
1C9
  8
41
 10
483.769245
 20
381.661624
 30
0.0
 11
483.769245
 21
388.661624
 31
0.0
  0
LINE
  5
1CA
  8
41
 10
480.409245
 20
381.661624
 30
0.0
 11
480.409245
 21
388.661624
 31
0.0
  0
LINE
  5
1CB
  8
41
 10
492.829309
 20
442.33612
 30
0.0
 11
486.059245
 21
442.493301
 31
0.0
  0
LINE
  5
1CC
  8
41
 10
478.809245
 20
432.661624
 30
0.0
 11
478.809245
 21
424.009091
 31
0.0
  0
LINE
  5
1CD
  8
41
 10
475.809245
 20
425.784164
 30
0.0
 11
475.809245
 21
437.178932
 31
0.0
  0
LINE
  5
1CE
  8
41
 10
483.769245
 20
408.661624
 30
0.0
 11
483.769245
 21
430.661624
 31
0.0
  0
LINE
  5
1CF
  8
41
 10
480.409245
 20
408.661624
 30
0.0
 11
480.409245
 21
430.661624
 31
0.0
  0
LINE
  5
1D0
  8
41
 10
483.769245
 20
402.661624
 30
0.0
 11
480.409245
 21
402.661624
 31
0.0
  0
LINE
  5
1D1
  8
41
 10
483.769245
 20
408.661624
 30
0.0
 11
480.409245
 21
408.661624
 31
0.0
  0
LINE
  5
1D2
  8
41
 10
480.446824
 20
442.661624
 30
0.0
 11
484.421666
 21
442.661624
 31
0.0
  0
LINE
  5
1D3
  8
41
 10
484.421666
 20
442.661624
 30
0.0
 11
486.059245
 21
442.661624
 31
0.0
  0
LINE
  5
1D4
  8
41
 10
478.809245
 20
442.661624
 30
0.0
 11
478.809245
 21
432.661624
 31
0.0
  0
LINE
  5
1D5
  8
41
 10
475.809245
 20
437.178927
 30
0.0
 11
475.809245
 21
437.178927
 31
0.0
  0
LINE
  5
1D6
  8
41
 10
478.809245
 20
442.661624
 30
0.0
 11
480.446824
 21
442.661624
 31
0.0
  0
LINE
  5
1D7
  8
41
 10
478.809245
 20
442.661624
 30
0.0
 11
478.809245
 21
438.21399
 31
0.0
  0
ARC
  5
1D8
  8
41
 10
476.809245
 20
437.178927
 30
0.0
 40
1.0
 50
91.0
 51
180.0
  0
LINE
  5
1D9
  8
41
 10
478.809245
 20
438.21399
 30
0.0
 11
476.791793
 21
438.178775
 31
0.0
  0
LINE
  5
1DA
  8
41
 10
478.809245
 20
438.21399
 30
0.0
 11
476.791793
 21
438.178775
 31
0.0
  0
ARC
  5
1DB
  8
41
 10
476.809245
 20
437.178927
 30
0.0
 40
1.0
 50
91.0
 51
180.0
  0
LINE
  5
1DC
  8
41
 10
578.309245
 20
362.77765
 30
0.0
 11
578.309245
 21
369.545599
 31
0.0
  0
LINE
  5
1DD
  8
41
 10
578.309245
 20
369.545599
 30
0.0
 11
576.809245
 21
370.411624
 31
0.0
  0
LINE
  5
1DE
  8
41
 10
578.309245
 20
362.77765
 30
0.0
 11
576.809245
 21
361.911624
 31
0.0
  0
LINE
  5
1DF
  8
41
 10
578.309245
 20
344.545599
 30
0.0
 11
576.809245
 21
345.411624
 31
0.0
  0
LINE
  5
1E0
  8
41
 10
578.309245
 20
387.77765
 30
0.0
 11
576.809245
 21
386.911624
 31
0.0
  0
LINE
  5
1E1
  8
41
 10
578.309245
 20
394.545599
 30
0.0
 11
576.809245
 21
395.411624
 31
0.0
  0
LINE
  5
1E2
  8
41
 10
578.309245
 20
387.77765
 30
0.0
 11
578.309245
 21
394.545599
 31
0.0
  0
LINE
  5
1E3
  8
41
 10
578.809245
 20
422.661624
 30
0.0
 11
578.809245
 21
438.661624
 31
0.0
  0
LINE
  5
1E4
  8
41
 10
578.809245
 20
422.661624
 30
0.0
 11
576.809245
 21
422.626714
 31
0.0
  0
ARC
  5
1E5
  8
44
 10
570.809245
 20
416.4668
 30
0.0
 40
2.0
 50
0.0
 51
90.0
  0
LINE
  5
1E6
  8
41
 10
578.309245
 20
412.77765
 30
0.0
 11
578.309245
 21
419.545599
 31
0.0
  0
LINE
  5
1E7
  8
41
 10
578.309245
 20
419.545599
 30
0.0
 11
576.809245
 21
420.411624
 31
0.0
  0
LINE
  5
1E8
  8
41
 10
578.309245
 20
403.02765
 30
0.0
 11
576.809245
 21
402.161624
 31
0.0
  0
LINE
  5
1E9
  8
41
 10
578.309245
 20
414.295599
 30
0.0
 11
576.809245
 21
415.161624
 31
0.0
  0
LINE
  5
1EA
  8
41
 10
578.309245
 20
403.02765
 30
0.0
 11
578.309245
 21
414.295599
 31
0.0
  0
LINE
  5
1EB
  8
41
 10
578.809245
 20
438.661624
 30
0.0
 11
576.809245
 21
438.696534
 31
0.0
  0
LINE
  5
1EC
  8
L1
 10
623.643473
 20
395.361624
 30
0.0
 11
623.643473
 21
404.961624
 31
0.0
  0
LINE
  5
1ED
  8
L1
 10
626.643473
 20
403.307522
 30
0.0
 11
626.643473
 21
396.015726
 31
0.0
  0
LINE
  5
1EE
  8
L1
 10
626.643473
 20
403.307522
 30
0.0
 11
626.643473
 21
396.015726
 31
0.0
  0
LINE
  5
1EF
  8
L1
 10
626.643473
 20
375.307522
 30
0.0
 11
626.643473
 21
368.015726
 31
0.0
  0
LINE
  5
1F0
  8
L1
 10
626.643473
 20
375.307522
 30
0.0
 11
626.643473
 21
368.015726
 31
0.0
  0
LINE
  5
1F1
  8
L1
 10
630.781655
 20
361.642711
 30
0.0
 11
632.951655
 21
361.642711
 31
0.0
  0
LINE
  5
1F2
  8
L1
 10
630.689533
 20
367.680538
 30
0.0
 11
632.859533
 21
367.680538
 31
0.0
  0
LINE
  5
1F3
  8
L1
 10
628.643473
 20
368.015726
 30
0.0
 11
626.643473
 21
368.015726
 31
0.0
  0
LINE
  5
1F4
  8
L1
 10
628.643473
 20
361.307522
 30
0.0
 11
626.643473
 21
361.307522
 31
0.0
  0
LINE
  5
1F5
  8
L1
 10
630.689533
 20
395.680538
 30
0.0
 11
632.859533
 21
395.680538
 31
0.0
  0
LINE
  5
1F6
  8
L1
 10
630.781655
 20
389.642711
 30
0.0
 11
632.951655
 21
389.642711
 31
0.0
  0
LINE
  5
1F7
  8
L1
 10
630.781655
 20
375.642711
 30
0.0
 11
632.951655
 21
375.642711
 31
0.0
  0
LINE
  5
1F8
  8
L1
 10
630.689533
 20
381.680538
 30
0.0
 11
632.859533
 21
381.680538
 31
0.0
  0
LINE
  5
1F9
  8
L1
 10
623.643473
 20
393.411624
 30
0.0
 11
623.643473
 21
395.361624
 31
0.0
  0
LINE
  5
1FA
  8
L1
 10
623.643473
 20
393.411624
 30
0.0
 11
624.143473
 21
393.411624
 31
0.0
  0
LINE
  5
1FB
  8
L1
 10
628.643473
 20
396.015726
 30
0.0
 11
626.643473
 21
396.015726
 31
0.0
  0
LINE
  5
1FC
  8
L1
 10
626.643473
 20
389.307522
 30
0.0
 11
626.643473
 21
382.015726
 31
0.0
  0
LINE
  5
1FD
  8
L1
 10
626.643473
 20
389.307522
 30
0.0
 11
626.643473
 21
382.015726
 31
0.0
  0
LINE
  5
1FE
  8
L1
 10
628.643473
 20
389.307522
 30
0.0
 11
626.643473
 21
389.307522
 31
0.0
  0
LINE
  5
1FF
  8
L1
 10
628.643473
 20
382.015726
 30
0.0
 11
626.643473
 21
382.015726
 31
0.0
  0
LINE
  5
200
  8
L1
 10
628.643473
 20
375.307522
 30
0.0
 11
626.643473
 21
375.307522
 31
0.0
  0
LINE
  5
201
  8
L1
 10
649.893473
 20
386.218194
 30
0.0
 11
649.893473
 21
371.105054
 31
0.0
  0
LINE
  5
202
  8
L1
 10
651.393473
 20
386.218194
 30
0.0
 11
651.393473
 21
371.105054
 31
0.0
  0
ARC
  5
203
  8
L1
 10
650.643473
 20
366.161624
 30
0.0
 40
5.0
 50
278.626927
 51
81.373073
  0
CIRCLE
  5
204
  8
L1
 10
650.643473
 20
366.161624
 30
0.0
 40
2.4
  0
ARC
  5
205
  8
L1
 10
650.643473
 20
366.161624
 30
0.0
 40
5.0
 50
98.626927
 51
261.373073
  0
LINE
  5
206
  8
L1
 10
649.893473
 20
346.105054
 30
0.0
 11
649.893473
 21
361.218194
 31
0.0
  0
LINE
  5
207
  8
L1
 10
651.393473
 20
346.105054
 30
0.0
 11
651.393473
 21
361.218194
 31
0.0
  0
ARC
  5
208
  8
L1
 10
650.643473
 20
391.161624
 30
0.0
 40
5.0
 50
278.626927
 51
90.0
  0
CIRCLE
  5
209
  8
L1
 10
650.643473
 20
391.161624
 30
0.0
 40
2.4
  0
ARC
  5
20A
  8
L1
 10
650.643473
 20
391.161624
 30
0.0
 40
5.0
 50
90.0
 51
261.373073
  0
LINE
  5
20B
  8
L1
 10
643.253738
 20
426.379787
 30
0.0
 11
644.576077
 21
425.057447
 31
0.0
  0
LINE
  5
20C
  8
L1
 10
643.253738
 20
434.943462
 30
0.0
 11
644.576077
 21
436.265802
 31
0.0
  0
CIRCLE
  5
20D
  8
L1
 10
636.143473
 20
430.661624
 30
0.0
 40
10.125
  0
ARC
  5
20E
  8
L1
 10
636.143473
 20
430.661624
 30
0.0
 40
12.0
 50
270.0
 51
360.0
  0
ARC
  5
20F
  8
L2
 10
636.143473
 20
430.661624
 30
0.0
 40
14.200352
 50
270.0
 51
0.0
  0
CIRCLE
  5
210
  8
L1
 10
636.143473
 20
430.661624
 30
0.0
 40
8.325
  0
ARC
  5
211
  8
L2
 10
636.143473
 20
430.661624
 30
0.0
 40
8.0
 50
260.0
 51
170.0
  0
CIRCLE
  5
212
  8
L1
 10
636.143473
 20
430.661624
 30
0.0
 40
6.75
  0
CIRCLE
  5
213
  8
L1
 10
636.143473
 20
430.661624
 30
0.0
 40
3.25
  0
CIRCLE
  5
214
  8
L2
 10
636.143473
 20
430.661624
 30
0.0
 40
5.424871
  0
LINE
  5
215
  8
L1
 10
631.861635
 20
423.55136
 30
0.0
 11
630.539295
 21
422.22902
 31
0.0
  0
LINE
  5
216
  8
L1
 10
630.689533
 20
409.680538
 30
0.0
 11
632.859533
 21
409.680538
 31
0.0
  0
LINE
  5
217
  8
L1
 10
630.781655
 20
403.642711
 30
0.0
 11
632.951655
 21
403.642711
 31
0.0
  0
ARC
  5
218
  8
L1
 10
636.043473
 20
413.136796
 30
0.0
 40
7.4
 50
90.0
 51
180.0
  0
ARC
  5
219
  8
L1
 10
636.043473
 20
413.261624
 30
0.0
 40
5.4
 50
95.886842
 51
180.0
  0
LINE
  5
21A
  8
L1
 10
629.033208
 20
426.379787
 30
0.0
 11
627.710868
 21
425.057447
 31
0.0
  0
ARC
  5
21B
  8
L1
 10
626.843473
 20
420.336796
 30
0.0
 40
0.2
 50
90.0
 51
180.0
  0
ARC
  5
21C
  8
L1
 10
628.443473
 20
420.336796
 30
0.0
 40
0.2
 50
0.0
 51
90.0
  0
LINE
  5
21D
  8
L1
 10
628.443473
 20
420.536796
 30
0.0
 11
626.843473
 21
420.536796
 31
0.0
  0
LINE
  5
21E
  8
L1
 10
628.643473
 20
410.015726
 30
0.0
 11
626.643473
 21
410.015726
 31
0.0
  0
LINE
  5
21F
  8
L1
 10
623.643473
 20
404.961624
 30
0.0
 11
623.643473
 21
406.894164
 31
0.0
  0
LINE
  5
220
  8
L1
 10
623.643473
 20
406.894164
 30
0.0
 11
624.143473
 21
406.894164
 31
0.0
  0
LINE
  5
221
  8
L1
 10
628.643473
 20
403.307522
 30
0.0
 11
626.643473
 21
403.307522
 31
0.0
  0
LINE
  5
222
  8
L1
 10
626.643473
 20
420.336796
 30
0.0
 11
626.643473
 21
410.015726
 31
0.0
  0
LINE
  5
223
  8
L1
 10
640.425311
 20
423.55136
 30
0.0
 11
641.74765
 21
422.22902
 31
0.0
  0
LINE
  5
224
  8
L1
 10
636.202397
 20
420.536796
 30
0.0
 11
636.043473
 21
420.536796
 31
0.0
  0
LINE
  5
225
  8
L1
 10
636.143473
 20
418.661624
 30
0.0
 11
636.043473
 21
418.661624
 31
0.0
  0
ARC
  5
226
  8
L1
 10
636.043473
 20
413.261624
 30
0.0
 40
5.4
 50
90.0
 51
95.886842
  0
ARC
  5
227
  8
L2
 10
636.293473
 20
415.071966
 30
0.0
 40
1.5
 50
117.225904
 51
180.0
  0
ARC
  5
228
  8
L1
 10
634.313473
 20
416.756921
 30
0.0
 40
1.5
 50
116.333146
 51
180.0
  0
LINE
  5
229
  8
L1
 10
631.861635
 20
437.771889
 30
0.0
 11
630.539295
 21
439.094229
 31
0.0
  0
ARC
  5
22A
  8
L1
 10
636.143473
 20
430.661624
 30
0.0
 40
12.0
 50
90.0
 51
180.0
  0
LINE
  5
22B
  8
L1
 10
629.033208
 20
434.943462
 30
0.0
 11
627.710868
 21
436.265802
 31
0.0
  0
LINE
  5
22C
  8
L1
 10
640.425311
 20
437.771889
 30
0.0
 11
641.74765
 21
439.094229
 31
0.0
  0
CIRCLE
  5
22D
  8
L1
 10
658.143473
 20
408.595057
 30
0.0
 40
6.0
  0
CIRCLE
  5
22E
  8
L1
 10
658.143473
 20
408.595057
 30
0.0
 40
3.0
  0
ARC
  5
22F
  8
L1
 10
653.543473
 20
430.761624
 30
0.0
 40
5.4
 50
90.0
 51
180.0
  0
LINE
  5
230
  8
L1
 10
656.789371
 20
438.161624
 30
0.0
 11
656.789371
 21
440.161624
 31
0.0
  0
LINE
  5
231
  8
L1
 10
648.143473
 20
430.661624
 30
0.0
 11
648.143473
 21
430.761624
 31
0.0
  0
ARC
  5
232
  8
L1
 10
650.048176
 20
432.491624
 30
0.0
 40
1.5
 50
90.0
 51
153.666854
  0
LINE
  5
233
  8
L1
 10
657.124559
 20
436.115564
 30
0.0
 11
657.124559
 21
433.945564
 31
0.0
  0
LINE
  5
234
  8
L1
 10
646.268473
 20
438.361624
 30
0.0
 11
646.268473
 21
439.961624
 31
0.0
  0
ARC
  5
235
  8
L1
 10
646.468473
 20
438.361624
 30
0.0
 40
0.2
 50
180.0
 51
270.0
  0
ARC
  5
236
  8
L1
 10
646.468473
 20
439.961624
 30
0.0
 40
0.2
 50
90.0
 51
180.0
  0
LINE
  5
237
  8
L1
 10
646.268473
 20
430.661624
 30
0.0
 11
646.268473
 21
430.761624
 31
0.0
  0
LINE
  5
238
  8
L1
 10
646.468473
 20
440.161624
 30
0.0
 11
656.789371
 21
440.161624
 31
0.0
  0
ARC
  5
239
  8
L1
 10
653.668473
 20
430.761624
 30
0.0
 40
7.4
 50
90.0
 51
180.0
  0
LINE
  5
23A
  8
L1
 10
670.789371
 20
438.161624
 30
0.0
 11
670.789371
 21
440.161624
 31
0.0
  0
LINE
  5
23B
  8
L1
 10
663.497575
 20
438.161624
 30
0.0
 11
663.497575
 21
440.161624
 31
0.0
  0
LINE
  5
23C
  8
L1
 10
663.497575
 20
440.161624
 30
0.0
 11
670.789371
 21
440.161624
 31
0.0
  0
LINE
  5
23D
  8
L1
 10
663.162386
 20
436.023442
 30
0.0
 11
663.162386
 21
433.853442
 31
0.0
  0
LINE
  5
23E
  8
21
 10
644.143473
 20
494.85661
 30
0.0
 11
628.143473
 21
494.85661
 31
0.0
  0
LINE
  5
23F
  8
21
 10
628.143473
 20
494.85661
 30
0.0
 11
628.108563
 21
496.85661
 31
0.0
  0
LINE
  5
240
  8
21
 10
644.143473
 20
494.85661
 30
0.0
 11
644.178383
 21
496.85661
 31
0.0
  0
LINE
  5
241
  8
21
 10
663.777447
 20
495.35661
 30
0.0
 11
652.509498
 21
495.35661
 31
0.0
  0
LINE
  5
242
  8
21
 10
652.509498
 20
495.35661
 30
0.0
 11
651.643473
 21
496.85661
 31
0.0
  0
LINE
  5
243
  8
21
 10
653.527447
 20
495.35661
 30
0.0
 11
646.759498
 21
495.35661
 31
0.0
  0
LINE
  5
244
  8
21
 10
646.759498
 20
495.35661
 30
0.0
 11
645.893473
 21
496.85661
 31
0.0
  0
ARC
  5
245
  8
24
 10
650.338297
 20
502.85661
 30
0.0
 40
2.0
 50
180.0
 51
270.0
  0
LINE
  5
246
  8
21
 10
663.777447
 20
495.35661
 30
0.0
 11
664.643473
 21
496.85661
 31
0.0
  0
ARC
  5
247
  8
21
 10
650.143473
 20
575.85661
 30
0.0
 40
2.0
 50
180.0
 51
270.0
  0
LINE
  5
248
  8
21
 10
658.143473
 20
589.89661
 30
0.0
 11
636.143473
 21
589.89661
 31
0.0
  0
LINE
  5
249
  8
21
 10
658.143473
 20
593.25661
 30
0.0
 11
636.143473
 21
593.25661
 31
0.0
  0
LINE
  5
24A
  8
21
 10
628.591108
 20
594.85661
 30
0.0
 11
628.626322
 21
596.874063
 31
0.0
  0
ARC
  5
24B
  8
21
 10
629.62617
 20
596.85661
 30
0.0
 40
1.0
 50
90.0
 51
179.0
  0
LINE
  5
24C
  8
21
 10
664.143473
 20
589.89661
 30
0.0
 11
664.143473
 21
593.25661
 31
0.0
  0
LINE
  5
24D
  8
21
 10
658.143473
 20
589.89661
 30
0.0
 11
658.143473
 21
593.25661
 31
0.0
  0
LINE
  5
24E
  8
34
 10
1150.477701
 20
188.856448
 30
0.0
 11
1055.477701
 21
188.856448
 31
0.0
  0
LINE
  5
24F
  8
31
 10
1049.477701
 20
420.936895
 30
0.0
 11
1140.227701
 21
418.829948
 31
0.0
  0
LINE
  5
250
  8
31
 10
1049.477701
 20
440.386354
 30
0.0
 11
1140.227701
 21
442.493301
 31
0.0
  0
LINE
  5
251
  8
33
  6
DASHDOT
 10
1039.477701
 20
303.661624
 30
0.0
 11
1160.477701
 21
303.661624
 31
0.0
  0
LINE
  5
252
  8
31
 10
1049.477701
 20
166.936895
 30
0.0
 11
1140.227701
 21
164.829948
 31
0.0
  0
LINE
  5
253
  8
31
 10
1049.477701
 20
186.386354
 30
0.0
 11
1140.227701
 21
188.493301
 31
0.0
  0
LINE
  5
254
  8
34
 10
1150.477701
 20
418.4668
 30
0.0
 11
1055.477701
 21
418.4668
 31
0.0
  0
LINE
  5
255
  8
L6
 10
813.143473
 20
453.270111
 30
0.0
 11
813.143473
 21
152.259458
 31
0.0
  0
LINE
  5
256
  8
L1
 10
999.643473
 20
361.307522
 30
0.0
 11
999.643473
 21
303.661624
 31
0.0
  0
LINE
  5
257
  8
L1
 10
995.643473
 20
413.261624
 30
0.0
 11
995.643473
 21
303.661624
 31
0.0
  0
ARC
  5
258
  8
L1
 10
975.643473
 20
341.161624
 30
0.0
 40
5.0
 50
98.626927
 51
261.373073
  0
CIRCLE
  5
259
  8
L1
 10
975.643473
 20
341.161624
 30
0.0
 40
2.4
  0
ARC
  5
25A
  8
L1
 10
975.643473
 20
341.161624
 30
0.0
 40
5.0
 50
278.626927
 51
81.373073
  0
LINE
  5
25B
  8
L2
 10
991.493473
 20
415.071966
 30
0.0
 11
991.493473
 21
303.661624
 31
0.0
  0
LINE
  5
25C
  8
L1
 10
993.473473
 20
416.756921
 30
0.0
 11
993.473473
 21
303.661624
 31
0.0
  0
LINE
  5
25D
  8
L1
 10
1002.143473
 20
430.661624
 30
0.0
 11
1002.143473
 21
303.661624
 31
0.0
  0
LINE
  5
25E
  8
L1
 10
997.643473
 20
420.336796
 30
0.0
 11
997.643473
 21
303.661624
 31
0.0
  0
LINE
  5
25F
  8
31
 10
1047.977701
 20
337.77765
 30
0.0
 11
1047.977701
 21
344.545599
 31
0.0
  0
LINE
  5
260
  8
31
 10
1049.477701
 20
303.661624
 30
0.0
 11
1049.477701
 21
440.386354
 31
0.0
  0
LINE
  5
261
  8
34
 10
1053.477701
 20
303.661624
 30
0.0
 11
1053.477701
 21
416.4668
 31
0.0
  0
LINE
  5
262
  8
L1
 10
895.700043
 20
190.411624
 30
0.0
 11
880.586903
 21
190.411624
 31
0.0
  0
LINE
  5
263
  8
L1
 10
895.700043
 20
191.911624
 30
0.0
 11
880.586903
 21
191.911624
 31
0.0
  0
LINE
  5
264
  8
L1
 10
920.789371
 20
167.161624
 30
0.0
 11
813.143473
 21
167.161624
 31
0.0
  0
LINE
  5
265
  8
L2
 10
974.553814
 20
175.311624
 30
0.0
 11
813.143473
 21
175.311624
 31
0.0
  0
LINE
  5
266
  8
L1
 10
976.23877
 20
173.331624
 30
0.0
 11
813.143473
 21
173.331624
 31
0.0
  0
LINE
  5
267
  8
L1
 10
972.743473
 20
171.161624
 30
0.0
 11
813.143473
 21
171.161624
 31
0.0
  0
LINE
  5
268
  8
L1
 10
979.818473
 20
169.161624
 30
0.0
 11
813.143473
 21
169.161624
 31
0.0
  0
LINE
  5
269
  8
L1
 10
990.143473
 20
164.661624
 30
0.0
 11
813.143473
 21
164.661624
 31
0.0
  0
LINE
  5
26A
  8
14
 10
833.695914
 20
106.466638
 30
0.0
 11
975.948649
 21
106.466638
 31
0.0
  0
LINE
  5
26B
  8
11
 10
813.143473
 20
12.466638
 30
0.0
 11
1002.143473
 21
12.466638
 31
0.0
  0
LINE
  5
26C
  8
11
 10
813.143473
 20
9.466638
 30
0.0
 11
996.660776
 21
9.466638
 31
0.0
  0
LINE
  5
26D
  8
11
 10
813.143473
 20
110.466638
 30
0.0
 11
999.868202
 21
110.466638
 31
0.0
  0
LINE
  5
26E
  8
11
 10
813.143473
 20
14.066638
 30
0.0
 11
921.143473
 21
14.066638
 31
0.0
  0
LINE
  5
26F
  8
11
 10
813.143473
 20
17.426638
 30
0.0
 11
921.143473
 21
17.426638
 31
0.0
  0
LINE
  5
270
  8
11
 10
813.143473
 20
19.716638
 30
0.0
 11
990.143473
 21
19.716638
 31
0.0
  0
LINE
  5
271
  8
14
 10
755.665442
 20
106.466296
 30
0.0
 11
755.586903
 21
97.466638
 31
0.0
  0
LINE
  5
272
  8
14
 10
760.722012
 20
106.466296
 30
0.0
 11
760.643473
 21
97.466638
 31
0.0
  0
LINE
  5
273
  8
14
 10
740.564934
 20
106.466296
 30
0.0
 11
740.643473
 21
97.466638
 31
0.0
  0
LINE
  5
274
  8
14
 10
745.621504
 20
106.466296
 30
0.0
 11
745.700043
 21
97.466638
 31
0.0
  0
LINE
  5
275
  8
13
  6
DASHDOT
 10
813.143473
 20
117.247327
 30
0.0
 11
813.143473
 21
0.0
 31
0.0
  0
LINE
  5
276
  8
11
 10
813.143473
 20
17.426638
 30
0.0
 11
705.143473
 21
17.426638
 31
0.0
  0
LINE
  5
277
  8
11
 10
813.143473
 20
14.066638
 30
0.0
 11
705.143473
 21
14.066638
 31
0.0
  0
LINE
  5
278
  8
11
 10
699.143473
 20
14.066638
 30
0.0
 11
691.143473
 21
14.066638
 31
0.0
  0
LINE
  5
279
  8
11
 10
699.143473
 20
17.426638
 30
0.0
 11
691.143473
 21
17.426638
 31
0.0
  0
LINE
  5
27A
  8
11
 10
672.143473
 20
17.426638
 30
0.0
 11
672.143473
 21
14.066638
 31
0.0
  0
LINE
  5
27B
  8
11
 10
678.143473
 20
17.426638
 30
0.0
 11
678.143473
 21
14.066638
 31
0.0
  0
LINE
  5
27C
  8
11
 10
685.143473
 20
17.426638
 30
0.0
 11
685.143473
 21
14.066638
 31
0.0
  0
LINE
  5
27D
  8
11
 10
691.143473
 20
17.426638
 30
0.0
 11
691.143473
 21
14.066638
 31
0.0
  0
LINE
  5
27E
  8
11
 10
685.143473
 20
14.066638
 30
0.0
 11
678.143473
 21
14.066638
 31
0.0
  0
LINE
  5
27F
  8
11
 10
685.143473
 20
17.426638
 30
0.0
 11
678.143473
 21
17.426638
 31
0.0
  0
LINE
  5
280
  8
11
 10
680.143473
 20
31.466638
 30
0.0
 11
680.143473
 21
19.716638
 31
0.0
  0
ARC
  5
281
  8
11
 10
678.143473
 20
31.466638
 30
0.0
 40
2.0
 50
0.0
 51
90.0
  0
LINE
  5
282
  8
11
 10
699.143473
 20
17.426638
 30
0.0
 11
699.143473
 21
14.066638
 31
0.0
  0
LINE
  5
283
  8
11
 10
705.143473
 20
17.426638
 30
0.0
 11
705.143473
 21
14.066638
 31
0.0
  0
LINE
  5
284
  8
14
 10
750.643473
 20
97.466638
 30
0.0
 11
740.643473
 21
97.466638
 31
0.0
  0
LINE
  5
285
  8
14
 10
750.643473
 20
97.466638
 30
0.0
 11
760.643473
 21
97.466638
 31
0.0
  0
CIRCLE
  5
286
  8
L1
 10
775.643473
 20
191.161624
 30
0.0
 40
2.4
  0
ARC
  5
287
  8
L1
 10
775.643473
 20
191.161624
 30
0.0
 40
5.0
 50
8.626927
 51
171.373073
  0
ARC
  5
288
  8
L1
 10
775.643473
 20
191.161624
 30
0.0
 40
5.0
 50
188.626927
 51
351.373073
  0
LINE
  5
289
  8
L1
 10
705.497575
 20
167.161624
 30
0.0
 11
813.143473
 21
167.161624
 31
0.0
  0
LINE
  5
28A
  8
11
 10
779.027447
 20
111.966638
 30
0.0
 11
772.259498
 21
111.966638
 31
0.0
  0
ARC
  5
28B
  8
L1
 10
725.643473
 20
191.161624
 30
0.0
 40
5.0
 50
8.626927
 51
171.373073
  0
CIRCLE
  5
28C
  8
L1
 10
725.643473
 20
191.161624
 30
0.0
 40
2.4
  0
ARC
  5
28D
  8
L1
 10
725.643473
 20
191.161624
 30
0.0
 40
5.0
 50
188.626927
 51
351.373073
  0
LINE
  5
28E
  8
11
 10
729.027447
 20
111.966638
 30
0.0
 11
722.259498
 21
111.966638
 31
0.0
  0
LINE
  5
28F
  8
11
 10
704.027447
 20
111.966638
 30
0.0
 11
697.259498
 21
111.966638
 31
0.0
  0
LINE
  5
290
  8
11
 10
679.027447
 20
111.966638
 30
0.0
 11
672.259498
 21
111.966638
 31
0.0
  0
LINE
  5
291
  8
11
 10
672.259498
 20
111.966638
 30
0.0
 11
671.393473
 21
110.466638
 31
0.0
  0
LINE
  5
292
  8
11
 10
679.027447
 20
111.966638
 30
0.0
 11
679.893473
 21
110.466638
 31
0.0
  0
LINE
  5
293
  8
11
 10
697.259498
 20
111.966638
 30
0.0
 11
696.393473
 21
110.466638
 31
0.0
  0
LINE
  5
294
  8
11
 10
704.027447
 20
111.966638
 30
0.0
 11
704.893473
 21
110.466638
 31
0.0
  0
LINE
  5
295
  8
11
 10
722.259498
 20
111.966638
 30
0.0
 11
721.393473
 21
110.466638
 31
0.0
  0
ARC
  5
296
  8
L1
 10
700.643473
 20
191.161624
 30
0.0
 40
5.0
 50
8.626927
 51
171.373073
  0
ARC
  5
297
  8
L1
 10
700.643473
 20
191.161624
 30
0.0
 40
5.0
 50
188.626927
 51
351.373073
  0
LINE
  5
298
  8
L1
 10
691.497575
 20
167.161624
 30
0.0
 11
698.789371
 21
167.161624
 31
0.0
  0
CIRCLE
  5
299
  8
L1
 10
675.643473
 20
191.161624
 30
0.0
 40
2.4
  0
LINE
  5
29A
  8
L1
 10
680.586903
 20
190.411624
 30
0.0
 11
695.700043
 21
190.411624
 31
0.0
  0
LINE
  5
29B
  8
L1
 10
680.586903
 20
191.911624
 30
0.0
 11
695.700043
 21
191.911624
 31
0.0
  0
LINE
  5
29C
  8
L1
 10
677.497575
 20
167.161624
 30
0.0
 11
684.789371
 21
167.161624
 31
0.0
  0
LINE
  5
29D
  8
L1
 10
677.162386
 20
171.299807
 30
0.0
 11
677.162386
 21
173.331624
 31
0.0
  0
LINE
  5
29E
  8
L1
 10
677.497575
 20
169.161624
 30
0.0
 11
677.497575
 21
167.161624
 31
0.0
  0
LINE
  5
29F
  8
L1
 10
671.124559
 20
171.207685
 30
0.0
 11
671.124559
 21
173.377685
 31
0.0
  0
LINE
  5
2A0
  8
L1
 10
691.162386
 20
171.299807
 30
0.0
 11
691.162386
 21
173.469807
 31
0.0
  0
LINE
  5
2A1
  8
L1
 10
691.497575
 20
169.161624
 30
0.0
 11
691.497575
 21
167.161624
 31
0.0
  0
LINE
  5
2A2
  8
L1
 10
685.124559
 20
171.207685
 30
0.0
 11
685.124559
 21
173.377685
 31
0.0
  0
LINE
  5
2A3
  8
L1
 10
684.789371
 20
169.161624
 30
0.0
 11
684.789371
 21
167.161624
 31
0.0
  0
CIRCLE
  5
2A4
  8
L1
 10
700.643473
 20
191.161624
 30
0.0
 40
2.4
  0
LINE
  5
2A5
  8
L1
 10
705.586903
 20
191.911624
 30
0.0
 11
720.700043
 21
191.911624
 31
0.0
  0
LINE
  5
2A6
  8
L1
 10
705.586903
 20
190.411624
 30
0.0
 11
720.700043
 21
190.411624
 31
0.0
  0
LINE
  5
2A7
  8
L1
 10
705.162386
 20
171.299807
 30
0.0
 11
705.162386
 21
173.469807
 31
0.0
  0
LINE
  5
2A8
  8
L1
 10
705.497575
 20
169.161624
 30
0.0
 11
705.497575
 21
167.161624
 31
0.0
  0
LINE
  5
2A9
  8
L1
 10
699.124559
 20
171.207685
 30
0.0
 11
699.124559
 21
173.377685
 31
0.0
  0
LINE
  5
2AA
  8
L1
 10
698.789371
 20
169.161624
 30
0.0
 11
698.789371
 21
167.161624
 31
0.0
  0
LINE
  5
2AB
  8
L1
 10
721.643473
 20
164.161624
 30
0.0
 11
721.643473
 21
164.661624
 31
0.0
  0
LINE
  5
2AC
  8
L1
 10
720.143473
 20
164.161624
 30
0.0
 11
721.643473
 21
164.161624
 31
0.0
  0
LINE
  5
2AD
  8
L1
 10
711.643473
 20
164.161624
 30
0.0
 11
711.643473
 21
164.661624
 31
0.0
  0
LINE
  5
2AE
  8
L1
 10
711.643473
 20
164.161624
 30
0.0
 11
713.143473
 21
164.161624
 31
0.0
  0
LINE
  5
2AF
  8
L1
 10
711.643473
 20
164.161624
 30
0.0
 11
713.143473
 21
164.161624
 31
0.0
  0
LINE
  5
2B0
  8
L1
 10
713.143473
 20
164.161624
 30
0.0
 11
720.143473
 21
164.161624
 31
0.0
  0
LINE
  5
2B1
  8
11
 10
754.027447
 20
111.966638
 30
0.0
 11
747.259498
 21
111.966638
 31
0.0
  0
LINE
  5
2B2
  8
11
 10
729.027447
 20
111.966638
 30
0.0
 11
729.893473
 21
110.466638
 31
0.0
  0
LINE
  5
2B3
  8
11
 10
747.259498
 20
111.966638
 30
0.0
 11
746.393473
 21
110.466638
 31
0.0
  0
LINE
  5
2B4
  8
11
 10
754.027447
 20
111.966638
 30
0.0
 11
754.893473
 21
110.466638
 31
0.0
  0
LINE
  5
2B5
  8
11
 10
772.259498
 20
111.966638
 30
0.0
 11
771.393473
 21
110.466638
 31
0.0
  0
CIRCLE
  5
2B6
  8
L1
 10
750.643473
 20
191.161624
 30
0.0
 40
2.4
  0
ARC
  5
2B7
  8
L1
 10
750.643473
 20
191.161624
 30
0.0
 40
5.0
 50
8.626927
 51
171.373073
  0
ARC
  5
2B8
  8
L1
 10
750.643473
 20
191.161624
 30
0.0
 40
5.0
 50
188.626927
 51
351.373073
  0
LINE
  5
2B9
  8
L1
 10
730.586903
 20
191.911624
 30
0.0
 11
745.700043
 21
191.911624
 31
0.0
  0
LINE
  5
2BA
  8
L1
 10
730.586903
 20
190.411624
 30
0.0
 11
745.700043
 21
190.411624
 31
0.0
  0
LINE
  5
2BB
  8
L1
 10
755.586903
 20
190.411624
 30
0.0
 11
770.700043
 21
190.411624
 31
0.0
  0
LINE
  5
2BC
  8
L1
 10
755.586903
 20
191.911624
 30
0.0
 11
770.700043
 21
191.911624
 31
0.0
  0
ARC
  5
2BD
  8
L1
 10
825.643473
 20
191.161624
 30
0.0
 40
5.0
 50
8.626927
 51
171.373073
  0
ARC
  5
2BE
  8
L1
 10
825.643473
 20
191.161624
 30
0.0
 40
5.0
 50
188.626927
 51
351.373073
  0
LINE
  5
2BF
  8
11
 10
779.027447
 20
111.966638
 30
0.0
 11
779.893473
 21
110.466638
 31
0.0
  0
ARC
  5
2C0
  8
L1
 10
800.643473
 20
191.161624
 30
0.0
 40
5.0
 50
8.626927
 51
171.373073
  0
ARC
  5
2C1
  8
L1
 10
800.643473
 20
191.161624
 30
0.0
 40
5.0
 50
188.626927
 51
351.373073
  0
CIRCLE
  5
2C2
  8
L1
 10
800.643473
 20
191.161624
 30
0.0
 40
2.4
  0
LINE
  5
2C3
  8
L1
 10
780.586903
 20
191.911624
 30
0.0
 11
795.700043
 21
191.911624
 31
0.0
  0
LINE
  5
2C4
  8
L1
 10
780.586903
 20
190.411624
 30
0.0
 11
795.700043
 21
190.411624
 31
0.0
  0
CIRCLE
  5
2C5
  8
L1
 10
825.643473
 20
191.161624
 30
0.0
 40
2.4
  0
ARC
  5
2C6
  8
L1
 10
813.143473
 20
191.161624
 30
0.0
 40
5.0
 50
8.626927
 51
171.373073
  0
CIRCLE
  5
2C7
  8
L1
 10
813.143473
 20
191.161624
 30
0.0
 40
2.4
  0
ARC
  5
2C8
  8
L1
 10
813.143473
 20
191.161624
 30
0.0
 40
5.0
 50
188.626927
 51
351.373073
  0
LINE
  5
2C9
  8
L1
 10
805.586903
 20
191.911624
 30
0.0
 11
808.200043
 21
191.911624
 31
0.0
  0
LINE
  5
2CA
  8
L1
 10
805.586903
 20
190.411624
 30
0.0
 11
808.200043
 21
190.411624
 31
0.0
  0
LINE
  5
2CB
  8
L1
 10
805.586903
 20
191.911624
 30
0.0
 11
808.200043
 21
191.911624
 31
0.0
  0
LINE
  5
2CC
  8
L1
 10
805.586903
 20
190.411624
 30
0.0
 11
808.200043
 21
190.411624
 31
0.0
  0
LINE
  5
2CD
  8
L1
 10
820.700043
 20
190.411624
 30
0.0
 11
818.086903
 21
190.411624
 31
0.0
  0
LINE
  5
2CE
  8
L1
 10
820.700043
 20
191.911624
 30
0.0
 11
818.086903
 21
191.911624
 31
0.0
  0
LINE
  5
2CF
  8
11
 10
847.259498
 20
111.966638
 30
0.0
 11
854.027447
 21
111.966638
 31
0.0
  0
LINE
  5
2D0
  8
11
 10
854.027447
 20
111.966638
 30
0.0
 11
854.893473
 21
110.466638
 31
0.0
  0
LINE
  5
2D1
  8
11
 10
872.259498
 20
111.966638
 30
0.0
 11
879.027447
 21
111.966638
 31
0.0
  0
LINE
  5
2D2
  8
11
 10
879.027447
 20
111.966638
 30
0.0
 11
879.893473
 21
110.466638
 31
0.0
  0
LINE
  5
2D3
  8
11
 10
872.259498
 20
111.966638
 30
0.0
 11
871.393473
 21
110.466638
 31
0.0
  0
LINE
  5
2D4
  8
L1
 10
870.700043
 20
191.911624
 30
0.0
 11
855.586903
 21
191.911624
 31
0.0
  0
LINE
  5
2D5
  8
L1
 10
870.700043
 20
190.411624
 30
0.0
 11
855.586903
 21
190.411624
 31
0.0
  0
CIRCLE
  5
2D6
  8
L1
 10
850.643473
 20
191.161624
 30
0.0
 40
2.4
  0
ARC
  5
2D7
  8
L1
 10
850.643473
 20
191.161624
 30
0.0
 40
5.0
 50
8.626927
 51
171.373073
  0
LINE
  5
2D8
  8
L1
 10
845.700043
 20
190.411624
 30
0.0
 11
830.586903
 21
190.411624
 31
0.0
  0
LINE
  5
2D9
  8
L1
 10
845.700043
 20
191.911624
 30
0.0
 11
830.586903
 21
191.911624
 31
0.0
  0
ARC
  5
2DA
  8
L1
 10
850.643473
 20
191.161624
 30
0.0
 40
5.0
 50
188.626927
 51
351.373073
  0
ARC
  5
2DB
  8
L1
 10
875.643473
 20
191.161624
 30
0.0
 40
5.0
 50
8.626927
 51
171.373073
  0
CIRCLE
  5
2DC
  8
L1
 10
875.643473
 20
191.161624
 30
0.0
 40
2.4
  0
ARC
  5
2DD
  8
L1
 10
875.643473
 20
191.161624
 30
0.0
 40
5.0
 50
188.626927
 51
351.373073
  0
ARC
  5
2DE
  8
14
 10
975.948649
 20
104.466638
 30
0.0
 40
2.0
 50
0.0
 51
90.0
  0
LINE
  5
2DF
  8
11
 10
980.418744
 20
110.466638
 30
0.0
 11
979.811796
 21
19.716638
 31
0.0
  0
LINE
  5
2E0
  8
11
 10
999.868202
 20
110.466638
 30
0.0
 11
1002.143473
 21
12.466638
 31
0.0
  0
LINE
  5
2E1
  8
11
 10
968.143473
 20
17.426638
 30
0.0
 11
990.143473
 21
17.426638
 31
0.0
  0
LINE
  5
2E2
  8
11
 10
968.143473
 20
14.066638
 30
0.0
 11
990.143473
 21
14.066638
 31
0.0
  0
LINE
  5
2E3
  8
11
 10
927.143473
 20
17.426638
 30
0.0
 11
935.143473
 21
17.426638
 31
0.0
  0
LINE
  5
2E4
  8
11
 10
927.143473
 20
14.066638
 30
0.0
 11
935.143473
 21
14.066638
 31
0.0
  0
LINE
  5
2E5
  8
11
 10
921.143473
 20
17.426638
 30
0.0
 11
921.143473
 21
14.066638
 31
0.0
  0
LINE
  5
2E6
  8
11
 10
927.143473
 20
17.426638
 30
0.0
 11
927.143473
 21
14.066638
 31
0.0
  0
LINE
  5
2E7
  8
14
 10
977.948649
 20
9.466638
 30
0.0
 11
977.948649
 21
104.466638
 31
0.0
  0
LINE
  5
2E8
  8
11
 10
948.143473
 20
33.466638
 30
0.0
 11
976.143473
 21
33.466638
 31
0.0
  0
LINE
  5
2E9
  8
11
 10
954.143473
 20
17.426638
 30
0.0
 11
962.143473
 21
17.426638
 31
0.0
  0
LINE
  5
2EA
  8
11
 10
954.143473
 20
14.066638
 30
0.0
 11
962.143473
 21
14.066638
 31
0.0
  0
LINE
  5
2EB
  8
11
 10
935.143473
 20
17.426638
 30
0.0
 11
935.143473
 21
14.066638
 31
0.0
  0
LINE
  5
2EC
  8
11
 10
941.143473
 20
17.426638
 30
0.0
 11
941.143473
 21
14.066638
 31
0.0
  0
LINE
  5
2ED
  8
11
 10
948.143473
 20
17.426638
 30
0.0
 11
948.143473
 21
14.066638
 31
0.0
  0
LINE
  5
2EE
  8
11
 10
954.143473
 20
17.426638
 30
0.0
 11
954.143473
 21
14.066638
 31
0.0
  0
LINE
  5
2EF
  8
11
 10
941.143473
 20
14.066638
 30
0.0
 11
948.143473
 21
14.066638
 31
0.0
  0
ARC
  5
2F0
  8
11
 10
948.143473
 20
31.466638
 30
0.0
 40
2.0
 50
90.0
 51
180.0
  0
LINE
  5
2F1
  8
11
 10
941.143473
 20
17.426638
 30
0.0
 11
948.143473
 21
17.426638
 31
0.0
  0
LINE
  5
2F2
  8
11
 10
946.143473
 20
31.466638
 30
0.0
 11
946.143473
 21
19.716638
 31
0.0
  0
LINE
  5
2F3
  8
11
 10
962.143473
 20
17.426638
 30
0.0
 11
962.143473
 21
14.066638
 31
0.0
  0
LINE
  5
2F4
  8
11
 10
968.143473
 20
17.426638
 30
0.0
 11
968.143473
 21
14.066638
 31
0.0
  0
LINE
  5
2F5
  8
11
 10
978.143473
 20
31.466638
 30
0.0
 11
978.143473
 21
19.716638
 31
0.0
  0
ARC
  5
2F6
  8
11
 10
976.143473
 20
31.466638
 30
0.0
 40
2.0
 50
0.0
 51
90.0
  0
LINE
  5
2F7
  8
11
 10
997.695838
 20
12.466638
 30
0.0
 11
997.660623
 21
10.449186
 31
0.0
  0
ARC
  5
2F8
  8
11
 10
996.660776
 20
10.466638
 30
0.0
 40
1.0
 50
270.0
 51
359.0
  0
CIRCLE
  5
2F9
  8
L1
 10
990.143473
 20
176.661624
 30
0.0
 40
3.25
  0
CIRCLE
  5
2FA
  8
L2
 10
990.143473
 20
176.661624
 30
0.0
 40
5.424871
  0
ARC
  5
2FB
  8
L2
 10
990.143473
 20
176.661624
 30
0.0
 40
8.0
 50
10.0
 51
280.0
  0
CIRCLE
  5
2FC
  8
L1
 10
990.143473
 20
176.661624
 30
0.0
 40
8.325
  0
CIRCLE
  5
2FD
  8
L1
 10
990.143473
 20
176.661624
 30
0.0
 40
10.125
  0
ARC
  5
2FE
  8
L2
 10
990.143473
 20
176.661624
 30
0.0
 40
14.200352
 50
90.0
 51
180.0
  0
ARC
  5
2FF
  8
L1
 10
990.143473
 20
176.661624
 30
0.0
 40
12.0
 50
90.0
 51
180.0
  0
CIRCLE
  5
300
  8
L1
 10
990.143473
 20
176.661624
 30
0.0
 40
6.75
  0
LINE
  5
301
  8
11
 10
982.143473
 20
112.466638
 30
0.0
 11
998.143473
 21
112.466638
 31
0.0
  0
LINE
  5
302
  8
L1
 10
976.393473
 20
221.105054
 30
0.0
 11
976.393473
 21
236.218194
 31
0.0
  0
LINE
  5
303
  8
L1
 10
974.893473
 20
221.105054
 30
0.0
 11
974.893473
 21
236.218194
 31
0.0
  0
LINE
  5
304
  8
L1
 10
945.700043
 20
191.911624
 30
0.0
 11
930.586903
 21
191.911624
 31
0.0
  0
LINE
  5
305
  8
L1
 10
945.700043
 20
190.411624
 30
0.0
 11
930.586903
 21
190.411624
 31
0.0
  0
LINE
  5
306
  8
11
 10
897.259498
 20
111.966638
 30
0.0
 11
904.027447
 21
111.966638
 31
0.0
  0
LINE
  5
307
  8
11
 10
904.027447
 20
111.966638
 30
0.0
 11
904.893473
 21
110.466638
 31
0.0
  0
LINE
  5
308
  8
11
 10
897.259498
 20
111.966638
 30
0.0
 11
896.393473
 21
110.466638
 31
0.0
  0
LINE
  5
309
  8
11
 10
922.259498
 20
111.966638
 30
0.0
 11
921.393473
 21
110.466638
 31
0.0
  0
LINE
  5
30A
  8
11
 10
922.259498
 20
111.966638
 30
0.0
 11
929.027447
 21
111.966638
 31
0.0
  0
LINE
  5
30B
  8
11
 10
929.027447
 20
111.966638
 30
0.0
 11
929.893473
 21
110.466638
 31
0.0
  0
LINE
  5
30C
  8
L1
 10
920.700043
 20
190.411624
 30
0.0
 11
905.586903
 21
190.411624
 31
0.0
  0
LINE
  5
30D
  8
L1
 10
920.700043
 20
191.911624
 30
0.0
 11
905.586903
 21
191.911624
 31
0.0
  0
LINE
  5
30E
  8
L1
 10
913.143473
 20
164.161624
 30
0.0
 11
906.143473
 21
164.161624
 31
0.0
  0
ARC
  5
30F
  8
L1
 10
900.643473
 20
191.161624
 30
0.0
 40
5.0
 50
8.626927
 51
171.373073
  0
CIRCLE
  5
310
  8
L1
 10
900.643473
 20
191.161624
 30
0.0
 40
2.4
  0
ARC
  5
311
  8
L1
 10
900.643473
 20
191.161624
 30
0.0
 40
5.0
 50
188.626927
 51
351.373073
  0
LINE
  5
312
  8
L1
 10
906.143473
 20
164.161624
 30
0.0
 11
904.643473
 21
164.161624
 31
0.0
  0
LINE
  5
313
  8
L1
 10
904.643473
 20
164.161624
 30
0.0
 11
904.643473
 21
164.661624
 31
0.0
  0
ARC
  5
314
  8
L1
 10
925.643473
 20
191.161624
 30
0.0
 40
5.0
 50
8.626927
 51
171.373073
  0
CIRCLE
  5
315
  8
L1
 10
925.643473
 20
191.161624
 30
0.0
 40
2.4
  0
ARC
  5
316
  8
L1
 10
925.643473
 20
191.161624
 30
0.0
 40
5.0
 50
188.626927
 51
351.373073
  0
LINE
  5
317
  8
L1
 10
921.124559
 20
171.299807
 30
0.0
 11
921.124559
 21
173.469807
 31
0.0
  0
LINE
  5
318
  8
L1
 10
920.789371
 20
169.161624
 30
0.0
 11
920.789371
 21
167.161624
 31
0.0
  0
LINE
  5
319
  8
L1
 10
914.643473
 20
164.161624
 30
0.0
 11
914.643473
 21
164.661624
 31
0.0
  0
LINE
  5
31A
  8
L1
 10
914.643473
 20
164.161624
 30
0.0
 11
913.143473
 21
164.161624
 31
0.0
  0
LINE
  5
31B
  8
L1
 10
914.643473
 20
164.161624
 30
0.0
 11
913.143473
 21
164.161624
 31
0.0
  0
LINE
  5
31C
  8
L1
 10
927.162386
 20
171.207685
 30
0.0
 11
927.162386
 21
173.377685
 31
0.0
  0
LINE
  5
31D
  8
L1
 10
934.789371
 20
167.161624
 30
0.0
 11
927.497575
 21
167.161624
 31
0.0
  0
LINE
  5
31E
  8
L1
 10
927.497575
 20
169.161624
 30
0.0
 11
927.497575
 21
167.161624
 31
0.0
  0
LINE
  5
31F
  8
L1
 10
934.789371
 20
169.161624
 30
0.0
 11
934.789371
 21
167.161624
 31
0.0
  0
LINE
  5
320
  8
11
 10
947.259498
 20
111.966638
 30
0.0
 11
954.027447
 21
111.966638
 31
0.0
  0
LINE
  5
321
  8
11
 10
947.259498
 20
111.966638
 30
0.0
 11
946.393473
 21
110.466638
 31
0.0
  0
LINE
  5
322
  8
11
 10
954.027447
 20
111.966638
 30
0.0
 11
954.893473
 21
110.466638
 31
0.0
  0
LINE
  5
323
  8
11
 10
972.759498
 20
111.966638
 30
0.0
 11
979.527447
 21
111.966638
 31
0.0
  0
LINE
  5
324
  8
11
 10
973.777447
 20
111.966638
 30
0.0
 11
974.643473
 21
110.466638
 31
0.0
  0
LINE
  5
325
  8
11
 10
962.509498
 20
111.966638
 30
0.0
 11
961.643473
 21
110.466638
 31
0.0
  0
LINE
  5
326
  8
11
 10
962.509498
 20
111.966638
 30
0.0
 11
973.777447
 21
111.966638
 31
0.0
  0
LINE
  5
327
  8
11
 10
979.527447
 20
111.966638
 30
0.0
 11
980.393473
 21
110.466638
 31
0.0
  0
LINE
  5
328
  8
11
 10
982.143473
 20
112.466638
 30
0.0
 11
982.108563
 21
110.466638
 31
0.0
  0
LINE
  5
329
  8
L1
 10
962.632573
 20
176.661624
 30
0.0
 11
957.384533
 21
176.661624
 31
0.0
  0
LINE
  5
32A
  8
L1
 10
962.789371
 20
167.161624
 30
0.0
 11
955.497575
 21
167.161624
 31
0.0
  0
CIRCLE
  5
32B
  8
L1
 10
950.643473
 20
191.161624
 30
0.0
 40
2.4
  0
ARC
  5
32C
  8
L1
 10
950.643473
 20
191.161624
 30
0.0
 40
5.0
 50
0.0
 51
171.373073
  0
ARC
  5
32D
  8
L1
 10
950.643473
 20
191.161624
 30
0.0
 40
5.0
 50
188.626927
 51
0.0
  0
LINE
  5
32E
  8
L1
 10
948.789371
 20
167.161624
 30
0.0
 11
941.497575
 21
167.161624
 31
0.0
  0
LINE
  5
32F
  8
L1
 10
941.162386
 20
171.207685
 30
0.0
 11
941.162386
 21
173.377685
 31
0.0
  0
LINE
  5
330
  8
L1
 10
941.497575
 20
169.161624
 30
0.0
 11
941.497575
 21
167.161624
 31
0.0
  0
LINE
  5
331
  8
L1
 10
935.124559
 20
171.299807
 30
0.0
 11
935.124559
 21
173.469807
 31
0.0
  0
LINE
  5
332
  8
L1
 10
955.162386
 20
171.207685
 30
0.0
 11
955.162386
 21
173.377685
 31
0.0
  0
LINE
  5
333
  8
L1
 10
957.384533
 20
176.661624
 30
0.0
 11
957.384533
 21
181.661624
 31
0.0
  0
LINE
  5
334
  8
L1
 10
955.497575
 20
169.161624
 30
0.0
 11
955.497575
 21
167.161624
 31
0.0
  0
LINE
  5
335
  8
L1
 10
949.124559
 20
171.299807
 30
0.0
 11
949.124559
 21
173.331624
 31
0.0
  0
LINE
  5
336
  8
L1
 10
948.789371
 20
169.161624
 30
0.0
 11
948.789371
 21
167.161624
 31
0.0
  0
CIRCLE
  5
337
  8
L1
 10
968.143473
 20
198.661624
 30
0.0
 40
6.0
  0
ARC
  5
338
  8
L1
 10
972.743473
 20
176.561624
 30
0.0
 40
5.4
 50
270.0
 51
0.0
  0
LINE
  5
339
  8
L1
 10
979.818473
 20
167.161624
 30
0.0
 11
969.497575
 21
167.161624
 31
0.0
  0
ARC
  5
33A
  8
L1
 10
972.618473
 20
176.561624
 30
0.0
 40
7.4
 50
270.0
 51
0.0
  0
LINE
  5
33B
  8
L1
 10
969.162386
 20
171.207685
 30
0.0
 11
969.162386
 21
173.331624
 31
0.0
  0
LINE
  5
33C
  8
L1
 10
969.497575
 20
169.161624
 30
0.0
 11
969.497575
 21
167.161624
 31
0.0
  0
LINE
  5
33D
  8
L1
 10
963.124559
 20
171.299807
 30
0.0
 11
963.124559
 21
173.331624
 31
0.0
  0
LINE
  5
33E
  8
L1
 10
962.789371
 20
169.161624
 30
0.0
 11
962.789371
 21
167.161624
 31
0.0
  0
LINE
  5
33F
  8
L1
 10
985.861635
 20
183.771889
 30
0.0
 11
984.539295
 21
185.094229
 31
0.0
  0
LINE
  5
340
  8
L1
 10
985.861635
 20
169.55136
 30
0.0
 11
984.539295
 21
168.22902
 31
0.0
  0
LINE
  5
341
  8
L1
 10
983.033208
 20
172.379787
 30
0.0
 11
981.710868
 21
171.057447
 31
0.0
  0
ARC
  5
342
  8
L2
 10
974.553814
 20
176.811624
 30
0.0
 40
1.5
 50
270.0
 51
332.774096
  0
ARC
  5
343
  8
L1
 10
976.23877
 20
174.831624
 30
0.0
 40
1.5
 50
270.0
 51
333.666854
  0
LINE
  5
344
  8
L1
 10
980.018473
 20
176.661624
 30
0.0
 11
980.018473
 21
176.561624
 31
0.0
  0
LINE
  5
345
  8
L1
 10
978.143473
 20
176.661624
 30
0.0
 11
978.143473
 21
176.561624
 31
0.0
  0
ARC
  5
346
  8
L1
 10
979.818473
 20
167.361624
 30
0.0
 40
0.2
 50
270.0
 51
360.0
  0
ARC
  5
347
  8
L1
 10
979.818473
 20
168.961624
 30
0.0
 40
0.2
 50
360.0
 51
90.0
  0
LINE
  5
348
  8
L1
 10
980.018473
 20
168.961624
 30
0.0
 11
980.018473
 21
167.361624
 31
0.0
  0
LINE
  5
349
  8
L1
 10
983.033208
 20
180.943462
 30
0.0
 11
981.710868
 21
182.265802
 31
0.0
  0
CIRCLE
  5
34A
  8
L1
 10
975.643473
 20
216.161624
 30
0.0
 40
2.4
  0
ARC
  5
34B
  8
L1
 10
975.643473
 20
216.161624
 30
0.0
 40
5.0
 50
98.626927
 51
270.0
  0
CIRCLE
  5
34C
  8
L1
 10
968.143473
 20
198.661624
 30
0.0
 40
3.0
  0
ARC
  5
34D
  8
L1
 10
975.643473
 20
216.161624
 30
0.0
 40
5.0
 50
270.0
 51
81.373073
  0
LINE
  5
34E
  8
L1
 10
976.393473
 20
271.105054
 30
0.0
 11
976.393473
 21
286.218194
 31
0.0
  0
LINE
  5
34F
  8
L1
 10
974.893473
 20
271.105054
 30
0.0
 11
974.893473
 21
286.218194
 31
0.0
  0
LINE
  5
350
  8
L1
 10
974.893473
 20
246.105054
 30
0.0
 11
974.893473
 21
261.218194
 31
0.0
  0
LINE
  5
351
  8
L1
 10
976.393473
 20
246.105054
 30
0.0
 11
976.393473
 21
261.218194
 31
0.0
  0
CIRCLE
  5
352
  8
L1
 10
975.643473
 20
241.161624
 30
0.0
 40
2.4
  0
ARC
  5
353
  8
L1
 10
975.643473
 20
241.161624
 30
0.0
 40
5.0
 50
98.626927
 51
261.373073
  0
ARC
  5
354
  8
L1
 10
975.643473
 20
241.161624
 30
0.0
 40
5.0
 50
278.626927
 51
81.373073
  0
CIRCLE
  5
355
  8
L1
 10
975.643473
 20
266.161624
 30
0.0
 40
2.4
  0
ARC
  5
356
  8
L1
 10
975.643473
 20
266.161624
 30
0.0
 40
5.0
 50
98.626927
 51
261.373073
  0
ARC
  5
357
  8
L1
 10
975.643473
 20
266.161624
 30
0.0
 40
5.0
 50
278.626927
 51
81.373073
  0
ARC
  5
358
  8
L1
 10
975.643473
 20
316.161624
 30
0.0
 40
5.0
 50
98.626927
 51
261.373073
  0
ARC
  5
359
  8
L1
 10
975.643473
 20
316.161624
 30
0.0
 40
5.0
 50
278.626927
 51
81.373073
  0
CIRCLE
  5
35A
  8
L1
 10
975.643473
 20
303.661624
 30
0.0
 40
2.4
  0
ARC
  5
35B
  8
L1
 10
975.643473
 20
291.161624
 30
0.0
 40
5.0
 50
98.626927
 51
261.373073
  0
CIRCLE
  5
35C
  8
L1
 10
975.643473
 20
291.161624
 30
0.0
 40
2.4
  0
ARC
  5
35D
  8
L1
 10
975.643473
 20
303.661624
 30
0.0
 40
5.0
 50
98.626927
 51
261.373073
  0
LINE
  5
35E
  8
L1
 10
976.393473
 20
308.605054
 30
0.0
 11
976.393473
 21
311.218194
 31
0.0
  0
LINE
  5
35F
  8
L1
 10
974.893473
 20
308.605054
 30
0.0
 11
974.893473
 21
311.218194
 31
0.0
  0
LINE
  5
360
  8
L1
 10
974.893473
 20
296.105054
 30
0.0
 11
974.893473
 21
298.718194
 31
0.0
  0
LINE
  5
361
  8
L1
 10
976.393473
 20
296.105054
 30
0.0
 11
976.393473
 21
298.718194
 31
0.0
  0
ARC
  5
362
  8
L1
 10
975.643473
 20
291.161624
 30
0.0
 40
5.0
 50
278.626927
 51
81.373073
  0
ARC
  5
363
  8
L1
 10
975.643473
 20
303.661624
 30
0.0
 40
5.0
 50
278.626927
 51
81.373073
  0
CIRCLE
  5
364
  8
L1
 10
975.643473
 20
316.161624
 30
0.0
 40
2.4
  0
LINE
  5
365
  8
L1
 10
976.393473
 20
321.105054
 30
0.0
 11
976.393473
 21
336.218194
 31
0.0
  0
LINE
  5
366
  8
L1
 10
974.893473
 20
321.105054
 30
0.0
 11
974.893473
 21
336.218194
 31
0.0
  0
LINE
  5
367
  8
L1
 10
999.643473
 20
218.015726
 30
0.0
 11
999.643473
 21
225.307522
 31
0.0
  0
LINE
  5
368
  8
L2
 10
991.493473
 20
192.251283
 30
0.0
 11
991.493473
 21
303.661624
 31
0.0
  0
LINE
  5
369
  8
L1
 10
993.473473
 20
190.566327
 30
0.0
 11
993.473473
 21
303.661624
 31
0.0
  0
LINE
  5
36A
  8
L1
 10
997.643473
 20
186.986453
 30
0.0
 11
997.643473
 21
303.661624
 31
0.0
  0
LINE
  5
36B
  8
L1
 10
995.643473
 20
194.061624
 30
0.0
 11
995.643473
 21
303.661624
 31
0.0
  0
LINE
  5
36C
  8
L1
 10
1002.143473
 20
176.661624
 30
0.0
 11
1002.143473
 21
303.661624
 31
0.0
  0
LINE
  5
36D
  8
34
 10
1053.477701
 20
303.661624
 30
0.0
 11
1053.477701
 21
190.856448
 31
0.0
  0
LINE
  5
36E
  8
31
 10
1049.477701
 20
303.661624
 30
0.0
 11
1049.477701
 21
166.936895
 31
0.0
  0
ARC
  5
36F
  8
L1
 10
990.143473
 20
176.661624
 30
0.0
 40
12.0
 50
270.0
 51
0.0
  0
LINE
  5
370
  8
11
 10
998.143473
 20
112.466638
 30
0.0
 11
998.178383
 21
110.466638
 31
0.0
  0
LINE
  5
371
  8
L1
 10
999.643473
 20
186.986453
 30
0.0
 11
999.643473
 21
197.307522
 31
0.0
  0
ARC
  5
372
  8
L1
 10
990.243473
 20
194.061624
 30
0.0
 40
5.4
 50
296.333146
 51
0.0
  0
ARC
  5
373
  8
L1
 10
990.243473
 20
194.186453
 30
0.0
 40
7.4
 50
270.0
 51
0.0
  0
ARC
  5
374
  8
L1
 10
999.443473
 20
186.986453
 30
0.0
 40
0.2
 50
270.0
 51
0.0
  0
ARC
  5
375
  8
L1
 10
997.843473
 20
186.986453
 30
0.0
 40
0.2
 50
180.0
 51
270.0
  0
LINE
  5
376
  8
L1
 10
997.843473
 20
186.786453
 30
0.0
 11
999.443473
 21
186.786453
 31
0.0
  0
LINE
  5
377
  8
L1
 10
994.425311
 20
183.771889
 30
0.0
 11
995.74765
 21
185.094229
 31
0.0
  0
ARC
  5
378
  8
L2
 10
989.993473
 20
192.251283
 30
0.0
 40
1.5
 50
297.225904
 51
0.0
  0
ARC
  5
379
  8
L1
 10
990.243473
 20
194.061624
 30
0.0
 40
5.4
 50
270.0
 51
296.333146
  0
LINE
  5
37A
  8
L1
 10
990.084549
 20
186.786453
 30
0.0
 11
990.243473
 21
186.786453
 31
0.0
  0
LINE
  5
37B
  8
L1
 10
990.143473
 20
188.661624
 30
0.0
 11
990.243473
 21
188.661624
 31
0.0
  0
ARC
  5
37C
  8
L1
 10
991.973473
 20
190.566327
 30
0.0
 40
1.5
 50
296.333146
 51
0.0
  0
LINE
  5
37D
  8
L1
 10
994.425311
 20
169.55136
 30
0.0
 11
995.74765
 21
168.22902
 31
0.0
  0
LINE
  5
37E
  8
L1
 10
997.253738
 20
172.379787
 30
0.0
 11
998.576077
 21
171.057447
 31
0.0
  0
LINE
  5
37F
  8
L1
 10
997.253738
 20
180.943462
 30
0.0
 11
998.576077
 21
182.265802
 31
0.0
  0
LINE
  5
380
  8
L1
 10
997.643473
 20
218.015726
 30
0.0
 11
999.643473
 21
218.015726
 31
0.0
  0
LINE
  5
381
  8
L1
 10
999.643473
 20
204.015726
 30
0.0
 11
999.643473
 21
211.307522
 31
0.0
  0
LINE
  5
382
  8
L1
 10
997.643473
 20
211.307522
 30
0.0
 11
999.643473
 21
211.307522
 31
0.0
  0
LINE
  5
383
  8
L1
 10
997.643473
 20
197.307522
 30
0.0
 11
999.643473
 21
197.307522
 31
0.0
  0
LINE
  5
384
  8
L1
 10
997.643473
 20
204.015726
 30
0.0
 11
999.643473
 21
204.015726
 31
0.0
  0
LINE
  5
385
  8
L1
 10
995.597413
 20
211.642711
 30
0.0
 11
993.427413
 21
211.642711
 31
0.0
  0
LINE
  5
386
  8
L1
 10
995.50529
 20
217.680538
 30
0.0
 11
993.33529
 21
217.680538
 31
0.0
  0
LINE
  5
387
  8
L1
 10
995.597413
 20
197.642711
 30
0.0
 11
993.427413
 21
197.642711
 31
0.0
  0
LINE
  5
388
  8
L1
 10
995.50529
 20
203.680538
 30
0.0
 11
993.33529
 21
203.680538
 31
0.0
  0
LINE
  5
389
  8
L1
 10
1002.643473
 20
213.911624
 30
0.0
 11
1002.643473
 21
211.961624
 31
0.0
  0
LINE
  5
38A
  8
L1
 10
1002.643473
 20
213.911624
 30
0.0
 11
1002.143473
 21
213.911624
 31
0.0
  0
LINE
  5
38B
  8
L1
 10
1002.143473
 20
200.411624
 30
0.0
 11
1002.643473
 21
200.429085
 31
0.0
  0
LINE
  5
38C
  8
L1
 10
1002.643473
 20
202.361624
 30
0.0
 11
1002.643473
 21
200.429085
 31
0.0
  0
LINE
  5
38D
  8
L1
 10
1002.643473
 20
211.961624
 30
0.0
 11
1002.643473
 21
202.361624
 31
0.0
  0
LINE
  5
38E
  8
31
 10
1047.977701
 20
194.545599
 30
0.0
 11
1047.977701
 21
187.77765
 31
0.0
  0
LINE
  5
38F
  8
31
 10
1047.977701
 20
204.295599
 30
0.0
 11
1047.977701
 21
193.02765
 31
0.0
  0
ARC
  5
390
  8
34
 10
1055.477701
 20
190.856448
 30
0.0
 40
2.0
 50
180.0
 51
270.0
  0
LINE
  5
391
  8
31
 10
1047.977701
 20
187.77765
 30
0.0
 11
1049.477701
 21
186.911624
 31
0.0
  0
LINE
  5
392
  8
31
 10
1047.477701
 20
184.661624
 30
0.0
 11
1047.477701
 21
168.661624
 31
0.0
  0
LINE
  5
393
  8
31
 10
1047.477701
 20
184.661624
 30
0.0
 11
1049.477701
 21
184.696534
 31
0.0
  0
LINE
  5
394
  8
31
 10
1047.477701
 20
168.661624
 30
0.0
 11
1049.477701
 21
168.626714
 31
0.0
  0
LINE
  5
395
  8
31
 10
1047.977701
 20
193.02765
 30
0.0
 11
1049.477701
 21
192.161624
 31
0.0
  0
LINE
  5
396
  8
31
 10
1047.977701
 20
219.545599
 30
0.0
 11
1049.477701
 21
220.411624
 31
0.0
  0
LINE
  5
397
  8
31
 10
1047.977701
 20
212.77765
 30
0.0
 11
1049.477701
 21
211.911624
 31
0.0
  0
LINE
  5
398
  8
31
 10
1047.977701
 20
219.545599
 30
0.0
 11
1047.977701
 21
212.77765
 31
0.0
  0
LINE
  5
399
  8
31
 10
1047.977701
 20
204.295599
 30
0.0
 11
1049.477701
 21
205.161624
 31
0.0
  0
LINE
  5
39A
  8
L1
 10
999.643473
 20
246.015726
 30
0.0
 11
999.643473
 21
303.661624
 31
0.0
  0
LINE
  5
39B
  8
L1
 10
997.643473
 20
246.015726
 30
0.0
 11
999.643473
 21
246.015726
 31
0.0
  0
LINE
  5
39C
  8
L1
 10
999.643473
 20
232.015726
 30
0.0
 11
999.643473
 21
239.307522
 31
0.0
  0
LINE
  5
39D
  8
L1
 10
997.643473
 20
239.307522
 30
0.0
 11
999.643473
 21
239.307522
 31
0.0
  0
LINE
  5
39E
  8
L1
 10
997.643473
 20
225.307522
 30
0.0
 11
999.643473
 21
225.307522
 31
0.0
  0
LINE
  5
39F
  8
L1
 10
997.643473
 20
232.015726
 30
0.0
 11
999.643473
 21
232.015726
 31
0.0
  0
LINE
  5
3A0
  8
L1
 10
995.597413
 20
239.642711
 30
0.0
 11
993.427413
 21
239.642711
 31
0.0
  0
LINE
  5
3A1
  8
L1
 10
995.50529
 20
245.680538
 30
0.0
 11
993.33529
 21
245.680538
 31
0.0
  0
LINE
  5
3A2
  8
L1
 10
995.597413
 20
225.642711
 30
0.0
 11
993.427413
 21
225.642711
 31
0.0
  0
LINE
  5
3A3
  8
L1
 10
995.50529
 20
231.680538
 30
0.0
 11
993.33529
 21
231.680538
 31
0.0
  0
LINE
  5
3A4
  8
34
 10
1062.477701
 20
291.161624
 30
0.0
 11
1062.477701
 21
281.161624
 31
0.0
  0
LINE
  5
3A5
  8
31
 10
1047.977701
 20
244.545599
 30
0.0
 11
1047.977701
 21
237.77765
 31
0.0
  0
LINE
  5
3A6
  8
31
 10
1047.977701
 20
237.77765
 30
0.0
 11
1049.477701
 21
236.911624
 31
0.0
  0
LINE
  5
3A7
  8
31
 10
1047.977701
 20
244.545599
 30
0.0
 11
1049.477701
 21
245.411624
 31
0.0
  0
LINE
  5
3A8
  8
34
 10
1053.478043
 20
281.083086
 30
0.0
 11
1062.477701
 21
281.161624
 31
0.0
  0
LINE
  5
3A9
  8
31
 10
1047.977701
 20
269.545599
 30
0.0
 11
1047.977701
 21
262.77765
 31
0.0
  0
LINE
  5
3AA
  8
31
 10
1047.977701
 20
262.77765
 30
0.0
 11
1049.477701
 21
261.911624
 31
0.0
  0
LINE
  5
3AB
  8
31
 10
1047.977701
 20
269.545599
 30
0.0
 11
1049.477701
 21
270.411624
 31
0.0
  0
LINE
  5
3AC
  8
31
 10
1047.977701
 20
312.77765
 30
0.0
 11
1049.477701
 21
311.911624
 31
0.0
  0
LINE
  5
3AD
  8
34
 10
1053.478043
 20
296.183593
 30
0.0
 11
1062.477701
 21
296.105054
 31
0.0
  0
LINE
  5
3AE
  8
34
 10
1053.478043
 20
301.240163
 30
0.0
 11
1062.477701
 21
301.161624
 31
0.0
  0
LINE
  5
3AF
  8
34
 10
1053.478043
 20
286.139656
 30
0.0
 11
1062.477701
 21
286.218194
 31
0.0
  0
LINE
  5
3B0
  8
31
 10
1047.977701
 20
294.545599
 30
0.0
 11
1047.977701
 21
287.77765
 31
0.0
  0
LINE
  5
3B1
  8
31
 10
1047.977701
 20
287.77765
 30
0.0
 11
1049.477701
 21
286.911624
 31
0.0
  0
LINE
  5
3B2
  8
31
 10
1047.977701
 20
294.545599
 30
0.0
 11
1049.477701
 21
295.411624
 31
0.0
  0
LINE
  5
3B3
  8
34
 10
1062.477701
 20
291.161624
 30
0.0
 11
1062.477701
 21
301.161624
 31
0.0
  0
LINE
  5
3B4
  8
31
 10
1047.977701
 20
319.545599
 30
0.0
 11
1049.477701
 21
320.411624
 31
0.0
  0
LINE
  5
3B5
  8
31
 10
1047.977701
 20
312.77765
 30
0.0
 11
1047.977701
 21
319.545599
 31
0.0
  0
LINE
  5
3B6
  8
31
 10
1047.977701
 20
337.77765
 30
0.0
 11
1049.477701
 21
336.911624
 31
0.0
  0
LINE
  5
3B7
  8
L1
 10
895.700043
 20
415.411624
 30
0.0
 11
880.586903
 21
415.411624
 31
0.0
  0
LINE
  5
3B8
  8
L1
 10
895.700043
 20
416.911624
 30
0.0
 11
880.586903
 21
416.911624
 31
0.0
  0
LINE
  5
3B9
  8
L1
 10
920.789371
 20
440.161624
 30
0.0
 11
813.143473
 21
440.161624
 31
0.0
  0
LINE
  5
3BA
  8
L2
 10
974.553814
 20
432.011624
 30
0.0
 11
813.143473
 21
432.011624
 31
0.0
  0
LINE
  5
3BB
  8
L1
 10
976.23877
 20
433.991624
 30
0.0
 11
813.143473
 21
433.991624
 31
0.0
  0
LINE
  5
3BC
  8
L1
 10
990.143473
 20
442.661624
 30
0.0
 11
813.143473
 21
442.661624
 31
0.0
  0
LINE
  5
3BD
  8
L1
 10
979.818473
 20
438.161624
 30
0.0
 11
813.143473
 21
438.161624
 31
0.0
  0
LINE
  5
3BE
  8
L1
 10
972.743473
 20
436.161624
 30
0.0
 11
813.143473
 21
436.161624
 31
0.0
  0
LINE
  5
3BF
  8
21
 10
813.143473
 20
587.60661
 30
0.0
 11
990.143473
 21
587.60661
 31
0.0
  0
LINE
  5
3C0
  8
21
 10
813.143473
 20
589.89661
 30
0.0
 11
921.143473
 21
589.89661
 31
0.0
  0
LINE
  5
3C1
  8
21
 10
813.143473
 20
593.25661
 30
0.0
 11
921.143473
 21
593.25661
 31
0.0
  0
LINE
  5
3C2
  8
21
 10
813.143473
 20
496.85661
 30
0.0
 11
999.868202
 21
496.85661
 31
0.0
  0
LINE
  5
3C3
  8
21
 10
813.143473
 20
597.85661
 30
0.0
 11
996.660776
 21
597.85661
 31
0.0
  0
LINE
  5
3C4
  8
21
 10
813.143473
 20
594.85661
 30
0.0
 11
1002.143473
 21
594.85661
 31
0.0
  0
LINE
  5
3C5
  8
24
 10
833.695914
 20
500.85661
 30
0.0
 11
975.948649
 21
500.85661
 31
0.0
  0
LINE
  5
3C6
  8
21
 10
680.143473
 20
575.85661
 30
0.0
 11
680.143473
 21
587.60661
 31
0.0
  0
LINE
  5
3C7
  8
23
  6
DASHDOT
 10
813.143473
 20
490.075922
 30
0.0
 11
813.143473
 21
626.0
 31
0.0
  0
CIRCLE
  5
3C8
  8
L1
 10
775.643473
 20
416.161624
 30
0.0
 40
2.4
  0
ARC
  5
3C9
  8
L1
 10
775.643473
 20
416.161624
 30
0.0
 40
5.0
 50
188.626927
 51
351.373073
  0
ARC
  5
3CA
  8
L1
 10
775.643473
 20
416.161624
 30
0.0
 40
5.0
 50
8.626927
 51
171.373073
  0
LINE
  5
3CB
  8
L1
 10
705.497575
 20
440.161624
 30
0.0
 11
813.143473
 21
440.161624
 31
0.0
  0
LINE
  5
3CC
  8
21
 10
779.027447
 20
495.35661
 30
0.0
 11
772.259498
 21
495.35661
 31
0.0
  0
ARC
  5
3CD
  8
L1
 10
725.643473
 20
416.161624
 30
0.0
 40
5.0
 50
8.626927
 51
171.373073
  0
CIRCLE
  5
3CE
  8
L1
 10
725.643473
 20
416.161624
 30
0.0
 40
2.4
  0
ARC
  5
3CF
  8
L1
 10
725.643473
 20
416.161624
 30
0.0
 40
5.0
 50
188.626927
 51
351.373073
  0
LINE
  5
3D0
  8
L1
 10
691.497575
 20
440.161624
 30
0.0
 11
698.789371
 21
440.161624
 31
0.0
  0
ARC
  5
3D1
  8
L1
 10
700.643473
 20
416.161624
 30
0.0
 40
5.0
 50
188.626927
 51
351.373073
  0
ARC
  5
3D2
  8
L1
 10
700.643473
 20
416.161624
 30
0.0
 40
5.0
 50
8.626927
 51
171.373073
  0
LINE
  5
3D3
  8
L1
 10
680.586903
 20
415.411624
 30
0.0
 11
695.700043
 21
415.411624
 31
0.0
  0
LINE
  5
3D4
  8
L1
 10
680.586903
 20
416.911624
 30
0.0
 11
695.700043
 21
416.911624
 31
0.0
  0
CIRCLE
  5
3D5
  8
L1
 10
675.643473
 20
416.161624
 30
0.0
 40
2.4
  0
LINE
  5
3D6
  8
L1
 10
677.497575
 20
440.161624
 30
0.0
 11
684.789371
 21
440.161624
 31
0.0
  0
LINE
  5
3D7
  8
L1
 10
677.497575
 20
438.161624
 30
0.0
 11
677.497575
 21
440.161624
 31
0.0
  0
LINE
  5
3D8
  8
L1
 10
677.162386
 20
436.023442
 30
0.0
 11
677.162386
 21
433.853442
 31
0.0
  0
LINE
  5
3D9
  8
L1
 10
671.124559
 20
436.115564
 30
0.0
 11
671.124559
 21
433.945564
 31
0.0
  0
LINE
  5
3DA
  8
L1
 10
691.497575
 20
438.161624
 30
0.0
 11
691.497575
 21
440.161624
 31
0.0
  0
LINE
  5
3DB
  8
L1
 10
691.162386
 20
436.023442
 30
0.0
 11
691.162386
 21
433.853442
 31
0.0
  0
LINE
  5
3DC
  8
L1
 10
684.789371
 20
438.161624
 30
0.0
 11
684.789371
 21
440.161624
 31
0.0
  0
LINE
  5
3DD
  8
L1
 10
685.124559
 20
436.115564
 30
0.0
 11
685.124559
 21
433.945564
 31
0.0
  0
LINE
  5
3DE
  8
L1
 10
705.586903
 20
415.411624
 30
0.0
 11
720.700043
 21
415.411624
 31
0.0
  0
LINE
  5
3DF
  8
L1
 10
705.586903
 20
416.911624
 30
0.0
 11
720.700043
 21
416.911624
 31
0.0
  0
CIRCLE
  5
3E0
  8
L1
 10
700.643473
 20
416.161624
 30
0.0
 40
2.4
  0
LINE
  5
3E1
  8
L1
 10
705.497575
 20
438.161624
 30
0.0
 11
705.497575
 21
440.161624
 31
0.0
  0
LINE
  5
3E2
  8
L1
 10
705.162386
 20
436.023442
 30
0.0
 11
705.162386
 21
433.853442
 31
0.0
  0
LINE
  5
3E3
  8
L1
 10
698.789371
 20
438.161624
 30
0.0
 11
698.789371
 21
440.161624
 31
0.0
  0
LINE
  5
3E4
  8
L1
 10
699.124559
 20
436.115564
 30
0.0
 11
699.124559
 21
433.945564
 31
0.0
  0
LINE
  5
3E5
  8
L1
 10
720.143473
 20
443.161624
 30
0.0
 11
721.643473
 21
443.161624
 31
0.0
  0
LINE
  5
3E6
  8
L1
 10
721.643473
 20
443.161624
 30
0.0
 11
721.643473
 21
442.661624
 31
0.0
  0
LINE
  5
3E7
  8
L1
 10
711.643473
 20
443.161624
 30
0.0
 11
711.643473
 21
442.661624
 31
0.0
  0
LINE
  5
3E8
  8
L1
 10
711.643473
 20
443.161624
 30
0.0
 11
713.143473
 21
443.161624
 31
0.0
  0
LINE
  5
3E9
  8
L1
 10
711.643473
 20
443.161624
 30
0.0
 11
713.143473
 21
443.161624
 31
0.0
  0
LINE
  5
3EA
  8
L1
 10
713.143473
 20
443.161624
 30
0.0
 11
720.143473
 21
443.161624
 31
0.0
  0
CIRCLE
  5
3EB
  8
L1
 10
750.643473
 20
416.161624
 30
0.0
 40
2.4
  0
ARC
  5
3EC
  8
L1
 10
750.643473
 20
416.161624
 30
0.0
 40
5.0
 50
188.626927
 51
351.373073
  0
ARC
  5
3ED
  8
L1
 10
750.643473
 20
416.161624
 30
0.0
 40
5.0
 50
8.626927
 51
171.373073
  0
LINE
  5
3EE
  8
L1
 10
730.586903
 20
416.911624
 30
0.0
 11
745.700043
 21
416.911624
 31
0.0
  0
LINE
  5
3EF
  8
L1
 10
730.586903
 20
415.411624
 30
0.0
 11
745.700043
 21
415.411624
 31
0.0
  0
LINE
  5
3F0
  8
L1
 10
755.586903
 20
415.411624
 30
0.0
 11
770.700043
 21
415.411624
 31
0.0
  0
LINE
  5
3F1
  8
L1
 10
755.586903
 20
416.911624
 30
0.0
 11
770.700043
 21
416.911624
 31
0.0
  0
LINE
  5
3F2
  8
21
 10
729.027447
 20
495.35661
 30
0.0
 11
722.259498
 21
495.35661
 31
0.0
  0
LINE
  5
3F3
  8
21
 10
704.027447
 20
495.35661
 30
0.0
 11
697.259498
 21
495.35661
 31
0.0
  0
LINE
  5
3F4
  8
21
 10
679.027447
 20
495.35661
 30
0.0
 11
679.893473
 21
496.85661
 31
0.0
  0
LINE
  5
3F5
  8
21
 10
672.259498
 20
495.35661
 30
0.0
 11
671.393473
 21
496.85661
 31
0.0
  0
LINE
  5
3F6
  8
21
 10
679.027447
 20
495.35661
 30
0.0
 11
672.259498
 21
495.35661
 31
0.0
  0
LINE
  5
3F7
  8
21
 10
697.259498
 20
495.35661
 30
0.0
 11
696.393473
 21
496.85661
 31
0.0
  0
LINE
  5
3F8
  8
21
 10
704.027447
 20
495.35661
 30
0.0
 11
704.893473
 21
496.85661
 31
0.0
  0
LINE
  5
3F9
  8
21
 10
722.259498
 20
495.35661
 30
0.0
 11
721.393473
 21
496.85661
 31
0.0
  0
ARC
  5
3FA
  8
21
 10
678.143473
 20
575.85661
 30
0.0
 40
2.0
 50
270.0
 51
0.0
  0
LINE
  5
3FB
  8
21
 10
754.027447
 20
495.35661
 30
0.0
 11
747.259498
 21
495.35661
 31
0.0
  0
LINE
  5
3FC
  8
24
 10
750.643473
 20
509.85661
 30
0.0
 11
740.643473
 21
509.85661
 31
0.0
  0
LINE
  5
3FD
  8
21
 10
729.027447
 20
495.35661
 30
0.0
 11
729.893473
 21
496.85661
 31
0.0
  0
LINE
  5
3FE
  8
21
 10
747.259498
 20
495.35661
 30
0.0
 11
746.393473
 21
496.85661
 31
0.0
  0
LINE
  5
3FF
  8
24
 10
745.621504
 20
500.856953
 30
0.0
 11
745.700043
 21
509.85661
 31
0.0
  0
LINE
  5
400
  8
24
 10
740.564934
 20
500.856953
 30
0.0
 11
740.643473
 21
509.85661
 31
0.0
  0
LINE
  5
401
  8
21
 10
754.027447
 20
495.35661
 30
0.0
 11
754.893473
 21
496.85661
 31
0.0
  0
LINE
  5
402
  8
24
 10
760.722012
 20
500.856953
 30
0.0
 11
760.643473
 21
509.85661
 31
0.0
  0
LINE
  5
403
  8
24
 10
755.665442
 20
500.856953
 30
0.0
 11
755.586903
 21
509.85661
 31
0.0
  0
LINE
  5
404
  8
24
 10
750.643473
 20
509.85661
 30
0.0
 11
760.643473
 21
509.85661
 31
0.0
  0
LINE
  5
405
  8
21
 10
772.259498
 20
495.35661
 30
0.0
 11
771.393473
 21
496.85661
 31
0.0
  0
ARC
  5
406
  8
L1
 10
825.643473
 20
416.161624
 30
0.0
 40
5.0
 50
188.626927
 51
351.373073
  0
ARC
  5
407
  8
L1
 10
825.643473
 20
416.161624
 30
0.0
 40
5.0
 50
8.626927
 51
171.373073
  0
ARC
  5
408
  8
L1
 10
800.643473
 20
416.161624
 30
0.0
 40
5.0
 50
188.626927
 51
351.373073
  0
CIRCLE
  5
409
  8
L1
 10
800.643473
 20
416.161624
 30
0.0
 40
2.4
  0
ARC
  5
40A
  8
L1
 10
800.643473
 20
416.161624
 30
0.0
 40
5.0
 50
8.626927
 51
171.373073
  0
LINE
  5
40B
  8
L1
 10
780.586903
 20
415.411624
 30
0.0
 11
795.700043
 21
415.411624
 31
0.0
  0
LINE
  5
40C
  8
L1
 10
780.586903
 20
416.911624
 30
0.0
 11
795.700043
 21
416.911624
 31
0.0
  0
ARC
  5
40D
  8
L1
 10
813.143473
 20
416.161624
 30
0.0
 40
5.0
 50
188.626927
 51
351.373073
  0
ARC
  5
40E
  8
L1
 10
813.143473
 20
416.161624
 30
0.0
 40
5.0
 50
8.626927
 51
171.373073
  0
CIRCLE
  5
40F
  8
L1
 10
813.143473
 20
416.161624
 30
0.0
 40
2.4
  0
LINE
  5
410
  8
L1
 10
805.586903
 20
416.911624
 30
0.0
 11
808.200043
 21
416.911624
 31
0.0
  0
LINE
  5
411
  8
L1
 10
805.586903
 20
415.411624
 30
0.0
 11
808.200043
 21
415.411624
 31
0.0
  0
LINE
  5
412
  8
L1
 10
805.586903
 20
416.911624
 30
0.0
 11
808.200043
 21
416.911624
 31
0.0
  0
LINE
  5
413
  8
L1
 10
805.586903
 20
415.411624
 30
0.0
 11
808.200043
 21
415.411624
 31
0.0
  0
CIRCLE
  5
414
  8
L1
 10
825.643473
 20
416.161624
 30
0.0
 40
2.4
  0
LINE
  5
415
  8
L1
 10
820.700043
 20
415.411624
 30
0.0
 11
818.086903
 21
415.411624
 31
0.0
  0
LINE
  5
416
  8
L1
 10
820.700043
 20
416.911624
 30
0.0
 11
818.086903
 21
416.911624
 31
0.0
  0
LINE
  5
417
  8
L1
 10
870.700043
 20
416.911624
 30
0.0
 11
855.586903
 21
416.911624
 31
0.0
  0
LINE
  5
418
  8
L1
 10
870.700043
 20
415.411624
 30
0.0
 11
855.586903
 21
415.411624
 31
0.0
  0
LINE
  5
419
  8
L1
 10
845.700043
 20
416.911624
 30
0.0
 11
830.586903
 21
416.911624
 31
0.0
  0
LINE
  5
41A
  8
L1
 10
845.700043
 20
415.411624
 30
0.0
 11
830.586903
 21
415.411624
 31
0.0
  0
CIRCLE
  5
41B
  8
L1
 10
850.643473
 20
416.161624
 30
0.0
 40
2.4
  0
ARC
  5
41C
  8
L1
 10
850.643473
 20
416.161624
 30
0.0
 40
5.0
 50
188.626927
 51
351.373073
  0
ARC
  5
41D
  8
L1
 10
850.643473
 20
416.161624
 30
0.0
 40
5.0
 50
8.626927
 51
171.373073
  0
ARC
  5
41E
  8
L1
 10
875.643473
 20
416.161624
 30
0.0
 40
5.0
 50
188.626927
 51
351.373073
  0
CIRCLE
  5
41F
  8
L1
 10
875.643473
 20
416.161624
 30
0.0
 40
2.4
  0
ARC
  5
420
  8
L1
 10
875.643473
 20
416.161624
 30
0.0
 40
5.0
 50
8.626927
 51
171.373073
  0
LINE
  5
421
  8
21
 10
779.027447
 20
495.35661
 30
0.0
 11
779.893473
 21
496.85661
 31
0.0
  0
LINE
  5
422
  8
21
 10
854.027447
 20
495.35661
 30
0.0
 11
854.893473
 21
496.85661
 31
0.0
  0
LINE
  5
423
  8
21
 10
847.259498
 20
495.35661
 30
0.0
 11
854.027447
 21
495.35661
 31
0.0
  0
LINE
  5
424
  8
21
 10
872.259498
 20
495.35661
 30
0.0
 11
871.393473
 21
496.85661
 31
0.0
  0
LINE
  5
425
  8
21
 10
879.027447
 20
495.35661
 30
0.0
 11
879.893473
 21
496.85661
 31
0.0
  0
LINE
  5
426
  8
21
 10
872.259498
 20
495.35661
 30
0.0
 11
879.027447
 21
495.35661
 31
0.0
  0
LINE
  5
427
  8
21
 10
813.143473
 20
593.25661
 30
0.0
 11
705.143473
 21
593.25661
 31
0.0
  0
LINE
  5
428
  8
21
 10
813.143473
 20
589.89661
 30
0.0
 11
705.143473
 21
589.89661
 31
0.0
  0
LINE
  5
429
  8
21
 10
699.143473
 20
589.89661
 30
0.0
 11
691.143473
 21
589.89661
 31
0.0
  0
LINE
  5
42A
  8
21
 10
699.143473
 20
593.25661
 30
0.0
 11
691.143473
 21
593.25661
 31
0.0
  0
LINE
  5
42B
  8
21
 10
685.143473
 20
589.89661
 30
0.0
 11
678.143473
 21
589.89661
 31
0.0
  0
LINE
  5
42C
  8
21
 10
685.143473
 20
593.25661
 30
0.0
 11
678.143473
 21
593.25661
 31
0.0
  0
LINE
  5
42D
  8
21
 10
678.143473
 20
589.89661
 30
0.0
 11
678.143473
 21
593.25661
 31
0.0
  0
LINE
  5
42E
  8
21
 10
672.143473
 20
589.89661
 30
0.0
 11
672.143473
 21
593.25661
 31
0.0
  0
LINE
  5
42F
  8
21
 10
691.143473
 20
589.89661
 30
0.0
 11
691.143473
 21
593.25661
 31
0.0
  0
LINE
  5
430
  8
21
 10
685.143473
 20
589.89661
 30
0.0
 11
685.143473
 21
593.25661
 31
0.0
  0
LINE
  5
431
  8
21
 10
705.143473
 20
589.89661
 30
0.0
 11
705.143473
 21
593.25661
 31
0.0
  0
LINE
  5
432
  8
21
 10
699.143473
 20
589.89661
 30
0.0
 11
699.143473
 21
593.25661
 31
0.0
  0
LINE
  5
433
  8
21
 10
999.868202
 20
496.85661
 30
0.0
 11
1002.143473
 21
594.85661
 31
0.0
  0
LINE
  5
434
  8
21
 10
946.143473
 20
575.85661
 30
0.0
 11
946.143473
 21
587.60661
 31
0.0
  0
LINE
  5
435
  8
21
 10
978.143473
 20
575.85661
 30
0.0
 11
978.143473
 21
587.60661
 31
0.0
  0
LINE
  5
436
  8
21
 10
980.418744
 20
496.85661
 30
0.0
 11
979.811796
 21
587.60661
 31
0.0
  0
LINE
  5
437
  8
24
 10
977.948649
 20
597.85661
 30
0.0
 11
977.948649
 21
502.85661
 31
0.0
  0
CIRCLE
  5
438
  8
L1
 10
990.143473
 20
430.661624
 30
0.0
 40
3.25
  0
CIRCLE
  5
439
  8
L1
 10
990.143473
 20
430.661624
 30
0.0
 40
6.75
  0
ARC
  5
43A
  8
L2
 10
990.143473
 20
430.661624
 30
0.0
 40
8.0
 50
10.0
 51
280.0
  0
CIRCLE
  5
43B
  8
L1
 10
990.143473
 20
430.661624
 30
0.0
 40
8.325
  0
CIRCLE
  5
43C
  8
L1
 10
990.143473
 20
430.661624
 30
0.0
 40
10.125
  0
CIRCLE
  5
43D
  8
L2
 10
990.143473
 20
430.661624
 30
0.0
 40
5.424871
  0
ARC
  5
43E
  8
L2
 10
990.143473
 20
430.661624
 30
0.0
 40
14.200352
 50
180.0
 51
270.0
  0
ARC
  5
43F
  8
L1
 10
990.143473
 20
430.661624
 30
0.0
 40
12.0
 50
180.0
 51
270.0
  0
LINE
  5
440
  8
21
 10
982.143473
 20
494.85661
 30
0.0
 11
998.143473
 21
494.85661
 31
0.0
  0
LINE
  5
441
  8
L1
 10
945.700043
 20
416.911624
 30
0.0
 11
930.586903
 21
416.911624
 31
0.0
  0
LINE
  5
442
  8
L1
 10
945.700043
 20
415.411624
 30
0.0
 11
930.586903
 21
415.411624
 31
0.0
  0
LINE
  5
443
  8
L1
 10
913.143473
 20
443.161624
 30
0.0
 11
906.143473
 21
443.161624
 31
0.0
  0
LINE
  5
444
  8
L1
 10
920.700043
 20
416.911624
 30
0.0
 11
905.586903
 21
416.911624
 31
0.0
  0
LINE
  5
445
  8
L1
 10
920.700043
 20
415.411624
 30
0.0
 11
905.586903
 21
415.411624
 31
0.0
  0
ARC
  5
446
  8
L1
 10
900.643473
 20
416.161624
 30
0.0
 40
5.0
 50
188.626927
 51
351.373073
  0
CIRCLE
  5
447
  8
L1
 10
900.643473
 20
416.161624
 30
0.0
 40
2.4
  0
ARC
  5
448
  8
L1
 10
900.643473
 20
416.161624
 30
0.0
 40
5.0
 50
8.626927
 51
171.373073
  0
LINE
  5
449
  8
L1
 10
904.643473
 20
443.161624
 30
0.0
 11
904.643473
 21
442.661624
 31
0.0
  0
LINE
  5
44A
  8
L1
 10
906.143473
 20
443.161624
 30
0.0
 11
904.643473
 21
443.161624
 31
0.0
  0
ARC
  5
44B
  8
L1
 10
925.643473
 20
416.161624
 30
0.0
 40
5.0
 50
188.626927
 51
351.373073
  0
ARC
  5
44C
  8
L1
 10
925.643473
 20
416.161624
 30
0.0
 40
5.0
 50
8.626927
 51
171.373073
  0
CIRCLE
  5
44D
  8
L1
 10
925.643473
 20
416.161624
 30
0.0
 40
2.4
  0
LINE
  5
44E
  8
L1
 10
920.789371
 20
438.161624
 30
0.0
 11
920.789371
 21
440.161624
 31
0.0
  0
LINE
  5
44F
  8
L1
 10
914.643473
 20
443.161624
 30
0.0
 11
914.643473
 21
442.661624
 31
0.0
  0
LINE
  5
450
  8
L1
 10
921.124559
 20
436.023442
 30
0.0
 11
921.124559
 21
433.853442
 31
0.0
  0
LINE
  5
451
  8
L1
 10
914.643473
 20
443.161624
 30
0.0
 11
913.143473
 21
443.161624
 31
0.0
  0
LINE
  5
452
  8
L1
 10
914.643473
 20
443.161624
 30
0.0
 11
913.143473
 21
443.161624
 31
0.0
  0
LINE
  5
453
  8
L1
 10
934.789371
 20
440.161624
 30
0.0
 11
927.497575
 21
440.161624
 31
0.0
  0
LINE
  5
454
  8
L1
 10
934.789371
 20
438.161624
 30
0.0
 11
934.789371
 21
440.161624
 31
0.0
  0
LINE
  5
455
  8
L1
 10
927.497575
 20
438.161624
 30
0.0
 11
927.497575
 21
440.161624
 31
0.0
  0
LINE
  5
456
  8
L1
 10
927.162386
 20
436.115564
 30
0.0
 11
927.162386
 21
433.945564
 31
0.0
  0
LINE
  5
457
  8
L1
 10
974.893473
 20
386.218194
 30
0.0
 11
974.893473
 21
371.105054
 31
0.0
  0
LINE
  5
458
  8
L1
 10
976.393473
 20
386.218194
 30
0.0
 11
976.393473
 21
371.105054
 31
0.0
  0
ARC
  5
459
  8
L1
 10
975.643473
 20
366.161624
 30
0.0
 40
5.0
 50
98.626927
 51
261.373073
  0
CIRCLE
  5
45A
  8
L1
 10
975.643473
 20
366.161624
 30
0.0
 40
2.4
  0
ARC
  5
45B
  8
L1
 10
975.643473
 20
366.161624
 30
0.0
 40
5.0
 50
278.626927
 51
81.373073
  0
LINE
  5
45C
  8
L1
 10
974.893473
 20
346.105054
 30
0.0
 11
974.893473
 21
361.218194
 31
0.0
  0
LINE
  5
45D
  8
L1
 10
976.393473
 20
346.105054
 30
0.0
 11
976.393473
 21
361.218194
 31
0.0
  0
CIRCLE
  5
45E
  8
L1
 10
975.643473
 20
391.161624
 30
0.0
 40
2.4
  0
ARC
  5
45F
  8
L1
 10
975.643473
 20
391.161624
 30
0.0
 40
5.0
 50
90.0
 51
261.373073
  0
ARC
  5
460
  8
L1
 10
975.643473
 20
391.161624
 30
0.0
 40
5.0
 50
278.626927
 51
90.0
  0
LINE
  5
461
  8
L1
 10
962.789371
 20
440.161624
 30
0.0
 11
955.497575
 21
440.161624
 31
0.0
  0
ARC
  5
462
  8
L1
 10
950.643473
 20
416.161624
 30
0.0
 40
5.0
 50
188.626927
 51
360.0
  0
ARC
  5
463
  8
L1
 10
950.643473
 20
416.161624
 30
0.0
 40
5.0
 50
360.0
 51
171.373073
  0
CIRCLE
  5
464
  8
L1
 10
950.643473
 20
416.161624
 30
0.0
 40
2.4
  0
LINE
  5
465
  8
L1
 10
948.789371
 20
440.161624
 30
0.0
 11
941.497575
 21
440.161624
 31
0.0
  0
LINE
  5
466
  8
L1
 10
941.497575
 20
438.161624
 30
0.0
 11
941.497575
 21
440.161624
 31
0.0
  0
LINE
  5
467
  8
L1
 10
941.162386
 20
436.115564
 30
0.0
 11
941.162386
 21
433.945564
 31
0.0
  0
LINE
  5
468
  8
L1
 10
935.124559
 20
436.023442
 30
0.0
 11
935.124559
 21
433.853442
 31
0.0
  0
LINE
  5
469
  8
L1
 10
955.497575
 20
438.161624
 30
0.0
 11
955.497575
 21
440.161624
 31
0.0
  0
LINE
  5
46A
  8
L1
 10
955.162386
 20
436.115564
 30
0.0
 11
955.162386
 21
433.945564
 31
0.0
  0
LINE
  5
46B
  8
L1
 10
948.789371
 20
438.161624
 30
0.0
 11
948.789371
 21
440.161624
 31
0.0
  0
LINE
  5
46C
  8
L1
 10
949.124559
 20
436.023442
 30
0.0
 11
949.124559
 21
433.853442
 31
0.0
  0
CIRCLE
  5
46D
  8
L1
 10
968.143473
 20
408.595057
 30
0.0
 40
3.0
  0
CIRCLE
  5
46E
  8
L1
 10
968.143473
 20
408.595057
 30
0.0
 40
6.0
  0
LINE
  5
46F
  8
L1
 10
985.861635
 20
423.55136
 30
0.0
 11
984.539295
 21
422.22902
 31
0.0
  0
LINE
  5
470
  8
L1
 10
983.033208
 20
426.379787
 30
0.0
 11
981.710868
 21
425.057447
 31
0.0
  0
ARC
  5
471
  8
L1
 10
972.743473
 20
430.761624
 30
0.0
 40
5.4
 50
0.0
 51
90.0
  0
LINE
  5
472
  8
L1
 10
979.818473
 20
440.161624
 30
0.0
 11
969.497575
 21
440.161624
 31
0.0
  0
ARC
  5
473
  8
L1
 10
972.618473
 20
430.761624
 30
0.0
 40
7.4
 50
360.0
 51
90.0
  0
LINE
  5
474
  8
L1
 10
969.497575
 20
438.161624
 30
0.0
 11
969.497575
 21
440.161624
 31
0.0
  0
LINE
  5
475
  8
L1
 10
969.162386
 20
436.115564
 30
0.0
 11
969.162386
 21
433.945564
 31
0.0
  0
LINE
  5
476
  8
L1
 10
962.789371
 20
438.161624
 30
0.0
 11
962.789371
 21
440.161624
 31
0.0
  0
LINE
  5
477
  8
L1
 10
963.124559
 20
436.023442
 30
0.0
 11
963.124559
 21
433.853442
 31
0.0
  0
LINE
  5
478
  8
L1
 10
985.861635
 20
437.771889
 30
0.0
 11
984.539295
 21
439.094229
 31
0.0
  0
LINE
  5
479
  8
L1
 10
983.033208
 20
434.943462
 30
0.0
 11
981.710868
 21
436.265802
 31
0.0
  0
ARC
  5
47A
  8
L1
 10
979.818473
 20
439.961624
 30
0.0
 40
0.2
 50
0.0
 51
90.0
  0
ARC
  5
47B
  8
L1
 10
979.818473
 20
438.361624
 30
0.0
 40
0.2
 50
270.0
 51
0.0
  0
LINE
  5
47C
  8
L1
 10
980.018473
 20
438.361624
 30
0.0
 11
980.018473
 21
439.961624
 31
0.0
  0
ARC
  5
47D
  8
L1
 10
976.23877
 20
432.491624
 30
0.0
 40
1.5
 50
26.333146
 51
90.0
  0
LINE
  5
47E
  8
L1
 10
978.143473
 20
430.661624
 30
0.0
 11
978.143473
 21
430.761624
 31
0.0
  0
LINE
  5
47F
  8
L1
 10
980.018473
 20
430.661624
 30
0.0
 11
980.018473
 21
430.761624
 31
0.0
  0
LINE
  5
480
  8
21
 10
897.259498
 20
495.35661
 30
0.0
 11
896.393473
 21
496.85661
 31
0.0
  0
LINE
  5
481
  8
21
 10
904.027447
 20
495.35661
 30
0.0
 11
904.893473
 21
496.85661
 31
0.0
  0
LINE
  5
482
  8
21
 10
897.259498
 20
495.35661
 30
0.0
 11
904.027447
 21
495.35661
 31
0.0
  0
LINE
  5
483
  8
21
 10
922.259498
 20
495.35661
 30
0.0
 11
921.393473
 21
496.85661
 31
0.0
  0
LINE
  5
484
  8
21
 10
929.027447
 20
495.35661
 30
0.0
 11
929.893473
 21
496.85661
 31
0.0
  0
LINE
  5
485
  8
21
 10
922.259498
 20
495.35661
 30
0.0
 11
929.027447
 21
495.35661
 31
0.0
  0
LINE
  5
486
  8
21
 10
947.259498
 20
495.35661
 30
0.0
 11
954.027447
 21
495.35661
 31
0.0
  0
LINE
  5
487
  8
21
 10
947.259498
 20
495.35661
 30
0.0
 11
946.393473
 21
496.85661
 31
0.0
  0
LINE
  5
488
  8
21
 10
954.027447
 20
495.35661
 30
0.0
 11
954.893473
 21
496.85661
 31
0.0
  0
LINE
  5
489
  8
21
 10
973.777447
 20
495.35661
 30
0.0
 11
974.643473
 21
496.85661
 31
0.0
  0
LINE
  5
48A
  8
21
 10
972.759498
 20
495.35661
 30
0.0
 11
979.527447
 21
495.35661
 31
0.0
  0
LINE
  5
48B
  8
21
 10
962.509498
 20
495.35661
 30
0.0
 11
973.777447
 21
495.35661
 31
0.0
  0
LINE
  5
48C
  8
21
 10
962.509498
 20
495.35661
 30
0.0
 11
961.643473
 21
496.85661
 31
0.0
  0
LINE
  5
48D
  8
21
 10
982.143473
 20
494.85661
 30
0.0
 11
982.108563
 21
496.85661
 31
0.0
  0
LINE
  5
48E
  8
21
 10
979.527447
 20
495.35661
 30
0.0
 11
980.393473
 21
496.85661
 31
0.0
  0
ARC
  5
48F
  8
24
 10
975.948649
 20
502.85661
 30
0.0
 40
2.0
 50
270.0
 51
0.0
  0
LINE
  5
490
  8
21
 10
948.143473
 20
573.85661
 30
0.0
 11
976.143473
 21
573.85661
 31
0.0
  0
ARC
  5
491
  8
21
 10
948.143473
 20
575.85661
 30
0.0
 40
2.0
 50
180.0
 51
270.0
  0
ARC
  5
492
  8
21
 10
976.143473
 20
575.85661
 30
0.0
 40
2.0
 50
270.0
 51
0.0
  0
LINE
  5
493
  8
L1
 10
999.643473
 20
403.307522
 30
0.0
 11
999.643473
 21
396.015726
 31
0.0
  0
LINE
  5
494
  8
L1
 10
999.643473
 20
403.307522
 30
0.0
 11
999.643473
 21
396.015726
 31
0.0
  0
LINE
  5
495
  8
L1
 10
1002.643473
 20
395.361624
 30
0.0
 11
1002.643473
 21
404.961624
 31
0.0
  0
LINE
  5
496
  8
L1
 10
999.643473
 20
375.307522
 30
0.0
 11
999.643473
 21
368.015726
 31
0.0
  0
LINE
  5
497
  8
L1
 10
999.643473
 20
375.307522
 30
0.0
 11
999.643473
 21
368.015726
 31
0.0
  0
LINE
  5
498
  8
L1
 10
997.643473
 20
361.307522
 30
0.0
 11
999.643473
 21
361.307522
 31
0.0
  0
LINE
  5
499
  8
L1
 10
997.643473
 20
368.015726
 30
0.0
 11
999.643473
 21
368.015726
 31
0.0
  0
LINE
  5
49A
  8
L1
 10
995.597413
 20
367.680538
 30
0.0
 11
993.427413
 21
367.680538
 31
0.0
  0
LINE
  5
49B
  8
L1
 10
995.50529
 20
361.642711
 30
0.0
 11
993.33529
 21
361.642711
 31
0.0
  0
LINE
  5
49C
  8
L1
 10
997.643473
 20
396.015726
 30
0.0
 11
999.643473
 21
396.015726
 31
0.0
  0
LINE
  5
49D
  8
L1
 10
999.643473
 20
389.307522
 30
0.0
 11
999.643473
 21
382.015726
 31
0.0
  0
LINE
  5
49E
  8
L1
 10
999.643473
 20
389.307522
 30
0.0
 11
999.643473
 21
382.015726
 31
0.0
  0
LINE
  5
49F
  8
L1
 10
997.643473
 20
389.307522
 30
0.0
 11
999.643473
 21
389.307522
 31
0.0
  0
LINE
  5
4A0
  8
L1
 10
997.643473
 20
375.307522
 30
0.0
 11
999.643473
 21
375.307522
 31
0.0
  0
LINE
  5
4A1
  8
L1
 10
997.643473
 20
382.015726
 30
0.0
 11
999.643473
 21
382.015726
 31
0.0
  0
LINE
  5
4A2
  8
L1
 10
995.597413
 20
395.680538
 30
0.0
 11
993.427413
 21
395.680538
 31
0.0
  0
LINE
  5
4A3
  8
L1
 10
995.50529
 20
389.642711
 30
0.0
 11
993.33529
 21
389.642711
 31
0.0
  0
LINE
  5
4A4
  8
L1
 10
995.597413
 20
381.680538
 30
0.0
 11
993.427413
 21
381.680538
 31
0.0
  0
LINE
  5
4A5
  8
L1
 10
995.50529
 20
375.642711
 30
0.0
 11
993.33529
 21
375.642711
 31
0.0
  0
LINE
  5
4A6
  8
L1
 10
1002.643473
 20
393.411624
 30
0.0
 11
1002.143473
 21
393.411624
 31
0.0
  0
LINE
  5
4A7
  8
L1
 10
1002.643473
 20
393.411624
 30
0.0
 11
1002.643473
 21
395.361624
 31
0.0
  0
LINE
  5
4A8
  8
L1
 10
994.425311
 20
423.55136
 30
0.0
 11
995.74765
 21
422.22902
 31
0.0
  0
LINE
  5
4A9
  8
L1
 10
997.253738
 20
426.379787
 30
0.0
 11
998.576077
 21
425.057447
 31
0.0
  0
LINE
  5
4AA
  8
L1
 10
997.843473
 20
420.536796
 30
0.0
 11
999.443473
 21
420.536796
 31
0.0
  0
ARC
  5
4AB
  8
L1
 10
997.843473
 20
420.336796
 30
0.0
 40
0.2
 50
90.0
 51
180.0
  0
ARC
  5
4AC
  8
L1
 10
999.443473
 20
420.336796
 30
0.0
 40
0.2
 50
0.0
 51
90.0
  0
LINE
  5
4AD
  8
L1
 10
990.084549
 20
420.536796
 30
0.0
 11
990.243473
 21
420.536796
 31
0.0
  0
LINE
  5
4AE
  8
L1
 10
997.643473
 20
410.015726
 30
0.0
 11
999.643473
 21
410.015726
 31
0.0
  0
LINE
  5
4AF
  8
L1
 10
997.643473
 20
403.307522
 30
0.0
 11
999.643473
 21
403.307522
 31
0.0
  0
ARC
  5
4B0
  8
L2
 10
989.993473
 20
415.071966
 30
0.0
 40
1.5
 50
0.0
 51
62.774096
  0
ARC
  5
4B1
  8
L1
 10
990.243473
 20
413.261624
 30
0.0
 40
5.4
 50
84.113158
 51
90.0
  0
LINE
  5
4B2
  8
L1
 10
990.143473
 20
418.661624
 30
0.0
 11
990.243473
 21
418.661624
 31
0.0
  0
LINE
  5
4B3
  8
L1
 10
995.597413
 20
409.680538
 30
0.0
 11
993.427413
 21
409.680538
 31
0.0
  0
ARC
  5
4B4
  8
L1
 10
991.973473
 20
416.756921
 30
0.0
 40
1.5
 50
0.0
 51
63.666854
  0
LINE
  5
4B5
  8
L1
 10
995.50529
 20
403.642711
 30
0.0
 11
993.33529
 21
403.642711
 31
0.0
  0
LINE
  5
4B6
  8
L1
 10
999.643473
 20
420.336796
 30
0.0
 11
999.643473
 21
410.015726
 31
0.0
  0
ARC
  5
4B7
  8
L1
 10
990.243473
 20
413.261624
 30
0.0
 40
5.4
 50
0.0
 51
84.113158
  0
ARC
  5
4B8
  8
L1
 10
990.243473
 20
413.136796
 30
0.0
 40
7.4
 50
0.0
 51
90.0
  0
LINE
  5
4B9
  8
L1
 10
1002.643473
 20
406.894164
 30
0.0
 11
1002.143473
 21
406.894164
 31
0.0
  0
LINE
  5
4BA
  8
L1
 10
1002.643473
 20
404.961624
 30
0.0
 11
1002.643473
 21
406.894164
 31
0.0
  0
ARC
  5
4BB
  8
L1
 10
990.143473
 20
430.661624
 30
0.0
 40
12.0
 50
0.0
 51
90.0
  0
LINE
  5
4BC
  8
L1
 10
994.425311
 20
437.771889
 30
0.0
 11
995.74765
 21
439.094229
 31
0.0
  0
LINE
  5
4BD
  8
L1
 10
997.253738
 20
434.943462
 30
0.0
 11
998.576077
 21
436.265802
 31
0.0
  0
LINE
  5
4BE
  8
31
 10
1047.977701
 20
344.545599
 30
0.0
 11
1049.477701
 21
345.411624
 31
0.0
  0
LINE
  5
4BF
  8
31
 10
1047.977701
 20
362.77765
 30
0.0
 11
1049.477701
 21
361.911624
 31
0.0
  0
LINE
  5
4C0
  8
31
 10
1047.977701
 20
369.545599
 30
0.0
 11
1049.477701
 21
370.411624
 31
0.0
  0
LINE
  5
4C1
  8
31
 10
1047.977701
 20
362.77765
 30
0.0
 11
1047.977701
 21
369.545599
 31
0.0
  0
LINE
  5
4C2
  8
31
 10
1047.977701
 20
387.77765
 30
0.0
 11
1047.977701
 21
394.545599
 31
0.0
  0
LINE
  5
4C3
  8
31
 10
1047.977701
 20
394.545599
 30
0.0
 11
1049.477701
 21
395.411624
 31
0.0
  0
LINE
  5
4C4
  8
31
 10
1047.977701
 20
387.77765
 30
0.0
 11
1049.477701
 21
386.911624
 31
0.0
  0
LINE
  5
4C5
  8
31
 10
1047.477701
 20
422.661624
 30
0.0
 11
1047.477701
 21
438.661624
 31
0.0
  0
ARC
  5
4C6
  8
34
 10
1055.477701
 20
416.4668
 30
0.0
 40
2.0
 50
90.0
 51
180.0
  0
LINE
  5
4C7
  8
31
 10
1047.977701
 20
403.02765
 30
0.0
 11
1047.977701
 21
414.295599
 31
0.0
  0
LINE
  5
4C8
  8
31
 10
1047.977701
 20
414.295599
 30
0.0
 11
1049.477701
 21
415.161624
 31
0.0
  0
LINE
  5
4C9
  8
31
 10
1047.977701
 20
403.02765
 30
0.0
 11
1049.477701
 21
402.161624
 31
0.0
  0
LINE
  5
4CA
  8
31
 10
1047.477701
 20
422.661624
 30
0.0
 11
1049.477701
 21
422.626714
 31
0.0
  0
LINE
  5
4CB
  8
31
 10
1047.977701
 20
419.545599
 30
0.0
 11
1049.477701
 21
420.411624
 31
0.0
  0
LINE
  5
4CC
  8
31
 10
1047.977701
 20
412.77765
 30
0.0
 11
1047.977701
 21
419.545599
 31
0.0
  0
LINE
  5
4CD
  8
31
 10
1047.477701
 20
438.661624
 30
0.0
 11
1049.477701
 21
438.696534
 31
0.0
  0
LINE
  5
4CE
  8
21
 10
998.143473
 20
494.85661
 30
0.0
 11
998.178383
 21
496.85661
 31
0.0
  0
LINE
  5
4CF
  8
21
 10
968.143473
 20
593.25661
 30
0.0
 11
990.143473
 21
593.25661
 31
0.0
  0
LINE
  5
4D0
  8
21
 10
968.143473
 20
589.89661
 30
0.0
 11
990.143473
 21
589.89661
 31
0.0
  0
LINE
  5
4D1
  8
21
 10
927.143473
 20
593.25661
 30
0.0
 11
935.143473
 21
593.25661
 31
0.0
  0
LINE
  5
4D2
  8
21
 10
927.143473
 20
589.89661
 30
0.0
 11
935.143473
 21
589.89661
 31
0.0
  0
LINE
  5
4D3
  8
21
 10
921.143473
 20
589.89661
 30
0.0
 11
921.143473
 21
593.25661
 31
0.0
  0
LINE
  5
4D4
  8
21
 10
927.143473
 20
589.89661
 30
0.0
 11
927.143473
 21
593.25661
 31
0.0
  0
LINE
  5
4D5
  8
21
 10
954.143473
 20
593.25661
 30
0.0
 11
962.143473
 21
593.25661
 31
0.0
  0
LINE
  5
4D6
  8
21
 10
954.143473
 20
589.89661
 30
0.0
 11
962.143473
 21
589.89661
 31
0.0
  0
LINE
  5
4D7
  8
21
 10
941.143473
 20
593.25661
 30
0.0
 11
948.143473
 21
593.25661
 31
0.0
  0
LINE
  5
4D8
  8
21
 10
941.143473
 20
589.89661
 30
0.0
 11
948.143473
 21
589.89661
 31
0.0
  0
LINE
  5
4D9
  8
21
 10
941.143473
 20
589.89661
 30
0.0
 11
941.143473
 21
593.25661
 31
0.0
  0
LINE
  5
4DA
  8
21
 10
935.143473
 20
589.89661
 30
0.0
 11
935.143473
 21
593.25661
 31
0.0
  0
LINE
  5
4DB
  8
21
 10
954.143473
 20
589.89661
 30
0.0
 11
954.143473
 21
593.25661
 31
0.0
  0
LINE
  5
4DC
  8
21
 10
948.143473
 20
589.89661
 30
0.0
 11
948.143473
 21
593.25661
 31
0.0
  0
LINE
  5
4DD
  8
21
 10
968.143473
 20
589.89661
 30
0.0
 11
968.143473
 21
593.25661
 31
0.0
  0
LINE
  5
4DE
  8
21
 10
962.143473
 20
589.89661
 30
0.0
 11
962.143473
 21
593.25661
 31
0.0
  0
ARC
  5
4DF
  8
21
 10
996.660776
 20
596.85661
 30
0.0
 40
1.0
 50
1.0
 51
90.0
  0
LINE
  5
4E0
  8
21
 10
997.695838
 20
594.85661
 30
0.0
 11
997.660623
 21
596.874063
 31
0.0
  0
LINE
  5
4E1
  8
31
 10
1140.227701
 20
303.661624
 30
0.0
 11
1140.227701
 21
430.661624
 31
0.0
  0
LINE
  5
4E2
  8
31
 10
1142.517701
 20
303.661624
 30
0.0
 11
1142.517701
 21
361.661624
 31
0.0
  0
LINE
  5
4E3
  8
31
 10
1145.877701
 20
303.661624
 30
0.0
 11
1145.877701
 21
361.661624
 31
0.0
  0
LINE
  5
4E4
  8
31
 10
1150.477701
 20
303.661624
 30
0.0
 11
1150.477701
 21
437.178927
 31
0.0
  0
LINE
  5
4E5
  8
31
 10
1147.477701
 20
303.661624
 30
0.0
 11
1147.477701
 21
436.213685
 31
0.0
  0
LINE
  5
4E6
  8
31
 10
1147.477701
 20
303.661624
 30
0.0
 11
1147.477701
 21
171.109564
 31
0.0
  0
LINE
  5
4E7
  8
31
 10
1150.477701
 20
303.661624
 30
0.0
 11
1150.477701
 21
170.144322
 31
0.0
  0
LINE
  5
4E8
  8
31
 10
1140.227701
 20
303.661624
 30
0.0
 11
1140.227701
 21
176.661624
 31
0.0
  0
LINE
  5
4E9
  8
31
 10
1142.517701
 20
225.661624
 30
0.0
 11
1142.517701
 21
218.661624
 31
0.0
  0
LINE
  5
4EA
  8
31
 10
1145.877701
 20
225.661624
 30
0.0
 11
1145.877701
 21
218.661624
 31
0.0
  0
LINE
  5
4EB
  8
31
 10
1147.477701
 20
164.661624
 30
0.0
 11
1145.840121
 21
164.661624
 31
0.0
  0
LINE
  5
4EC
  8
31
 10
1142.517701
 20
198.661624
 30
0.0
 11
1142.517701
 21
176.661624
 31
0.0
  0
LINE
  5
4ED
  8
31
 10
1145.877701
 20
198.661624
 30
0.0
 11
1145.877701
 21
176.661624
 31
0.0
  0
LINE
  5
4EE
  8
31
 10
1145.840121
 20
164.661624
 30
0.0
 11
1141.86528
 21
164.661624
 31
0.0
  0
LINE
  5
4EF
  8
31
 10
1141.86528
 20
164.661624
 30
0.0
 11
1140.227701
 21
164.661624
 31
0.0
  0
LINE
  5
4F0
  8
31
 10
1133.457637
 20
164.987129
 30
0.0
 11
1140.227701
 21
164.829948
 31
0.0
  0
LINE
  5
4F1
  8
31
 10
1142.517701
 20
218.661624
 30
0.0
 11
1145.877701
 21
218.661624
 31
0.0
  0
LINE
  5
4F2
  8
31
 10
1142.517701
 20
212.661624
 30
0.0
 11
1145.877701
 21
212.661624
 31
0.0
  0
LINE
  5
4F3
  8
31
 10
1142.517701
 20
204.661624
 30
0.0
 11
1145.877701
 21
204.661624
 31
0.0
  0
LINE
  5
4F4
  8
31
 10
1142.517701
 20
198.661624
 30
0.0
 11
1145.877701
 21
198.661624
 31
0.0
  0
LINE
  5
4F5
  8
31
 10
1142.517701
 20
212.661624
 30
0.0
 11
1142.517701
 21
204.661624
 31
0.0
  0
LINE
  5
4F6
  8
31
 10
1145.877701
 20
212.661624
 30
0.0
 11
1145.877701
 21
204.661624
 31
0.0
  0
LINE
  5
4F7
  8
31
 10
1147.477701
 20
174.661624
 30
0.0
 11
1147.477701
 21
183.314157
 31
0.0
  0
LINE
  5
4F8
  8
31
 10
1147.477701
 20
164.661624
 30
0.0
 11
1147.477701
 21
174.661624
 31
0.0
  0
LINE
  5
4F9
  8
31
 10
1150.477701
 20
170.144322
 30
0.0
 11
1150.477701
 21
170.144322
 31
0.0
  0
LINE
  5
4FA
  8
31
 10
1147.477701
 20
164.661624
 30
0.0
 11
1147.477701
 21
169.109259
 31
0.0
  0
ARC
  5
4FB
  8
31
 10
1149.477701
 20
170.144322
 30
0.0
 40
1.0
 50
271.0
 51
0.0
  0
LINE
  5
4FC
  8
31
 10
1147.477701
 20
169.109259
 30
0.0
 11
1149.495153
 21
169.144474
 31
0.0
  0
LINE
  5
4FD
  8
31
 10
1150.477701
 20
181.539085
 30
0.0
 11
1150.477701
 21
170.144317
 31
0.0
  0
LINE
  5
4FE
  8
31
 10
1147.477701
 20
169.109259
 30
0.0
 11
1149.495153
 21
169.144474
 31
0.0
  0
ARC
  5
4FF
  8
31
 10
1149.477701
 20
170.144322
 30
0.0
 40
1.0
 50
271.0
 51
0.0
  0
LINE
  5
500
  8
31
 10
1145.877701
 20
303.661624
 30
0.0
 11
1145.877701
 21
245.661624
 31
0.0
  0
LINE
  5
501
  8
31
 10
1142.517701
 20
303.661624
 30
0.0
 11
1142.517701
 21
245.661624
 31
0.0
  0
LINE
  5
502
  8
31
 10
1142.517701
 20
245.661624
 30
0.0
 11
1145.877701
 21
245.661624
 31
0.0
  0
LINE
  5
503
  8
31
 10
1142.517701
 20
239.661624
 30
0.0
 11
1145.877701
 21
239.661624
 31
0.0
  0
LINE
  5
504
  8
31
 10
1142.517701
 20
231.661624
 30
0.0
 11
1145.877701
 21
231.661624
 31
0.0
  0
LINE
  5
505
  8
31
 10
1142.517701
 20
225.661624
 30
0.0
 11
1145.877701
 21
225.661624
 31
0.0
  0
LINE
  5
506
  8
31
 10
1142.517701
 20
239.661624
 30
0.0
 11
1142.517701
 21
231.661624
 31
0.0
  0
LINE
  5
507
  8
31
 10
1145.877701
 20
239.661624
 30
0.0
 11
1145.877701
 21
231.661624
 31
0.0
  0
LINE
  5
508
  8
31
 10
1147.477701
 20
442.661624
 30
0.0
 11
1145.840121
 21
442.661624
 31
0.0
  0
LINE
  5
509
  8
31
 10
1145.877701
 20
394.661624
 30
0.0
 11
1145.877701
 21
402.661624
 31
0.0
  0
LINE
  5
50A
  8
31
 10
1142.517701
 20
394.661624
 30
0.0
 11
1142.517701
 21
402.661624
 31
0.0
  0
LINE
  5
50B
  8
31
 10
1145.877701
 20
367.661624
 30
0.0
 11
1145.877701
 21
375.661624
 31
0.0
  0
LINE
  5
50C
  8
31
 10
1142.517701
 20
367.661624
 30
0.0
 11
1142.517701
 21
375.661624
 31
0.0
  0
LINE
  5
50D
  8
31
 10
1142.517701
 20
367.661624
 30
0.0
 11
1145.877701
 21
367.661624
 31
0.0
  0
LINE
  5
50E
  8
31
 10
1142.517701
 20
361.661624
 30
0.0
 11
1145.877701
 21
361.661624
 31
0.0
  0
LINE
  5
50F
  8
31
 10
1145.877701
 20
381.661624
 30
0.0
 11
1145.877701
 21
388.661624
 31
0.0
  0
LINE
  5
510
  8
31
 10
1142.517701
 20
381.661624
 30
0.0
 11
1142.517701
 21
388.661624
 31
0.0
  0
LINE
  5
511
  8
31
 10
1142.517701
 20
394.661624
 30
0.0
 11
1145.877701
 21
394.661624
 31
0.0
  0
LINE
  5
512
  8
31
 10
1142.517701
 20
388.661624
 30
0.0
 11
1145.877701
 21
388.661624
 31
0.0
  0
LINE
  5
513
  8
31
 10
1142.517701
 20
381.661624
 30
0.0
 11
1145.877701
 21
381.661624
 31
0.0
  0
LINE
  5
514
  8
31
 10
1142.517701
 20
375.661624
 30
0.0
 11
1145.877701
 21
375.661624
 31
0.0
  0
LINE
  5
515
  8
31
 10
1145.877701
 20
408.661624
 30
0.0
 11
1145.877701
 21
430.661624
 31
0.0
  0
LINE
  5
516
  8
31
 10
1142.517701
 20
408.661624
 30
0.0
 11
1142.517701
 21
430.661624
 31
0.0
  0
LINE
  5
517
  8
31
 10
1142.517701
 20
408.661624
 30
0.0
 11
1145.877701
 21
408.661624
 31
0.0
  0
LINE
  5
518
  8
31
 10
1142.517701
 20
402.661624
 30
0.0
 11
1145.877701
 21
402.661624
 31
0.0
  0
LINE
  5
519
  8
31
 10
1133.457637
 20
442.33612
 30
0.0
 11
1140.227701
 21
442.493301
 31
0.0
  0
LINE
  5
51A
  8
31
 10
1141.86528
 20
442.661624
 30
0.0
 11
1140.227701
 21
442.661624
 31
0.0
  0
LINE
  5
51B
  8
31
 10
1145.840121
 20
442.661624
 30
0.0
 11
1141.86528
 21
442.661624
 31
0.0
  0
LINE
  5
51C
  8
31
 10
1150.477701
 20
425.784164
 30
0.0
 11
1150.477701
 21
437.178932
 31
0.0
  0
LINE
  5
51D
  8
31
 10
1147.477701
 20
432.661624
 30
0.0
 11
1147.477701
 21
424.009091
 31
0.0
  0
ARC
  5
51E
  8
31
 10
1149.477701
 20
437.178927
 30
0.0
 40
1.0
 50
0.0
 51
89.0
  0
LINE
  5
51F
  8
31
 10
1147.477701
 20
438.21399
 30
0.0
 11
1149.495153
 21
438.178775
 31
0.0
  0
LINE
  5
520
  8
31
 10
1147.477701
 20
438.21399
 30
0.0
 11
1149.495153
 21
438.178775
 31
0.0
  0
ARC
  5
521
  8
31
 10
1149.477701
 20
437.178927
 30
0.0
 40
1.0
 50
0.0
 51
89.0
  0
LINE
  5
522
  8
31
 10
1147.477701
 20
442.661624
 30
0.0
 11
1147.477701
 21
438.21399
 31
0.0
  0
LINE
  5
523
  8
31
 10
1150.477701
 20
437.178927
 30
0.0
 11
1150.477701
 21
437.178927
 31
0.0
  0
LINE
  5
524
  8
31
 10
1147.477701
 20
442.661624
 30
0.0
 11
1147.477701
 21
432.661624
 31
0.0
  0
ENDBLK
  5
526
  8
0
  0
ENDSEC
  0
SECTION
  2
ENTITIES
  0
LINE
  5
52C
  8
L6
 10
612.527449
 20
303.661624
 30
0.0
 11
1015.46217
 21
303.661624
 31
0.0
  0
ARC
  5
52D
  8
L1
 10
675.643473
 20
416.161624
 30
0.0
 40
5.0
 50
180.0
 51
351.373073
  0
ARC
  5
52E
  8
L1
 10
675.643473
 20
416.161624
 30
0.0
 40
5.0
 50
8.626927
 51
180.0
  0
LINE
  5
52F
  8
L1
 10
653.543473
 20
436.161624
 30
0.0
 11
813.143473
 21
436.161624
 31
0.0
  0
LINE
  5
530
  8
L1
 10
646.468473
 20
438.161624
 30
0.0
 11
813.143473
 21
438.161624
 31
0.0
  0
LINE
  5
531
  8
L1
 10
636.143473
 20
442.661624
 30
0.0
 11
813.143473
 21
442.661624
 31
0.0
  0
LINE
  5
532
  8
L1
 10
650.048176
 20
433.991624
 30
0.0
 11
813.143473
 21
433.991624
 31
0.0
  0
LINE
  5
533
  8
L2
 10
651.733131
 20
432.011624
 30
0.0
 11
813.143473
 21
432.011624
 31
0.0
  0
ARC
  5
534
  8
L1
 10
675.643473
 20
191.161624
 30
0.0
 40
5.0
 50
8.626927
 51
180.0
  0
ARC
  5
535
  8
L1
 10
675.643473
 20
191.161624
 30
0.0
 40
5.0
 50
180.0
 51
351.373073
  0
LINE
  5
536
  8
L1
 10
636.143473
 20
164.661624
 30
0.0
 11
813.143473
 21
164.661624
 31
0.0
  0
LINE
  5
537
  8
L1
 10
646.468473
 20
169.161624
 30
0.0
 11
813.143473
 21
169.161624
 31
0.0
  0
LINE
  5
538
  8
L1
 10
653.543473
 20
171.161624
 30
0.0
 11
813.143473
 21
171.161624
 31
0.0
  0
LINE
  5
539
  8
L1
 10
650.048176
 20
173.331624
 30
0.0
 11
813.143473
 21
173.331624
 31
0.0
  0
LINE
  5
53A
  8
L2
 10
651.733131
 20
175.311624
 30
0.0
 11
813.143473
 21
175.311624
 31
0.0
  0
LINE
  5
53B
  8
21
 10
813.143473
 20
594.85661
 30
0.0
 11
624.143473
 21
594.85661
 31
0.0
  0
LINE
  5
53C
  8
21
 10
813.143473
 20
597.85661
 30
0.0
 11
629.62617
 21
597.85661
 31
0.0
  0
LINE
  5
53D
  8
21
 10
813.143473
 20
496.85661
 30
0.0
 11
626.418744
 21
496.85661
 31
0.0
  0
LINE
  5
53E
  8
21
 10
813.143473
 20
587.60661
 30
0.0
 11
636.143473
 21
587.60661
 31
0.0
  0
LINE
  5
53F
  8
21
 10
672.143473
 20
589.89661
 30
0.0
 11
664.143473
 21
589.89661
 31
0.0
  0
LINE
  5
540
  8
21
 10
672.143473
 20
593.25661
 30
0.0
 11
664.143473
 21
593.25661
 31
0.0
  0
LINE
  5
541
  8
21
 10
678.143473
 20
573.85661
 30
0.0
 11
650.143473
 21
573.85661
 31
0.0
  0
LINE
  5
542
  8
24
 10
792.591031
 20
500.85661
 30
0.0
 11
650.338297
 21
500.85661
 31
0.0
  0
LINE
  5
543
  8
14
 10
792.591031
 20
106.466638
 30
0.0
 11
650.338297
 21
106.466638
 31
0.0
  0
LINE
  5
544
  8
11
 10
678.143473
 20
33.466638
 30
0.0
 11
650.143473
 21
33.466638
 31
0.0
  0
LINE
  5
545
  8
11
 10
672.143473
 20
14.066638
 30
0.0
 11
664.143473
 21
14.066638
 31
0.0
  0
LINE
  5
546
  8
11
 10
672.143473
 20
17.426638
 30
0.0
 11
664.143473
 21
17.426638
 31
0.0
  0
LINE
  5
547
  8
11
 10
813.143473
 20
19.716638
 30
0.0
 11
636.143473
 21
19.716638
 31
0.0
  0
LINE
  5
548
  8
11
 10
813.143473
 20
110.466638
 30
0.0
 11
626.418744
 21
110.466638
 31
0.0
  0
LINE
  5
549
  8
11
 10
813.143473
 20
9.466638
 30
0.0
 11
629.62617
 21
9.466638
 31
0.0
  0
LINE
  5
54A
  8
11
 10
813.143473
 20
12.466638
 30
0.0
 11
624.143473
 21
12.466638
 31
0.0
  0
LINE
  5
54B
  8
L21
 10
337.297565
 20
411.151578
 30
0.0
 11
236.307611
 21
310.161624
 31
0.0
  0
LINE
  5
54C
  8
L21
 10
346.489953
 20
401.95919
 30
0.0
 11
248.192387
 21
303.661624
 31
0.0
  0
LINE
  5
54D
  8
L21
 10
346.489953
 20
205.364059
 30
0.0
 11
248.192387
 21
303.661624
 31
0.0
  0
LINE
  5
54E
  8
L21
 10
337.297565
 20
196.171671
 30
0.0
 11
236.307611
 21
297.161624
 31
0.0
  0
CIRCLE
  5
54F
  8
L20
 10
251.499999
 20
191.161624
 30
0.0
 40
4.25
  0
LINE
  5
550
  8
L1
 10
19.499999
 20
167.161624
 30
0.0
 11
358.66856
 21
167.161624
 31
0.0
  0
LINE
  5
551
  8
L1
 10
365.999999
 20
164.661624
 30
0.0
 11
188.999999
 21
164.661624
 31
0.0
  0
LINE
  5
552
  8
L1
 10
359.83518
 20
169.161624
 30
0.0
 11
188.999999
 21
169.161624
 31
0.0
  0
CIRCLE
  5
553
  8
L20
 10
251.499999
 20
416.161624
 30
0.0
 40
4.25
  0
LINE
  5
554
  8
L1
 10
365.999999
 20
442.661624
 30
0.0
 11
188.999999
 21
442.661624
 31
0.0
  0
LINE
  5
555
  8
L1
 10
358.499999
 20
440.161624
 30
0.0
 11
19.331438
 21
440.161624
 31
0.0
  0
LINE
  5
556
  8
L1
 10
359.83518
 20
438.161624
 30
0.0
 11
188.999999
 21
438.161624
 31
0.0
  0
TEXT
  5
557
  8
L20
 62
     3
 10
112.203337
 20
527.140048
 30
0.0
 40
14.849242
  1
FIBOX EK-P 278x378x100 BASE
  0
LINE
  5
558
  8
L21
 10
40.702434
 20
411.151578
 30
0.0
 11
141.692387
 21
310.161624
 31
0.0
  0
LINE
  5
559
  8
L21
 10
31.510046
 20
401.95919
 30
0.0
 11
129.807611
 21
303.661624
 31
0.0
  0
CIRCLE
  5
55A
  8
L20
 10
26.499999
 20
341.161624
 30
0.0
 40
4.25
  0
LINE
  5
55B
  8
L1
 10
2.499999
 20
423.161624
 30
0.0
 11
2.499999
 21
184.161624
 31
0.0
  0
LINE
  5
55C
  8
L1
 10
4.499999
 20
424.496805
 30
0.0
 11
4.499999
 21
303.661624
 31
0.0
  0
LINE
  5
55D
  8
L1
 10
-0.000001
 20
430.661624
 30
0.0
 11
-0.000001
 21
303.661624
 31
0.0
  0
LINE
  5
55E
  8
L21
 10
31.510046
 20
205.364059
 30
0.0
 11
129.807611
 21
303.661624
 31
0.0
  0
CIRCLE
  5
55F
  8
L20
 10
33.999999
 20
198.661624
 30
0.0
 40
7.15
  0
LINE
  5
560
  8
L1
 10
11.999999
 20
164.661624
 30
0.0
 11
188.999999
 21
164.661624
 31
0.0
  0
LINE
  5
561
  8
L1
 10
18.164818
 20
169.161624
 30
0.0
 11
188.999999
 21
169.161624
 31
0.0
  0
LINE
  5
562
  8
L1
 10
4.499999
 20
182.826443
 30
0.0
 11
4.499999
 21
303.661624
 31
0.0
  0
LINE
  5
563
  8
L1
 10
-0.000001
 20
176.661624
 30
0.0
 11
-0.000001
 21
303.661624
 31
0.0
  0
ARC
  5
564
  8
L1
 10
11.999999
 20
176.661624
 30
0.0
 40
12.0
 50
143.130102
 51
306.869898
  0
LINE
  5
565
  8
L21
 10
10.049557
 20
183.90357
 30
0.0
 11
27.297565
 21
201.151578
 31
0.0
  0
CIRCLE
  5
566
  8
L1
 10
11.999999
 20
176.661624
 30
0.0
 40
3.25
  0
CIRCLE
  5
567
  8
L1
 10
11.999999
 20
176.661624
 30
0.0
 40
7.5
  0
ARC
  5
568
  8
L1
 10
11.846327
 20
176.833286
 30
0.0
 40
9.82954
 50
241.100183
 51
307.711911
  0
ARC
  5
569
  8
L1
 10
1.999999
 20
184.161624
 30
0.0
 40
0.5
 50
323.130102
 51
0.0
  0
ARC
  5
56A
  8
L1
 10
3.999999
 20
182.826443
 30
0.0
 40
0.5
 50
322.288089
 51
0.0
  0
ARC
  5
56B
  8
L1
 10
11.445427
 20
176.107052
 30
0.0
 40
9.0
 50
208.899817
 51
241.100183
  0
ARC
  5
56C
  8
L1
 10
12.171661
 20
176.507952
 30
0.0
 40
9.82954
 50
142.288089
 51
208.899817
  0
LINE
  5
56D
  8
L21
 10
19.241945
 20
174.711182
 30
0.0
 11
36.489953
 21
191.95919
 31
0.0
  0
ARC
  5
56E
  8
L1
 10
18.164818
 20
168.661624
 30
0.0
 40
0.5
 50
90.0
 51
127.711911
  0
ARC
  5
56F
  8
L1
 10
19.499999
 20
166.661624
 30
0.0
 40
0.5
 50
90.0
 51
126.869898
  0
CIRCLE
  5
570
  8
L20
 10
26.499999
 20
216.161624
 30
0.0
 40
4.25
  0
CIRCLE
  5
571
  8
L20
 10
26.499999
 20
241.161624
 30
0.0
 40
4.25
  0
CIRCLE
  5
572
  8
L20
 10
26.499999
 20
266.161624
 30
0.0
 40
4.25
  0
CIRCLE
  5
573
  8
L20
 10
26.499999
 20
316.161624
 30
0.0
 40
4.25
  0
CIRCLE
  5
574
  8
L20
 10
26.499999
 20
291.161624
 30
0.0
 40
4.25
  0
ARC
  5
575
  8
L20
 10
26.499999
 20
303.661624
 30
0.0
 40
4.25
 50
180.0
 51
0.0
  0
ARC
  5
576
  8
L20
 10
26.499999
 20
303.661624
 30
0.0
 40
4.25
 50
0.0
 51
180.0
  0
LINE
  5
577
  8
L21
 10
141.692387
 20
310.161624
 30
0.0
 11
175.481493
 21
310.161624
 31
0.0
  0
LINE
  5
578
  8
L21
 10
141.692387
 20
297.161624
 30
0.0
 11
175.481493
 21
297.161624
 31
0.0
  0
LINE
  5
579
  8
L21
 10
40.702434
 20
196.171671
 30
0.0
 11
141.692387
 21
297.161624
 31
0.0
  0
CIRCLE
  5
57A
  8
L20
 10
51.499999
 20
191.161624
 30
0.0
 40
4.25
  0
CIRCLE
  5
57B
  8
L20
 10
51.499999
 20
191.161624
 30
0.0
 40
4.25
  0
CIRCLE
  5
57C
  8
L20
 10
76.499999
 20
191.161624
 30
0.0
 40
4.25
  0
CIRCLE
  5
57D
  8
L20
 10
101.499999
 20
191.161624
 30
0.0
 40
4.25
  0
CIRCLE
  5
57E
  8
L20
 10
126.499999
 20
191.161624
 30
0.0
 40
4.25
  0
CIRCLE
  5
57F
  8
L20
 10
151.499999
 20
191.161624
 30
0.0
 40
4.25
  0
CIRCLE
  5
580
  8
L20
 10
176.499999
 20
191.161624
 30
0.0
 40
4.25
  0
CIRCLE
  5
581
  8
L20
 10
188.999999
 20
191.161624
 30
0.0
 40
4.25
  0
CIRCLE
  5
582
  8
L20
 10
201.499999
 20
191.161624
 30
0.0
 40
4.25
  0
CIRCLE
  5
583
  8
L20
 10
226.499999
 20
191.161624
 30
0.0
 40
4.25
  0
ARC
  5
584
  8
L2
 10
188.999999
 20
303.661624
 30
0.0
 40
15.0
 50
180.0
 51
0.0
  0
ARC
  5
585
  8
L2
 10
188.999999
 20
303.661624
 30
0.0
 40
15.0
 50
0.0
 51
180.0
  0
LINE
  5
586
  8
L21
 10
236.307611
 20
310.161624
 30
0.0
 11
202.518505
 21
310.161624
 31
0.0
  0
LINE
  5
587
  8
L21
 10
236.307611
 20
297.161624
 30
0.0
 11
202.518505
 21
297.161624
 31
0.0
  0
LINE
  5
588
  8
L1
 10
11.999999
 20
442.661624
 30
0.0
 11
188.999999
 21
442.661624
 31
0.0
  0
LINE
  5
589
  8
L1
 10
18.164818
 20
438.161624
 30
0.0
 11
188.999999
 21
438.161624
 31
0.0
  0
CIRCLE
  5
58A
  8
L20
 10
33.999999
 20
408.661624
 30
0.0
 40
7.15
  0
CIRCLE
  5
58B
  8
L20
 10
26.499999
 20
366.161624
 30
0.0
 40
4.25
  0
CIRCLE
  5
58C
  8
L20
 10
26.499999
 20
391.161624
 30
0.0
 40
4.25
  0
LINE
  5
58D
  8
L21
 10
10.049557
 20
423.419679
 30
0.0
 11
27.297565
 21
406.171671
 31
0.0
  0
CIRCLE
  5
58E
  8
L1
 10
11.999999
 20
430.661624
 30
0.0
 40
3.25
  0
ARC
  5
58F
  8
L1
 10
11.846327
 20
430.489963
 30
0.0
 40
9.82954
 50
52.288089
 51
118.899817
  0
CIRCLE
  5
590
  8
L1
 10
11.999999
 20
430.661624
 30
0.0
 40
7.5
  0
ARC
  5
591
  8
L1
 10
11.999999
 20
430.661624
 30
0.0
 40
12.0
 50
52.341538
 51
216.869898
  0
ARC
  5
592
  8
L1
 10
12.171661
 20
430.815297
 30
0.0
 40
9.82954
 50
151.100183
 51
217.711911
  0
ARC
  5
593
  8
L1
 10
1.999999
 20
423.161624
 30
0.0
 40
0.5
 50
0.0
 51
36.869898
  0
ARC
  5
594
  8
L1
 10
3.999999
 20
424.496805
 30
0.0
 40
0.5
 50
0.0
 51
37.711911
  0
ARC
  5
595
  8
L1
 10
11.445427
 20
431.216197
 30
0.0
 40
9.0
 50
118.899817
 51
151.100183
  0
LINE
  5
596
  8
L21
 10
19.241945
 20
432.612067
 30
0.0
 11
36.489953
 21
415.364059
 31
0.0
  0
ARC
  5
597
  8
L1
 10
18.164818
 20
438.661624
 30
0.0
 40
0.5
 50
232.288089
 51
270.0
  0
CIRCLE
  5
598
  8
L20
 10
51.499999
 20
416.161624
 30
0.0
 40
4.25
  0
CIRCLE
  5
599
  8
L20
 10
51.499999
 20
416.161624
 30
0.0
 40
4.25
  0
CIRCLE
  5
59A
  8
L20
 10
76.499999
 20
416.161624
 30
0.0
 40
4.25
  0
CIRCLE
  5
59B
  8
L20
 10
101.499999
 20
416.161624
 30
0.0
 40
4.25
  0
CIRCLE
  5
59C
  8
L20
 10
126.499999
 20
416.161624
 30
0.0
 40
4.25
  0
CIRCLE
  5
59D
  8
L20
 10
151.499999
 20
416.161624
 30
0.0
 40
4.25
  0
CIRCLE
  5
59E
  8
L20
 10
176.499999
 20
416.161624
 30
0.0
 40
4.25
  0
CIRCLE
  5
59F
  8
L20
 10
188.999999
 20
416.161624
 30
0.0
 40
4.25
  0
CIRCLE
  5
5A0
  8
L20
 10
201.499999
 20
416.161624
 30
0.0
 40
4.25
  0
CIRCLE
  5
5A1
  8
L20
 10
226.499999
 20
416.161624
 30
0.0
 40
4.25
  0
CIRCLE
  5
5A2
  8
L1
 10
650.643473
 20
341.161624
 30
0.0
 40
2.4
  0
ARC
  5
5A3
  8
L1
 10
650.643473
 20
341.161624
 30
0.0
 40
5.0
 50
278.626927
 51
81.373073
  0
ARC
  5
5A4
  8
L1
 10
650.643473
 20
341.161624
 30
0.0
 40
5.0
 50
98.626927
 51
261.373073
  0
LINE
  5
5A5
  8
L1
 10
630.643473
 20
413.261624
 30
0.0
 11
630.643473
 21
303.661624
 31
0.0
  0
LINE
  5
5A6
  8
L1
 10
632.813473
 20
416.756921
 30
0.0
 11
632.813473
 21
303.661624
 31
0.0
  0
LINE
  5
5A7
  8
L2
 10
634.793473
 20
415.071966
 30
0.0
 11
634.793473
 21
303.661624
 31
0.0
  0
LINE
  5
5A8
  8
L1
 10
626.643473
 20
361.307522
 30
0.0
 11
626.643473
 21
303.661624
 31
0.0
  0
LINE
  5
5A9
  8
L1
 10
628.643473
 20
420.336796
 30
0.0
 11
628.643473
 21
303.661624
 31
0.0
  0
LINE
  5
5AA
  8
L1
 10
624.143473
 20
430.661624
 30
0.0
 11
624.143473
 21
303.661624
 31
0.0
  0
CIRCLE
  5
5AB
  8
L20
 10
351.499999
 20
341.161624
 30
0.0
 40
4.25
  0
LINE
  5
5AC
  8
L1
 10
373.499999
 20
424.496805
 30
0.0
 11
373.499999
 21
303.661624
 31
0.0
  0
LINE
  5
5AD
  8
L1
 10
375.499999
 20
423.161624
 30
0.0
 11
375.499999
 21
183.993063
 31
0.0
  0
LINE
  5
5AE
  8
L1
 10
377.999999
 20
430.661624
 30
0.0
 11
377.999999
 21
303.661624
 31
0.0
  0
LINE
  5
5AF
  8
44
 10
572.809245
 20
303.661624
 30
0.0
 11
572.809245
 21
416.4668
 31
0.0
  0
LINE
  5
5B0
  8
41
 10
478.809245
 20
303.661624
 30
0.0
 11
478.809245
 21
436.213685
 31
0.0
  0
LINE
  5
5B1
  8
41
 10
475.809245
 20
303.661624
 30
0.0
 11
475.809245
 21
437.178927
 31
0.0
  0
LINE
  5
5B2
  8
41
 10
576.809245
 20
303.661624
 30
0.0
 11
576.809245
 21
440.386354
 31
0.0
  0
LINE
  5
5B3
  8
41
 10
578.309245
 20
337.77765
 30
0.0
 11
578.309245
 21
344.545599
 31
0.0
  0
LINE
  5
5B4
  8
41
 10
480.409245
 20
303.661624
 30
0.0
 11
480.409245
 21
361.661624
 31
0.0
  0
LINE
  5
5B5
  8
41
 10
483.769245
 20
303.661624
 30
0.0
 11
483.769245
 21
361.661624
 31
0.0
  0
LINE
  5
5B6
  8
41
 10
486.059245
 20
303.661624
 30
0.0
 11
486.059245
 21
430.661624
 31
0.0
  0
LINE
  5
5B7
  8
L21
 10
358.758054
 20
174.711182
 30
0.0
 11
341.510046
 21
191.95919
 31
0.0
  0
LINE
  5
5B8
  8
L21
 10
367.950442
 20
183.90357
 30
0.0
 11
350.702434
 21
201.151578
 31
0.0
  0
ARC
  5
5B9
  8
L20
 10
351.499999
 20
303.661624
 30
0.0
 40
4.25
 50
180.0
 51
360.0
  0
CIRCLE
  5
5BA
  8
L20
 10
351.499999
 20
291.161624
 30
0.0
 40
4.25
  0
CIRCLE
  5
5BB
  8
L20
 10
351.499999
 20
266.161624
 30
0.0
 40
4.25
  0
CIRCLE
  5
5BC
  8
L20
 10
351.499999
 20
216.161624
 30
0.0
 40
4.25
  0
CIRCLE
  5
5BD
  8
L20
 10
351.499999
 20
241.161624
 30
0.0
 40
4.25
  0
ARC
  5
5BE
  8
L20
 10
351.499999
 20
303.661624
 30
0.0
 40
4.25
 50
0.0
 51
180.0
  0
CIRCLE
  5
5BF
  8
L20
 10
351.499999
 20
316.161624
 30
0.0
 40
4.25
  0
CIRCLE
  5
5C0
  8
L20
 10
301.499999
 20
191.161624
 30
0.0
 40
4.25
  0
CIRCLE
  5
5C1
  8
L20
 10
276.499999
 20
191.161624
 30
0.0
 40
4.25
  0
CIRCLE
  5
5C2
  8
L20
 10
326.499999
 20
191.161624
 30
0.0
 40
4.25
  0
CIRCLE
  5
5C3
  8
L20
 10
326.499999
 20
191.161624
 30
0.0
 40
4.25
  0
CIRCLE
  5
5C4
  8
L20
 10
343.999999
 20
198.661624
 30
0.0
 40
7.15
  0
LINE
  5
5C5
  8
L1
 10
373.499999
 20
182.826443
 30
0.0
 11
373.499999
 21
303.661624
 31
0.0
  0
LINE
  5
5C6
  8
L1
 10
377.999999
 20
176.661624
 30
0.0
 11
377.999999
 21
303.661624
 31
0.0
  0
ARC
  5
5C7
  8
L1
 10
365.999999
 20
176.661624
 30
0.0
 40
12.0
 50
232.341538
 51
37.658462
  0
CIRCLE
  5
5C8
  8
L1
 10
365.999999
 20
176.661624
 30
0.0
 40
3.25
  0
CIRCLE
  5
5C9
  8
L1
 10
365.999999
 20
176.661624
 30
0.0
 40
7.5
  0
ARC
  5
5CA
  8
L1
 10
366.153672
 20
176.833286
 30
0.0
 40
9.82954
 50
232.288089
 51
298.899817
  0
ARC
  5
5CB
  8
L1
 10
359.83518
 20
168.661624
 30
0.0
 40
0.5
 50
52.288089
 51
90.0
  0
ARC
  5
5CC
  8
L1
 10
358.499999
 20
166.661624
 30
0.0
 40
0.5
 50
53.130102
 51
90.0
  0
ARC
  5
5CD
  8
L1
 10
375.999999
 20
184.161624
 30
0.0
 40
0.5
 50
180.0
 51
216.869898
  0
ARC
  5
5CE
  8
L1
 10
373.999999
 20
182.826443
 30
0.0
 40
0.5
 50
180.0
 51
217.711911
  0
ARC
  5
5CF
  8
L1
 10
366.554572
 20
176.107052
 30
0.0
 40
9.0
 50
298.899817
 51
331.100183
  0
ARC
  5
5D0
  8
L1
 10
365.828338
 20
176.507952
 30
0.0
 40
9.82954
 50
331.100183
 51
37.711911
  0
ARC
  5
5D1
  8
14
 10
650.338297
 20
104.466638
 30
0.0
 40
2.0
 50
90.0
 51
180.0
  0
LINE
  5
5D2
  8
11
 10
645.868202
 20
110.466638
 30
0.0
 11
646.475149
 21
19.716638
 31
0.0
  0
LINE
  5
5D3
  8
11
 10
626.418744
 20
110.466638
 30
0.0
 11
624.143473
 21
12.466638
 31
0.0
  0
LINE
  5
5D4
  8
14
 10
648.338297
 20
9.466638
 30
0.0
 11
648.338297
 21
104.466638
 31
0.0
  0
LINE
  5
5D5
  8
11
 10
658.143473
 20
14.066638
 30
0.0
 11
636.143473
 21
14.066638
 31
0.0
  0
LINE
  5
5D6
  8
11
 10
658.143473
 20
17.426638
 30
0.0
 11
636.143473
 21
17.426638
 31
0.0
  0
ARC
  5
5D7
  8
11
 10
629.62617
 20
10.466638
 30
0.0
 40
1.0
 50
181.0
 51
270.0
  0
LINE
  5
5D8
  8
11
 10
628.591108
 20
12.466638
 30
0.0
 11
628.626322
 21
10.449186
 31
0.0
  0
LINE
  5
5D9
  8
11
 10
658.143473
 20
17.426638
 30
0.0
 11
658.143473
 21
14.066638
 31
0.0
  0
LINE
  5
5DA
  8
11
 10
664.143473
 20
17.426638
 30
0.0
 11
664.143473
 21
14.066638
 31
0.0
  0
LINE
  5
5DB
  8
11
 10
648.143473
 20
31.466638
 30
0.0
 11
648.143473
 21
19.716638
 31
0.0
  0
ARC
  5
5DC
  8
11
 10
650.143473
 20
31.466638
 30
0.0
 40
2.0
 50
90.0
 51
180.0
  0
LINE
  5
5DD
  8
41
 10
576.809245
 20
186.386354
 30
0.0
 11
486.059245
 21
188.493301
 31
0.0
  0
LINE
  5
5DE
  8
41
 10
576.809245
 20
166.936895
 30
0.0
 11
486.059245
 21
164.829948
 31
0.0
  0
LINE
  5
5DF
  8
43
  6
DASHDOT
 10
586.809245
 20
303.661624
 30
0.0
 11
465.809245
 21
303.661624
 31
0.0
  0
LINE
  5
5E0
  8
44
 10
572.808902
 20
286.139656
 30
0.0
 11
563.809245
 21
286.218194
 31
0.0
  0
LINE
  5
5E1
  8
44
 10
572.808902
 20
281.083086
 30
0.0
 11
563.809245
 21
281.161624
 31
0.0
  0
LINE
  5
5E2
  8
44
 10
572.808902
 20
301.240163
 30
0.0
 11
563.809245
 21
301.161624
 31
0.0
  0
LINE
  5
5E3
  8
44
 10
572.808902
 20
296.183593
 30
0.0
 11
563.809245
 21
296.105054
 31
0.0
  0
LINE
  5
5E4
  8
44
 10
475.809245
 20
188.856448
 30
0.0
 11
570.809245
 21
188.856448
 31
0.0
  0
LINE
  5
5E5
  8
41
 10
480.409245
 20
225.661624
 30
0.0
 11
480.409245
 21
218.661624
 31
0.0
  0
LINE
  5
5E6
  8
41
 10
483.769245
 20
225.661624
 30
0.0
 11
483.769245
 21
218.661624
 31
0.0
  0
LINE
  5
5E7
  8
41
 10
486.059245
 20
303.661624
 30
0.0
 11
486.059245
 21
176.661624
 31
0.0
  0
LINE
  5
5E8
  8
41
 10
475.809245
 20
303.661624
 30
0.0
 11
475.809245
 21
170.144322
 31
0.0
  0
LINE
  5
5E9
  8
41
 10
478.809245
 20
303.661624
 30
0.0
 11
478.809245
 21
171.109564
 31
0.0
  0
LINE
  5
5EA
  8
41
 10
492.829309
 20
164.987129
 30
0.0
 11
486.059245
 21
164.829948
 31
0.0
  0
LINE
  5
5EB
  8
41
 10
480.409245
 20
198.661624
 30
0.0
 11
480.409245
 21
176.661624
 31
0.0
  0
LINE
  5
5EC
  8
41
 10
483.769245
 20
198.661624
 30
0.0
 11
483.769245
 21
176.661624
 31
0.0
  0
ARC
  5
5ED
  8
41
 10
476.809245
 20
170.144322
 30
0.0
 40
1.0
 50
180.0
 51
269.0
  0
LINE
  5
5EE
  8
41
 10
478.809245
 20
169.109259
 30
0.0
 11
476.791793
 21
169.144474
 31
0.0
  0
LINE
  5
5EF
  8
41
 10
475.809245
 20
181.539085
 30
0.0
 11
475.809245
 21
170.144317
 31
0.0
  0
LINE
  5
5F0
  8
41
 10
478.809245
 20
169.109259
 30
0.0
 11
476.791793
 21
169.144474
 31
0.0
  0
ARC
  5
5F1
  8
41
 10
476.809245
 20
170.144322
 30
0.0
 40
1.0
 50
180.0
 51
269.0
  0
LINE
  5
5F2
  8
41
 10
478.809245
 20
164.661624
 30
0.0
 11
478.809245
 21
169.109259
 31
0.0
  0
LINE
  5
5F3
  8
41
 10
478.809245
 20
164.661624
 30
0.0
 11
480.446824
 21
164.661624
 31
0.0
  0
LINE
  5
5F4
  8
41
 10
475.809245
 20
170.144322
 30
0.0
 11
475.809245
 21
170.144322
 31
0.0
  0
LINE
  5
5F5
  8
41
 10
478.809245
 20
164.661624
 30
0.0
 11
478.809245
 21
174.661624
 31
0.0
  0
LINE
  5
5F6
  8
41
 10
478.809245
 20
174.661624
 30
0.0
 11
478.809245
 21
183.314157
 31
0.0
  0
LINE
  5
5F7
  8
41
 10
484.421666
 20
164.661624
 30
0.0
 11
486.059245
 21
164.661624
 31
0.0
  0
LINE
  5
5F8
  8
41
 10
480.446824
 20
164.661624
 30
0.0
 11
484.421666
 21
164.661624
 31
0.0
  0
LINE
  5
5F9
  8
41
 10
480.409245
 20
212.661624
 30
0.0
 11
480.409245
 21
204.661624
 31
0.0
  0
LINE
  5
5FA
  8
41
 10
483.769245
 20
212.661624
 30
0.0
 11
483.769245
 21
204.661624
 31
0.0
  0
LINE
  5
5FB
  8
41
 10
483.769245
 20
198.661624
 30
0.0
 11
480.409245
 21
198.661624
 31
0.0
  0
LINE
  5
5FC
  8
41
 10
483.769245
 20
204.661624
 30
0.0
 11
480.409245
 21
204.661624
 31
0.0
  0
LINE
  5
5FD
  8
41
 10
483.769245
 20
212.661624
 30
0.0
 11
480.409245
 21
212.661624
 31
0.0
  0
LINE
  5
5FE
  8
41
 10
483.769245
 20
218.661624
 30
0.0
 11
480.409245
 21
218.661624
 31
0.0
  0
LINE
  5
5FF
  8
41
 10
483.769245
 20
303.661624
 30
0.0
 11
483.769245
 21
245.661624
 31
0.0
  0
LINE
  5
600
  8
41
 10
480.409245
 20
303.661624
 30
0.0
 11
480.409245
 21
245.661624
 31
0.0
  0
LINE
  5
601
  8
41
 10
480.409245
 20
239.661624
 30
0.0
 11
480.409245
 21
231.661624
 31
0.0
  0
LINE
  5
602
  8
41
 10
483.769245
 20
239.661624
 30
0.0
 11
483.769245
 21
231.661624
 31
0.0
  0
LINE
  5
603
  8
41
 10
483.769245
 20
225.661624
 30
0.0
 11
480.409245
 21
225.661624
 31
0.0
  0
LINE
  5
604
  8
41
 10
483.769245
 20
231.661624
 30
0.0
 11
480.409245
 21
231.661624
 31
0.0
  0
LINE
  5
605
  8
41
 10
483.769245
 20
239.661624
 30
0.0
 11
480.409245
 21
239.661624
 31
0.0
  0
LINE
  5
606
  8
41
 10
483.769245
 20
245.661624
 30
0.0
 11
480.409245
 21
245.661624
 31
0.0
  0
LINE
  5
607
  8
44
 10
563.809245
 20
291.161624
 30
0.0
 11
563.809245
 21
281.161624
 31
0.0
  0
LINE
  5
608
  8
44
 10
563.809245
 20
291.161624
 30
0.0
 11
563.809245
 21
301.161624
 31
0.0
  0
LINE
  5
609
  8
L1
 10
651.393473
 20
221.105054
 30
0.0
 11
651.393473
 21
236.218194
 31
0.0
  0
LINE
  5
60A
  8
L1
 10
649.893473
 20
221.105054
 30
0.0
 11
649.893473
 21
236.218194
 31
0.0
  0
LINE
  5
60B
  8
L1
 10
626.643473
 20
218.015726
 30
0.0
 11
626.643473
 21
225.307522
 31
0.0
  0
LINE
  5
60C
  8
L1
 10
624.143473
 20
176.661624
 30
0.0
 11
624.143473
 21
303.661624
 31
0.0
  0
LINE
  5
60D
  8
L1
 10
630.643473
 20
194.061624
 30
0.0
 11
630.643473
 21
303.661624
 31
0.0
  0
LINE
  5
60E
  8
L1
 10
628.643473
 20
186.986453
 30
0.0
 11
628.643473
 21
303.661624
 31
0.0
  0
LINE
  5
60F
  8
L1
 10
632.813473
 20
190.566327
 30
0.0
 11
632.813473
 21
303.661624
 31
0.0
  0
LINE
  5
610
  8
L2
 10
634.793473
 20
192.251283
 30
0.0
 11
634.793473
 21
303.661624
 31
0.0
  0
LINE
  5
611
  8
41
 10
576.809245
 20
303.661624
 30
0.0
 11
576.809245
 21
166.936895
 31
0.0
  0
LINE
  5
612
  8
44
 10
572.809245
 20
303.661624
 30
0.0
 11
572.809245
 21
190.856448
 31
0.0
  0
LINE
  5
613
  8
41
 10
578.309245
 20
204.295599
 30
0.0
 11
578.309245
 21
193.02765
 31
0.0
  0
LINE
  5
614
  8
41
 10
578.309245
 20
194.545599
 30
0.0
 11
578.309245
 21
187.77765
 31
0.0
  0
LINE
  5
615
  8
41
 10
578.809245
 20
168.661624
 30
0.0
 11
576.809245
 21
168.626714
 31
0.0
  0
LINE
  5
616
  8
41
 10
578.809245
 20
184.661624
 30
0.0
 11
576.809245
 21
184.696534
 31
0.0
  0
LINE
  5
617
  8
41
 10
578.309245
 20
193.02765
 30
0.0
 11
576.809245
 21
192.161624
 31
0.0
  0
LINE
  5
618
  8
41
 10
578.309245
 20
187.77765
 30
0.0
 11
576.809245
 21
186.911624
 31
0.0
  0
ARC
  5
619
  8
44
 10
570.809245
 20
190.856448
 30
0.0
 40
2.0
 50
270.0
 51
0.0
  0
LINE
  5
61A
  8
41
 10
578.809245
 20
184.661624
 30
0.0
 11
578.809245
 21
168.661624
 31
0.0
  0
LINE
  5
61B
  8
41
 10
578.309245
 20
204.295599
 30
0.0
 11
576.809245
 21
205.161624
 31
0.0
  0
LINE
  5
61C
  8
41
 10
578.309245
 20
219.545599
 30
0.0
 11
578.309245
 21
212.77765
 31
0.0
  0
LINE
  5
61D
  8
41
 10
578.309245
 20
212.77765
 30
0.0
 11
576.809245
 21
211.911624
 31
0.0
  0
LINE
  5
61E
  8
41
 10
578.309245
 20
219.545599
 30
0.0
 11
576.809245
 21
220.411624
 31
0.0
  0
ARC
  5
61F
  8
L1
 10
636.143473
 20
176.661624
 30
0.0
 40
12.0
 50
180.0
 51
270.0
  0
LINE
  5
620
  8
11
 10
644.143473
 20
112.466638
 30
0.0
 11
628.143473
 21
112.466638
 31
0.0
  0
LINE
  5
621
  8
11
 10
628.143473
 20
112.466638
 30
0.0
 11
628.108563
 21
110.466638
 31
0.0
  0
LINE
  5
622
  8
11
 10
644.143473
 20
112.466638
 30
0.0
 11
644.178383
 21
110.466638
 31
0.0
  0
LINE
  5
623
  8
11
 10
663.777447
 20
111.966638
 30
0.0
 11
652.509498
 21
111.966638
 31
0.0
  0
LINE
  5
624
  8
11
 10
646.759498
 20
111.966638
 30
0.0
 11
645.893473
 21
110.466638
 31
0.0
  0
LINE
  5
625
  8
11
 10
653.527447
 20
111.966638
 30
0.0
 11
646.759498
 21
111.966638
 31
0.0
  0
LINE
  5
626
  8
11
 10
652.509498
 20
111.966638
 30
0.0
 11
651.643473
 21
110.466638
 31
0.0
  0
LINE
  5
627
  8
11
 10
663.777447
 20
111.966638
 30
0.0
 11
664.643473
 21
110.466638
 31
0.0
  0
LINE
  5
628
  8
L1
 10
643.253738
 20
172.379787
 30
0.0
 11
644.576077
 21
171.057447
 31
0.0
  0
ARC
  5
629
  8
L1
 10
636.143473
 20
176.661624
 30
0.0
 40
12.0
 50
0.0
 51
90.0
  0
ARC
  5
62A
  8
L2
 10
636.143473
 20
176.661624
 30
0.0
 40
14.200352
 50
0.0
 51
90.0
  0
CIRCLE
  5
62B
  8
L1
 10
636.143473
 20
176.661624
 30
0.0
 40
10.125
  0
LINE
  5
62C
  8
L1
 10
643.253738
 20
180.943462
 30
0.0
 11
644.576077
 21
182.265802
 31
0.0
  0
LINE
  5
62D
  8
L1
 10
626.643473
 20
186.986453
 30
0.0
 11
626.643473
 21
197.307522
 31
0.0
  0
ARC
  5
62E
  8
L1
 10
636.043473
 20
194.186453
 30
0.0
 40
7.4
 50
180.0
 51
270.0
  0
ARC
  5
62F
  8
L1
 10
636.043473
 20
194.061624
 30
0.0
 40
5.4
 50
180.0
 51
243.666854
  0
LINE
  5
630
  8
L1
 10
631.861635
 20
183.771889
 30
0.0
 11
630.539295
 21
185.094229
 31
0.0
  0
LINE
  5
631
  8
L1
 10
631.861635
 20
169.55136
 30
0.0
 11
630.539295
 21
168.22902
 31
0.0
  0
CIRCLE
  5
632
  8
L2
 10
636.143473
 20
176.661624
 30
0.0
 40
5.424871
  0
CIRCLE
  5
633
  8
L1
 10
636.143473
 20
176.661624
 30
0.0
 40
8.325
  0
ARC
  5
634
  8
L2
 10
636.143473
 20
176.661624
 30
0.0
 40
8.0
 50
260.0
 51
170.0
  0
CIRCLE
  5
635
  8
L1
 10
636.143473
 20
176.661624
 30
0.0
 40
6.75
  0
LINE
  5
636
  8
L1
 10
628.443473
 20
186.786453
 30
0.0
 11
626.843473
 21
186.786453
 31
0.0
  0
ARC
  5
637
  8
L1
 10
628.443473
 20
186.986453
 30
0.0
 40
0.2
 50
270.0
 51
0.0
  0
ARC
  5
638
  8
L1
 10
626.843473
 20
186.986453
 30
0.0
 40
0.2
 50
180.0
 51
270.0
  0
LINE
  5
639
  8
L1
 10
629.033208
 20
172.379787
 30
0.0
 11
627.710868
 21
171.057447
 31
0.0
  0
LINE
  5
63A
  8
L1
 10
629.033208
 20
180.943462
 30
0.0
 11
627.710868
 21
182.265802
 31
0.0
  0
LINE
  5
63B
  8
L1
 10
636.143473
 20
188.661624
 30
0.0
 11
636.043473
 21
188.661624
 31
0.0
  0
LINE
  5
63C
  8
L1
 10
636.202397
 20
186.786453
 30
0.0
 11
636.043473
 21
186.786453
 31
0.0
  0
ARC
  5
63D
  8
L1
 10
636.043473
 20
194.061624
 30
0.0
 40
5.4
 50
243.666854
 51
270.0
  0
LINE
  5
63E
  8
L1
 10
640.425311
 20
183.771889
 30
0.0
 11
641.74765
 21
185.094229
 31
0.0
  0
ARC
  5
63F
  8
L2
 10
636.293473
 20
192.251283
 30
0.0
 40
1.5
 50
180.0
 51
242.774096
  0
ARC
  5
640
  8
L1
 10
634.313473
 20
190.566327
 30
0.0
 40
1.5
 50
180.0
 51
243.666854
  0
LINE
  5
641
  8
L1
 10
640.425311
 20
169.55136
 30
0.0
 11
641.74765
 21
168.22902
 31
0.0
  0
CIRCLE
  5
642
  8
L1
 10
636.143473
 20
176.661624
 30
0.0
 40
3.25
  0
LINE
  5
643
  8
L1
 10
630.781655
 20
217.680538
 30
0.0
 11
632.951655
 21
217.680538
 31
0.0
  0
LINE
  5
644
  8
L1
 10
630.689533
 20
211.642711
 30
0.0
 11
632.859533
 21
211.642711
 31
0.0
  0
LINE
  5
645
  8
L1
 10
630.781655
 20
203.680538
 30
0.0
 11
632.951655
 21
203.680538
 31
0.0
  0
LINE
  5
646
  8
L1
 10
630.689533
 20
197.642711
 30
0.0
 11
632.859533
 21
197.642711
 31
0.0
  0
LINE
  5
647
  8
L1
 10
623.643473
 20
213.911624
 30
0.0
 11
624.143473
 21
213.911624
 31
0.0
  0
LINE
  5
648
  8
L1
 10
623.643473
 20
213.911624
 30
0.0
 11
623.643473
 21
211.961624
 31
0.0
  0
LINE
  5
649
  8
L1
 10
628.643473
 20
218.015726
 30
0.0
 11
626.643473
 21
218.015726
 31
0.0
  0
LINE
  5
64A
  8
L1
 10
626.643473
 20
204.015726
 30
0.0
 11
626.643473
 21
211.307522
 31
0.0
  0
LINE
  5
64B
  8
L1
 10
628.643473
 20
211.307522
 30
0.0
 11
626.643473
 21
211.307522
 31
0.0
  0
LINE
  5
64C
  8
L1
 10
623.643473
 20
202.361624
 30
0.0
 11
623.643473
 21
200.429085
 31
0.0
  0
LINE
  5
64D
  8
L1
 10
624.143473
 20
200.411624
 30
0.0
 11
623.643473
 21
200.429085
 31
0.0
  0
LINE
  5
64E
  8
L1
 10
628.643473
 20
204.015726
 30
0.0
 11
626.643473
 21
204.015726
 31
0.0
  0
LINE
  5
64F
  8
L1
 10
628.643473
 20
197.307522
 30
0.0
 11
626.643473
 21
197.307522
 31
0.0
  0
LINE
  5
650
  8
L1
 10
623.643473
 20
211.961624
 30
0.0
 11
623.643473
 21
202.361624
 31
0.0
  0
CIRCLE
  5
651
  8
L1
 10
658.143473
 20
198.661624
 30
0.0
 40
6.0
  0
ARC
  5
652
  8
L1
 10
653.543473
 20
176.561624
 30
0.0
 40
5.4
 50
180.0
 51
270.0
  0
LINE
  5
653
  8
L1
 10
648.143473
 20
176.661624
 30
0.0
 11
648.143473
 21
176.561624
 31
0.0
  0
ARC
  5
654
  8
L1
 10
650.048176
 20
174.831624
 30
0.0
 40
1.5
 50
206.333146
 51
270.0
  0
ARC
  5
655
  8
L2
 10
651.733131
 20
176.811624
 30
0.0
 40
1.5
 50
207.225904
 51
270.0
  0
LINE
  5
656
  8
L1
 10
657.124559
 20
171.207685
 30
0.0
 11
657.124559
 21
173.331624
 31
0.0
  0
LINE
  5
657
  8
L1
 10
656.789371
 20
169.161624
 30
0.0
 11
656.789371
 21
167.161624
 31
0.0
  0
LINE
  5
658
  8
L1
 10
646.268473
 20
176.661624
 30
0.0
 11
646.268473
 21
176.561624
 31
0.0
  0
LINE
  5
659
  8
L1
 10
646.268473
 20
168.961624
 30
0.0
 11
646.268473
 21
167.361624
 31
0.0
  0
ARC
  5
65A
  8
L1
 10
646.468473
 20
168.961624
 30
0.0
 40
0.2
 50
90.0
 51
180.0
  0
ARC
  5
65B
  8
L1
 10
646.468473
 20
167.361624
 30
0.0
 40
0.2
 50
180.0
 51
270.0
  0
LINE
  5
65C
  8
L1
 10
646.468473
 20
167.161624
 30
0.0
 11
656.789371
 21
167.161624
 31
0.0
  0
ARC
  5
65D
  8
L1
 10
653.668473
 20
176.561624
 30
0.0
 40
7.4
 50
180.0
 51
270.0
  0
LINE
  5
65E
  8
L1
 10
663.654372
 20
176.661624
 30
0.0
 11
668.902412
 21
176.661624
 31
0.0
  0
LINE
  5
65F
  8
L1
 10
668.902412
 20
176.661624
 30
0.0
 11
668.902412
 21
181.661624
 31
0.0
  0
LINE
  5
660
  8
L1
 10
663.162386
 20
171.299807
 30
0.0
 11
663.162386
 21
173.331624
 31
0.0
  0
LINE
  5
661
  8
L1
 10
670.789371
 20
169.161624
 30
0.0
 11
670.789371
 21
167.161624
 31
0.0
  0
LINE
  5
662
  8
L1
 10
663.497575
 20
169.161624
 30
0.0
 11
663.497575
 21
167.161624
 31
0.0
  0
LINE
  5
663
  8
L1
 10
663.497575
 20
167.161624
 30
0.0
 11
670.789371
 21
167.161624
 31
0.0
  0
CIRCLE
  5
664
  8
L1
 10
658.143473
 20
198.661624
 30
0.0
 40
3.0
  0
CIRCLE
  5
665
  8
L1
 10
650.643473
 20
216.161624
 30
0.0
 40
2.4
  0
ARC
  5
666
  8
L1
 10
650.643473
 20
216.161624
 30
0.0
 40
5.0
 50
270.0
 51
81.373073
  0
ARC
  5
667
  8
L1
 10
650.643473
 20
216.161624
 30
0.0
 40
5.0
 50
98.626927
 51
270.0
  0
LINE
  5
668
  8
41
 10
578.309245
 20
244.545599
 30
0.0
 11
576.809245
 21
245.411624
 31
0.0
  0
LINE
  5
669
  8
41
 10
578.309245
 20
237.77765
 30
0.0
 11
576.809245
 21
236.911624
 31
0.0
  0
LINE
  5
66A
  8
41
 10
578.309245
 20
244.545599
 30
0.0
 11
578.309245
 21
237.77765
 31
0.0
  0
LINE
  5
66B
  8
41
 10
578.309245
 20
269.545599
 30
0.0
 11
576.809245
 21
270.411624
 31
0.0
  0
LINE
  5
66C
  8
41
 10
578.309245
 20
262.77765
 30
0.0
 11
576.809245
 21
261.911624
 31
0.0
  0
LINE
  5
66D
  8
41
 10
578.309245
 20
269.545599
 30
0.0
 11
578.309245
 21
262.77765
 31
0.0
  0
LINE
  5
66E
  8
41
 10
578.309245
 20
312.77765
 30
0.0
 11
576.809245
 21
311.911624
 31
0.0
  0
LINE
  5
66F
  8
41
 10
578.309245
 20
294.545599
 30
0.0
 11
576.809245
 21
295.411624
 31
0.0
  0
LINE
  5
670
  8
41
 10
578.309245
 20
287.77765
 30
0.0
 11
576.809245
 21
286.911624
 31
0.0
  0
LINE
  5
671
  8
41
 10
578.309245
 20
294.545599
 30
0.0
 11
578.309245
 21
287.77765
 31
0.0
  0
LINE
  5
672
  8
41
 10
578.309245
 20
337.77765
 30
0.0
 11
576.809245
 21
336.911624
 31
0.0
  0
LINE
  5
673
  8
41
 10
578.309245
 20
312.77765
 30
0.0
 11
578.309245
 21
319.545599
 31
0.0
  0
LINE
  5
674
  8
41
 10
578.309245
 20
319.545599
 30
0.0
 11
576.809245
 21
320.411624
 31
0.0
  0
LINE
  5
675
  8
L1
 10
651.393473
 20
271.105054
 30
0.0
 11
651.393473
 21
286.218194
 31
0.0
  0
LINE
  5
676
  8
L1
 10
649.893473
 20
271.105054
 30
0.0
 11
649.893473
 21
286.218194
 31
0.0
  0
LINE
  5
677
  8
L1
 10
626.643473
 20
246.015726
 30
0.0
 11
626.643473
 21
303.661624
 31
0.0
  0
LINE
  5
678
  8
L1
 10
630.781655
 20
245.680538
 30
0.0
 11
632.951655
 21
245.680538
 31
0.0
  0
LINE
  5
679
  8
L1
 10
630.689533
 20
239.642711
 30
0.0
 11
632.859533
 21
239.642711
 31
0.0
  0
LINE
  5
67A
  8
L1
 10
630.781655
 20
231.680538
 30
0.0
 11
632.951655
 21
231.680538
 31
0.0
  0
LINE
  5
67B
  8
L1
 10
630.689533
 20
225.642711
 30
0.0
 11
632.859533
 21
225.642711
 31
0.0
  0
LINE
  5
67C
  8
L1
 10
628.643473
 20
246.015726
 30
0.0
 11
626.643473
 21
246.015726
 31
0.0
  0
LINE
  5
67D
  8
L1
 10
626.643473
 20
232.015726
 30
0.0
 11
626.643473
 21
239.307522
 31
0.0
  0
LINE
  5
67E
  8
L1
 10
628.643473
 20
239.307522
 30
0.0
 11
626.643473
 21
239.307522
 31
0.0
  0
LINE
  5
67F
  8
L1
 10
628.643473
 20
232.015726
 30
0.0
 11
626.643473
 21
232.015726
 31
0.0
  0
LINE
  5
680
  8
L1
 10
628.643473
 20
225.307522
 30
0.0
 11
626.643473
 21
225.307522
 31
0.0
  0
LINE
  5
681
  8
L1
 10
649.893473
 20
246.105054
 30
0.0
 11
649.893473
 21
261.218194
 31
0.0
  0
LINE
  5
682
  8
L1
 10
651.393473
 20
246.105054
 30
0.0
 11
651.393473
 21
261.218194
 31
0.0
  0
ARC
  5
683
  8
L1
 10
650.643473
 20
241.161624
 30
0.0
 40
5.0
 50
98.626927
 51
261.373073
  0
ARC
  5
684
  8
L1
 10
650.643473
 20
241.161624
 30
0.0
 40
5.0
 50
278.626927
 51
81.373073
  0
CIRCLE
  5
685
  8
L1
 10
650.643473
 20
241.161624
 30
0.0
 40
2.4
  0
ARC
  5
686
  8
L1
 10
650.643473
 20
266.161624
 30
0.0
 40
5.0
 50
278.626927
 51
81.373073
  0
CIRCLE
  5
687
  8
L1
 10
650.643473
 20
266.161624
 30
0.0
 40
2.4
  0
ARC
  5
688
  8
L1
 10
650.643473
 20
266.161624
 30
0.0
 40
5.0
 50
98.626927
 51
261.373073
  0
ARC
  5
689
  8
L1
 10
650.643473
 20
316.161624
 30
0.0
 40
5.0
 50
278.626927
 51
81.373073
  0
ARC
  5
68A
  8
L1
 10
650.643473
 20
316.161624
 30
0.0
 40
5.0
 50
98.626927
 51
261.373073
  0
LINE
  5
68B
  8
L1
 10
658.143473
 20
303.661624
 30
0.0
 11
655.643473
 21
303.661624
 31
0.0
  0
CIRCLE
  5
68C
  8
L1
 10
650.643473
 20
303.661624
 30
0.0
 40
2.4
  0
LINE
  5
68D
  8
L1
 10
651.393473
 20
308.605054
 30
0.0
 11
651.393473
 21
311.218194
 31
0.0
  0
LINE
  5
68E
  8
L1
 10
649.893473
 20
308.605054
 30
0.0
 11
649.893473
 21
311.218194
 31
0.0
  0
CIRCLE
  5
68F
  8
L1
 10
650.643473
 20
291.161624
 30
0.0
 40
2.4
  0
ARC
  5
690
  8
L1
 10
650.643473
 20
291.161624
 30
0.0
 40
5.0
 50
278.626927
 51
81.373073
  0
LINE
  5
691
  8
L1
 10
649.893473
 20
296.105054
 30
0.0
 11
649.893473
 21
298.718194
 31
0.0
  0
LINE
  5
692
  8
L1
 10
651.393473
 20
296.105054
 30
0.0
 11
651.393473
 21
298.718194
 31
0.0
  0
ARC
  5
693
  8
L1
 10
650.643473
 20
291.161624
 30
0.0
 40
5.0
 50
98.626927
 51
261.373073
  0
ARC
  5
694
  8
L1
 10
650.643473
 20
303.661624
 30
0.0
 40
5.0
 50
98.626927
 51
261.373073
  0
ARC
  5
695
  8
L1
 10
650.643473
 20
303.661624
 30
0.0
 40
5.0
 50
278.626927
 51
81.373073
  0
LINE
  5
696
  8
L1
 10
658.143473
 20
308.512556
 30
0.0
 11
658.143473
 21
303.661624
 31
0.0
  0
CIRCLE
  5
697
  8
L1
 10
650.643473
 20
316.161624
 30
0.0
 40
2.4
  0
LINE
  5
698
  8
L1
 10
651.393473
 20
321.105054
 30
0.0
 11
651.393473
 21
336.218194
 31
0.0
  0
LINE
  5
699
  8
L1
 10
649.893473
 20
321.105054
 30
0.0
 11
649.893473
 21
336.218194
 31
0.0
  0
LINE
  5
69A
  8
L21
 10
367.950442
 20
423.419679
 30
0.0
 11
350.702434
 21
406.171671
 31
0.0
  0
LINE
  5
69B
  8
L21
 10
358.758054
 20
432.612067
 30
0.0
 11
341.510046
 21
415.364059
 31
0.0
  0
CIRCLE
  5
69C
  8
L20
 10
351.499999
 20
391.161624
 30
0.0
 40
4.25
  0
CIRCLE
  5
69D
  8
L20
 10
351.499999
 20
366.161624
 30
0.0
 40
4.25
  0
CIRCLE
  5
69E
  8
L20
 10
301.499999
 20
416.161624
 30
0.0
 40
4.25
  0
CIRCLE
  5
69F
  8
L20
 10
276.499999
 20
416.161624
 30
0.0
 40
4.25
  0
CIRCLE
  5
6A0
  8
L20
 10
326.499999
 20
416.161624
 30
0.0
 40
4.25
  0
CIRCLE
  5
6A1
  8
L20
 10
326.499999
 20
416.161624
 30
0.0
 40
4.25
  0
CIRCLE
  5
6A2
  8
L20
 10
343.999999
 20
408.661624
 30
0.0
 40
7.15
  0
ARC
  5
6A3
  8
L1
 10
365.999999
 20
430.661624
 30
0.0
 40
12.0
 50
323.130102
 51
126.869898
  0
CIRCLE
  5
6A4
  8
L1
 10
365.999999
 20
430.661624
 30
0.0
 40
3.25
  0
ARC
  5
6A5
  8
L1
 10
365.828338
 20
430.815297
 30
0.0
 40
9.82954
 50
322.288089
 51
28.899817
  0
CIRCLE
  5
6A6
  8
L1
 10
365.999999
 20
430.661624
 30
0.0
 40
7.5
  0
ARC
  5
6A7
  8
L1
 10
375.999999
 20
423.161624
 30
0.0
 40
0.5
 50
143.130102
 51
180.0
  0
ARC
  5
6A8
  8
L1
 10
373.999999
 20
424.496805
 30
0.0
 40
0.5
 50
142.288089
 51
180.0
  0
ARC
  5
6A9
  8
L1
 10
366.153672
 20
430.489963
 30
0.0
 40
9.82954
 50
61.100183
 51
127.711911
  0
ARC
  5
6AA
  8
L1
 10
359.83518
 20
438.661624
 30
0.0
 40
0.5
 50
270.0
 51
307.711911
  0
ARC
  5
6AB
  8
L1
 10
358.499999
 20
440.661624
 30
0.0
 40
0.5
 50
270.0
 51
306.869898
  0
ARC
  5
6AC
  8
L1
 10
366.554572
 20
431.216197
 30
0.0
 40
9.0
 50
28.899817
 51
61.100183
  0
LINE
  5
6AD
  8
21
 10
626.418744
 20
496.85661
 30
0.0
 11
624.143473
 21
594.85661
 31
0.0
  0
LINE
  5
6AE
  8
21
 10
645.868202
 20
496.85661
 30
0.0
 11
646.475149
 21
587.60661
 31
0.0
  0
LINE
  5
6AF
  8
21
 10
648.143473
 20
575.85661
 30
0.0
 11
648.143473
 21
587.60661
 31
0.0
  0
LINE
  5
6B0
  8
24
 10
648.338297
 20
597.85661
 30
0.0
 11
648.338297
 21
502.85661
 31
0.0
  0
LINE
  5
6B1
  8
44
 10
475.809245
 20
418.4668
 30
0.0
 11
570.809245
 21
418.4668
 31
0.0
  0
LINE
  5
6B2
  8
41
 10
576.809245
 20
440.386354
 30
0.0
 11
486.059245
 21
442.493301
 31
0.0
  0
LINE
  5
6B3
  8
41
 10
576.809245
 20
420.936895
 30
0.0
 11
486.059245
 21
418.829948
 31
0.0
  0
LINE
  5
6B4
  8
41
 10
483.769245
 20
394.661624
 30
0.0
 11
483.769245
 21
402.661624
 31
0.0
  0
LINE
  5
6B5
  8
41
 10
480.409245
 20
394.661624
 30
0.0
 11
480.409245
 21
402.661624
 31
0.0
  0
LINE
  5
6B6
  8
41
 10
483.769245
 20
367.661624
 30
0.0
 11
483.769245
 21
375.661624
 31
0.0
  0
LINE
  5
6B7
  8
41
 10
480.409245
 20
367.661624
 30
0.0
 11
480.409245
 21
375.661624
 31
0.0
  0
LINE
  5
6B8
  8
41
 10
483.769245
 20
361.661624
 30
0.0
 11
480.409245
 21
361.661624
 31
0.0
  0
LINE
  5
6B9
  8
41
 10
483.769245
 20
367.661624
 30
0.0
 11
480.409245
 21
367.661624
 31
0.0
  0
LINE
  5
6BA
  8
41
 10
483.769245
 20
375.661624
 30
0.0
 11
480.409245
 21
375.661624
 31
0.0
  0
LINE
  5
6BB
  8
41
 10
483.769245
 20
381.661624
 30
0.0
 11
480.409245
 21
381.661624
 31
0.0
  0
LINE
  5
6BC
  8
41
 10
483.769245
 20
388.661624
 30
0.0
 11
480.409245
 21
388.661624
 31
0.0
  0
LINE
  5
6BD
  8
41
 10
483.769245
 20
394.661624
 30
0.0
 11
480.409245
 21
394.661624
 31
0.0
  0
LINE
  5
6BE
  8
41
 10
483.769245
 20
381.661624
 30
0.0
 11
483.769245
 21
388.661624
 31
0.0
  0
LINE
  5
6BF
  8
41
 10
480.409245
 20
381.661624
 30
0.0
 11
480.409245
 21
388.661624
 31
0.0
  0
LINE
  5
6C0
  8
41
 10
492.829309
 20
442.33612
 30
0.0
 11
486.059245
 21
442.493301
 31
0.0
  0
LINE
  5
6C1
  8
41
 10
478.809245
 20
432.661624
 30
0.0
 11
478.809245
 21
424.009091
 31
0.0
  0
LINE
  5
6C2
  8
41
 10
475.809245
 20
425.784164
 30
0.0
 11
475.809245
 21
437.178932
 31
0.0
  0
LINE
  5
6C3
  8
41
 10
483.769245
 20
408.661624
 30
0.0
 11
483.769245
 21
430.661624
 31
0.0
  0
LINE
  5
6C4
  8
41
 10
480.409245
 20
408.661624
 30
0.0
 11
480.409245
 21
430.661624
 31
0.0
  0
LINE
  5
6C5
  8
41
 10
483.769245
 20
402.661624
 30
0.0
 11
480.409245
 21
402.661624
 31
0.0
  0
LINE
  5
6C6
  8
41
 10
483.769245
 20
408.661624
 30
0.0
 11
480.409245
 21
408.661624
 31
0.0
  0
LINE
  5
6C7
  8
41
 10
480.446824
 20
442.661624
 30
0.0
 11
484.421666
 21
442.661624
 31
0.0
  0
LINE
  5
6C8
  8
41
 10
484.421666
 20
442.661624
 30
0.0
 11
486.059245
 21
442.661624
 31
0.0
  0
LINE
  5
6C9
  8
41
 10
478.809245
 20
442.661624
 30
0.0
 11
478.809245
 21
432.661624
 31
0.0
  0
LINE
  5
6CA
  8
41
 10
475.809245
 20
437.178927
 30
0.0
 11
475.809245
 21
437.178927
 31
0.0
  0
LINE
  5
6CB
  8
41
 10
478.809245
 20
442.661624
 30
0.0
 11
480.446824
 21
442.661624
 31
0.0
  0
LINE
  5
6CC
  8
41
 10
478.809245
 20
442.661624
 30
0.0
 11
478.809245
 21
438.21399
 31
0.0
  0
ARC
  5
6CD
  8
41
 10
476.809245
 20
437.178927
 30
0.0
 40
1.0
 50
91.0
 51
180.0
  0
LINE
  5
6CE
  8
41
 10
478.809245
 20
438.21399
 30
0.0
 11
476.791793
 21
438.178775
 31
0.0
  0
LINE
  5
6CF
  8
41
 10
478.809245
 20
438.21399
 30
0.0
 11
476.791793
 21
438.178775
 31
0.0
  0
ARC
  5
6D0
  8
41
 10
476.809245
 20
437.178927
 30
0.0
 40
1.0
 50
91.0
 51
180.0
  0
LINE
  5
6D1
  8
41
 10
578.309245
 20
362.77765
 30
0.0
 11
578.309245
 21
369.545599
 31
0.0
  0
LINE
  5
6D2
  8
41
 10
578.309245
 20
369.545599
 30
0.0
 11
576.809245
 21
370.411624
 31
0.0
  0
LINE
  5
6D3
  8
41
 10
578.309245
 20
362.77765
 30
0.0
 11
576.809245
 21
361.911624
 31
0.0
  0
LINE
  5
6D4
  8
41
 10
578.309245
 20
344.545599
 30
0.0
 11
576.809245
 21
345.411624
 31
0.0
  0
LINE
  5
6D5
  8
41
 10
578.309245
 20
387.77765
 30
0.0
 11
576.809245
 21
386.911624
 31
0.0
  0
LINE
  5
6D6
  8
41
 10
578.309245
 20
394.545599
 30
0.0
 11
576.809245
 21
395.411624
 31
0.0
  0
LINE
  5
6D7
  8
41
 10
578.309245
 20
387.77765
 30
0.0
 11
578.309245
 21
394.545599
 31
0.0
  0
LINE
  5
6D8
  8
41
 10
578.809245
 20
422.661624
 30
0.0
 11
578.809245
 21
438.661624
 31
0.0
  0
LINE
  5
6D9
  8
41
 10
578.809245
 20
422.661624
 30
0.0
 11
576.809245
 21
422.626714
 31
0.0
  0
ARC
  5
6DA
  8
44
 10
570.809245
 20
416.4668
 30
0.0
 40
2.0
 50
0.0
 51
90.0
  0
LINE
  5
6DB
  8
41
 10
578.309245
 20
412.77765
 30
0.0
 11
578.309245
 21
419.545599
 31
0.0
  0
LINE
  5
6DC
  8
41
 10
578.309245
 20
419.545599
 30
0.0
 11
576.809245
 21
420.411624
 31
0.0
  0
LINE
  5
6DD
  8
41
 10
578.309245
 20
403.02765
 30
0.0
 11
576.809245
 21
402.161624
 31
0.0
  0
LINE
  5
6DE
  8
41
 10
578.309245
 20
414.295599
 30
0.0
 11
576.809245
 21
415.161624
 31
0.0
  0
LINE
  5
6DF
  8
41
 10
578.309245
 20
403.02765
 30
0.0
 11
578.309245
 21
414.295599
 31
0.0
  0
LINE
  5
6E0
  8
41
 10
578.809245
 20
438.661624
 30
0.0
 11
576.809245
 21
438.696534
 31
0.0
  0
LINE
  5
6E1
  8
L1
 10
623.643473
 20
395.361624
 30
0.0
 11
623.643473
 21
404.961624
 31
0.0
  0
LINE
  5
6E2
  8
L1
 10
626.643473
 20
403.307522
 30
0.0
 11
626.643473
 21
396.015726
 31
0.0
  0
LINE
  5
6E3
  8
L1
 10
626.643473
 20
403.307522
 30
0.0
 11
626.643473
 21
396.015726
 31
0.0
  0
LINE
  5
6E4
  8
L1
 10
626.643473
 20
375.307522
 30
0.0
 11
626.643473
 21
368.015726
 31
0.0
  0
LINE
  5
6E5
  8
L1
 10
626.643473
 20
375.307522
 30
0.0
 11
626.643473
 21
368.015726
 31
0.0
  0
LINE
  5
6E6
  8
L1
 10
630.781655
 20
361.642711
 30
0.0
 11
632.951655
 21
361.642711
 31
0.0
  0
LINE
  5
6E7
  8
L1
 10
630.689533
 20
367.680538
 30
0.0
 11
632.859533
 21
367.680538
 31
0.0
  0
LINE
  5
6E8
  8
L1
 10
628.643473
 20
368.015726
 30
0.0
 11
626.643473
 21
368.015726
 31
0.0
  0
LINE
  5
6E9
  8
L1
 10
628.643473
 20
361.307522
 30
0.0
 11
626.643473
 21
361.307522
 31
0.0
  0
LINE
  5
6EA
  8
L1
 10
630.689533
 20
395.680538
 30
0.0
 11
632.859533
 21
395.680538
 31
0.0
  0
LINE
  5
6EB
  8
L1
 10
630.781655
 20
389.642711
 30
0.0
 11
632.951655
 21
389.642711
 31
0.0
  0
LINE
  5
6EC
  8
L1
 10
630.781655
 20
375.642711
 30
0.0
 11
632.951655
 21
375.642711
 31
0.0
  0
LINE
  5
6ED
  8
L1
 10
630.689533
 20
381.680538
 30
0.0
 11
632.859533
 21
381.680538
 31
0.0
  0
LINE
  5
6EE
  8
L1
 10
623.643473
 20
393.411624
 30
0.0
 11
623.643473
 21
395.361624
 31
0.0
  0
LINE
  5
6EF
  8
L1
 10
623.643473
 20
393.411624
 30
0.0
 11
624.143473
 21
393.411624
 31
0.0
  0
LINE
  5
6F0
  8
L1
 10
628.643473
 20
396.015726
 30
0.0
 11
626.643473
 21
396.015726
 31
0.0
  0
LINE
  5
6F1
  8
L1
 10
626.643473
 20
389.307522
 30
0.0
 11
626.643473
 21
382.015726
 31
0.0
  0
LINE
  5
6F2
  8
L1
 10
626.643473
 20
389.307522
 30
0.0
 11
626.643473
 21
382.015726
 31
0.0
  0
LINE
  5
6F3
  8
L1
 10
628.643473
 20
389.307522
 30
0.0
 11
626.643473
 21
389.307522
 31
0.0
  0
LINE
  5
6F4
  8
L1
 10
628.643473
 20
382.015726
 30
0.0
 11
626.643473
 21
382.015726
 31
0.0
  0
LINE
  5
6F5
  8
L1
 10
628.643473
 20
375.307522
 30
0.0
 11
626.643473
 21
375.307522
 31
0.0
  0
LINE
  5
6F6
  8
L1
 10
649.893473
 20
386.218194
 30
0.0
 11
649.893473
 21
371.105054
 31
0.0
  0
LINE
  5
6F7
  8
L1
 10
651.393473
 20
386.218194
 30
0.0
 11
651.393473
 21
371.105054
 31
0.0
  0
ARC
  5
6F8
  8
L1
 10
650.643473
 20
366.161624
 30
0.0
 40
5.0
 50
278.626927
 51
81.373073
  0
CIRCLE
  5
6F9
  8
L1
 10
650.643473
 20
366.161624
 30
0.0
 40
2.4
  0
ARC
  5
6FA
  8
L1
 10
650.643473
 20
366.161624
 30
0.0
 40
5.0
 50
98.626927
 51
261.373073
  0
LINE
  5
6FB
  8
L1
 10
649.893473
 20
346.105054
 30
0.0
 11
649.893473
 21
361.218194
 31
0.0
  0
LINE
  5
6FC
  8
L1
 10
651.393473
 20
346.105054
 30
0.0
 11
651.393473
 21
361.218194
 31
0.0
  0
ARC
  5
6FD
  8
L1
 10
650.643473
 20
391.161624
 30
0.0
 40
5.0
 50
278.626927
 51
90.0
  0
CIRCLE
  5
6FE
  8
L1
 10
650.643473
 20
391.161624
 30
0.0
 40
2.4
  0
ARC
  5
6FF
  8
L1
 10
650.643473
 20
391.161624
 30
0.0
 40
5.0
 50
90.0
 51
261.373073
  0
LINE
  5
700
  8
L1
 10
643.253738
 20
426.379787
 30
0.0
 11
644.576077
 21
425.057447
 31
0.0
  0
LINE
  5
701
  8
L1
 10
643.253738
 20
434.943462
 30
0.0
 11
644.576077
 21
436.265802
 31
0.0
  0
CIRCLE
  5
702
  8
L1
 10
636.143473
 20
430.661624
 30
0.0
 40
10.125
  0
ARC
  5
703
  8
L1
 10
636.143473
 20
430.661624
 30
0.0
 40
12.0
 50
270.0
 51
360.0
  0
ARC
  5
704
  8
L2
 10
636.143473
 20
430.661624
 30
0.0
 40
14.200352
 50
270.0
 51
0.0
  0
CIRCLE
  5
705
  8
L1
 10
636.143473
 20
430.661624
 30
0.0
 40
8.325
  0
ARC
  5
706
  8
L2
 10
636.143473
 20
430.661624
 30
0.0
 40
8.0
 50
260.0
 51
170.0
  0
CIRCLE
  5
707
  8
L1
 10
636.143473
 20
430.661624
 30
0.0
 40
6.75
  0
CIRCLE
  5
708
  8
L1
 10
636.143473
 20
430.661624
 30
0.0
 40
3.25
  0
CIRCLE
  5
709
  8
L2
 10
636.143473
 20
430.661624
 30
0.0
 40
5.424871
  0
LINE
  5
70A
  8
L1
 10
631.861635
 20
423.55136
 30
0.0
 11
630.539295
 21
422.22902
 31
0.0
  0
LINE
  5
70B
  8
L1
 10
630.689533
 20
409.680538
 30
0.0
 11
632.859533
 21
409.680538
 31
0.0
  0
LINE
  5
70C
  8
L1
 10
630.781655
 20
403.642711
 30
0.0
 11
632.951655
 21
403.642711
 31
0.0
  0
ARC
  5
70D
  8
L1
 10
636.043473
 20
413.136796
 30
0.0
 40
7.4
 50
90.0
 51
180.0
  0
ARC
  5
70E
  8
L1
 10
636.043473
 20
413.261624
 30
0.0
 40
5.4
 50
95.886842
 51
180.0
  0
LINE
  5
70F
  8
L1
 10
629.033208
 20
426.379787
 30
0.0
 11
627.710868
 21
425.057447
 31
0.0
  0
ARC
  5
710
  8
L1
 10
626.843473
 20
420.336796
 30
0.0
 40
0.2
 50
90.0
 51
180.0
  0
ARC
  5
711
  8
L1
 10
628.443473
 20
420.336796
 30
0.0
 40
0.2
 50
0.0
 51
90.0
  0
LINE
  5
712
  8
L1
 10
628.443473
 20
420.536796
 30
0.0
 11
626.843473
 21
420.536796
 31
0.0
  0
LINE
  5
713
  8
L1
 10
628.643473
 20
410.015726
 30
0.0
 11
626.643473
 21
410.015726
 31
0.0
  0
LINE
  5
714
  8
L1
 10
623.643473
 20
404.961624
 30
0.0
 11
623.643473
 21
406.894164
 31
0.0
  0
LINE
  5
715
  8
L1
 10
623.643473
 20
406.894164
 30
0.0
 11
624.143473
 21
406.894164
 31
0.0
  0
LINE
  5
716
  8
L1
 10
628.643473
 20
403.307522
 30
0.0
 11
626.643473
 21
403.307522
 31
0.0
  0
LINE
  5
717
  8
L1
 10
626.643473
 20
420.336796
 30
0.0
 11
626.643473
 21
410.015726
 31
0.0
  0
LINE
  5
718
  8
L1
 10
640.425311
 20
423.55136
 30
0.0
 11
641.74765
 21
422.22902
 31
0.0
  0
LINE
  5
719
  8
L1
 10
636.202397
 20
420.536796
 30
0.0
 11
636.043473
 21
420.536796
 31
0.0
  0
LINE
  5
71A
  8
L1
 10
636.143473
 20
418.661624
 30
0.0
 11
636.043473
 21
418.661624
 31
0.0
  0
ARC
  5
71B
  8
L1
 10
636.043473
 20
413.261624
 30
0.0
 40
5.4
 50
90.0
 51
95.886842
  0
ARC
  5
71C
  8
L2
 10
636.293473
 20
415.071966
 30
0.0
 40
1.5
 50
117.225904
 51
180.0
  0
ARC
  5
71D
  8
L1
 10
634.313473
 20
416.756921
 30
0.0
 40
1.5
 50
116.333146
 51
180.0
  0
LINE
  5
71E
  8
L1
 10
631.861635
 20
437.771889
 30
0.0
 11
630.539295
 21
439.094229
 31
0.0
  0
ARC
  5
71F
  8
L1
 10
636.143473
 20
430.661624
 30
0.0
 40
12.0
 50
90.0
 51
180.0
  0
LINE
  5
720
  8
L1
 10
629.033208
 20
434.943462
 30
0.0
 11
627.710868
 21
436.265802
 31
0.0
  0
LINE
  5
721
  8
L1
 10
640.425311
 20
437.771889
 30
0.0
 11
641.74765
 21
439.094229
 31
0.0
  0
CIRCLE
  5
722
  8
L1
 10
658.143473
 20
408.595057
 30
0.0
 40
6.0
  0
CIRCLE
  5
723
  8
L1
 10
658.143473
 20
408.595057
 30
0.0
 40
3.0
  0
ARC
  5
724
  8
L1
 10
653.543473
 20
430.761624
 30
0.0
 40
5.4
 50
90.0
 51
180.0
  0
LINE
  5
725
  8
L1
 10
656.789371
 20
438.161624
 30
0.0
 11
656.789371
 21
440.161624
 31
0.0
  0
LINE
  5
726
  8
L1
 10
648.143473
 20
430.661624
 30
0.0
 11
648.143473
 21
430.761624
 31
0.0
  0
ARC
  5
727
  8
L1
 10
650.048176
 20
432.491624
 30
0.0
 40
1.5
 50
90.0
 51
153.666854
  0
LINE
  5
728
  8
L1
 10
657.124559
 20
436.115564
 30
0.0
 11
657.124559
 21
433.945564
 31
0.0
  0
LINE
  5
729
  8
L1
 10
646.268473
 20
438.361624
 30
0.0
 11
646.268473
 21
439.961624
 31
0.0
  0
ARC
  5
72A
  8
L1
 10
646.468473
 20
438.361624
 30
0.0
 40
0.2
 50
180.0
 51
270.0
  0
ARC
  5
72B
  8
L1
 10
646.468473
 20
439.961624
 30
0.0
 40
0.2
 50
90.0
 51
180.0
  0
LINE
  5
72C
  8
L1
 10
646.268473
 20
430.661624
 30
0.0
 11
646.268473
 21
430.761624
 31
0.0
  0
LINE
  5
72D
  8
L1
 10
646.468473
 20
440.161624
 30
0.0
 11
656.789371
 21
440.161624
 31
0.0
  0
ARC
  5
72E
  8
L1
 10
653.668473
 20
430.761624
 30
0.0
 40
7.4
 50
90.0
 51
180.0
  0
LINE
  5
72F
  8
L1
 10
670.789371
 20
438.161624
 30
0.0
 11
670.789371
 21
440.161624
 31
0.0
  0
LINE
  5
730
  8
L1
 10
663.497575
 20
438.161624
 30
0.0
 11
663.497575
 21
440.161624
 31
0.0
  0
LINE
  5
731
  8
L1
 10
663.497575
 20
440.161624
 30
0.0
 11
670.789371
 21
440.161624
 31
0.0
  0
LINE
  5
732
  8
L1
 10
663.162386
 20
436.023442
 30
0.0
 11
663.162386
 21
433.853442
 31
0.0
  0
LINE
  5
733
  8
21
 10
644.143473
 20
494.85661
 30
0.0
 11
628.143473
 21
494.85661
 31
0.0
  0
LINE
  5
734
  8
21
 10
628.143473
 20
494.85661
 30
0.0
 11
628.108563
 21
496.85661
 31
0.0
  0
LINE
  5
735
  8
21
 10
644.143473
 20
494.85661
 30
0.0
 11
644.178383
 21
496.85661
 31
0.0
  0
LINE
  5
736
  8
21
 10
663.777447
 20
495.35661
 30
0.0
 11
652.509498
 21
495.35661
 31
0.0
  0
LINE
  5
737
  8
21
 10
652.509498
 20
495.35661
 30
0.0
 11
651.643473
 21
496.85661
 31
0.0
  0
LINE
  5
738
  8
21
 10
653.527447
 20
495.35661
 30
0.0
 11
646.759498
 21
495.35661
 31
0.0
  0
LINE
  5
739
  8
21
 10
646.759498
 20
495.35661
 30
0.0
 11
645.893473
 21
496.85661
 31
0.0
  0
ARC
  5
73A
  8
24
 10
650.338297
 20
502.85661
 30
0.0
 40
2.0
 50
180.0
 51
270.0
  0
LINE
  5
73B
  8
21
 10
663.777447
 20
495.35661
 30
0.0
 11
664.643473
 21
496.85661
 31
0.0
  0
ARC
  5
73C
  8
21
 10
650.143473
 20
575.85661
 30
0.0
 40
2.0
 50
180.0
 51
270.0
  0
LINE
  5
73D
  8
21
 10
658.143473
 20
589.89661
 30
0.0
 11
636.143473
 21
589.89661
 31
0.0
  0
LINE
  5
73E
  8
21
 10
658.143473
 20
593.25661
 30
0.0
 11
636.143473
 21
593.25661
 31
0.0
  0
LINE
  5
73F
  8
21
 10
628.591108
 20
594.85661
 30
0.0
 11
628.626322
 21
596.874063
 31
0.0
  0
ARC
  5
740
  8
21
 10
629.62617
 20
596.85661
 30
0.0
 40
1.0
 50
90.0
 51
179.0
  0
LINE
  5
741
  8
21
 10
664.143473
 20
589.89661
 30
0.0
 11
664.143473
 21
593.25661
 31
0.0
  0
LINE
  5
742
  8
21
 10
658.143473
 20
589.89661
 30
0.0
 11
658.143473
 21
593.25661
 31
0.0
  0
LINE
  5
743
  8
34
 10
1150.477701
 20
188.856448
 30
0.0
 11
1055.477701
 21
188.856448
 31
0.0
  0
LINE
  5
744
  8
31
 10
1049.477701
 20
420.936895
 30
0.0
 11
1140.227701
 21
418.829948
 31
0.0
  0
LINE
  5
745
  8
31
 10
1049.477701
 20
440.386354
 30
0.0
 11
1140.227701
 21
442.493301
 31
0.0
  0
LINE
  5
746
  8
33
  6
DASHDOT
 10
1039.477701
 20
303.661624
 30
0.0
 11
1160.477701
 21
303.661624
 31
0.0
  0
LINE
  5
747
  8
31
 10
1049.477701
 20
166.936895
 30
0.0
 11
1140.227701
 21
164.829948
 31
0.0
  0
LINE
  5
748
  8
31
 10
1049.477701
 20
186.386354
 30
0.0
 11
1140.227701
 21
188.493301
 31
0.0
  0
LINE
  5
749
  8
34
 10
1150.477701
 20
418.4668
 30
0.0
 11
1055.477701
 21
418.4668
 31
0.0
  0
LINE
  5
74A
  8
L6
 10
813.143473
 20
453.270111
 30
0.0
 11
813.143473
 21
152.259458
 31
0.0
  0
LINE
  5
74B
  8
L1
 10
999.643473
 20
361.307522
 30
0.0
 11
999.643473
 21
303.661624
 31
0.0
  0
LINE
  5
74C
  8
L1
 10
995.643473
 20
413.261624
 30
0.0
 11
995.643473
 21
303.661624
 31
0.0
  0
ARC
  5
74D
  8
L1
 10
975.643473
 20
341.161624
 30
0.0
 40
5.0
 50
98.626927
 51
261.373073
  0
CIRCLE
  5
74E
  8
L1
 10
975.643473
 20
341.161624
 30
0.0
 40
2.4
  0
ARC
  5
74F
  8
L1
 10
975.643473
 20
341.161624
 30
0.0
 40
5.0
 50
278.626927
 51
81.373073
  0
LINE
  5
750
  8
L2
 10
991.493473
 20
415.071966
 30
0.0
 11
991.493473
 21
303.661624
 31
0.0
  0
LINE
  5
751
  8
L1
 10
993.473473
 20
416.756921
 30
0.0
 11
993.473473
 21
303.661624
 31
0.0
  0
LINE
  5
752
  8
L1
 10
1002.143473
 20
430.661624
 30
0.0
 11
1002.143473
 21
303.661624
 31
0.0
  0
LINE
  5
753
  8
L1
 10
997.643473
 20
420.336796
 30
0.0
 11
997.643473
 21
303.661624
 31
0.0
  0
LINE
  5
754
  8
31
 10
1047.977701
 20
337.77765
 30
0.0
 11
1047.977701
 21
344.545599
 31
0.0
  0
LINE
  5
755
  8
31
 10
1049.477701
 20
303.661624
 30
0.0
 11
1049.477701
 21
440.386354
 31
0.0
  0
LINE
  5
756
  8
34
 10
1053.477701
 20
303.661624
 30
0.0
 11
1053.477701
 21
416.4668
 31
0.0
  0
LINE
  5
757
  8
L1
 10
895.700043
 20
190.411624
 30
0.0
 11
880.586903
 21
190.411624
 31
0.0
  0
LINE
  5
758
  8
L1
 10
895.700043
 20
191.911624
 30
0.0
 11
880.586903
 21
191.911624
 31
0.0
  0
LINE
  5
759
  8
L1
 10
920.789371
 20
167.161624
 30
0.0
 11
813.143473
 21
167.161624
 31
0.0
  0
LINE
  5
75A
  8
L2
 10
974.553814
 20
175.311624
 30
0.0
 11
813.143473
 21
175.311624
 31
0.0
  0
LINE
  5
75B
  8
L1
 10
976.23877
 20
173.331624
 30
0.0
 11
813.143473
 21
173.331624
 31
0.0
  0
LINE
  5
75C
  8
L1
 10
972.743473
 20
171.161624
 30
0.0
 11
813.143473
 21
171.161624
 31
0.0
  0
LINE
  5
75D
  8
L1
 10
979.818473
 20
169.161624
 30
0.0
 11
813.143473
 21
169.161624
 31
0.0
  0
LINE
  5
75E
  8
L1
 10
990.143473
 20
164.661624
 30
0.0
 11
813.143473
 21
164.661624
 31
0.0
  0
LINE
  5
75F
  8
14
 10
833.695914
 20
106.466638
 30
0.0
 11
975.948649
 21
106.466638
 31
0.0
  0
LINE
  5
760
  8
11
 10
813.143473
 20
12.466638
 30
0.0
 11
1002.143473
 21
12.466638
 31
0.0
  0
LINE
  5
761
  8
11
 10
813.143473
 20
9.466638
 30
0.0
 11
996.660776
 21
9.466638
 31
0.0
  0
LINE
  5
762
  8
11
 10
813.143473
 20
110.466638
 30
0.0
 11
999.868202
 21
110.466638
 31
0.0
  0
LINE
  5
763
  8
11
 10
813.143473
 20
14.066638
 30
0.0
 11
921.143473
 21
14.066638
 31
0.0
  0
LINE
  5
764
  8
11
 10
813.143473
 20
17.426638
 30
0.0
 11
921.143473
 21
17.426638
 31
0.0
  0
LINE
  5
765
  8
11
 10
813.143473
 20
19.716638
 30
0.0
 11
990.143473
 21
19.716638
 31
0.0
  0
LINE
  5
766
  8
14
 10
755.665442
 20
106.466296
 30
0.0
 11
755.586903
 21
97.466638
 31
0.0
  0
LINE
  5
767
  8
14
 10
760.722012
 20
106.466296
 30
0.0
 11
760.643473
 21
97.466638
 31
0.0
  0
LINE
  5
768
  8
14
 10
740.564934
 20
106.466296
 30
0.0
 11
740.643473
 21
97.466638
 31
0.0
  0
LINE
  5
769
  8
14
 10
745.621504
 20
106.466296
 30
0.0
 11
745.700043
 21
97.466638
 31
0.0
  0
LINE
  5
76A
  8
13
  6
DASHDOT
 10
813.143473
 20
117.247327
 30
0.0
 11
813.143473
 21
0.0
 31
0.0
  0
LINE
  5
76B
  8
11
 10
813.143473
 20
17.426638
 30
0.0
 11
705.143473
 21
17.426638
 31
0.0
  0
LINE
  5
76C
  8
11
 10
813.143473
 20
14.066638
 30
0.0
 11
705.143473
 21
14.066638
 31
0.0
  0
LINE
  5
76D
  8
11
 10
699.143473
 20
14.066638
 30
0.0
 11
691.143473
 21
14.066638
 31
0.0
  0
LINE
  5
76E
  8
11
 10
699.143473
 20
17.426638
 30
0.0
 11
691.143473
 21
17.426638
 31
0.0
  0
LINE
  5
76F
  8
11
 10
672.143473
 20
17.426638
 30
0.0
 11
672.143473
 21
14.066638
 31
0.0
  0
LINE
  5
770
  8
11
 10
678.143473
 20
17.426638
 30
0.0
 11
678.143473
 21
14.066638
 31
0.0
  0
LINE
  5
771
  8
11
 10
685.143473
 20
17.426638
 30
0.0
 11
685.143473
 21
14.066638
 31
0.0
  0
LINE
  5
772
  8
11
 10
691.143473
 20
17.426638
 30
0.0
 11
691.143473
 21
14.066638
 31
0.0
  0
LINE
  5
773
  8
11
 10
685.143473
 20
14.066638
 30
0.0
 11
678.143473
 21
14.066638
 31
0.0
  0
LINE
  5
774
  8
11
 10
685.143473
 20
17.426638
 30
0.0
 11
678.143473
 21
17.426638
 31
0.0
  0
LINE
  5
775
  8
11
 10
680.143473
 20
31.466638
 30
0.0
 11
680.143473
 21
19.716638
 31
0.0
  0
ARC
  5
776
  8
11
 10
678.143473
 20
31.466638
 30
0.0
 40
2.0
 50
0.0
 51
90.0
  0
LINE
  5
777
  8
11
 10
699.143473
 20
17.426638
 30
0.0
 11
699.143473
 21
14.066638
 31
0.0
  0
LINE
  5
778
  8
11
 10
705.143473
 20
17.426638
 30
0.0
 11
705.143473
 21
14.066638
 31
0.0
  0
LINE
  5
779
  8
14
 10
750.643473
 20
97.466638
 30
0.0
 11
740.643473
 21
97.466638
 31
0.0
  0
LINE
  5
77A
  8
14
 10
750.643473
 20
97.466638
 30
0.0
 11
760.643473
 21
97.466638
 31
0.0
  0
CIRCLE
  5
77B
  8
L1
 10
775.643473
 20
191.161624
 30
0.0
 40
2.4
  0
ARC
  5
77C
  8
L1
 10
775.643473
 20
191.161624
 30
0.0
 40
5.0
 50
8.626927
 51
171.373073
  0
ARC
  5
77D
  8
L1
 10
775.643473
 20
191.161624
 30
0.0
 40
5.0
 50
188.626927
 51
351.373073
  0
LINE
  5
77E
  8
L1
 10
705.497575
 20
167.161624
 30
0.0
 11
813.143473
 21
167.161624
 31
0.0
  0
LINE
  5
77F
  8
11
 10
779.027447
 20
111.966638
 30
0.0
 11
772.259498
 21
111.966638
 31
0.0
  0
ARC
  5
780
  8
L1
 10
725.643473
 20
191.161624
 30
0.0
 40
5.0
 50
8.626927
 51
171.373073
  0
CIRCLE
  5
781
  8
L1
 10
725.643473
 20
191.161624
 30
0.0
 40
2.4
  0
ARC
  5
782
  8
L1
 10
725.643473
 20
191.161624
 30
0.0
 40
5.0
 50
188.626927
 51
351.373073
  0
LINE
  5
783
  8
11
 10
729.027447
 20
111.966638
 30
0.0
 11
722.259498
 21
111.966638
 31
0.0
  0
LINE
  5
784
  8
11
 10
704.027447
 20
111.966638
 30
0.0
 11
697.259498
 21
111.966638
 31
0.0
  0
LINE
  5
785
  8
11
 10
679.027447
 20
111.966638
 30
0.0
 11
672.259498
 21
111.966638
 31
0.0
  0
LINE
  5
786
  8
11
 10
672.259498
 20
111.966638
 30
0.0
 11
671.393473
 21
110.466638
 31
0.0
  0
LINE
  5
787
  8
11
 10
679.027447
 20
111.966638
 30
0.0
 11
679.893473
 21
110.466638
 31
0.0
  0
LINE
  5
788
  8
11
 10
697.259498
 20
111.966638
 30
0.0
 11
696.393473
 21
110.466638
 31
0.0
  0
LINE
  5
789
  8
11
 10
704.027447
 20
111.966638
 30
0.0
 11
704.893473
 21
110.466638
 31
0.0
  0
LINE
  5
78A
  8
11
 10
722.259498
 20
111.966638
 30
0.0
 11
721.393473
 21
110.466638
 31
0.0
  0
ARC
  5
78B
  8
L1
 10
700.643473
 20
191.161624
 30
0.0
 40
5.0
 50
8.626927
 51
171.373073
  0
ARC
  5
78C
  8
L1
 10
700.643473
 20
191.161624
 30
0.0
 40
5.0
 50
188.626927
 51
351.373073
  0
LINE
  5
78D
  8
L1
 10
691.497575
 20
167.161624
 30
0.0
 11
698.789371
 21
167.161624
 31
0.0
  0
CIRCLE
  5
78E
  8
L1
 10
675.643473
 20
191.161624
 30
0.0
 40
2.4
  0
LINE
  5
78F
  8
L1
 10
680.586903
 20
190.411624
 30
0.0
 11
695.700043
 21
190.411624
 31
0.0
  0
LINE
  5
790
  8
L1
 10
680.586903
 20
191.911624
 30
0.0
 11
695.700043
 21
191.911624
 31
0.0
  0
LINE
  5
791
  8
L1
 10
677.497575
 20
167.161624
 30
0.0
 11
684.789371
 21
167.161624
 31
0.0
  0
LINE
  5
792
  8
L1
 10
677.162386
 20
171.299807
 30
0.0
 11
677.162386
 21
173.331624
 31
0.0
  0
LINE
  5
793
  8
L1
 10
677.497575
 20
169.161624
 30
0.0
 11
677.497575
 21
167.161624
 31
0.0
  0
LINE
  5
794
  8
L1
 10
671.124559
 20
171.207685
 30
0.0
 11
671.124559
 21
173.377685
 31
0.0
  0
LINE
  5
795
  8
L1
 10
691.162386
 20
171.299807
 30
0.0
 11
691.162386
 21
173.469807
 31
0.0
  0
LINE
  5
796
  8
L1
 10
691.497575
 20
169.161624
 30
0.0
 11
691.497575
 21
167.161624
 31
0.0
  0
LINE
  5
797
  8
L1
 10
685.124559
 20
171.207685
 30
0.0
 11
685.124559
 21
173.377685
 31
0.0
  0
LINE
  5
798
  8
L1
 10
684.789371
 20
169.161624
 30
0.0
 11
684.789371
 21
167.161624
 31
0.0
  0
CIRCLE
  5
799
  8
L1
 10
700.643473
 20
191.161624
 30
0.0
 40
2.4
  0
LINE
  5
79A
  8
L1
 10
705.586903
 20
191.911624
 30
0.0
 11
720.700043
 21
191.911624
 31
0.0
  0
LINE
  5
79B
  8
L1
 10
705.586903
 20
190.411624
 30
0.0
 11
720.700043
 21
190.411624
 31
0.0
  0
LINE
  5
79C
  8
L1
 10
705.162386
 20
171.299807
 30
0.0
 11
705.162386
 21
173.469807
 31
0.0
  0
LINE
  5
79D
  8
L1
 10
705.497575
 20
169.161624
 30
0.0
 11
705.497575
 21
167.161624
 31
0.0
  0
LINE
  5
79E
  8
L1
 10
699.124559
 20
171.207685
 30
0.0
 11
699.124559
 21
173.377685
 31
0.0
  0
LINE
  5
79F
  8
L1
 10
698.789371
 20
169.161624
 30
0.0
 11
698.789371
 21
167.161624
 31
0.0
  0
LINE
  5
7A0
  8
L1
 10
721.643473
 20
164.161624
 30
0.0
 11
721.643473
 21
164.661624
 31
0.0
  0
LINE
  5
7A1
  8
L1
 10
720.143473
 20
164.161624
 30
0.0
 11
721.643473
 21
164.161624
 31
0.0
  0
LINE
  5
7A2
  8
L1
 10
711.643473
 20
164.161624
 30
0.0
 11
711.643473
 21
164.661624
 31
0.0
  0
LINE
  5
7A3
  8
L1
 10
711.643473
 20
164.161624
 30
0.0
 11
713.143473
 21
164.161624
 31
0.0
  0
LINE
  5
7A4
  8
L1
 10
711.643473
 20
164.161624
 30
0.0
 11
713.143473
 21
164.161624
 31
0.0
  0
LINE
  5
7A5
  8
L1
 10
713.143473
 20
164.161624
 30
0.0
 11
720.143473
 21
164.161624
 31
0.0
  0
LINE
  5
7A6
  8
11
 10
754.027447
 20
111.966638
 30
0.0
 11
747.259498
 21
111.966638
 31
0.0
  0
LINE
  5
7A7
  8
11
 10
729.027447
 20
111.966638
 30
0.0
 11
729.893473
 21
110.466638
 31
0.0
  0
LINE
  5
7A8
  8
11
 10
747.259498
 20
111.966638
 30
0.0
 11
746.393473
 21
110.466638
 31
0.0
  0
LINE
  5
7A9
  8
11
 10
754.027447
 20
111.966638
 30
0.0
 11
754.893473
 21
110.466638
 31
0.0
  0
LINE
  5
7AA
  8
11
 10
772.259498
 20
111.966638
 30
0.0
 11
771.393473
 21
110.466638
 31
0.0
  0
CIRCLE
  5
7AB
  8
L1
 10
750.643473
 20
191.161624
 30
0.0
 40
2.4
  0
ARC
  5
7AC
  8
L1
 10
750.643473
 20
191.161624
 30
0.0
 40
5.0
 50
8.626927
 51
171.373073
  0
ARC
  5
7AD
  8
L1
 10
750.643473
 20
191.161624
 30
0.0
 40
5.0
 50
188.626927
 51
351.373073
  0
LINE
  5
7AE
  8
L1
 10
730.586903
 20
191.911624
 30
0.0
 11
745.700043
 21
191.911624
 31
0.0
  0
LINE
  5
7AF
  8
L1
 10
730.586903
 20
190.411624
 30
0.0
 11
745.700043
 21
190.411624
 31
0.0
  0
LINE
  5
7B0
  8
L1
 10
755.586903
 20
190.411624
 30
0.0
 11
770.700043
 21
190.411624
 31
0.0
  0
LINE
  5
7B1
  8
L1
 10
755.586903
 20
191.911624
 30
0.0
 11
770.700043
 21
191.911624
 31
0.0
  0
ARC
  5
7B2
  8
L1
 10
825.643473
 20
191.161624
 30
0.0
 40
5.0
 50
8.626927
 51
171.373073
  0
ARC
  5
7B3
  8
L1
 10
825.643473
 20
191.161624
 30
0.0
 40
5.0
 50
188.626927
 51
351.373073
  0
LINE
  5
7B4
  8
11
 10
779.027447
 20
111.966638
 30
0.0
 11
779.893473
 21
110.466638
 31
0.0
  0
ARC
  5
7B5
  8
L1
 10
800.643473
 20
191.161624
 30
0.0
 40
5.0
 50
8.626927
 51
171.373073
  0
ARC
  5
7B6
  8
L1
 10
800.643473
 20
191.161624
 30
0.0
 40
5.0
 50
188.626927
 51
351.373073
  0
CIRCLE
  5
7B7
  8
L1
 10
800.643473
 20
191.161624
 30
0.0
 40
2.4
  0
LINE
  5
7B8
  8
L1
 10
780.586903
 20
191.911624
 30
0.0
 11
795.700043
 21
191.911624
 31
0.0
  0
LINE
  5
7B9
  8
L1
 10
780.586903
 20
190.411624
 30
0.0
 11
795.700043
 21
190.411624
 31
0.0
  0
CIRCLE
  5
7BA
  8
L1
 10
825.643473
 20
191.161624
 30
0.0
 40
2.4
  0
ARC
  5
7BB
  8
L1
 10
813.143473
 20
191.161624
 30
0.0
 40
5.0
 50
8.626927
 51
171.373073
  0
CIRCLE
  5
7BC
  8
L1
 10
813.143473
 20
191.161624
 30
0.0
 40
2.4
  0
ARC
  5
7BD
  8
L1
 10
813.143473
 20
191.161624
 30
0.0
 40
5.0
 50
188.626927
 51
351.373073
  0
LINE
  5
7BE
  8
L1
 10
805.586903
 20
191.911624
 30
0.0
 11
808.200043
 21
191.911624
 31
0.0
  0
LINE
  5
7BF
  8
L1
 10
805.586903
 20
190.411624
 30
0.0
 11
808.200043
 21
190.411624
 31
0.0
  0
LINE
  5
7C0
  8
L1
 10
805.586903
 20
191.911624
 30
0.0
 11
808.200043
 21
191.911624
 31
0.0
  0
LINE
  5
7C1
  8
L1
 10
805.586903
 20
190.411624
 30
0.0
 11
808.200043
 21
190.411624
 31
0.0
  0
LINE
  5
7C2
  8
L1
 10
820.700043
 20
190.411624
 30
0.0
 11
818.086903
 21
190.411624
 31
0.0
  0
LINE
  5
7C3
  8
L1
 10
820.700043
 20
191.911624
 30
0.0
 11
818.086903
 21
191.911624
 31
0.0
  0
LINE
  5
7C4
  8
11
 10
847.259498
 20
111.966638
 30
0.0
 11
854.027447
 21
111.966638
 31
0.0
  0
LINE
  5
7C5
  8
11
 10
854.027447
 20
111.966638
 30
0.0
 11
854.893473
 21
110.466638
 31
0.0
  0
LINE
  5
7C6
  8
11
 10
872.259498
 20
111.966638
 30
0.0
 11
879.027447
 21
111.966638
 31
0.0
  0
LINE
  5
7C7
  8
11
 10
879.027447
 20
111.966638
 30
0.0
 11
879.893473
 21
110.466638
 31
0.0
  0
LINE
  5
7C8
  8
11
 10
872.259498
 20
111.966638
 30
0.0
 11
871.393473
 21
110.466638
 31
0.0
  0
LINE
  5
7C9
  8
L1
 10
870.700043
 20
191.911624
 30
0.0
 11
855.586903
 21
191.911624
 31
0.0
  0
LINE
  5
7CA
  8
L1
 10
870.700043
 20
190.411624
 30
0.0
 11
855.586903
 21
190.411624
 31
0.0
  0
CIRCLE
  5
7CB
  8
L1
 10
850.643473
 20
191.161624
 30
0.0
 40
2.4
  0
ARC
  5
7CC
  8
L1
 10
850.643473
 20
191.161624
 30
0.0
 40
5.0
 50
8.626927
 51
171.373073
  0
LINE
  5
7CD
  8
L1
 10
845.700043
 20
190.411624
 30
0.0
 11
830.586903
 21
190.411624
 31
0.0
  0
LINE
  5
7CE
  8
L1
 10
845.700043
 20
191.911624
 30
0.0
 11
830.586903
 21
191.911624
 31
0.0
  0
ARC
  5
7CF
  8
L1
 10
850.643473
 20
191.161624
 30
0.0
 40
5.0
 50
188.626927
 51
351.373073
  0
ARC
  5
7D0
  8
L1
 10
875.643473
 20
191.161624
 30
0.0
 40
5.0
 50
8.626927
 51
171.373073
  0
CIRCLE
  5
7D1
  8
L1
 10
875.643473
 20
191.161624
 30
0.0
 40
2.4
  0
ARC
  5
7D2
  8
L1
 10
875.643473
 20
191.161624
 30
0.0
 40
5.0
 50
188.626927
 51
351.373073
  0
ARC
  5
7D3
  8
14
 10
975.948649
 20
104.466638
 30
0.0
 40
2.0
 50
0.0
 51
90.0
  0
LINE
  5
7D4
  8
11
 10
980.418744
 20
110.466638
 30
0.0
 11
979.811796
 21
19.716638
 31
0.0
  0
LINE
  5
7D5
  8
11
 10
999.868202
 20
110.466638
 30
0.0
 11
1002.143473
 21
12.466638
 31
0.0
  0
LINE
  5
7D6
  8
11
 10
968.143473
 20
17.426638
 30
0.0
 11
990.143473
 21
17.426638
 31
0.0
  0
LINE
  5
7D7
  8
11
 10
968.143473
 20
14.066638
 30
0.0
 11
990.143473
 21
14.066638
 31
0.0
  0
LINE
  5
7D8
  8
11
 10
927.143473
 20
17.426638
 30
0.0
 11
935.143473
 21
17.426638
 31
0.0
  0
LINE
  5
7D9
  8
11
 10
927.143473
 20
14.066638
 30
0.0
 11
935.143473
 21
14.066638
 31
0.0
  0
LINE
  5
7DA
  8
11
 10
921.143473
 20
17.426638
 30
0.0
 11
921.143473
 21
14.066638
 31
0.0
  0
LINE
  5
7DB
  8
11
 10
927.143473
 20
17.426638
 30
0.0
 11
927.143473
 21
14.066638
 31
0.0
  0
LINE
  5
7DC
  8
14
 10
977.948649
 20
9.466638
 30
0.0
 11
977.948649
 21
104.466638
 31
0.0
  0
LINE
  5
7DD
  8
11
 10
948.143473
 20
33.466638
 30
0.0
 11
976.143473
 21
33.466638
 31
0.0
  0
LINE
  5
7DE
  8
11
 10
954.143473
 20
17.426638
 30
0.0
 11
962.143473
 21
17.426638
 31
0.0
  0
LINE
  5
7DF
  8
11
 10
954.143473
 20
14.066638
 30
0.0
 11
962.143473
 21
14.066638
 31
0.0
  0
LINE
  5
7E0
  8
11
 10
935.143473
 20
17.426638
 30
0.0
 11
935.143473
 21
14.066638
 31
0.0
  0
LINE
  5
7E1
  8
11
 10
941.143473
 20
17.426638
 30
0.0
 11
941.143473
 21
14.066638
 31
0.0
  0
LINE
  5
7E2
  8
11
 10
948.143473
 20
17.426638
 30
0.0
 11
948.143473
 21
14.066638
 31
0.0
  0
LINE
  5
7E3
  8
11
 10
954.143473
 20
17.426638
 30
0.0
 11
954.143473
 21
14.066638
 31
0.0
  0
LINE
  5
7E4
  8
11
 10
941.143473
 20
14.066638
 30
0.0
 11
948.143473
 21
14.066638
 31
0.0
  0
ARC
  5
7E5
  8
11
 10
948.143473
 20
31.466638
 30
0.0
 40
2.0
 50
90.0
 51
180.0
  0
LINE
  5
7E6
  8
11
 10
941.143473
 20
17.426638
 30
0.0
 11
948.143473
 21
17.426638
 31
0.0
  0
LINE
  5
7E7
  8
11
 10
946.143473
 20
31.466638
 30
0.0
 11
946.143473
 21
19.716638
 31
0.0
  0
LINE
  5
7E8
  8
11
 10
962.143473
 20
17.426638
 30
0.0
 11
962.143473
 21
14.066638
 31
0.0
  0
LINE
  5
7E9
  8
11
 10
968.143473
 20
17.426638
 30
0.0
 11
968.143473
 21
14.066638
 31
0.0
  0
LINE
  5
7EA
  8
11
 10
978.143473
 20
31.466638
 30
0.0
 11
978.143473
 21
19.716638
 31
0.0
  0
ARC
  5
7EB
  8
11
 10
976.143473
 20
31.466638
 30
0.0
 40
2.0
 50
0.0
 51
90.0
  0
LINE
  5
7EC
  8
11
 10
997.695838
 20
12.466638
 30
0.0
 11
997.660623
 21
10.449186
 31
0.0
  0
ARC
  5
7ED
  8
11
 10
996.660776
 20
10.466638
 30
0.0
 40
1.0
 50
270.0
 51
359.0
  0
CIRCLE
  5
7EE
  8
L1
 10
990.143473
 20
176.661624
 30
0.0
 40
3.25
  0
CIRCLE
  5
7EF
  8
L2
 10
990.143473
 20
176.661624
 30
0.0
 40
5.424871
  0
ARC
  5
7F0
  8
L2
 10
990.143473
 20
176.661624
 30
0.0
 40
8.0
 50
10.0
 51
280.0
  0
CIRCLE
  5
7F1
  8
L1
 10
990.143473
 20
176.661624
 30
0.0
 40
8.325
  0
CIRCLE
  5
7F2
  8
L1
 10
990.143473
 20
176.661624
 30
0.0
 40
10.125
  0
ARC
  5
7F3
  8
L2
 10
990.143473
 20
176.661624
 30
0.0
 40
14.200352
 50
90.0
 51
180.0
  0
ARC
  5
7F4
  8
L1
 10
990.143473
 20
176.661624
 30
0.0
 40
12.0
 50
90.0
 51
180.0
  0
CIRCLE
  5
7F5
  8
L1
 10
990.143473
 20
176.661624
 30
0.0
 40
6.75
  0
LINE
  5
7F6
  8
11
 10
982.143473
 20
112.466638
 30
0.0
 11
998.143473
 21
112.466638
 31
0.0
  0
LINE
  5
7F7
  8
L1
 10
976.393473
 20
221.105054
 30
0.0
 11
976.393473
 21
236.218194
 31
0.0
  0
LINE
  5
7F8
  8
L1
 10
974.893473
 20
221.105054
 30
0.0
 11
974.893473
 21
236.218194
 31
0.0
  0
LINE
  5
7F9
  8
L1
 10
945.700043
 20
191.911624
 30
0.0
 11
930.586903
 21
191.911624
 31
0.0
  0
LINE
  5
7FA
  8
L1
 10
945.700043
 20
190.411624
 30
0.0
 11
930.586903
 21
190.411624
 31
0.0
  0
LINE
  5
7FB
  8
11
 10
897.259498
 20
111.966638
 30
0.0
 11
904.027447
 21
111.966638
 31
0.0
  0
LINE
  5
7FC
  8
11
 10
904.027447
 20
111.966638
 30
0.0
 11
904.893473
 21
110.466638
 31
0.0
  0
LINE
  5
7FD
  8
11
 10
897.259498
 20
111.966638
 30
0.0
 11
896.393473
 21
110.466638
 31
0.0
  0
LINE
  5
7FE
  8
11
 10
922.259498
 20
111.966638
 30
0.0
 11
921.393473
 21
110.466638
 31
0.0
  0
LINE
  5
7FF
  8
11
 10
922.259498
 20
111.966638
 30
0.0
 11
929.027447
 21
111.966638
 31
0.0
  0
LINE
  5
800
  8
11
 10
929.027447
 20
111.966638
 30
0.0
 11
929.893473
 21
110.466638
 31
0.0
  0
LINE
  5
801
  8
L1
 10
920.700043
 20
190.411624
 30
0.0
 11
905.586903
 21
190.411624
 31
0.0
  0
LINE
  5
802
  8
L1
 10
920.700043
 20
191.911624
 30
0.0
 11
905.586903
 21
191.911624
 31
0.0
  0
LINE
  5
803
  8
L1
 10
913.143473
 20
164.161624
 30
0.0
 11
906.143473
 21
164.161624
 31
0.0
  0
ARC
  5
804
  8
L1
 10
900.643473
 20
191.161624
 30
0.0
 40
5.0
 50
8.626927
 51
171.373073
  0
CIRCLE
  5
805
  8
L1
 10
900.643473
 20
191.161624
 30
0.0
 40
2.4
  0
ARC
  5
806
  8
L1
 10
900.643473
 20
191.161624
 30
0.0
 40
5.0
 50
188.626927
 51
351.373073
  0
LINE
  5
807
  8
L1
 10
906.143473
 20
164.161624
 30
0.0
 11
904.643473
 21
164.161624
 31
0.0
  0
LINE
  5
808
  8
L1
 10
904.643473
 20
164.161624
 30
0.0
 11
904.643473
 21
164.661624
 31
0.0
  0
ARC
  5
809
  8
L1
 10
925.643473
 20
191.161624
 30
0.0
 40
5.0
 50
8.626927
 51
171.373073
  0
CIRCLE
  5
80A
  8
L1
 10
925.643473
 20
191.161624
 30
0.0
 40
2.4
  0
ARC
  5
80B
  8
L1
 10
925.643473
 20
191.161624
 30
0.0
 40
5.0
 50
188.626927
 51
351.373073
  0
LINE
  5
80C
  8
L1
 10
921.124559
 20
171.299807
 30
0.0
 11
921.124559
 21
173.469807
 31
0.0
  0
LINE
  5
80D
  8
L1
 10
920.789371
 20
169.161624
 30
0.0
 11
920.789371
 21
167.161624
 31
0.0
  0
LINE
  5
80E
  8
L1
 10
914.643473
 20
164.161624
 30
0.0
 11
914.643473
 21
164.661624
 31
0.0
  0
LINE
  5
80F
  8
L1
 10
914.643473
 20
164.161624
 30
0.0
 11
913.143473
 21
164.161624
 31
0.0
  0
LINE
  5
810
  8
L1
 10
914.643473
 20
164.161624
 30
0.0
 11
913.143473
 21
164.161624
 31
0.0
  0
LINE
  5
811
  8
L1
 10
927.162386
 20
171.207685
 30
0.0
 11
927.162386
 21
173.377685
 31
0.0
  0
LINE
  5
812
  8
L1
 10
934.789371
 20
167.161624
 30
0.0
 11
927.497575
 21
167.161624
 31
0.0
  0
LINE
  5
813
  8
L1
 10
927.497575
 20
169.161624
 30
0.0
 11
927.497575
 21
167.161624
 31
0.0
  0
LINE
  5
814
  8
L1
 10
934.789371
 20
169.161624
 30
0.0
 11
934.789371
 21
167.161624
 31
0.0
  0
LINE
  5
815
  8
11
 10
947.259498
 20
111.966638
 30
0.0
 11
954.027447
 21
111.966638
 31
0.0
  0
LINE
  5
816
  8
11
 10
947.259498
 20
111.966638
 30
0.0
 11
946.393473
 21
110.466638
 31
0.0
  0
LINE
  5
817
  8
11
 10
954.027447
 20
111.966638
 30
0.0
 11
954.893473
 21
110.466638
 31
0.0
  0
LINE
  5
818
  8
11
 10
972.759498
 20
111.966638
 30
0.0
 11
979.527447
 21
111.966638
 31
0.0
  0
LINE
  5
819
  8
11
 10
973.777447
 20
111.966638
 30
0.0
 11
974.643473
 21
110.466638
 31
0.0
  0
LINE
  5
81A
  8
11
 10
962.509498
 20
111.966638
 30
0.0
 11
961.643473
 21
110.466638
 31
0.0
  0
LINE
  5
81B
  8
11
 10
962.509498
 20
111.966638
 30
0.0
 11
973.777447
 21
111.966638
 31
0.0
  0
LINE
  5
81C
  8
11
 10
979.527447
 20
111.966638
 30
0.0
 11
980.393473
 21
110.466638
 31
0.0
  0
LINE
  5
81D
  8
11
 10
982.143473
 20
112.466638
 30
0.0
 11
982.108563
 21
110.466638
 31
0.0
  0
LINE
  5
81E
  8
L1
 10
962.632573
 20
176.661624
 30
0.0
 11
957.384533
 21
176.661624
 31
0.0
  0
LINE
  5
81F
  8
L1
 10
962.789371
 20
167.161624
 30
0.0
 11
955.497575
 21
167.161624
 31
0.0
  0
CIRCLE
  5
820
  8
L1
 10
950.643473
 20
191.161624
 30
0.0
 40
2.4
  0
ARC
  5
821
  8
L1
 10
950.643473
 20
191.161624
 30
0.0
 40
5.0
 50
0.0
 51
171.373073
  0
ARC
  5
822
  8
L1
 10
950.643473
 20
191.161624
 30
0.0
 40
5.0
 50
188.626927
 51
0.0
  0
LINE
  5
823
  8
L1
 10
948.789371
 20
167.161624
 30
0.0
 11
941.497575
 21
167.161624
 31
0.0
  0
LINE
  5
824
  8
L1
 10
941.162386
 20
171.207685
 30
0.0
 11
941.162386
 21
173.377685
 31
0.0
  0
LINE
  5
825
  8
L1
 10
941.497575
 20
169.161624
 30
0.0
 11
941.497575
 21
167.161624
 31
0.0
  0
LINE
  5
826
  8
L1
 10
935.124559
 20
171.299807
 30
0.0
 11
935.124559
 21
173.469807
 31
0.0
  0
LINE
  5
827
  8
L1
 10
955.162386
 20
171.207685
 30
0.0
 11
955.162386
 21
173.377685
 31
0.0
  0
LINE
  5
828
  8
L1
 10
957.384533
 20
176.661624
 30
0.0
 11
957.384533
 21
181.661624
 31
0.0
  0
LINE
  5
829
  8
L1
 10
955.497575
 20
169.161624
 30
0.0
 11
955.497575
 21
167.161624
 31
0.0
  0
LINE
  5
82A
  8
L1
 10
949.124559
 20
171.299807
 30
0.0
 11
949.124559
 21
173.331624
 31
0.0
  0
LINE
  5
82B
  8
L1
 10
948.789371
 20
169.161624
 30
0.0
 11
948.789371
 21
167.161624
 31
0.0
  0
CIRCLE
  5
82C
  8
L1
 10
968.143473
 20
198.661624
 30
0.0
 40
6.0
  0
ARC
  5
82D
  8
L1
 10
972.743473
 20
176.561624
 30
0.0
 40
5.4
 50
270.0
 51
0.0
  0
LINE
  5
82E
  8
L1
 10
979.818473
 20
167.161624
 30
0.0
 11
969.497575
 21
167.161624
 31
0.0
  0
ARC
  5
82F
  8
L1
 10
972.618473
 20
176.561624
 30
0.0
 40
7.4
 50
270.0
 51
0.0
  0
LINE
  5
830
  8
L1
 10
969.162386
 20
171.207685
 30
0.0
 11
969.162386
 21
173.331624
 31
0.0
  0
LINE
  5
831
  8
L1
 10
969.497575
 20
169.161624
 30
0.0
 11
969.497575
 21
167.161624
 31
0.0
  0
LINE
  5
832
  8
L1
 10
963.124559
 20
171.299807
 30
0.0
 11
963.124559
 21
173.331624
 31
0.0
  0
LINE
  5
833
  8
L1
 10
962.789371
 20
169.161624
 30
0.0
 11
962.789371
 21
167.161624
 31
0.0
  0
LINE
  5
834
  8
L1
 10
985.861635
 20
183.771889
 30
0.0
 11
984.539295
 21
185.094229
 31
0.0
  0
LINE
  5
835
  8
L1
 10
985.861635
 20
169.55136
 30
0.0
 11
984.539295
 21
168.22902
 31
0.0
  0
LINE
  5
836
  8
L1
 10
983.033208
 20
172.379787
 30
0.0
 11
981.710868
 21
171.057447
 31
0.0
  0
ARC
  5
837
  8
L2
 10
974.553814
 20
176.811624
 30
0.0
 40
1.5
 50
270.0
 51
332.774096
  0
ARC
  5
838
  8
L1
 10
976.23877
 20
174.831624
 30
0.0
 40
1.5
 50
270.0
 51
333.666854
  0
LINE
  5
839
  8
L1
 10
980.018473
 20
176.661624
 30
0.0
 11
980.018473
 21
176.561624
 31
0.0
  0
LINE
  5
83A
  8
L1
 10
978.143473
 20
176.661624
 30
0.0
 11
978.143473
 21
176.561624
 31
0.0
  0
ARC
  5
83B
  8
L1
 10
979.818473
 20
167.361624
 30
0.0
 40
0.2
 50
270.0
 51
360.0
  0
ARC
  5
83C
  8
L1
 10
979.818473
 20
168.961624
 30
0.0
 40
0.2
 50
360.0
 51
90.0
  0
LINE
  5
83D
  8
L1
 10
980.018473
 20
168.961624
 30
0.0
 11
980.018473
 21
167.361624
 31
0.0
  0
LINE
  5
83E
  8
L1
 10
983.033208
 20
180.943462
 30
0.0
 11
981.710868
 21
182.265802
 31
0.0
  0
CIRCLE
  5
83F
  8
L1
 10
975.643473
 20
216.161624
 30
0.0
 40
2.4
  0
ARC
  5
840
  8
L1
 10
975.643473
 20
216.161624
 30
0.0
 40
5.0
 50
98.626927
 51
270.0
  0
CIRCLE
  5
841
  8
L1
 10
968.143473
 20
198.661624
 30
0.0
 40
3.0
  0
ARC
  5
842
  8
L1
 10
975.643473
 20
216.161624
 30
0.0
 40
5.0
 50
270.0
 51
81.373073
  0
LINE
  5
843
  8
L1
 10
976.393473
 20
271.105054
 30
0.0
 11
976.393473
 21
286.218194
 31
0.0
  0
LINE
  5
844
  8
L1
 10
974.893473
 20
271.105054
 30
0.0
 11
974.893473
 21
286.218194
 31
0.0
  0
LINE
  5
845
  8
L1
 10
974.893473
 20
246.105054
 30
0.0
 11
974.893473
 21
261.218194
 31
0.0
  0
LINE
  5
846
  8
L1
 10
976.393473
 20
246.105054
 30
0.0
 11
976.393473
 21
261.218194
 31
0.0
  0
CIRCLE
  5
847
  8
L1
 10
975.643473
 20
241.161624
 30
0.0
 40
2.4
  0
ARC
  5
848
  8
L1
 10
975.643473
 20
241.161624
 30
0.0
 40
5.0
 50
98.626927
 51
261.373073
  0
ARC
  5
849
  8
L1
 10
975.643473
 20
241.161624
 30
0.0
 40
5.0
 50
278.626927
 51
81.373073
  0
CIRCLE
  5
84A
  8
L1
 10
975.643473
 20
266.161624
 30
0.0
 40
2.4
  0
ARC
  5
84B
  8
L1
 10
975.643473
 20
266.161624
 30
0.0
 40
5.0
 50
98.626927
 51
261.373073
  0
ARC
  5
84C
  8
L1
 10
975.643473
 20
266.161624
 30
0.0
 40
5.0
 50
278.626927
 51
81.373073
  0
ARC
  5
84D
  8
L1
 10
975.643473
 20
316.161624
 30
0.0
 40
5.0
 50
98.626927
 51
261.373073
  0
ARC
  5
84E
  8
L1
 10
975.643473
 20
316.161624
 30
0.0
 40
5.0
 50
278.626927
 51
81.373073
  0
CIRCLE
  5
84F
  8
L1
 10
975.643473
 20
303.661624
 30
0.0
 40
2.4
  0
ARC
  5
850
  8
L1
 10
975.643473
 20
291.161624
 30
0.0
 40
5.0
 50
98.626927
 51
261.373073
  0
CIRCLE
  5
851
  8
L1
 10
975.643473
 20
291.161624
 30
0.0
 40
2.4
  0
ARC
  5
852
  8
L1
 10
975.643473
 20
303.661624
 30
0.0
 40
5.0
 50
98.626927
 51
261.373073
  0
LINE
  5
853
  8
L1
 10
976.393473
 20
308.605054
 30
0.0
 11
976.393473
 21
311.218194
 31
0.0
  0
LINE
  5
854
  8
L1
 10
974.893473
 20
308.605054
 30
0.0
 11
974.893473
 21
311.218194
 31
0.0
  0
LINE
  5
855
  8
L1
 10
974.893473
 20
296.105054
 30
0.0
 11
974.893473
 21
298.718194
 31
0.0
  0
LINE
  5
856
  8
L1
 10
976.393473
 20
296.105054
 30
0.0
 11
976.393473
 21
298.718194
 31
0.0
  0
ARC
  5
857
  8
L1
 10
975.643473
 20
291.161624
 30
0.0
 40
5.0
 50
278.626927
 51
81.373073
  0
ARC
  5
858
  8
L1
 10
975.643473
 20
303.661624
 30
0.0
 40
5.0
 50
278.626927
 51
81.373073
  0
CIRCLE
  5
859
  8
L1
 10
975.643473
 20
316.161624
 30
0.0
 40
2.4
  0
LINE
  5
85A
  8
L1
 10
976.393473
 20
321.105054
 30
0.0
 11
976.393473
 21
336.218194
 31
0.0
  0
LINE
  5
85B
  8
L1
 10
974.893473
 20
321.105054
 30
0.0
 11
974.893473
 21
336.218194
 31
0.0
  0
LINE
  5
85C
  8
L1
 10
999.643473
 20
218.015726
 30
0.0
 11
999.643473
 21
225.307522
 31
0.0
  0
LINE
  5
85D
  8
L2
 10
991.493473
 20
192.251283
 30
0.0
 11
991.493473
 21
303.661624
 31
0.0
  0
LINE
  5
85E
  8
L1
 10
993.473473
 20
190.566327
 30
0.0
 11
993.473473
 21
303.661624
 31
0.0
  0
LINE
  5
85F
  8
L1
 10
997.643473
 20
186.986453
 30
0.0
 11
997.643473
 21
303.661624
 31
0.0
  0
LINE
  5
860
  8
L1
 10
995.643473
 20
194.061624
 30
0.0
 11
995.643473
 21
303.661624
 31
0.0
  0
LINE
  5
861
  8
L1
 10
1002.143473
 20
176.661624
 30
0.0
 11
1002.143473
 21
303.661624
 31
0.0
  0
LINE
  5
862
  8
34
 10
1053.477701
 20
303.661624
 30
0.0
 11
1053.477701
 21
190.856448
 31
0.0
  0
LINE
  5
863
  8
31
 10
1049.477701
 20
303.661624
 30
0.0
 11
1049.477701
 21
166.936895
 31
0.0
  0
ARC
  5
864
  8
L1
 10
990.143473
 20
176.661624
 30
0.0
 40
12.0
 50
270.0
 51
0.0
  0
LINE
  5
865
  8
11
 10
998.143473
 20
112.466638
 30
0.0
 11
998.178383
 21
110.466638
 31
0.0
  0
LINE
  5
866
  8
L1
 10
999.643473
 20
186.986453
 30
0.0
 11
999.643473
 21
197.307522
 31
0.0
  0
ARC
  5
867
  8
L1
 10
990.243473
 20
194.061624
 30
0.0
 40
5.4
 50
296.333146
 51
0.0
  0
ARC
  5
868
  8
L1
 10
990.243473
 20
194.186453
 30
0.0
 40
7.4
 50
270.0
 51
0.0
  0
ARC
  5
869
  8
L1
 10
999.443473
 20
186.986453
 30
0.0
 40
0.2
 50
270.0
 51
0.0
  0
ARC
  5
86A
  8
L1
 10
997.843473
 20
186.986453
 30
0.0
 40
0.2
 50
180.0
 51
270.0
  0
LINE
  5
86B
  8
L1
 10
997.843473
 20
186.786453
 30
0.0
 11
999.443473
 21
186.786453
 31
0.0
  0
LINE
  5
86C
  8
L1
 10
994.425311
 20
183.771889
 30
0.0
 11
995.74765
 21
185.094229
 31
0.0
  0
ARC
  5
86D
  8
L2
 10
989.993473
 20
192.251283
 30
0.0
 40
1.5
 50
297.225904
 51
0.0
  0
ARC
  5
86E
  8
L1
 10
990.243473
 20
194.061624
 30
0.0
 40
5.4
 50
270.0
 51
296.333146
  0
LINE
  5
86F
  8
L1
 10
990.084549
 20
186.786453
 30
0.0
 11
990.243473
 21
186.786453
 31
0.0
  0
LINE
  5
870
  8
L1
 10
990.143473
 20
188.661624
 30
0.0
 11
990.243473
 21
188.661624
 31
0.0
  0
ARC
  5
871
  8
L1
 10
991.973473
 20
190.566327
 30
0.0
 40
1.5
 50
296.333146
 51
0.0
  0
LINE
  5
872
  8
L1
 10
994.425311
 20
169.55136
 30
0.0
 11
995.74765
 21
168.22902
 31
0.0
  0
LINE
  5
873
  8
L1
 10
997.253738
 20
172.379787
 30
0.0
 11
998.576077
 21
171.057447
 31
0.0
  0
LINE
  5
874
  8
L1
 10
997.253738
 20
180.943462
 30
0.0
 11
998.576077
 21
182.265802
 31
0.0
  0
LINE
  5
875
  8
L1
 10
997.643473
 20
218.015726
 30
0.0
 11
999.643473
 21
218.015726
 31
0.0
  0
LINE
  5
876
  8
L1
 10
999.643473
 20
204.015726
 30
0.0
 11
999.643473
 21
211.307522
 31
0.0
  0
LINE
  5
877
  8
L1
 10
997.643473
 20
211.307522
 30
0.0
 11
999.643473
 21
211.307522
 31
0.0
  0
LINE
  5
878
  8
L1
 10
997.643473
 20
197.307522
 30
0.0
 11
999.643473
 21
197.307522
 31
0.0
  0
LINE
  5
879
  8
L1
 10
997.643473
 20
204.015726
 30
0.0
 11
999.643473
 21
204.015726
 31
0.0
  0
LINE
  5
87A
  8
L1
 10
995.597413
 20
211.642711
 30
0.0
 11
993.427413
 21
211.642711
 31
0.0
  0
LINE
  5
87B
  8
L1
 10
995.50529
 20
217.680538
 30
0.0
 11
993.33529
 21
217.680538
 31
0.0
  0
LINE
  5
87C
  8
L1
 10
995.597413
 20
197.642711
 30
0.0
 11
993.427413
 21
197.642711
 31
0.0
  0
LINE
  5
87D
  8
L1
 10
995.50529
 20
203.680538
 30
0.0
 11
993.33529
 21
203.680538
 31
0.0
  0
LINE
  5
87E
  8
L1
 10
1002.643473
 20
213.911624
 30
0.0
 11
1002.643473
 21
211.961624
 31
0.0
  0
LINE
  5
87F
  8
L1
 10
1002.643473
 20
213.911624
 30
0.0
 11
1002.143473
 21
213.911624
 31
0.0
  0
LINE
  5
880
  8
L1
 10
1002.143473
 20
200.411624
 30
0.0
 11
1002.643473
 21
200.429085
 31
0.0
  0
LINE
  5
881
  8
L1
 10
1002.643473
 20
202.361624
 30
0.0
 11
1002.643473
 21
200.429085
 31
0.0
  0
LINE
  5
882
  8
L1
 10
1002.643473
 20
211.961624
 30
0.0
 11
1002.643473
 21
202.361624
 31
0.0
  0
LINE
  5
883
  8
31
 10
1047.977701
 20
194.545599
 30
0.0
 11
1047.977701
 21
187.77765
 31
0.0
  0
LINE
  5
884
  8
31
 10
1047.977701
 20
204.295599
 30
0.0
 11
1047.977701
 21
193.02765
 31
0.0
  0
ARC
  5
885
  8
34
 10
1055.477701
 20
190.856448
 30
0.0
 40
2.0
 50
180.0
 51
270.0
  0
LINE
  5
886
  8
31
 10
1047.977701
 20
187.77765
 30
0.0
 11
1049.477701
 21
186.911624
 31
0.0
  0
LINE
  5
887
  8
31
 10
1047.477701
 20
184.661624
 30
0.0
 11
1047.477701
 21
168.661624
 31
0.0
  0
LINE
  5
888
  8
31
 10
1047.477701
 20
184.661624
 30
0.0
 11
1049.477701
 21
184.696534
 31
0.0
  0
LINE
  5
889
  8
31
 10
1047.477701
 20
168.661624
 30
0.0
 11
1049.477701
 21
168.626714
 31
0.0
  0
LINE
  5
88A
  8
31
 10
1047.977701
 20
193.02765
 30
0.0
 11
1049.477701
 21
192.161624
 31
0.0
  0
LINE
  5
88B
  8
31
 10
1047.977701
 20
219.545599
 30
0.0
 11
1049.477701
 21
220.411624
 31
0.0
  0
LINE
  5
88C
  8
31
 10
1047.977701
 20
212.77765
 30
0.0
 11
1049.477701
 21
211.911624
 31
0.0
  0
LINE
  5
88D
  8
31
 10
1047.977701
 20
219.545599
 30
0.0
 11
1047.977701
 21
212.77765
 31
0.0
  0
LINE
  5
88E
  8
31
 10
1047.977701
 20
204.295599
 30
0.0
 11
1049.477701
 21
205.161624
 31
0.0
  0
LINE
  5
88F
  8
L1
 10
999.643473
 20
246.015726
 30
0.0
 11
999.643473
 21
303.661624
 31
0.0
  0
LINE
  5
890
  8
L1
 10
997.643473
 20
246.015726
 30
0.0
 11
999.643473
 21
246.015726
 31
0.0
  0
LINE
  5
891
  8
L1
 10
999.643473
 20
232.015726
 30
0.0
 11
999.643473
 21
239.307522
 31
0.0
  0
LINE
  5
892
  8
L1
 10
997.643473
 20
239.307522
 30
0.0
 11
999.643473
 21
239.307522
 31
0.0
  0
LINE
  5
893
  8
L1
 10
997.643473
 20
225.307522
 30
0.0
 11
999.643473
 21
225.307522
 31
0.0
  0
LINE
  5
894
  8
L1
 10
997.643473
 20
232.015726
 30
0.0
 11
999.643473
 21
232.015726
 31
0.0
  0
LINE
  5
895
  8
L1
 10
995.597413
 20
239.642711
 30
0.0
 11
993.427413
 21
239.642711
 31
0.0
  0
LINE
  5
896
  8
L1
 10
995.50529
 20
245.680538
 30
0.0
 11
993.33529
 21
245.680538
 31
0.0
  0
LINE
  5
897
  8
L1
 10
995.597413
 20
225.642711
 30
0.0
 11
993.427413
 21
225.642711
 31
0.0
  0
LINE
  5
898
  8
L1
 10
995.50529
 20
231.680538
 30
0.0
 11
993.33529
 21
231.680538
 31
0.0
  0
LINE
  5
899
  8
34
 10
1062.477701
 20
291.161624
 30
0.0
 11
1062.477701
 21
281.161624
 31
0.0
  0
LINE
  5
89A
  8
31
 10
1047.977701
 20
244.545599
 30
0.0
 11
1047.977701
 21
237.77765
 31
0.0
  0
LINE
  5
89B
  8
31
 10
1047.977701
 20
237.77765
 30
0.0
 11
1049.477701
 21
236.911624
 31
0.0
  0
LINE
  5
89C
  8
31
 10
1047.977701
 20
244.545599
 30
0.0
 11
1049.477701
 21
245.411624
 31
0.0
  0
LINE
  5
89D
  8
34
 10
1053.478043
 20
281.083086
 30
0.0
 11
1062.477701
 21
281.161624
 31
0.0
  0
LINE
  5
89E
  8
31
 10
1047.977701
 20
269.545599
 30
0.0
 11
1047.977701
 21
262.77765
 31
0.0
  0
LINE
  5
89F
  8
31
 10
1047.977701
 20
262.77765
 30
0.0
 11
1049.477701
 21
261.911624
 31
0.0
  0
LINE
  5
8A0
  8
31
 10
1047.977701
 20
269.545599
 30
0.0
 11
1049.477701
 21
270.411624
 31
0.0
  0
LINE
  5
8A1
  8
31
 10
1047.977701
 20
312.77765
 30
0.0
 11
1049.477701
 21
311.911624
 31
0.0
  0
LINE
  5
8A2
  8
34
 10
1053.478043
 20
296.183593
 30
0.0
 11
1062.477701
 21
296.105054
 31
0.0
  0
LINE
  5
8A3
  8
34
 10
1053.478043
 20
301.240163
 30
0.0
 11
1062.477701
 21
301.161624
 31
0.0
  0
LINE
  5
8A4
  8
34
 10
1053.478043
 20
286.139656
 30
0.0
 11
1062.477701
 21
286.218194
 31
0.0
  0
LINE
  5
8A5
  8
31
 10
1047.977701
 20
294.545599
 30
0.0
 11
1047.977701
 21
287.77765
 31
0.0
  0
LINE
  5
8A6
  8
31
 10
1047.977701
 20
287.77765
 30
0.0
 11
1049.477701
 21
286.911624
 31
0.0
  0
LINE
  5
8A7
  8
31
 10
1047.977701
 20
294.545599
 30
0.0
 11
1049.477701
 21
295.411624
 31
0.0
  0
LINE
  5
8A8
  8
34
 10
1062.477701
 20
291.161624
 30
0.0
 11
1062.477701
 21
301.161624
 31
0.0
  0
LINE
  5
8A9
  8
31
 10
1047.977701
 20
319.545599
 30
0.0
 11
1049.477701
 21
320.411624
 31
0.0
  0
LINE
  5
8AA
  8
31
 10
1047.977701
 20
312.77765
 30
0.0
 11
1047.977701
 21
319.545599
 31
0.0
  0
LINE
  5
8AB
  8
31
 10
1047.977701
 20
337.77765
 30
0.0
 11
1049.477701
 21
336.911624
 31
0.0
  0
LINE
  5
8AC
  8
L1
 10
895.700043
 20
415.411624
 30
0.0
 11
880.586903
 21
415.411624
 31
0.0
  0
LINE
  5
8AD
  8
L1
 10
895.700043
 20
416.911624
 30
0.0
 11
880.586903
 21
416.911624
 31
0.0
  0
LINE
  5
8AE
  8
L1
 10
920.789371
 20
440.161624
 30
0.0
 11
813.143473
 21
440.161624
 31
0.0
  0
LINE
  5
8AF
  8
L2
 10
974.553814
 20
432.011624
 30
0.0
 11
813.143473
 21
432.011624
 31
0.0
  0
LINE
  5
8B0
  8
L1
 10
976.23877
 20
433.991624
 30
0.0
 11
813.143473
 21
433.991624
 31
0.0
  0
LINE
  5
8B1
  8
L1
 10
990.143473
 20
442.661624
 30
0.0
 11
813.143473
 21
442.661624
 31
0.0
  0
LINE
  5
8B2
  8
L1
 10
979.818473
 20
438.161624
 30
0.0
 11
813.143473
 21
438.161624
 31
0.0
  0
LINE
  5
8B3
  8
L1
 10
972.743473
 20
436.161624
 30
0.0
 11
813.143473
 21
436.161624
 31
0.0
  0
LINE
  5
8B4
  8
21
 10
813.143473
 20
587.60661
 30
0.0
 11
990.143473
 21
587.60661
 31
0.0
  0
LINE
  5
8B5
  8
21
 10
813.143473
 20
589.89661
 30
0.0
 11
921.143473
 21
589.89661
 31
0.0
  0
LINE
  5
8B6
  8
21
 10
813.143473
 20
593.25661
 30
0.0
 11
921.143473
 21
593.25661
 31
0.0
  0
LINE
  5
8B7
  8
21
 10
813.143473
 20
496.85661
 30
0.0
 11
999.868202
 21
496.85661
 31
0.0
  0
LINE
  5
8B8
  8
21
 10
813.143473
 20
597.85661
 30
0.0
 11
996.660776
 21
597.85661
 31
0.0
  0
LINE
  5
8B9
  8
21
 10
813.143473
 20
594.85661
 30
0.0
 11
1002.143473
 21
594.85661
 31
0.0
  0
LINE
  5
8BA
  8
24
 10
833.695914
 20
500.85661
 30
0.0
 11
975.948649
 21
500.85661
 31
0.0
  0
LINE
  5
8BB
  8
21
 10
680.143473
 20
575.85661
 30
0.0
 11
680.143473
 21
587.60661
 31
0.0
  0
LINE
  5
8BC
  8
23
  6
DASHDOT
 10
813.143473
 20
490.075922
 30
0.0
 11
813.143473
 21
626.0
 31
0.0
  0
CIRCLE
  5
8BD
  8
L1
 10
775.643473
 20
416.161624
 30
0.0
 40
2.4
  0
ARC
  5
8BE
  8
L1
 10
775.643473
 20
416.161624
 30
0.0
 40
5.0
 50
188.626927
 51
351.373073
  0
ARC
  5
8BF
  8
L1
 10
775.643473
 20
416.161624
 30
0.0
 40
5.0
 50
8.626927
 51
171.373073
  0
LINE
  5
8C0
  8
L1
 10
705.497575
 20
440.161624
 30
0.0
 11
813.143473
 21
440.161624
 31
0.0
  0
LINE
  5
8C1
  8
21
 10
779.027447
 20
495.35661
 30
0.0
 11
772.259498
 21
495.35661
 31
0.0
  0
ARC
  5
8C2
  8
L1
 10
725.643473
 20
416.161624
 30
0.0
 40
5.0
 50
8.626927
 51
171.373073
  0
CIRCLE
  5
8C3
  8
L1
 10
725.643473
 20
416.161624
 30
0.0
 40
2.4
  0
ARC
  5
8C4
  8
L1
 10
725.643473
 20
416.161624
 30
0.0
 40
5.0
 50
188.626927
 51
351.373073
  0
LINE
  5
8C5
  8
L1
 10
691.497575
 20
440.161624
 30
0.0
 11
698.789371
 21
440.161624
 31
0.0
  0
ARC
  5
8C6
  8
L1
 10
700.643473
 20
416.161624
 30
0.0
 40
5.0
 50
188.626927
 51
351.373073
  0
ARC
  5
8C7
  8
L1
 10
700.643473
 20
416.161624
 30
0.0
 40
5.0
 50
8.626927
 51
171.373073
  0
LINE
  5
8C8
  8
L1
 10
680.586903
 20
415.411624
 30
0.0
 11
695.700043
 21
415.411624
 31
0.0
  0
LINE
  5
8C9
  8
L1
 10
680.586903
 20
416.911624
 30
0.0
 11
695.700043
 21
416.911624
 31
0.0
  0
CIRCLE
  5
8CA
  8
L1
 10
675.643473
 20
416.161624
 30
0.0
 40
2.4
  0
LINE
  5
8CB
  8
L1
 10
677.497575
 20
440.161624
 30
0.0
 11
684.789371
 21
440.161624
 31
0.0
  0
LINE
  5
8CC
  8
L1
 10
677.497575
 20
438.161624
 30
0.0
 11
677.497575
 21
440.161624
 31
0.0
  0
LINE
  5
8CD
  8
L1
 10
677.162386
 20
436.023442
 30
0.0
 11
677.162386
 21
433.853442
 31
0.0
  0
LINE
  5
8CE
  8
L1
 10
671.124559
 20
436.115564
 30
0.0
 11
671.124559
 21
433.945564
 31
0.0
  0
LINE
  5
8CF
  8
L1
 10
691.497575
 20
438.161624
 30
0.0
 11
691.497575
 21
440.161624
 31
0.0
  0
LINE
  5
8D0
  8
L1
 10
691.162386
 20
436.023442
 30
0.0
 11
691.162386
 21
433.853442
 31
0.0
  0
LINE
  5
8D1
  8
L1
 10
684.789371
 20
438.161624
 30
0.0
 11
684.789371
 21
440.161624
 31
0.0
  0
LINE
  5
8D2
  8
L1
 10
685.124559
 20
436.115564
 30
0.0
 11
685.124559
 21
433.945564
 31
0.0
  0
LINE
  5
8D3
  8
L1
 10
705.586903
 20
415.411624
 30
0.0
 11
720.700043
 21
415.411624
 31
0.0
  0
LINE
  5
8D4
  8
L1
 10
705.586903
 20
416.911624
 30
0.0
 11
720.700043
 21
416.911624
 31
0.0
  0
CIRCLE
  5
8D5
  8
L1
 10
700.643473
 20
416.161624
 30
0.0
 40
2.4
  0
LINE
  5
8D6
  8
L1
 10
705.497575
 20
438.161624
 30
0.0
 11
705.497575
 21
440.161624
 31
0.0
  0
LINE
  5
8D7
  8
L1
 10
705.162386
 20
436.023442
 30
0.0
 11
705.162386
 21
433.853442
 31
0.0
  0
LINE
  5
8D8
  8
L1
 10
698.789371
 20
438.161624
 30
0.0
 11
698.789371
 21
440.161624
 31
0.0
  0
LINE
  5
8D9
  8
L1
 10
699.124559
 20
436.115564
 30
0.0
 11
699.124559
 21
433.945564
 31
0.0
  0
LINE
  5
8DA
  8
L1
 10
720.143473
 20
443.161624
 30
0.0
 11
721.643473
 21
443.161624
 31
0.0
  0
LINE
  5
8DB
  8
L1
 10
721.643473
 20
443.161624
 30
0.0
 11
721.643473
 21
442.661624
 31
0.0
  0
LINE
  5
8DC
  8
L1
 10
711.643473
 20
443.161624
 30
0.0
 11
711.643473
 21
442.661624
 31
0.0
  0
LINE
  5
8DD
  8
L1
 10
711.643473
 20
443.161624
 30
0.0
 11
713.143473
 21
443.161624
 31
0.0
  0
LINE
  5
8DE
  8
L1
 10
711.643473
 20
443.161624
 30
0.0
 11
713.143473
 21
443.161624
 31
0.0
  0
LINE
  5
8DF
  8
L1
 10
713.143473
 20
443.161624
 30
0.0
 11
720.143473
 21
443.161624
 31
0.0
  0
CIRCLE
  5
8E0
  8
L1
 10
750.643473
 20
416.161624
 30
0.0
 40
2.4
  0
ARC
  5
8E1
  8
L1
 10
750.643473
 20
416.161624
 30
0.0
 40
5.0
 50
188.626927
 51
351.373073
  0
ARC
  5
8E2
  8
L1
 10
750.643473
 20
416.161624
 30
0.0
 40
5.0
 50
8.626927
 51
171.373073
  0
LINE
  5
8E3
  8
L1
 10
730.586903
 20
416.911624
 30
0.0
 11
745.700043
 21
416.911624
 31
0.0
  0
LINE
  5
8E4
  8
L1
 10
730.586903
 20
415.411624
 30
0.0
 11
745.700043
 21
415.411624
 31
0.0
  0
LINE
  5
8E5
  8
L1
 10
755.586903
 20
415.411624
 30
0.0
 11
770.700043
 21
415.411624
 31
0.0
  0
LINE
  5
8E6
  8
L1
 10
755.586903
 20
416.911624
 30
0.0
 11
770.700043
 21
416.911624
 31
0.0
  0
LINE
  5
8E7
  8
21
 10
729.027447
 20
495.35661
 30
0.0
 11
722.259498
 21
495.35661
 31
0.0
  0
LINE
  5
8E8
  8
21
 10
704.027447
 20
495.35661
 30
0.0
 11
697.259498
 21
495.35661
 31
0.0
  0
LINE
  5
8E9
  8
21
 10
679.027447
 20
495.35661
 30
0.0
 11
679.893473
 21
496.85661
 31
0.0
  0
LINE
  5
8EA
  8
21
 10
672.259498
 20
495.35661
 30
0.0
 11
671.393473
 21
496.85661
 31
0.0
  0
LINE
  5
8EB
  8
21
 10
679.027447
 20
495.35661
 30
0.0
 11
672.259498
 21
495.35661
 31
0.0
  0
LINE
  5
8EC
  8
21
 10
697.259498
 20
495.35661
 30
0.0
 11
696.393473
 21
496.85661
 31
0.0
  0
LINE
  5
8ED
  8
21
 10
704.027447
 20
495.35661
 30
0.0
 11
704.893473
 21
496.85661
 31
0.0
  0
LINE
  5
8EE
  8
21
 10
722.259498
 20
495.35661
 30
0.0
 11
721.393473
 21
496.85661
 31
0.0
  0
ARC
  5
8EF
  8
21
 10
678.143473
 20
575.85661
 30
0.0
 40
2.0
 50
270.0
 51
0.0
  0
LINE
  5
8F0
  8
21
 10
754.027447
 20
495.35661
 30
0.0
 11
747.259498
 21
495.35661
 31
0.0
  0
LINE
  5
8F1
  8
24
 10
750.643473
 20
509.85661
 30
0.0
 11
740.643473
 21
509.85661
 31
0.0
  0
LINE
  5
8F2
  8
21
 10
729.027447
 20
495.35661
 30
0.0
 11
729.893473
 21
496.85661
 31
0.0
  0
LINE
  5
8F3
  8
21
 10
747.259498
 20
495.35661
 30
0.0
 11
746.393473
 21
496.85661
 31
0.0
  0
LINE
  5
8F4
  8
24
 10
745.621504
 20
500.856953
 30
0.0
 11
745.700043
 21
509.85661
 31
0.0
  0
LINE
  5
8F5
  8
24
 10
740.564934
 20
500.856953
 30
0.0
 11
740.643473
 21
509.85661
 31
0.0
  0
LINE
  5
8F6
  8
21
 10
754.027447
 20
495.35661
 30
0.0
 11
754.893473
 21
496.85661
 31
0.0
  0
LINE
  5
8F7
  8
24
 10
760.722012
 20
500.856953
 30
0.0
 11
760.643473
 21
509.85661
 31
0.0
  0
LINE
  5
8F8
  8
24
 10
755.665442
 20
500.856953
 30
0.0
 11
755.586903
 21
509.85661
 31
0.0
  0
LINE
  5
8F9
  8
24
 10
750.643473
 20
509.85661
 30
0.0
 11
760.643473
 21
509.85661
 31
0.0
  0
LINE
  5
8FA
  8
21
 10
772.259498
 20
495.35661
 30
0.0
 11
771.393473
 21
496.85661
 31
0.0
  0
ARC
  5
8FB
  8
L1
 10
825.643473
 20
416.161624
 30
0.0
 40
5.0
 50
188.626927
 51
351.373073
  0
ARC
  5
8FC
  8
L1
 10
825.643473
 20
416.161624
 30
0.0
 40
5.0
 50
8.626927
 51
171.373073
  0
ARC
  5
8FD
  8
L1
 10
800.643473
 20
416.161624
 30
0.0
 40
5.0
 50
188.626927
 51
351.373073
  0
CIRCLE
  5
8FE
  8
L1
 10
800.643473
 20
416.161624
 30
0.0
 40
2.4
  0
ARC
  5
8FF
  8
L1
 10
800.643473
 20
416.161624
 30
0.0
 40
5.0
 50
8.626927
 51
171.373073
  0
LINE
  5
900
  8
L1
 10
780.586903
 20
415.411624
 30
0.0
 11
795.700043
 21
415.411624
 31
0.0
  0
LINE
  5
901
  8
L1
 10
780.586903
 20
416.911624
 30
0.0
 11
795.700043
 21
416.911624
 31
0.0
  0
ARC
  5
902
  8
L1
 10
813.143473
 20
416.161624
 30
0.0
 40
5.0
 50
188.626927
 51
351.373073
  0
ARC
  5
903
  8
L1
 10
813.143473
 20
416.161624
 30
0.0
 40
5.0
 50
8.626927
 51
171.373073
  0
CIRCLE
  5
904
  8
L1
 10
813.143473
 20
416.161624
 30
0.0
 40
2.4
  0
LINE
  5
905
  8
L1
 10
805.586903
 20
416.911624
 30
0.0
 11
808.200043
 21
416.911624
 31
0.0
  0
LINE
  5
906
  8
L1
 10
805.586903
 20
415.411624
 30
0.0
 11
808.200043
 21
415.411624
 31
0.0
  0
LINE
  5
907
  8
L1
 10
805.586903
 20
416.911624
 30
0.0
 11
808.200043
 21
416.911624
 31
0.0
  0
LINE
  5
908
  8
L1
 10
805.586903
 20
415.411624
 30
0.0
 11
808.200043
 21
415.411624
 31
0.0
  0
CIRCLE
  5
909
  8
L1
 10
825.643473
 20
416.161624
 30
0.0
 40
2.4
  0
LINE
  5
90A
  8
L1
 10
820.700043
 20
415.411624
 30
0.0
 11
818.086903
 21
415.411624
 31
0.0
  0
LINE
  5
90B
  8
L1
 10
820.700043
 20
416.911624
 30
0.0
 11
818.086903
 21
416.911624
 31
0.0
  0
LINE
  5
90C
  8
L1
 10
870.700043
 20
416.911624
 30
0.0
 11
855.586903
 21
416.911624
 31
0.0
  0
LINE
  5
90D
  8
L1
 10
870.700043
 20
415.411624
 30
0.0
 11
855.586903
 21
415.411624
 31
0.0
  0
LINE
  5
90E
  8
L1
 10
845.700043
 20
416.911624
 30
0.0
 11
830.586903
 21
416.911624
 31
0.0
  0
LINE
  5
90F
  8
L1
 10
845.700043
 20
415.411624
 30
0.0
 11
830.586903
 21
415.411624
 31
0.0
  0
CIRCLE
  5
910
  8
L1
 10
850.643473
 20
416.161624
 30
0.0
 40
2.4
  0
ARC
  5
911
  8
L1
 10
850.643473
 20
416.161624
 30
0.0
 40
5.0
 50
188.626927
 51
351.373073
  0
ARC
  5
912
  8
L1
 10
850.643473
 20
416.161624
 30
0.0
 40
5.0
 50
8.626927
 51
171.373073
  0
ARC
  5
913
  8
L1
 10
875.643473
 20
416.161624
 30
0.0
 40
5.0
 50
188.626927
 51
351.373073
  0
CIRCLE
  5
914
  8
L1
 10
875.643473
 20
416.161624
 30
0.0
 40
2.4
  0
ARC
  5
915
  8
L1
 10
875.643473
 20
416.161624
 30
0.0
 40
5.0
 50
8.626927
 51
171.373073
  0
LINE
  5
916
  8
21
 10
779.027447
 20
495.35661
 30
0.0
 11
779.893473
 21
496.85661
 31
0.0
  0
LINE
  5
917
  8
21
 10
854.027447
 20
495.35661
 30
0.0
 11
854.893473
 21
496.85661
 31
0.0
  0
LINE
  5
918
  8
21
 10
847.259498
 20
495.35661
 30
0.0
 11
854.027447
 21
495.35661
 31
0.0
  0
LINE
  5
919
  8
21
 10
872.259498
 20
495.35661
 30
0.0
 11
871.393473
 21
496.85661
 31
0.0
  0
LINE
  5
91A
  8
21
 10
879.027447
 20
495.35661
 30
0.0
 11
879.893473
 21
496.85661
 31
0.0
  0
LINE
  5
91B
  8
21
 10
872.259498
 20
495.35661
 30
0.0
 11
879.027447
 21
495.35661
 31
0.0
  0
LINE
  5
91C
  8
21
 10
813.143473
 20
593.25661
 30
0.0
 11
705.143473
 21
593.25661
 31
0.0
  0
LINE
  5
91D
  8
21
 10
813.143473
 20
589.89661
 30
0.0
 11
705.143473
 21
589.89661
 31
0.0
  0
LINE
  5
91E
  8
21
 10
699.143473
 20
589.89661
 30
0.0
 11
691.143473
 21
589.89661
 31
0.0
  0
LINE
  5
91F
  8
21
 10
699.143473
 20
593.25661
 30
0.0
 11
691.143473
 21
593.25661
 31
0.0
  0
LINE
  5
920
  8
21
 10
685.143473
 20
589.89661
 30
0.0
 11
678.143473
 21
589.89661
 31
0.0
  0
LINE
  5
921
  8
21
 10
685.143473
 20
593.25661
 30
0.0
 11
678.143473
 21
593.25661
 31
0.0
  0
LINE
  5
922
  8
21
 10
678.143473
 20
589.89661
 30
0.0
 11
678.143473
 21
593.25661
 31
0.0
  0
LINE
  5
923
  8
21
 10
672.143473
 20
589.89661
 30
0.0
 11
672.143473
 21
593.25661
 31
0.0
  0
LINE
  5
924
  8
21
 10
691.143473
 20
589.89661
 30
0.0
 11
691.143473
 21
593.25661
 31
0.0
  0
LINE
  5
925
  8
21
 10
685.143473
 20
589.89661
 30
0.0
 11
685.143473
 21
593.25661
 31
0.0
  0
LINE
  5
926
  8
21
 10
705.143473
 20
589.89661
 30
0.0
 11
705.143473
 21
593.25661
 31
0.0
  0
LINE
  5
927
  8
21
 10
699.143473
 20
589.89661
 30
0.0
 11
699.143473
 21
593.25661
 31
0.0
  0
LINE
  5
928
  8
21
 10
999.868202
 20
496.85661
 30
0.0
 11
1002.143473
 21
594.85661
 31
0.0
  0
LINE
  5
929
  8
21
 10
946.143473
 20
575.85661
 30
0.0
 11
946.143473
 21
587.60661
 31
0.0
  0
LINE
  5
92A
  8
21
 10
978.143473
 20
575.85661
 30
0.0
 11
978.143473
 21
587.60661
 31
0.0
  0
LINE
  5
92B
  8
21
 10
980.418744
 20
496.85661
 30
0.0
 11
979.811796
 21
587.60661
 31
0.0
  0
LINE
  5
92C
  8
24
 10
977.948649
 20
597.85661
 30
0.0
 11
977.948649
 21
502.85661
 31
0.0
  0
CIRCLE
  5
92D
  8
L1
 10
990.143473
 20
430.661624
 30
0.0
 40
3.25
  0
CIRCLE
  5
92E
  8
L1
 10
990.143473
 20
430.661624
 30
0.0
 40
6.75
  0
ARC
  5
92F
  8
L2
 10
990.143473
 20
430.661624
 30
0.0
 40
8.0
 50
10.0
 51
280.0
  0
CIRCLE
  5
930
  8
L1
 10
990.143473
 20
430.661624
 30
0.0
 40
8.325
  0
CIRCLE
  5
931
  8
L1
 10
990.143473
 20
430.661624
 30
0.0
 40
10.125
  0
CIRCLE
  5
932
  8
L2
 10
990.143473
 20
430.661624
 30
0.0
 40
5.424871
  0
ARC
  5
933
  8
L2
 10
990.143473
 20
430.661624
 30
0.0
 40
14.200352
 50
180.0
 51
270.0
  0
ARC
  5
934
  8
L1
 10
990.143473
 20
430.661624
 30
0.0
 40
12.0
 50
180.0
 51
270.0
  0
LINE
  5
935
  8
21
 10
982.143473
 20
494.85661
 30
0.0
 11
998.143473
 21
494.85661
 31
0.0
  0
LINE
  5
936
  8
L1
 10
945.700043
 20
416.911624
 30
0.0
 11
930.586903
 21
416.911624
 31
0.0
  0
LINE
  5
937
  8
L1
 10
945.700043
 20
415.411624
 30
0.0
 11
930.586903
 21
415.411624
 31
0.0
  0
LINE
  5
938
  8
L1
 10
913.143473
 20
443.161624
 30
0.0
 11
906.143473
 21
443.161624
 31
0.0
  0
LINE
  5
939
  8
L1
 10
920.700043
 20
416.911624
 30
0.0
 11
905.586903
 21
416.911624
 31
0.0
  0
LINE
  5
93A
  8
L1
 10
920.700043
 20
415.411624
 30
0.0
 11
905.586903
 21
415.411624
 31
0.0
  0
ARC
  5
93B
  8
L1
 10
900.643473
 20
416.161624
 30
0.0
 40
5.0
 50
188.626927
 51
351.373073
  0
CIRCLE
  5
93C
  8
L1
 10
900.643473
 20
416.161624
 30
0.0
 40
2.4
  0
ARC
  5
93D
  8
L1
 10
900.643473
 20
416.161624
 30
0.0
 40
5.0
 50
8.626927
 51
171.373073
  0
LINE
  5
93E
  8
L1
 10
904.643473
 20
443.161624
 30
0.0
 11
904.643473
 21
442.661624
 31
0.0
  0
LINE
  5
93F
  8
L1
 10
906.143473
 20
443.161624
 30
0.0
 11
904.643473
 21
443.161624
 31
0.0
  0
ARC
  5
940
  8
L1
 10
925.643473
 20
416.161624
 30
0.0
 40
5.0
 50
188.626927
 51
351.373073
  0
ARC
  5
941
  8
L1
 10
925.643473
 20
416.161624
 30
0.0
 40
5.0
 50
8.626927
 51
171.373073
  0
CIRCLE
  5
942
  8
L1
 10
925.643473
 20
416.161624
 30
0.0
 40
2.4
  0
LINE
  5
943
  8
L1
 10
920.789371
 20
438.161624
 30
0.0
 11
920.789371
 21
440.161624
 31
0.0
  0
LINE
  5
944
  8
L1
 10
914.643473
 20
443.161624
 30
0.0
 11
914.643473
 21
442.661624
 31
0.0
  0
LINE
  5
945
  8
L1
 10
921.124559
 20
436.023442
 30
0.0
 11
921.124559
 21
433.853442
 31
0.0
  0
LINE
  5
946
  8
L1
 10
914.643473
 20
443.161624
 30
0.0
 11
913.143473
 21
443.161624
 31
0.0
  0
LINE
  5
947
  8
L1
 10
914.643473
 20
443.161624
 30
0.0
 11
913.143473
 21
443.161624
 31
0.0
  0
LINE
  5
948
  8
L1
 10
934.789371
 20
440.161624
 30
0.0
 11
927.497575
 21
440.161624
 31
0.0
  0
LINE
  5
949
  8
L1
 10
934.789371
 20
438.161624
 30
0.0
 11
934.789371
 21
440.161624
 31
0.0
  0
LINE
  5
94A
  8
L1
 10
927.497575
 20
438.161624
 30
0.0
 11
927.497575
 21
440.161624
 31
0.0
  0
LINE
  5
94B
  8
L1
 10
927.162386
 20
436.115564
 30
0.0
 11
927.162386
 21
433.945564
 31
0.0
  0
LINE
  5
94C
  8
L1
 10
974.893473
 20
386.218194
 30
0.0
 11
974.893473
 21
371.105054
 31
0.0
  0
LINE
  5
94D
  8
L1
 10
976.393473
 20
386.218194
 30
0.0
 11
976.393473
 21
371.105054
 31
0.0
  0
ARC
  5
94E
  8
L1
 10
975.643473
 20
366.161624
 30
0.0
 40
5.0
 50
98.626927
 51
261.373073
  0
CIRCLE
  5
94F
  8
L1
 10
975.643473
 20
366.161624
 30
0.0
 40
2.4
  0
ARC
  5
950
  8
L1
 10
975.643473
 20
366.161624
 30
0.0
 40
5.0
 50
278.626927
 51
81.373073
  0
LINE
  5
951
  8
L1
 10
974.893473
 20
346.105054
 30
0.0
 11
974.893473
 21
361.218194
 31
0.0
  0
LINE
  5
952
  8
L1
 10
976.393473
 20
346.105054
 30
0.0
 11
976.393473
 21
361.218194
 31
0.0
  0
CIRCLE
  5
953
  8
L1
 10
975.643473
 20
391.161624
 30
0.0
 40
2.4
  0
ARC
  5
954
  8
L1
 10
975.643473
 20
391.161624
 30
0.0
 40
5.0
 50
90.0
 51
261.373073
  0
ARC
  5
955
  8
L1
 10
975.643473
 20
391.161624
 30
0.0
 40
5.0
 50
278.626927
 51
90.0
  0
LINE
  5
956
  8
L1
 10
962.789371
 20
440.161624
 30
0.0
 11
955.497575
 21
440.161624
 31
0.0
  0
ARC
  5
957
  8
L1
 10
950.643473
 20
416.161624
 30
0.0
 40
5.0
 50
188.626927
 51
360.0
  0
ARC
  5
958
  8
L1
 10
950.643473
 20
416.161624
 30
0.0
 40
5.0
 50
360.0
 51
171.373073
  0
CIRCLE
  5
959
  8
L1
 10
950.643473
 20
416.161624
 30
0.0
 40
2.4
  0
LINE
  5
95A
  8
L1
 10
948.789371
 20
440.161624
 30
0.0
 11
941.497575
 21
440.161624
 31
0.0
  0
LINE
  5
95B
  8
L1
 10
941.497575
 20
438.161624
 30
0.0
 11
941.497575
 21
440.161624
 31
0.0
  0
LINE
  5
95C
  8
L1
 10
941.162386
 20
436.115564
 30
0.0
 11
941.162386
 21
433.945564
 31
0.0
  0
LINE
  5
95D
  8
L1
 10
935.124559
 20
436.023442
 30
0.0
 11
935.124559
 21
433.853442
 31
0.0
  0
LINE
  5
95E
  8
L1
 10
955.497575
 20
438.161624
 30
0.0
 11
955.497575
 21
440.161624
 31
0.0
  0
LINE
  5
95F
  8
L1
 10
955.162386
 20
436.115564
 30
0.0
 11
955.162386
 21
433.945564
 31
0.0
  0
LINE
  5
960
  8
L1
 10
948.789371
 20
438.161624
 30
0.0
 11
948.789371
 21
440.161624
 31
0.0
  0
LINE
  5
961
  8
L1
 10
949.124559
 20
436.023442
 30
0.0
 11
949.124559
 21
433.853442
 31
0.0
  0
CIRCLE
  5
962
  8
L1
 10
968.143473
 20
408.595057
 30
0.0
 40
3.0
  0
CIRCLE
  5
963
  8
L1
 10
968.143473
 20
408.595057
 30
0.0
 40
6.0
  0
LINE
  5
964
  8
L1
 10
985.861635
 20
423.55136
 30
0.0
 11
984.539295
 21
422.22902
 31
0.0
  0
LINE
  5
965
  8
L1
 10
983.033208
 20
426.379787
 30
0.0
 11
981.710868
 21
425.057447
 31
0.0
  0
ARC
  5
966
  8
L1
 10
972.743473
 20
430.761624
 30
0.0
 40
5.4
 50
0.0
 51
90.0
  0
LINE
  5
967
  8
L1
 10
979.818473
 20
440.161624
 30
0.0
 11
969.497575
 21
440.161624
 31
0.0
  0
ARC
  5
968
  8
L1
 10
972.618473
 20
430.761624
 30
0.0
 40
7.4
 50
360.0
 51
90.0
  0
LINE
  5
969
  8
L1
 10
969.497575
 20
438.161624
 30
0.0
 11
969.497575
 21
440.161624
 31
0.0
  0
LINE
  5
96A
  8
L1
 10
969.162386
 20
436.115564
 30
0.0
 11
969.162386
 21
433.945564
 31
0.0
  0
LINE
  5
96B
  8
L1
 10
962.789371
 20
438.161624
 30
0.0
 11
962.789371
 21
440.161624
 31
0.0
  0
LINE
  5
96C
  8
L1
 10
963.124559
 20
436.023442
 30
0.0
 11
963.124559
 21
433.853442
 31
0.0
  0
LINE
  5
96D
  8
L1
 10
985.861635
 20
437.771889
 30
0.0
 11
984.539295
 21
439.094229
 31
0.0
  0
LINE
  5
96E
  8
L1
 10
983.033208
 20
434.943462
 30
0.0
 11
981.710868
 21
436.265802
 31
0.0
  0
ARC
  5
96F
  8
L1
 10
979.818473
 20
439.961624
 30
0.0
 40
0.2
 50
0.0
 51
90.0
  0
ARC
  5
970
  8
L1
 10
979.818473
 20
438.361624
 30
0.0
 40
0.2
 50
270.0
 51
0.0
  0
LINE
  5
971
  8
L1
 10
980.018473
 20
438.361624
 30
0.0
 11
980.018473
 21
439.961624
 31
0.0
  0
ARC
  5
972
  8
L1
 10
976.23877
 20
432.491624
 30
0.0
 40
1.5
 50
26.333146
 51
90.0
  0
LINE
  5
973
  8
L1
 10
978.143473
 20
430.661624
 30
0.0
 11
978.143473
 21
430.761624
 31
0.0
  0
LINE
  5
974
  8
L1
 10
980.018473
 20
430.661624
 30
0.0
 11
980.018473
 21
430.761624
 31
0.0
  0
LINE
  5
975
  8
21
 10
897.259498
 20
495.35661
 30
0.0
 11
896.393473
 21
496.85661
 31
0.0
  0
LINE
  5
976
  8
21
 10
904.027447
 20
495.35661
 30
0.0
 11
904.893473
 21
496.85661
 31
0.0
  0
LINE
  5
977
  8
21
 10
897.259498
 20
495.35661
 30
0.0
 11
904.027447
 21
495.35661
 31
0.0
  0
LINE
  5
978
  8
21
 10
922.259498
 20
495.35661
 30
0.0
 11
921.393473
 21
496.85661
 31
0.0
  0
LINE
  5
979
  8
21
 10
929.027447
 20
495.35661
 30
0.0
 11
929.893473
 21
496.85661
 31
0.0
  0
LINE
  5
97A
  8
21
 10
922.259498
 20
495.35661
 30
0.0
 11
929.027447
 21
495.35661
 31
0.0
  0
LINE
  5
97B
  8
21
 10
947.259498
 20
495.35661
 30
0.0
 11
954.027447
 21
495.35661
 31
0.0
  0
LINE
  5
97C
  8
21
 10
947.259498
 20
495.35661
 30
0.0
 11
946.393473
 21
496.85661
 31
0.0
  0
LINE
  5
97D
  8
21
 10
954.027447
 20
495.35661
 30
0.0
 11
954.893473
 21
496.85661
 31
0.0
  0
LINE
  5
97E
  8
21
 10
973.777447
 20
495.35661
 30
0.0
 11
974.643473
 21
496.85661
 31
0.0
  0
LINE
  5
97F
  8
21
 10
972.759498
 20
495.35661
 30
0.0
 11
979.527447
 21
495.35661
 31
0.0
  0
LINE
  5
980
  8
21
 10
962.509498
 20
495.35661
 30
0.0
 11
973.777447
 21
495.35661
 31
0.0
  0
LINE
  5
981
  8
21
 10
962.509498
 20
495.35661
 30
0.0
 11
961.643473
 21
496.85661
 31
0.0
  0
LINE
  5
982
  8
21
 10
982.143473
 20
494.85661
 30
0.0
 11
982.108563
 21
496.85661
 31
0.0
  0
LINE
  5
983
  8
21
 10
979.527447
 20
495.35661
 30
0.0
 11
980.393473
 21
496.85661
 31
0.0
  0
ARC
  5
984
  8
24
 10
975.948649
 20
502.85661
 30
0.0
 40
2.0
 50
270.0
 51
0.0
  0
LINE
  5
985
  8
21
 10
948.143473
 20
573.85661
 30
0.0
 11
976.143473
 21
573.85661
 31
0.0
  0
ARC
  5
986
  8
21
 10
948.143473
 20
575.85661
 30
0.0
 40
2.0
 50
180.0
 51
270.0
  0
ARC
  5
987
  8
21
 10
976.143473
 20
575.85661
 30
0.0
 40
2.0
 50
270.0
 51
0.0
  0
LINE
  5
988
  8
L1
 10
999.643473
 20
403.307522
 30
0.0
 11
999.643473
 21
396.015726
 31
0.0
  0
LINE
  5
989
  8
L1
 10
999.643473
 20
403.307522
 30
0.0
 11
999.643473
 21
396.015726
 31
0.0
  0
LINE
  5
98A
  8
L1
 10
1002.643473
 20
395.361624
 30
0.0
 11
1002.643473
 21
404.961624
 31
0.0
  0
LINE
  5
98B
  8
L1
 10
999.643473
 20
375.307522
 30
0.0
 11
999.643473
 21
368.015726
 31
0.0
  0
LINE
  5
98C
  8
L1
 10
999.643473
 20
375.307522
 30
0.0
 11
999.643473
 21
368.015726
 31
0.0
  0
LINE
  5
98D
  8
L1
 10
997.643473
 20
361.307522
 30
0.0
 11
999.643473
 21
361.307522
 31
0.0
  0
LINE
  5
98E
  8
L1
 10
997.643473
 20
368.015726
 30
0.0
 11
999.643473
 21
368.015726
 31
0.0
  0
LINE
  5
98F
  8
L1
 10
995.597413
 20
367.680538
 30
0.0
 11
993.427413
 21
367.680538
 31
0.0
  0
LINE
  5
990
  8
L1
 10
995.50529
 20
361.642711
 30
0.0
 11
993.33529
 21
361.642711
 31
0.0
  0
LINE
  5
991
  8
L1
 10
997.643473
 20
396.015726
 30
0.0
 11
999.643473
 21
396.015726
 31
0.0
  0
LINE
  5
992
  8
L1
 10
999.643473
 20
389.307522
 30
0.0
 11
999.643473
 21
382.015726
 31
0.0
  0
LINE
  5
993
  8
L1
 10
999.643473
 20
389.307522
 30
0.0
 11
999.643473
 21
382.015726
 31
0.0
  0
LINE
  5
994
  8
L1
 10
997.643473
 20
389.307522
 30
0.0
 11
999.643473
 21
389.307522
 31
0.0
  0
LINE
  5
995
  8
L1
 10
997.643473
 20
375.307522
 30
0.0
 11
999.643473
 21
375.307522
 31
0.0
  0
LINE
  5
996
  8
L1
 10
997.643473
 20
382.015726
 30
0.0
 11
999.643473
 21
382.015726
 31
0.0
  0
LINE
  5
997
  8
L1
 10
995.597413
 20
395.680538
 30
0.0
 11
993.427413
 21
395.680538
 31
0.0
  0
LINE
  5
998
  8
L1
 10
995.50529
 20
389.642711
 30
0.0
 11
993.33529
 21
389.642711
 31
0.0
  0
LINE
  5
999
  8
L1
 10
995.597413
 20
381.680538
 30
0.0
 11
993.427413
 21
381.680538
 31
0.0
  0
LINE
  5
99A
  8
L1
 10
995.50529
 20
375.642711
 30
0.0
 11
993.33529
 21
375.642711
 31
0.0
  0
LINE
  5
99B
  8
L1
 10
1002.643473
 20
393.411624
 30
0.0
 11
1002.143473
 21
393.411624
 31
0.0
  0
LINE
  5
99C
  8
L1
 10
1002.643473
 20
393.411624
 30
0.0
 11
1002.643473
 21
395.361624
 31
0.0
  0
LINE
  5
99D
  8
L1
 10
994.425311
 20
423.55136
 30
0.0
 11
995.74765
 21
422.22902
 31
0.0
  0
LINE
  5
99E
  8
L1
 10
997.253738
 20
426.379787
 30
0.0
 11
998.576077
 21
425.057447
 31
0.0
  0
LINE
  5
99F
  8
L1
 10
997.843473
 20
420.536796
 30
0.0
 11
999.443473
 21
420.536796
 31
0.0
  0
ARC
  5
9A0
  8
L1
 10
997.843473
 20
420.336796
 30
0.0
 40
0.2
 50
90.0
 51
180.0
  0
ARC
  5
9A1
  8
L1
 10
999.443473
 20
420.336796
 30
0.0
 40
0.2
 50
0.0
 51
90.0
  0
LINE
  5
9A2
  8
L1
 10
990.084549
 20
420.536796
 30
0.0
 11
990.243473
 21
420.536796
 31
0.0
  0
LINE
  5
9A3
  8
L1
 10
997.643473
 20
410.015726
 30
0.0
 11
999.643473
 21
410.015726
 31
0.0
  0
LINE
  5
9A4
  8
L1
 10
997.643473
 20
403.307522
 30
0.0
 11
999.643473
 21
403.307522
 31
0.0
  0
ARC
  5
9A5
  8
L2
 10
989.993473
 20
415.071966
 30
0.0
 40
1.5
 50
0.0
 51
62.774096
  0
ARC
  5
9A6
  8
L1
 10
990.243473
 20
413.261624
 30
0.0
 40
5.4
 50
84.113158
 51
90.0
  0
LINE
  5
9A7
  8
L1
 10
990.143473
 20
418.661624
 30
0.0
 11
990.243473
 21
418.661624
 31
0.0
  0
LINE
  5
9A8
  8
L1
 10
995.597413
 20
409.680538
 30
0.0
 11
993.427413
 21
409.680538
 31
0.0
  0
ARC
  5
9A9
  8
L1
 10
991.973473
 20
416.756921
 30
0.0
 40
1.5
 50
0.0
 51
63.666854
  0
LINE
  5
9AA
  8
L1
 10
995.50529
 20
403.642711
 30
0.0
 11
993.33529
 21
403.642711
 31
0.0
  0
LINE
  5
9AB
  8
L1
 10
999.643473
 20
420.336796
 30
0.0
 11
999.643473
 21
410.015726
 31
0.0
  0
ARC
  5
9AC
  8
L1
 10
990.243473
 20
413.261624
 30
0.0
 40
5.4
 50
0.0
 51
84.113158
  0
ARC
  5
9AD
  8
L1
 10
990.243473
 20
413.136796
 30
0.0
 40
7.4
 50
0.0
 51
90.0
  0
LINE
  5
9AE
  8
L1
 10
1002.643473
 20
406.894164
 30
0.0
 11
1002.143473
 21
406.894164
 31
0.0
  0
LINE
  5
9AF
  8
L1
 10
1002.643473
 20
404.961624
 30
0.0
 11
1002.643473
 21
406.894164
 31
0.0
  0
ARC
  5
9B0
  8
L1
 10
990.143473
 20
430.661624
 30
0.0
 40
12.0
 50
0.0
 51
90.0
  0
LINE
  5
9B1
  8
L1
 10
994.425311
 20
437.771889
 30
0.0
 11
995.74765
 21
439.094229
 31
0.0
  0
LINE
  5
9B2
  8
L1
 10
997.253738
 20
434.943462
 30
0.0
 11
998.576077
 21
436.265802
 31
0.0
  0
LINE
  5
9B3
  8
31
 10
1047.977701
 20
344.545599
 30
0.0
 11
1049.477701
 21
345.411624
 31
0.0
  0
LINE
  5
9B4
  8
31
 10
1047.977701
 20
362.77765
 30
0.0
 11
1049.477701
 21
361.911624
 31
0.0
  0
LINE
  5
9B5
  8
31
 10
1047.977701
 20
369.545599
 30
0.0
 11
1049.477701
 21
370.411624
 31
0.0
  0
LINE
  5
9B6
  8
31
 10
1047.977701
 20
362.77765
 30
0.0
 11
1047.977701
 21
369.545599
 31
0.0
  0
LINE
  5
9B7
  8
31
 10
1047.977701
 20
387.77765
 30
0.0
 11
1047.977701
 21
394.545599
 31
0.0
  0
LINE
  5
9B8
  8
31
 10
1047.977701
 20
394.545599
 30
0.0
 11
1049.477701
 21
395.411624
 31
0.0
  0
LINE
  5
9B9
  8
31
 10
1047.977701
 20
387.77765
 30
0.0
 11
1049.477701
 21
386.911624
 31
0.0
  0
LINE
  5
9BA
  8
31
 10
1047.477701
 20
422.661624
 30
0.0
 11
1047.477701
 21
438.661624
 31
0.0
  0
ARC
  5
9BB
  8
34
 10
1055.477701
 20
416.4668
 30
0.0
 40
2.0
 50
90.0
 51
180.0
  0
LINE
  5
9BC
  8
31
 10
1047.977701
 20
403.02765
 30
0.0
 11
1047.977701
 21
414.295599
 31
0.0
  0
LINE
  5
9BD
  8
31
 10
1047.977701
 20
414.295599
 30
0.0
 11
1049.477701
 21
415.161624
 31
0.0
  0
LINE
  5
9BE
  8
31
 10
1047.977701
 20
403.02765
 30
0.0
 11
1049.477701
 21
402.161624
 31
0.0
  0
LINE
  5
9BF
  8
31
 10
1047.477701
 20
422.661624
 30
0.0
 11
1049.477701
 21
422.626714
 31
0.0
  0
LINE
  5
9C0
  8
31
 10
1047.977701
 20
419.545599
 30
0.0
 11
1049.477701
 21
420.411624
 31
0.0
  0
LINE
  5
9C1
  8
31
 10
1047.977701
 20
412.77765
 30
0.0
 11
1047.977701
 21
419.545599
 31
0.0
  0
LINE
  5
9C2
  8
31
 10
1047.477701
 20
438.661624
 30
0.0
 11
1049.477701
 21
438.696534
 31
0.0
  0
LINE
  5
9C3
  8
21
 10
998.143473
 20
494.85661
 30
0.0
 11
998.178383
 21
496.85661
 31
0.0
  0
LINE
  5
9C4
  8
21
 10
968.143473
 20
593.25661
 30
0.0
 11
990.143473
 21
593.25661
 31
0.0
  0
LINE
  5
9C5
  8
21
 10
968.143473
 20
589.89661
 30
0.0
 11
990.143473
 21
589.89661
 31
0.0
  0
LINE
  5
9C6
  8
21
 10
927.143473
 20
593.25661
 30
0.0
 11
935.143473
 21
593.25661
 31
0.0
  0
LINE
  5
9C7
  8
21
 10
927.143473
 20
589.89661
 30
0.0
 11
935.143473
 21
589.89661
 31
0.0
  0
LINE
  5
9C8
  8
21
 10
921.143473
 20
589.89661
 30
0.0
 11
921.143473
 21
593.25661
 31
0.0
  0
LINE
  5
9C9
  8
21
 10
927.143473
 20
589.89661
 30
0.0
 11
927.143473
 21
593.25661
 31
0.0
  0
LINE
  5
9CA
  8
21
 10
954.143473
 20
593.25661
 30
0.0
 11
962.143473
 21
593.25661
 31
0.0
  0
LINE
  5
9CB
  8
21
 10
954.143473
 20
589.89661
 30
0.0
 11
962.143473
 21
589.89661
 31
0.0
  0
LINE
  5
9CC
  8
21
 10
941.143473
 20
593.25661
 30
0.0
 11
948.143473
 21
593.25661
 31
0.0
  0
LINE
  5
9CD
  8
21
 10
941.143473
 20
589.89661
 30
0.0
 11
948.143473
 21
589.89661
 31
0.0
  0
LINE
  5
9CE
  8
21
 10
941.143473
 20
589.89661
 30
0.0
 11
941.143473
 21
593.25661
 31
0.0
  0
LINE
  5
9CF
  8
21
 10
935.143473
 20
589.89661
 30
0.0
 11
935.143473
 21
593.25661
 31
0.0
  0
LINE
  5
9D0
  8
21
 10
954.143473
 20
589.89661
 30
0.0
 11
954.143473
 21
593.25661
 31
0.0
  0
LINE
  5
9D1
  8
21
 10
948.143473
 20
589.89661
 30
0.0
 11
948.143473
 21
593.25661
 31
0.0
  0
LINE
  5
9D2
  8
21
 10
968.143473
 20
589.89661
 30
0.0
 11
968.143473
 21
593.25661
 31
0.0
  0
LINE
  5
9D3
  8
21
 10
962.143473
 20
589.89661
 30
0.0
 11
962.143473
 21
593.25661
 31
0.0
  0
ARC
  5
9D4
  8
21
 10
996.660776
 20
596.85661
 30
0.0
 40
1.0
 50
1.0
 51
90.0
  0
LINE
  5
9D5
  8
21
 10
997.695838
 20
594.85661
 30
0.0
 11
997.660623
 21
596.874063
 31
0.0
  0
LINE
  5
9D6
  8
31
 10
1140.227701
 20
303.661624
 30
0.0
 11
1140.227701
 21
430.661624
 31
0.0
  0
LINE
  5
9D7
  8
31
 10
1142.517701
 20
303.661624
 30
0.0
 11
1142.517701
 21
361.661624
 31
0.0
  0
LINE
  5
9D8
  8
31
 10
1145.877701
 20
303.661624
 30
0.0
 11
1145.877701
 21
361.661624
 31
0.0
  0
LINE
  5
9D9
  8
31
 10
1150.477701
 20
303.661624
 30
0.0
 11
1150.477701
 21
437.178927
 31
0.0
  0
LINE
  5
9DA
  8
31
 10
1147.477701
 20
303.661624
 30
0.0
 11
1147.477701
 21
436.213685
 31
0.0
  0
LINE
  5
9DB
  8
31
 10
1147.477701
 20
303.661624
 30
0.0
 11
1147.477701
 21
171.109564
 31
0.0
  0
LINE
  5
9DC
  8
31
 10
1150.477701
 20
303.661624
 30
0.0
 11
1150.477701
 21
170.144322
 31
0.0
  0
LINE
  5
9DD
  8
31
 10
1140.227701
 20
303.661624
 30
0.0
 11
1140.227701
 21
176.661624
 31
0.0
  0
LINE
  5
9DE
  8
31
 10
1142.517701
 20
225.661624
 30
0.0
 11
1142.517701
 21
218.661624
 31
0.0
  0
LINE
  5
9DF
  8
31
 10
1145.877701
 20
225.661624
 30
0.0
 11
1145.877701
 21
218.661624
 31
0.0
  0
LINE
  5
9E0
  8
31
 10
1147.477701
 20
164.661624
 30
0.0
 11
1145.840121
 21
164.661624
 31
0.0
  0
LINE
  5
9E1
  8
31
 10
1142.517701
 20
198.661624
 30
0.0
 11
1142.517701
 21
176.661624
 31
0.0
  0
LINE
  5
9E2
  8
31
 10
1145.877701
 20
198.661624
 30
0.0
 11
1145.877701
 21
176.661624
 31
0.0
  0
LINE
  5
9E3
  8
31
 10
1145.840121
 20
164.661624
 30
0.0
 11
1141.86528
 21
164.661624
 31
0.0
  0
LINE
  5
9E4
  8
31
 10
1141.86528
 20
164.661624
 30
0.0
 11
1140.227701
 21
164.661624
 31
0.0
  0
LINE
  5
9E5
  8
31
 10
1133.457637
 20
164.987129
 30
0.0
 11
1140.227701
 21
164.829948
 31
0.0
  0
LINE
  5
9E6
  8
31
 10
1142.517701
 20
218.661624
 30
0.0
 11
1145.877701
 21
218.661624
 31
0.0
  0
LINE
  5
9E7
  8
31
 10
1142.517701
 20
212.661624
 30
0.0
 11
1145.877701
 21
212.661624
 31
0.0
  0
LINE
  5
9E8
  8
31
 10
1142.517701
 20
204.661624
 30
0.0
 11
1145.877701
 21
204.661624
 31
0.0
  0
LINE
  5
9E9
  8
31
 10
1142.517701
 20
198.661624
 30
0.0
 11
1145.877701
 21
198.661624
 31
0.0
  0
LINE
  5
9EA
  8
31
 10
1142.517701
 20
212.661624
 30
0.0
 11
1142.517701
 21
204.661624
 31
0.0
  0
LINE
  5
9EB
  8
31
 10
1145.877701
 20
212.661624
 30
0.0
 11
1145.877701
 21
204.661624
 31
0.0
  0
LINE
  5
9EC
  8
31
 10
1147.477701
 20
174.661624
 30
0.0
 11
1147.477701
 21
183.314157
 31
0.0
  0
LINE
  5
9ED
  8
31
 10
1147.477701
 20
164.661624
 30
0.0
 11
1147.477701
 21
174.661624
 31
0.0
  0
LINE
  5
9EE
  8
31
 10
1150.477701
 20
170.144322
 30
0.0
 11
1150.477701
 21
170.144322
 31
0.0
  0
LINE
  5
9EF
  8
31
 10
1147.477701
 20
164.661624
 30
0.0
 11
1147.477701
 21
169.109259
 31
0.0
  0
ARC
  5
9F0
  8
31
 10
1149.477701
 20
170.144322
 30
0.0
 40
1.0
 50
271.0
 51
0.0
  0
LINE
  5
9F1
  8
31
 10
1147.477701
 20
169.109259
 30
0.0
 11
1149.495153
 21
169.144474
 31
0.0
  0
LINE
  5
9F2
  8
31
 10
1150.477701
 20
181.539085
 30
0.0
 11
1150.477701
 21
170.144317
 31
0.0
  0
LINE
  5
9F3
  8
31
 10
1147.477701
 20
169.109259
 30
0.0
 11
1149.495153
 21
169.144474
 31
0.0
  0
ARC
  5
9F4
  8
31
 10
1149.477701
 20
170.144322
 30
0.0
 40
1.0
 50
271.0
 51
0.0
  0
LINE
  5
9F5
  8
31
 10
1145.877701
 20
303.661624
 30
0.0
 11
1145.877701
 21
245.661624
 31
0.0
  0
LINE
  5
9F6
  8
31
 10
1142.517701
 20
303.661624
 30
0.0
 11
1142.517701
 21
245.661624
 31
0.0
  0
LINE
  5
9F7
  8
31
 10
1142.517701
 20
245.661624
 30
0.0
 11
1145.877701
 21
245.661624
 31
0.0
  0
LINE
  5
9F8
  8
31
 10
1142.517701
 20
239.661624
 30
0.0
 11
1145.877701
 21
239.661624
 31
0.0
  0
LINE
  5
9F9
  8
31
 10
1142.517701
 20
231.661624
 30
0.0
 11
1145.877701
 21
231.661624
 31
0.0
  0
LINE
  5
9FA
  8
31
 10
1142.517701
 20
225.661624
 30
0.0
 11
1145.877701
 21
225.661624
 31
0.0
  0
LINE
  5
9FB
  8
31
 10
1142.517701
 20
239.661624
 30
0.0
 11
1142.517701
 21
231.661624
 31
0.0
  0
LINE
  5
9FC
  8
31
 10
1145.877701
 20
239.661624
 30
0.0
 11
1145.877701
 21
231.661624
 31
0.0
  0
LINE
  5
9FD
  8
31
 10
1147.477701
 20
442.661624
 30
0.0
 11
1145.840121
 21
442.661624
 31
0.0
  0
LINE
  5
9FE
  8
31
 10
1145.877701
 20
394.661624
 30
0.0
 11
1145.877701
 21
402.661624
 31
0.0
  0
LINE
  5
9FF
  8
31
 10
1142.517701
 20
394.661624
 30
0.0
 11
1142.517701
 21
402.661624
 31
0.0
  0
LINE
  5
A00
  8
31
 10
1145.877701
 20
367.661624
 30
0.0
 11
1145.877701
 21
375.661624
 31
0.0
  0
LINE
  5
A01
  8
31
 10
1142.517701
 20
367.661624
 30
0.0
 11
1142.517701
 21
375.661624
 31
0.0
  0
LINE
  5
A02
  8
31
 10
1142.517701
 20
367.661624
 30
0.0
 11
1145.877701
 21
367.661624
 31
0.0
  0
LINE
  5
A03
  8
31
 10
1142.517701
 20
361.661624
 30
0.0
 11
1145.877701
 21
361.661624
 31
0.0
  0
LINE
  5
A04
  8
31
 10
1145.877701
 20
381.661624
 30
0.0
 11
1145.877701
 21
388.661624
 31
0.0
  0
LINE
  5
A05
  8
31
 10
1142.517701
 20
381.661624
 30
0.0
 11
1142.517701
 21
388.661624
 31
0.0
  0
LINE
  5
A06
  8
31
 10
1142.517701
 20
394.661624
 30
0.0
 11
1145.877701
 21
394.661624
 31
0.0
  0
LINE
  5
A07
  8
31
 10
1142.517701
 20
388.661624
 30
0.0
 11
1145.877701
 21
388.661624
 31
0.0
  0
LINE
  5
A08
  8
31
 10
1142.517701
 20
381.661624
 30
0.0
 11
1145.877701
 21
381.661624
 31
0.0
  0
LINE
  5
A09
  8
31
 10
1142.517701
 20
375.661624
 30
0.0
 11
1145.877701
 21
375.661624
 31
0.0
  0
LINE
  5
A0A
  8
31
 10
1145.877701
 20
408.661624
 30
0.0
 11
1145.877701
 21
430.661624
 31
0.0
  0
LINE
  5
A0B
  8
31
 10
1142.517701
 20
408.661624
 30
0.0
 11
1142.517701
 21
430.661624
 31
0.0
  0
LINE
  5
A0C
  8
31
 10
1142.517701
 20
408.661624
 30
0.0
 11
1145.877701
 21
408.661624
 31
0.0
  0
LINE
  5
A0D
  8
31
 10
1142.517701
 20
402.661624
 30
0.0
 11
1145.877701
 21
402.661624
 31
0.0
  0
LINE
  5
A0E
  8
31
 10
1133.457637
 20
442.33612
 30
0.0
 11
1140.227701
 21
442.493301
 31
0.0
  0
LINE
  5
A0F
  8
31
 10
1141.86528
 20
442.661624
 30
0.0
 11
1140.227701
 21
442.661624
 31
0.0
  0
LINE
  5
A10
  8
31
 10
1145.840121
 20
442.661624
 30
0.0
 11
1141.86528
 21
442.661624
 31
0.0
  0
LINE
  5
A11
  8
31
 10
1150.477701
 20
425.784164
 30
0.0
 11
1150.477701
 21
437.178932
 31
0.0
  0
LINE
  5
A12
  8
31
 10
1147.477701
 20
432.661624
 30
0.0
 11
1147.477701
 21
424.009091
 31
0.0
  0
ARC
  5
A13
  8
31
 10
1149.477701
 20
437.178927
 30
0.0
 40
1.0
 50
0.0
 51
89.0
  0
LINE
  5
A14
  8
31
 10
1147.477701
 20
438.21399
 30
0.0
 11
1149.495153
 21
438.178775
 31
0.0
  0
LINE
  5
A15
  8
31
 10
1147.477701
 20
438.21399
 30
0.0
 11
1149.495153
 21
438.178775
 31
0.0
  0
ARC
  5
A16
  8
31
 10
1149.477701
 20
437.178927
 30
0.0
 40
1.0
 50
0.0
 51
89.0
  0
LINE
  5
A17
  8
31
 10
1147.477701
 20
442.661624
 30
0.0
 11
1147.477701
 21
438.21399
 31
0.0
  0
LINE
  5
A18
  8
31
 10
1150.477701
 20
437.178927
 30
0.0
 11
1150.477701
 21
437.178927
 31
0.0
  0
LINE
  5
A19
  8
31
 10
1147.477701
 20
442.661624
 30
0.0
 11
1147.477701
 21
432.661624
 31
0.0
  0
ENDSEC
  0
EOF
