  0
SECTION
  2
HEADER
  9
$ACADVER
  1
AC1009
  9
$INSBASE
 10
0.0
 20
0.0
 30
0.0
  9
$EXTMIN
 10
-530.01982250175615
 20
-100.051572348324
 30
-0.0000000000112498
  9
$EXTMAX
 10
770.01984066365412
 20
630.05158161543568
 30
0.0000000000002956
  9
$LIMMIN
 10
0.0
 20
0.0
  9
$LIMMAX
 10
420.0
 20
297.0
  9
$ORTHOMODE
 70
     1
  9
$REGENMODE
 70
     1
  9
$FILLMODE
 70
     1
  9
$QTEXTMODE
 70
     0
  9
$MIRRTEXT
 70
     1
  9
$DRAGMODE
 70
     2
  9
$LTSCALE
 40
7.0
  9
$OSMODE
 70
    37
  9
$ATTMODE
 70
     1
  9
$TEXTSIZE
 40
3.5
  9
$TRACEWID
 40
0.05
  9
$TEXTSTYLE
  7
STANDARD
  9
$CLAYER
  8
1
  9
$CELTYPE
  6
BYLAYER
  9
$CECOLOR
 62
   256
  9
$DIMSCALE
 40
1.0
  9
$DIMASZ
 40
3.5
  9
$DIMEXO
 40
0.0
  9
$DIMDLI
 40
10.0
  9
$DIMRND
 40
0.0
  9
$DIMDLE
 40
0.0
  9
$DIMEXE
 40
2.0
  9
$DIMTP
 40
0.0
  9
$DIMTM
 40
0.0
  9
$DIMTXT
 40
3.5
  9
$DIMCEN
 40
2.5
  9
$DIMTSZ
 40
0.0
  9
$DIMTOL
 70
     0
  9
$DIMLIM
 70
     0
  9
$DIMTIH
 70
     0
  9
$DIMTOH
 70
     0
  9
$DIMSE1
 70
     0
  9
$DIMSE2
 70
     0
  9
$DIMTAD
 70
     1
  9
$DIMZIN
 70
     8
  9
$DIMBLK
  1

  9
$DIMASO
 70
     1
  9
$DIMSHO
 70
     1
  9
$DIMPOST
  1

  9
$DIMAPOST
  1

  9
$DIMALT
 70
     0
  9
$DIMALTD
 70
     2
  9
$DIMALTF
 40
25.399999999999999
  9
$DIMLFAC
 40
1.0
  9
$DIMTOFL
 70
     1
  9
$DIMTVP
 40
0.0
  9
$DIMTIX
 70
     0
  9
$DIMSOXD
 70
     0
  9
$DIMSAH
 70
     0
  9
$DIMBLK1
  1

  9
$DIMBLK2
  1

  9
$DIMSTYLE
  2
ACADUS
  9
$DIMCLRD
 70
   256
  9
$DIMCLRE
 70
   256
  9
$DIMCLRT
 70
     3
  9
$DIMTFAC
 40
1.0
  9
$DIMGAP
 40
2.0
  9
$LUNITS
 70
     2
  9
$LUPREC
 70
     1
  9
$SKETCHINC
 40
1.0
  9
$FILLETRAD
 40
0.0
  9
$AUNITS
 70
     0
  9
$AUPREC
 70
     2
  9
$MENU
  1
CAESAR
  9
$ELEVATION
 40
0.0
  9
$PELEVATION
 40
0.0
  9
$THICKNESS
 40
0.0
  9
$LIMCHECK
 70
     0
  9
$BLIPMODE
 70
     0
  9
$CHAMFERA
 40
5.0
  9
$CHAMFERB
 40
5.0
  9
$SKPOLY
 70
     0
  9
$TDCREATE
 40
2449188.659868055
  9
$TDUPDATE
 40
2452318.6124719442
  9
$TDINDWG
 40
0.4932772801
  9
$TDUSRTIMER
 40
0.4932772801
  9
$USRTIMER
 70
     1
  9
$ANGBASE
 50
0.0
  9
$ANGDIR
 70
     0
  9
$PDMODE
 70
     0
  9
$PDSIZE
 40
0.0
  9
$PLINEWID
 40
0.0
  9
$COORDS
 70
     1
  9
$SPLFRAME
 70
     0
  9
$SPLINETYPE
 70
     6
  9
$SPLINESEGS
 70
     8
  9
$ATTDIA
 70
     0
  9
$ATTREQ
 70
     1
  9
$HANDLING
 70
 22529
  9
$HANDSEED
  5
1729C
  9
$SURFTAB1
 70
     6
  9
$SURFTAB2
 70
     6
  9
$SURFTYPE
 70
     6
  9
$SURFU
 70
     6
  9
$SURFV
 70
     6
  9
$UCSNAME
  2

  9
$UCSORG
 10
0.0
 20
0.0
 30
0.0
  9
$UCSXDIR
 10
1.0
 20
0.0
 30
0.0
  9
$UCSYDIR
 10
0.0
 20
1.0
 30
0.0
  9
$PUCSNAME
  2

  9
$PUCSORG
 10
0.0
 20
0.0
 30
0.0
  9
$PUCSXDIR
 10
1.0
 20
0.0
 30
0.0
  9
$PUCSYDIR
 10
0.0
 20
1.0
 30
0.0
  9
$USERI1
 70
     0
  9
$USERI2
 70
     0
  9
$USERI3
 70
     0
  9
$USERI4
 70
     0
  9
$USERI5
 70
     0
  9
$USERR1
 40
1.0
  9
$USERR2
 40
0.0
  9
$USERR3
 40
3.5
  9
$USERR4
 40
0.0
  9
$USERR5
 40
0.0
  9
$WORLDVIEW
 70
     1
  9
$SHADEDGE
 70
     3
  9
$SHADEDIF
 70
    70
  9
$TILEMODE
 70
     1
  9
$MAXACTVP
 70
    16
  9
$PLIMCHECK
 70
     0
  9
$PEXTMIN
 10
1.0000000000000000E+020
 20
1.0000000000000000E+020
 30
1.0000000000000000E+020
  9
$PEXTMAX
 10
-1.0000000000000000E+020
 20
-1.0000000000000000E+020
 30
-1.0000000000000000E+020
  9
$PLIMMIN
 10
0.0
 20
0.0
  9
$PLIMMAX
 10
420.0
 20
297.0
  9
$UNITMODE
 70
     0
  9
$VISRETAIN
 70
     0
  9
$PLINEGEN
 70
     0
  9
$PSLTSCALE
 70
     0
  0
ENDSEC
  0
SECTION
  2
TABLES
  0
TABLE
  2
VPORT
 70
     2
  0
VPORT
  2
*ACTIVE
 70
     0
 10
0.0
 20
0.0
 11
1.0
 21
1.0
 12
120.0000090809489
 22
265.00000463355582
 13
0.0
 23
0.0
 14
1.0
 24
1.0
 15
10.0
 25
10.0
 16
0.0
 26
0.0
 36
1.0
 17
0.0
 27
0.0
 37
0.0
 40
870.85490041572496
 41
1.5
 42
50.0
 43
0.0
 44
0.0
 50
0.0
 51
0.0
 71
     0
 72
  1000
 73
     1
 74
     1
 75
     0
 76
     0
 77
     0
 78
     0
  0
ENDTAB
  0
TABLE
  2
LTYPE
 70
     4
  0
LTYPE
  2
CONTINUOUS
 70
     0
  3
Solid line
 72
    65
 73
     0
 40
0.0
  0
LTYPE
  2
CENTER
 70
     0
  3
____ _ ____ _ ____ _ ____ _ ____ _ ____ _ ____ 
 72
    65
 73
     4
 40
2.0
 49
1.25
 49
-0.25
 49
0.25
 49
-0.25
  0
LTYPE
  2
DASHDOT
 70
     0
  3
__ . __ . __ . __ . __ . __ . __ . __ . __ . __
 72
    65
 73
     4
 40
1.0
 49
0.5
 49
-0.25
 49
0.0
 49
-0.25
  0
LTYPE
  2
DASHED
 70
     0
  3
__ __ __ __ __ __ __ __ __ __ __ __ __ __ __ __
 72
    65
 73
     2
 40
0.75
 49
0.5
 49
-0.25
  0
ENDTAB
  0
TABLE
  2
LAYER
 70
    20
  0
LAYER
  2
0
 70
     0
 62
     7
  6
CONTINUOUS
  0
LAYER
  2
L1
 70
     0
 62
     7
  6
CONTINUOUS
  0
LAYER
  2
L20
 70
     0
 62
     3
  6
CONTINUOUS
  0
LAYER
  2
DEFPOINTS
 70
     0
 62
     7
  6
CONTINUOUS
  0
LAYER
  2
AME_FRZ
 70
     0
 62
     7
  6
CONTINUOUS
  0
LAYER
  2
1
 70
     0
 62
     7
  6
CONTINUOUS
  0
LAYER
  2
11
 70
     0
 62
     7
  6
CONTINUOUS
  0
LAYER
  2
13
 70
     0
 62
     1
  6
CENTER
  0
LAYER
  2
14
 70
     0
 62
     1
  6
DASHED
  0
LAYER
  2
21
 70
     0
 62
     7
  6
CONTINUOUS
  0
LAYER
  2
23
 70
     0
 62
     1
  6
CENTER
  0
LAYER
  2
24
 70
     0
 62
     1
  6
DASHED
  0
LAYER
  2
31
 70
     0
 62
     7
  6
CONTINUOUS
  0
LAYER
  2
33
 70
     0
 62
     1
  6
CENTER
  0
LAYER
  2
34
 70
     0
 62
     1
  6
DASHED
  0
LAYER
  2
51
 70
     0
 62
     7
  6
CONTINUOUS
  0
LAYER
  2
53
 70
     0
 62
     1
  6
CENTER
  0
LAYER
  2
61
 70
     0
 62
     7
  6
CONTINUOUS
  0
LAYER
  2
62
 70
     0
 62
     1
  6
CONTINUOUS
  0
LAYER
  2
63
 70
     0
 62
     1
  6
CENTER
  0
ENDTAB
  0
TABLE
  2
STYLE
 70
     1
  0
STYLE
  2
STANDARD
 70
     0
 40
0.0
 41
1.0
 50
0.0
 71
     0
 42
3.5
  3
CAEISO
  4

  0
ENDTAB
  0
TABLE
  2
VIEW
 70
     0
  0
ENDTAB
  0
TABLE
  2
UCS
 70
     0
  0
ENDTAB
  0
TABLE
  2
APPID
 70
     2
  0
APPID
  2
ACAD
 70
     0
  0
APPID
  2
AME_SOL
 70
     0
  0
ENDTAB
  0
TABLE
  2
DIMSTYLE
 70
     1
  0
DIMSTYLE
  2
ACADUS
 70
     0
  3

  4

  5

  6

  7

 40
1.0
 41
0.18
 42
0.0625
 43
0.38
 44
0.18
 45
0.0
 46
0.0
 47
0.0
 48
0.0
140
0.18
141
0.09
142
0.0
143
25.399999999999999
144
1.0
145
0.0
146
1.0
147
0.09
 71
     0
 72
     0
 73
     1
 74
     1
 75
     0
 76
     0
 77
     0
 78
     0
170
     0
171
     2
172
     0
173
     0
174
     0
175
     0
176
     0
177
     0
178
     0
  0
ENDTAB
  0
ENDSEC
  0
SECTION
  2
BLOCKS
  0
BLOCK
  8
0
  2
$MODEL_SPACE
 70
     0
 10
0.0
 20
0.0
 30
0.0
  3
$MODEL_SPACE
  1

  0
ENDBLK
  5
16A2F
  8
0
  0
BLOCK
 67
     1
  8
0
  2
$PAPER_SPACE
 70
     0
 10
0.0
 20
0.0
 30
0.0
  3
$PAPER_SPACE
  1

  0
ENDBLK
  5
16A2D
 67
     1
  8
0
  0
BLOCK
  8
0
  2
AME_NIL
 70
     0
 10
0.0
 20
0.0
 30
0.0
  3
AME_NIL
  1
AME_NIL
  0
ENDBLK
  5
232A
  8
0
  0
BLOCK
  8
0
  2
AME_SOL
 70
     0
 10
0.0
 20
0.0
 30
0.0
  3
AME_SOL
  1
AME_SOL
  0
ENDBLK
  5
232D
  8
0
  0
ENDSEC
  0
SECTION
  2
ENTITIES
  0
LINE
  5
271E
  8
61
 10
174.0
 20
265.0
 30
0.0
 11
174.0
 21
67.5
 31
0.0
  0
LINE
  5
271F
  8
61
 10
176.5
 20
65.0
 30
0.0
 11
375.0
 21
65.0
 31
0.0
  0
LINE
  5
2720
  8
61
 10
182.0
 20
265.0
 30
0.0
 11
182.0
 21
88.499999999999986
 31
0.0
  0
LINE
  5
2721
  8
62
 10
184.0
 20
73.0
 30
0.0
 11
193.0
 21
73.0
 31
0.0
  0
LINE
  5
2722
  8
62
 10
184.0
 20
70.0
 30
0.0
 11
375.0
 21
70.0
 31
0.0
  0
LINE
  5
2723
  8
62
 10
179.0
 20
265.0
 30
0.0
 11
179.0
 21
75.0
 31
0.0
  0
ARC
  5
2724
  8
61
 10
176.5
 20
67.5
 30
0.0
 40
2.5
 50
180.0
 51
270.0
  0
ARC
  5
2725
  8
62
 10
184.0
 20
75.0
 30
0.0
 40
5.0
 50
180.0
 51
270.0
  0
ARC
  5
2726
  8
62
 10
184.0
 20
75.0
 30
0.0
 40
2.0
 50
180.0
 51
270.0
  0
ARC
  5
2728
  8
62
 10
188.0
 20
79.0
 30
0.0
 40
6.0
 50
0.0
 51
90.0
  0
LINE
  5
2729
  8
61
 10
188.0
 20
87.5
 30
0.0
 11
183.0
 21
87.5
 31
0.0
  0
LINE
  5
272A
  8
62
 10
188.0
 20
85.0
 30
0.0
 11
183.0
 21
85.0
 31
0.0
  0
LINE
  5
272B
  8
62
 10
194.0
 20
79.0
 30
0.0
 11
194.0
 21
74.0
 31
0.0
  0
LINE
  5
272C
  8
61
 10
196.5
 20
79.0
 30
0.0
 11
196.5
 21
74.0
 31
0.0
  0
ARC
  5
272D
  8
61
 10
188.0
 20
79.0
 30
0.0
 40
8.5
 50
0.0
 51
90.0
  0
LINE
  5
272E
  8
61
 10
197.5
 20
73.0
 30
0.0
 11
375.0
 21
73.0
 31
0.0
  0
LINE
  5
272F
  8
62
 10
182.0
 20
84.0
 30
0.0
 11
182.0
 21
75.0
 31
0.0
  0
LINE
  5
275D
  8
63
  6
DASHDOT
 10
374.0
 20
265.0
 30
0.0
 11
374.0
 21
73.0
 31
0.0
  0
LINE
  5
275F
  8
61
 10
182.0
 20
265.0
 30
0.0
 11
182.0
 21
441.5
 31
0.0
  0
LINE
  5
2760
  8
62
 10
179.0
 20
265.0
 30
0.0
 11
179.0
 21
455.0
 31
0.0
  0
LINE
  5
2761
  8
61
 10
174.0
 20
265.0
 30
0.0
 11
174.0
 21
462.5
 31
0.0
  0
LINE
  5
2765
  8
61
 10
197.5
 20
457.0
 30
0.0
 11
375.0
 21
457.0
 31
0.0
  0
LINE
  5
2766
  8
62
 10
184.0
 20
460.0
 30
0.0
 11
375.0
 21
460.0
 31
0.0
  0
LINE
  5
2767
  8
61
 10
176.5
 20
465.0
 30
0.0
 11
375.0
 21
465.0
 31
0.0
  0
ARC
  5
2774
  8
61
 10
188.0
 20
451.0
 30
0.0
 40
8.5
 50
270.0
 51
0.0
  0
LINE
  5
2775
  8
62
 10
194.0
 20
451.0
 30
0.0
 11
194.0
 21
456.0
 31
0.0
  0
LINE
  5
2776
  8
61
 10
196.5
 20
451.0
 30
0.0
 11
196.5
 21
456.0
 31
0.0
  0
ARC
  5
2778
  8
62
 10
184.0
 20
455.0
 30
0.0
 40
2.0
 50
90.0
 51
180.0
  0
ARC
  5
2779
  8
62
 10
184.0
 20
455.0
 30
0.0
 40
5.0
 50
90.0
 51
180.0
  0
ARC
  5
277A
  8
61
 10
176.5
 20
462.5
 30
0.0
 40
2.5
 50
90.0
 51
180.0
  0
LINE
  5
277B
  8
62
 10
184.0
 20
457.0
 30
0.0
 11
193.0
 21
457.0
 31
0.0
  0
ARC
  5
277F
  8
62
 10
188.0
 20
451.0
 30
0.0
 40
6.0
 50
270.0
 51
0.0
  0
LINE
  5
2781
  8
62
 10
188.0
 20
445.0
 30
0.0
 11
183.0
 21
445.0
 31
0.0
  0
LINE
  5
2782
  8
62
 10
182.0
 20
446.0
 30
0.0
 11
182.0
 21
455.0
 31
0.0
  0
LINE
  5
2786
  8
61
 10
188.0
 20
442.49999999999989
 30
0.0
 11
183.0
 21
442.49999999999989
 31
0.0
  0
LINE
  5
278A
  8
61
 10
566.0
 20
265.0
 30
0.0
 11
566.0
 21
88.499999999999986
 31
0.0
  0
LINE
  5
278B
  8
62
 10
569.0
 20
265.0
 30
0.0
 11
569.00000000000011
 21
75.000000000000014
 31
0.0
  0
LINE
  5
278C
  8
61
 10
574.0
 20
265.0
 30
0.0
 11
574.0
 21
67.5
 31
0.0
  0
LINE
  5
2799
  8
61
 10
571.49999999999989
 20
465.0
 30
0.0
 11
373.0
 21
465.0
 31
0.0
  0
LINE
  5
279A
  8
62
 10
564.0
 20
460.0
 30
0.0
 11
374.0
 21
460.0
 31
0.0
  0
LINE
  5
279B
  8
61
 10
550.49999999999989
 20
457.0
 30
0.0
 11
373.0
 21
457.0
 31
0.0
  0
LINE
  5
279F
  8
61
 10
574.0
 20
265.0
 30
0.0
 11
574.0
 21
462.5
 31
0.0
  0
LINE
  5
27A0
  8
62
 10
569.0
 20
265.0
 30
0.0
 11
569.0
 21
455.0
 31
0.0
  0
LINE
  5
27A1
  8
61
 10
566.0
 20
265.0
 30
0.0
 11
566.0
 21
441.5
 31
0.0
  0
ARC
  5
27A2
  8
61
 10
560.0
 20
451.0
 30
0.0
 40
8.5
 50
180.0
 51
270.0
  0
LINE
  5
27A6
  8
62
 10
566.0
 20
446.0
 30
0.0
 11
566.0
 21
455.0
 31
0.0
  0
ARC
  5
27A7
  8
62
 10
560.0
 20
451.0
 30
0.0
 40
6.0
 50
180.0
 51
270.0
  0
LINE
  5
27A9
  8
61
 10
560.0
 20
442.49999999999989
 30
0.0
 11
565.0
 21
442.49999999999989
 31
0.0
  0
LINE
  5
27AB
  8
62
 10
560.0
 20
445.0
 30
0.0
 11
565.0
 21
445.0
 31
0.0
  0
LINE
  5
27AF
  8
62
 10
564.0
 20
457.0
 30
0.0
 11
555.0
 21
457.0
 31
0.0
  0
ARC
  5
27B0
  8
62
 10
564.0
 20
455.0
 30
0.0
 40
2.0
 50
0.0
 51
90.0
  0
LINE
  5
27B4
  8
61
 10
551.49999999999989
 20
451.0
 30
0.0
 11
551.49999999999989
 21
456.0
 31
0.0
  0
LINE
  5
27B5
  8
62
 10
554.0
 20
451.0
 30
0.0
 11
554.0
 21
456.0
 31
0.0
  0
ARC
  5
27B6
  8
61
 10
571.49999999999989
 20
462.5
 30
0.0
 40
2.5
 50
0.0
 51
90.0
  0
LINE
  5
27C6
  8
61
 10
550.49999999999989
 20
73.0
 30
0.0
 11
374.0
 21
73.0
 31
0.0
  0
LINE
  5
27C7
  8
62
 10
564.00000000000011
 20
70.000000000000014
 30
0.0
 11
374.0
 21
70.0
 31
0.0
  0
LINE
  5
27C8
  8
61
 10
571.49999999999989
 20
65.0
 30
0.0
 11
373.0
 21
65.0
 31
0.0
  0
ARC
  5
27CB
  8
61
 10
560.0
 20
79.0
 30
0.0
 40
8.5
 50
90.0
 51
180.0
  0
LINE
  5
27CC
  8
62
 10
554.0
 20
79.0
 30
0.0
 11
554.0
 21
75.0
 31
0.0
  0
LINE
  5
27CD
  8
61
 10
551.49999999999989
 20
79.0
 30
0.0
 11
551.49999999999989
 21
75.0
 31
0.0
  0
ARC
  5
27CF
  8
62
 10
564.0
 20
75.0
 30
0.0
 40
2.0
 50
270.0
 51
0.0
  0
ARC
  5
27D1
  8
61
 10
571.49999999999989
 20
67.5
 30
0.0
 40
2.5
 50
270.0
 51
0.0
  0
LINE
  5
27D2
  8
62
 10
564.0
 20
73.0
 30
0.0
 11
555.0
 21
73.0
 31
0.0
  0
ARC
  5
27D6
  8
62
 10
560.0
 20
79.0
 30
0.0
 40
6.0
 50
90.0
 51
180.0
  0
LINE
  5
27D8
  8
62
 10
560.0
 20
85.0
 30
0.0
 11
564.0
 21
85.0
 31
0.0
  0
LINE
  5
27D9
  8
62
 10
566.0
 20
84.0
 30
0.0
 11
566.0
 21
75.0
 31
0.0
  0
LINE
  5
27DD
  8
61
 10
560.0
 20
87.5
 30
0.0
 11
564.0
 21
87.5
 31
0.0
  0
LINE
  5
28FB
  8
63
  6
DASHDOT
 10
374.0
 20
264.99999999999989
 30
0.0
 11
374.0
 21
457.0
 31
0.0
  0
LINE
  5
291F
  8
63
  6
DASHDOT
 10
581.0
 20
265.0
 30
0.0
 11
373.99999999999989
 21
265.0
 31
0.0
  0
LINE
  5
2946
  8
53
  6
DASHDOT
 10
-324.0
 20
265.0
 30
0.0
 11
-324.0
 21
60.0
 31
0.0
  0
LINE
  5
2949
  8
51
 10
-524.0
 20
265.0
 30
0.0
 11
-524.0
 21
67.5
 31
0.0
  0
LINE
  5
294A
  8
51
 10
-518.0
 20
211.0
 30
0.0
 11
-506.37118114027578
 21
211.0
 31
0.0
  0
LINE
  5
2951
  8
51
 10
-521.49999999999989
 20
65.0
 30
0.0
 11
-323.0
 21
65.0
 31
0.0
  0
ARC
  5
295A
  8
51
 10
-521.49999999999989
 20
67.5
 30
0.0
 40
2.5
 50
180.0
 51
270.0
  0
LINE
  5
29B7
  8
51
 10
-518.0
 20
318.99999999999989
 30
0.0
 11
-506.37118114027601
 21
318.99999999999989
 31
0.0
  0
LINE
  5
29BB
  8
51
 10
-521.49999999999989
 20
465.0
 30
0.0
 11
-323.0
 21
465.0
 31
0.0
  0
LINE
  5
29BE
  8
51
 10
-524.0
 20
265.0
 30
0.0
 11
-524.0
 21
462.5
 31
0.0
  0
ARC
  5
29FB
  8
51
 10
-521.49999999999989
 20
462.5
 30
0.0
 40
2.5
 50
90.0
 51
180.0
  0
LINE
  5
2A2F
  8
53
  6
DASHDOT
 10
-324.0
 20
264.99999999999989
 30
0.0
 11
-324.0
 21
470.0
 31
0.0
  0
LINE
  5
2ADD
  8
51
 10
-518.0
 20
219.0
 30
0.0
 11
-518.0
 21
211.0
 31
0.0
  0
LINE
  5
2ADE
  8
51
 10
-518.0
 20
310.99999999999989
 30
0.0
 11
-518.0
 21
318.99999999999989
 31
0.0
  0
LINE
  5
2AE0
  8
51
 10
-378.0
 20
71.0
 30
0.0
 11
-370.0
 21
71.0
 31
0.0
  0
LINE
  5
2AE1
  8
51
 10
-428.0
 20
71.0
 30
0.0
 11
-420.0
 21
71.0
 31
0.0
  0
LINE
  5
2AE4
  8
51
 10
-428.0
 20
459.0
 30
0.0
 11
-420.0
 21
459.0
 31
0.0
  0
LINE
  5
2AE5
  8
51
 10
-378.00000000000011
 20
459.0
 30
0.0
 11
-370.0
 21
459.0
 31
0.0
  0
CIRCLE
  5
2AE6
  8
51
 10
-474.0
 20
85.0
 30
0.0
 40
3.5
  0
CIRCLE
  5
2AE7
  8
51
 10
-504.0
 20
365.0
 30
0.0
 40
3.5
  0
CIRCLE
  5
2AE8
  8
51
 10
-474.0
 20
85.0
 30
0.0
 40
4.6500000000000004
  0
CIRCLE
  5
2AE9
  8
51
 10
-504.0
 20
365.0
 30
0.0
 40
4.6500000000000004
  0
CIRCLE
  5
2AF0
  8
51
 10
-474.0
 20
445.0
 30
0.0
 40
4.6500000000000004
  0
CIRCLE
  5
2AF1
  8
51
 10
-474.0
 20
445.0
 30
0.0
 40
3.5
  0
CIRCLE
  5
2AF4
  8
51
 10
-424.0
 20
85.0
 30
0.0
 40
4.6500000000000004
  0
CIRCLE
  5
2AF5
  8
51
 10
-424.0
 20
85.0
 30
0.0
 40
3.5
  0
CIRCLE
  5
2AF8
  8
51
 10
-424.0
 20
445.0
 30
0.0
 40
4.6500000000000004
  0
CIRCLE
  5
2AF9
  8
51
 10
-424.0
 20
445.0
 30
0.0
 40
3.5
  0
CIRCLE
  5
2AFC
  8
51
 10
-374.0
 20
85.0
 30
0.0
 40
4.6500000000000004
  0
CIRCLE
  5
2AFD
  8
51
 10
-374.0
 20
85.0
 30
0.0
 40
3.5
  0
CIRCLE
  5
2B00
  8
51
 10
-374.0
 20
445.0
 30
0.0
 40
4.6500000000000004
  0
CIRCLE
  5
2B01
  8
51
 10
-374.0
 20
445.0
 30
0.0
 40
3.5
  0
ARC
  5
2B04
  8
51
 10
-324.0
 20
85.0
 30
0.0
 40
4.6500000000000004
 50
90.0
 51
270.0
  0
ARC
  5
2B05
  8
51
 10
-324.0
 20
85.0
 30
0.0
 40
3.5
 50
90.0
 51
270.0
  0
ARC
  5
2B08
  8
51
 10
-324.0
 20
445.0
 30
0.0
 40
4.6500000000000004
 50
90.0
 51
270.0
  0
ARC
  5
2B09
  8
51
 10
-324.0
 20
445.0
 30
0.0
 40
3.5
 50
90.0
 51
270.0
  0
CIRCLE
  5
2B20
  8
51
 10
-504.0
 20
315.0
 30
0.0
 40
3.5
  0
CIRCLE
  5
2B22
  8
51
 10
-504.0
 20
315.0
 30
0.0
 40
4.6500000000000004
  0
CIRCLE
  5
2B24
  8
51
 10
-504.0
 20
265.0
 30
0.0
 40
3.5
  0
CIRCLE
  5
2B26
  8
51
 10
-504.0
 20
265.0
 30
0.0
 40
4.6500000000000004
  0
CIRCLE
  5
2B28
  8
51
 10
-504.0
 20
215.0
 30
0.0
 40
3.5
  0
CIRCLE
  5
2B2A
  8
51
 10
-504.0
 20
215.0
 30
0.0
 40
4.6500000000000004
  0
CIRCLE
  5
2B2C
  8
51
 10
-504.0
 20
165.0
 30
0.0
 40
3.5
  0
CIRCLE
  5
2B2E
  8
51
 10
-504.0
 20
165.0
 30
0.0
 40
4.6500000000000004
  0
LINE
  5
2B2F
  8
51
 10
-428.0
 20
82.628818859724134
 30
0.0
 11
-428.0
 21
71.0
 31
0.0
  0
LINE
  5
2B30
  8
51
 10
-420.0
 20
82.628818859724134
 30
0.0
 11
-420.0
 21
71.0
 31
0.0
  0
LINE
  5
2B31
  8
51
 10
-370.0
 20
82.628818859724134
 30
0.0
 11
-370.0
 21
71.0
 31
0.0
  0
LINE
  5
2B32
  8
51
 10
-378.0
 20
82.628818859724134
 30
0.0
 11
-378.0
 21
71.0
 31
0.0
  0
LINE
  5
2B34
  8
51
 10
-506.37118114027572
 20
310.99999999999989
 30
0.0
 11
-518.0
 21
310.99999999999989
 31
0.0
  0
LINE
  5
2B35
  8
51
 10
-506.37118114027578
 20
219.0
 30
0.0
 11
-518.0
 21
219.0
 31
0.0
  0
LINE
  5
2B39
  8
51
 10
-518.0
 20
268.99999999999989
 30
0.0
 11
-506.37118114027601
 21
268.99999999999989
 31
0.0
  0
LINE
  5
2B3A
  8
51
 10
-506.37118114027572
 20
260.99999999999989
 30
0.0
 11
-518.0
 21
260.99999999999989
 31
0.0
  0
LINE
  5
2B3B
  8
51
 10
-518.0
 20
260.99999999999989
 30
0.0
 11
-518.0
 21
268.99999999999989
 31
0.0
  0
LINE
  5
2B3D
  8
51
 10
-516.0
 20
92.0
 30
0.0
 11
-504.61522368914979
 21
92.0
 31
0.0
  0
LINE
  5
2B3E
  8
51
 10
-497.0
 20
73.0
 30
0.0
 11
-496.99999999999977
 21
84.384776310850114
 31
0.0
  0
LINE
  5
2B42
  8
51
 10
-516.0
 20
94.500000000000014
 30
0.0
 11
-503.57968978321708
 21
94.500000000000014
 31
0.0
  0
LINE
  5
2B44
  8
51
 10
-494.5
 20
72.999999999999972
 30
0.0
 11
-494.49999999999989
 21
85.420310216782809
 31
0.0
  0
LINE
  5
2B45
  8
51
 10
-516.0
 20
92.0
 30
0.0
 11
-516.0
 21
94.500000000000014
 31
0.0
  0
LINE
  5
2B46
  8
51
 10
-497.0
 20
73.0
 30
0.0
 11
-494.5
 21
72.999999999999972
 31
0.0
  0
CIRCLE
  5
2B47
  8
51
 10
-510.0
 20
79.0
 30
0.0
 40
5.4500000000000002
  0
CIRCLE
  5
2B49
  8
51
 10
-510.0
 20
79.0
 30
0.0
 40
3.4500000000000002
  0
LINE
  5
2B4A
  8
53
  6
DASHDOT
 10
-530.0
 20
265.0
 30
0.0
 11
-323.0
 21
265.0
 31
0.0
  0
CIRCLE
  5
2B4B
  8
51
 10
-510.0
 20
451.0
 30
0.0
 40
3.4500000000000002
  0
CIRCLE
  5
2B4C
  8
51
 10
-510.0
 20
451.0
 30
0.0
 40
5.4500000000000002
  0
LINE
  5
2B4D
  8
51
 10
-516.0
 20
435.5
 30
0.0
 11
-503.57968978321708
 21
435.5
 31
0.0
  0
LINE
  5
2B4E
  8
51
 10
-516.0
 20
438.0
 30
0.0
 11
-504.61522368914979
 21
438.0
 31
0.0
  0
LINE
  5
2B50
  8
51
 10
-516.0
 20
438.0
 30
0.0
 11
-516.0
 21
435.5
 31
0.0
  0
LINE
  5
2B51
  8
51
 10
-494.5
 20
457.0
 30
0.0
 11
-494.49999999999989
 21
444.57968978321708
 31
0.0
  0
LINE
  5
2B52
  8
51
 10
-497.0
 20
457.0
 30
0.0
 11
-496.99999999999977
 21
445.61522368914979
 31
0.0
  0
LINE
  5
2B53
  8
51
 10
-497.0
 20
457.0
 30
0.0
 11
-494.5
 21
457.0
 31
0.0
  0
LINE
  5
2B57
  8
21
 10
174.0
 20
493.0
 30
0.0
 11
374.0
 21
493.0
 31
0.0
  0
LINE
  5
2B58
  8
21
 10
174.0
 20
493.0
 30
0.0
 11
174.0
 21
623.0
 31
0.0
  0
LINE
  5
2B59
  8
21
 10
174.0
 20
623.0
 30
0.0
 11
374.0
 21
623.0
 31
0.0
  0
LINE
  5
2B5A
  8
21
 10
178.0
 20
620.5
 30
0.0
 11
374.0
 21
620.5
 31
0.0
  0
LINE
  5
2B5B
  8
21
 10
178.0
 20
495.5
 30
0.0
 11
374.0
 21
495.5
 31
0.0
  0
LINE
  5
2B5C
  8
21
 10
176.0
 20
497.5
 30
0.0
 11
176.0
 21
618.5
 31
0.0
  0
ARC
  5
2B5D
  8
21
 10
178.0
 20
497.5
 30
0.0
 40
2.0
 50
180.0
 51
270.0
  0
ARC
  5
2B5E
  8
21
 10
178.0
 20
618.5
 30
0.0
 40
2.0
 50
90.0
 51
180.0
  0
LINE
  5
2C4E
  8
21
 10
179.80384757729331
 20
626.0
 30
0.0
 11
374.0
 21
626.0
 31
0.0
  0
LINE
  5
2C4F
  8
21
 10
179.0
 20
623.0
 30
0.0
 11
179.80384757729331
 21
626.0
 31
0.0
  0
LINE
  5
2C50
  8
21
 10
182.0
 20
493.0
 30
0.0
 11
182.0
 21
491.0
 31
0.0
  0
LINE
  5
2C51
  8
21
 10
182.0
 20
491.0
 30
0.0
 11
203.59999999999999
 21
491.0
 31
0.0
  0
LINE
  5
2C52
  8
21
 10
203.59999999999999
 20
491.0
 30
0.0
 11
203.59999999999999
 21
493.0
 31
0.0
  0
LINE
  5
2C53
  8
21
 10
201.09999999999999
 20
491.0
 30
0.0
 11
201.09999999999999
 21
493.0
 31
0.0
  0
LINE
  5
2C54
  8
21
 10
192.59999999999999
 20
491.0
 30
0.0
 11
192.59999999999999
 21
493.0
 31
0.0
  0
LINE
  5
2C56
  8
21
 10
224.0
 20
491.0
 30
0.0
 11
227.49999999999989
 21
491.0
 31
0.0
  0
LINE
  5
2C57
  8
21
 10
227.49999999999989
 20
491.0
 30
0.0
 11
228.6547005383793
 21
493.0
 31
0.0
  0
LINE
  5
2C58
  8
21
 10
224.0
 20
491.0
 30
0.0
 11
220.5
 21
491.0
 31
0.0
  0
LINE
  5
2C59
  8
21
 10
220.5
 20
491.0
 30
0.0
 11
219.34529946162061
 21
493.0
 31
0.0
  0
LINE
  5
2C5A
  8
21
 10
274.0
 20
491.0
 30
0.0
 11
270.5
 21
491.0
 31
0.0
  0
LINE
  5
2C5B
  8
21
 10
270.5
 20
491.0
 30
0.0
 11
269.34529946162058
 21
493.0
 31
0.0
  0
LINE
  5
2C5C
  8
21
 10
277.49999999999989
 20
491.0
 30
0.0
 11
278.6547005383793
 21
493.0
 31
0.0
  0
LINE
  5
2C5D
  8
21
 10
274.0
 20
491.0
 30
0.0
 11
277.49999999999989
 21
491.0
 31
0.0
  0
LINE
  5
2C5F
  8
21
 10
324.0
 20
491.0
 30
0.0
 11
320.5
 21
491.0
 31
0.0
  0
LINE
  5
2C60
  8
21
 10
320.5
 20
491.0
 30
0.0
 11
319.34529946162058
 21
493.0
 31
0.0
  0
LINE
  5
2C61
  8
21
 10
327.49999999999989
 20
491.0
 30
0.0
 11
328.6547005383793
 21
493.0
 31
0.0
  0
LINE
  5
2C62
  8
21
 10
324.0
 20
491.0
 30
0.0
 11
327.49999999999989
 21
491.0
 31
0.0
  0
LINE
  5
2C64
  8
21
 10
374.0
 20
491.0
 30
0.0
 11
370.5
 21
491.0
 31
0.0
  0
LINE
  5
2C65
  8
21
 10
370.5
 20
491.0
 30
0.0
 11
369.34529946162058
 21
493.0
 31
0.0
  0
LINE
  5
2C66
  8
21
 10
377.49999999999989
 20
491.0
 30
0.0
 11
378.6547005383793
 21
493.0
 31
0.0
  0
LINE
  5
2C67
  8
21
 10
374.0
 20
491.0
 30
0.0
 11
377.49999999999989
 21
491.0
 31
0.0
  0
LINE
  5
2C69
  8
21
 10
424.0
 20
491.0
 30
0.0
 11
420.5
 21
491.0
 31
0.0
  0
LINE
  5
2C6A
  8
21
 10
420.5
 20
491.0
 30
0.0
 11
419.34529946162058
 21
493.0
 31
0.0
  0
LINE
  5
2C6B
  8
21
 10
427.5
 20
491.0
 30
0.0
 11
428.6547005383793
 21
493.0
 31
0.0
  0
LINE
  5
2C6C
  8
21
 10
424.0
 20
491.0
 30
0.0
 11
427.5
 21
491.0
 31
0.0
  0
LINE
  5
2C6E
  8
21
 10
474.0
 20
491.0
 30
0.0
 11
470.5
 21
491.0
 31
0.0
  0
LINE
  5
2C6F
  8
21
 10
470.5
 20
491.0
 30
0.0
 11
469.3452994616207
 21
493.0
 31
0.0
  0
LINE
  5
2C70
  8
21
 10
477.5
 20
491.0
 30
0.0
 11
478.65470053837919
 21
493.0
 31
0.0
  0
LINE
  5
2C71
  8
21
 10
474.0
 20
491.0
 30
0.0
 11
477.5
 21
491.0
 31
0.0
  0
LINE
  5
2C73
  8
21
 10
524.0
 20
491.0
 30
0.0
 11
520.5
 21
491.0
 31
0.0
  0
LINE
  5
2C74
  8
21
 10
520.5
 20
491.0
 30
0.0
 11
519.34529946162058
 21
493.0
 31
0.0
  0
LINE
  5
2C75
  8
21
 10
527.5
 20
491.0
 30
0.0
 11
528.6547005383793
 21
493.0
 31
0.0
  0
LINE
  5
2C76
  8
21
 10
524.0
 20
491.0
 30
0.0
 11
527.5
 21
491.0
 31
0.0
  0
LINE
  5
2C78
  8
23
  6
DASHDOT
 10
374.0
 20
630.0
 30
0.0
 11
374.0
 21
486.0
 31
0.0
  0
LINE
  5
2C79
  8
21
 10
568.19615242270663
 20
626.0
 30
0.0
 11
374.0
 21
626.0
 31
0.0
  0
LINE
  5
2C7A
  8
21
 10
570.0
 20
620.5
 30
0.0
 11
374.0
 21
620.5
 31
0.0
  0
LINE
  5
2C7B
  8
21
 10
570.0
 20
495.5
 30
0.0
 11
374.0
 21
495.5
 31
0.0
  0
LINE
  5
2C7C
  8
21
 10
574.0
 20
623.0
 30
0.0
 11
374.0
 21
623.0
 31
0.0
  0
LINE
  5
2C7D
  8
21
 10
574.0
 20
493.0
 30
0.0
 11
374.0
 21
493.0
 31
0.0
  0
LINE
  5
2C7F
  8
21
 10
572.0
 20
497.5
 30
0.0
 11
572.0
 21
618.5
 31
0.0
  0
LINE
  5
2C80
  8
21
 10
574.0
 20
493.0
 30
0.0
 11
574.0
 21
623.0
 31
0.0
  0
LINE
  5
2C81
  8
21
 10
566.0
 20
491.0
 30
0.0
 11
544.39999999999986
 21
491.0
 31
0.0
  0
LINE
  5
2C82
  8
21
 10
566.0
 20
493.0
 30
0.0
 11
566.0
 21
491.0
 31
0.0
  0
ARC
  5
2C83
  8
21
 10
570.0
 20
497.5
 30
0.0
 40
2.0
 50
270.0
 51
0.0
  0
LINE
  5
2C84
  8
21
 10
555.39999999999998
 20
491.0
 30
0.0
 11
555.39999999999998
 21
493.0
 31
0.0
  0
LINE
  5
2C85
  8
21
 10
546.89999999999998
 20
491.0
 30
0.0
 11
546.89999999999998
 21
493.0
 31
0.0
  0
LINE
  5
2C86
  8
21
 10
544.39999999999986
 20
491.0
 30
0.0
 11
544.39999999999986
 21
493.0
 31
0.0
  0
LINE
  5
2C87
  8
21
 10
569.0
 20
623.0
 30
0.0
 11
568.19615242270663
 21
626.0
 31
0.0
  0
ARC
  5
2C88
  8
21
 10
570.0
 20
618.5
 30
0.0
 40
2.0
 50
0.0
 51
90.0
  0
LINE
  5
2CFE
  8
51
 10
-420.0
 20
447.37118114027578
 30
0.0
 11
-420.0
 21
459.0
 31
0.0
  0
LINE
  5
2CFF
  8
51
 10
-428.0
 20
447.37118114027589
 30
0.0
 11
-428.0
 21
459.0
 31
0.0
  0
LINE
  5
2D00
  8
51
 10
-378.0
 20
447.37118114027578
 30
0.0
 11
-378.0
 21
459.0
 31
0.0
  0
LINE
  5
2D01
  8
51
 10
-370.0
 20
447.37118114027578
 30
0.0
 11
-370.0
 21
459.0
 31
0.0
  0
LINE
  5
2D03
  8
51
 10
-328.0
 20
82.628818859724106
 30
0.0
 11
-328.0
 21
71.0
 31
0.0
  0
LINE
  5
2D04
  8
51
 10
-328.0
 20
71.0
 30
0.0
 11
-324.0
 21
71.0
 31
0.0
  0
LINE
  5
2D06
  8
51
 10
-328.0
 20
447.37118114027578
 30
0.0
 11
-328.0
 21
459.0
 31
0.0
  0
LINE
  5
2D07
  8
51
 10
-328.00000000000011
 20
459.0
 30
0.0
 11
-324.0
 21
458.99999999999989
 31
0.0
  0
ARC
  5
4450
  8
61
 10
565.0
 20
88.499999999999986
 30
0.0
 40
1.0
 50
270.0
 51
0.0
  0
ARC
  5
4451
  8
62
 10
565.0
 20
84.0
 30
0.0
 40
1.0
 50
0.0
 51
90.0
  0
ARC
  5
4452
  8
62
 10
555.0
 20
74.0
 30
0.0
 40
1.0
 50
180.0
 51
270.0
  0
ARC
  5
4453
  8
61
 10
550.49999999999989
 20
74.0
 30
0.0
 40
1.0
 50
270.0
 51
0.0
  0
ARC
  5
45EA
  8
61
 10
183.0
 20
88.499999999999986
 30
0.0
 40
1.0
 50
180.0
 51
270.0
  0
ARC
  5
45EB
  8
62
 10
183.0
 20
84.0
 30
0.0
 40
1.0
 50
90.0
 51
180.0
  0
ARC
  5
45EC
  8
62
 10
193.0
 20
74.0
 30
0.0
 40
1.0
 50
270.0
 51
0.0
  0
ARC
  5
45ED
  8
61
 10
197.5
 20
74.0
 30
0.0
 40
1.0
 50
180.0
 51
270.0
  0
ARC
  5
47E7
  8
61
 10
183.0
 20
441.5
 30
0.0
 40
1.0
 50
90.0
 51
180.0
  0
ARC
  5
47E8
  8
62
 10
183.0
 20
446.0
 30
0.0
 40
1.0
 50
180.0
 51
270.0
  0
ARC
  5
47E9
  8
61
 10
197.5
 20
456.0
 30
0.0
 40
1.0
 50
90.0
 51
180.0
  0
ARC
  5
47EA
  8
62
 10
193.0
 20
456.0
 30
0.0
 40
1.0
 50
0.0
 51
90.0
  0
ARC
  5
4FA5
  8
61
 10
550.49999999999989
 20
456.0
 30
0.0
 40
1.0
 50
0.0
 51
90.0
  0
ARC
  5
4FA6
  8
62
 10
555.0
 20
456.0
 30
0.0
 40
1.0
 50
90.0
 51
180.0
  0
ARC
  5
4FA7
  8
62
 10
565.0
 20
446.0
 30
0.0
 40
1.0
 50
270.0
 51
0.0
  0
ARC
  5
4FA8
  8
61
 10
565.0
 20
441.5
 30
0.0
 40
1.0
 50
0.0
 51
90.0
  0
LINE
  5
52FC
  8
62
 10
554.0
 20
75.0
 30
0.0
 11
554.0
 21
74.0
 31
0.0
  0
LINE
  5
52FD
  8
61
 10
551.49999999999989
 20
75.0
 30
0.0
 11
551.49999999999989
 21
74.0
 31
0.0
  0
LINE
  5
52FF
  8
61
 10
564.0
 20
87.5
 30
0.0
 11
565.0
 21
87.5
 31
0.0
  0
LINE
  5
5300
  8
62
 10
564.0
 20
85.0
 30
0.0
 11
565.0
 21
85.0
 31
0.0
  0
LINE
  5
5553
  8
63
  6
DASHDOT
 10
164.95640593670089
 20
265.0
 30
0.0
 11
389.956405936701
 21
265.0
 31
0.0
  0
INSERT
  5
9C4F
  8
AME_FRZ
  2
AME_NIL
 10
0.0
 20
0.0
 30
0.0
  0
INSERT
  5
9C50
  8
AME_FRZ
  2
AME_SOL
 10
0.0
 20
0.0
 30
0.0
1001
AME_SOL
1000
R2.1
1000
AME2
1000
sq cm
1070
     3
1070
     0
1070
     3
1000
wire
1040
45.0
1000
U
1040
1.0
1000
cm
1000
gm
1000
MILD_STEEL
1070
    25
1000
CSG
1070
     1
1070
     3
1070
     3
1070
     3
1070
     0
1000
cu cm
1070
     1
1070
     0
1005
9C4F
  0
LINE
  5
16564
  8
24
 10
551.49999999999989
 20
626.0
 30
0.0
 11
551.49999999999989
 21
497.0
 31
0.0
  0
LINE
  5
16565
  8
24
 10
550.49999999999989
 20
496.0
 30
0.0
 11
374.0
 21
496.0
 31
0.0
  0
ARC
  5
16566
  8
24
 10
550.49999999999989
 20
497.0
 30
0.0
 40
1.0
 50
270.0
 51
0.0
  0
LINE
  5
1657D
  8
24
 10
197.5
 20
496.0
 30
0.0
 11
374.0
 21
496.0
 31
0.0
  0
LINE
  5
16582
  8
24
 10
196.5
 20
626.0
 30
0.0
 11
196.5
 21
497.0
 31
0.0
  0
ARC
  5
16583
  8
24
 10
197.5
 20
497.0
 30
0.0
 40
1.0
 50
180.0
 51
270.0
  0
LINE
  5
16598
  8
24
 10
534.00000000000011
 20
502.0
 30
0.0
 11
524.0
 21
502.0
 31
0.0
  0
LINE
  5
16599
  8
24
 10
529.0
 20
502.0
 30
0.0
 11
529.10473038956934
 21
496.0
 31
0.0
  0
LINE
  5
1659A
  8
24
 10
519.0
 20
502.0
 30
0.0
 11
518.89526961043066
 21
496.0
 31
0.0
  0
LINE
  5
1659B
  8
24
 10
514.0
 20
502.0
 30
0.0
 11
513.89526961043055
 21
496.0
 31
0.0
  0
LINE
  5
1659C
  8
24
 10
514.0
 20
502.0
 30
0.0
 11
524.0
 21
502.0
 31
0.0
  0
LINE
  5
1659D
  8
24
 10
534.00000000000011
 20
502.0
 30
0.0
 11
534.10473038956934
 21
496.0
 31
0.0
  0
LINE
  5
167DC
  8
34
 10
642.0
 20
154.9999999999998
 30
0.0
 11
642.0
 21
165.0
 31
0.0
  0
LINE
  5
167DD
  8
34
 10
636.0
 20
88.499999999999986
 30
0.0
 11
636.0
 21
265.0
 31
0.0
  0
LINE
  5
167DE
  8
31
 10
633.0
 20
65.0
 30
0.0
 11
633.0
 21
265.0
 31
0.0
  0
LINE
  5
167DF
  8
31
 10
763.0
 20
65.0
 30
0.0
 11
763.0
 21
265.0
 31
0.0
  0
LINE
  5
167E0
  8
31
 10
635.5
 20
69.0
 30
0.0
 11
635.5
 21
265.0
 31
0.0
  0
LINE
  5
167E1
  8
31
 10
760.5
 20
69.0
 30
0.0
 11
760.5
 21
265.0
 31
0.0
  0
LINE
  5
167E2
  8
31
 10
766.0
 20
70.803847577293368
 30
0.0
 11
766.0
 21
265.0
 31
0.0
  0
LINE
  5
167E4
  8
34
 10
636.0
 20
441.5
 30
0.0
 11
636.0
 21
265.0
 31
0.0
  0
LINE
  5
167E5
  8
31
 10
766.0
 20
459.19615242270658
 30
0.0
 11
766.0
 21
265.0
 31
0.0
  0
LINE
  5
167E6
  8
31
 10
635.5
 20
461.0
 30
0.0
 11
635.5
 21
265.0
 31
0.0
  0
LINE
  5
167E7
  8
31
 10
760.5
 20
461.0
 30
0.0
 11
760.5
 21
265.0
 31
0.0
  0
LINE
  5
167E8
  8
31
 10
763.0
 20
465.0
 30
0.0
 11
763.0
 21
265.0
 31
0.0
  0
LINE
  5
167E9
  8
31
 10
633.0
 20
465.0
 30
0.0
 11
633.0
 21
265.0
 31
0.0
  0
LINE
  5
167EE
  8
31
 10
637.5
 20
463.0
 30
0.0
 11
758.49999999999989
 21
463.0
 31
0.0
  0
LINE
  5
167EF
  8
31
 10
633.0
 20
465.0
 30
0.0
 11
763.0
 21
465.0
 31
0.0
  0
LINE
  5
167F1
  8
34
 10
766.0
 20
442.49999999999989
 30
0.0
 11
637.0
 21
442.49999999999989
 31
0.0
  0
ARC
  5
167F2
  8
31
 10
637.5
 20
461.0
 30
0.0
 40
2.0
 50
90.0
 51
180.0
  0
ARC
  5
167F8
  8
34
 10
637.0
 20
441.5
 30
0.0
 40
1.0
 50
90.0
 51
180.0
  0
LINE
  5
1680B
  8
31
 10
763.0
 20
460.0
 30
0.0
 11
766.0
 21
459.19615242270658
 31
0.0
  0
ARC
  5
1680C
  8
31
 10
758.49999999999989
 20
461.0
 30
0.0
 40
2.0
 50
0.0
 51
90.0
  0
LINE
  5
16812
  8
33
  6
DASHDOT
 10
770.0
 20
265.0
 30
0.0
 11
626.0
 21
265.0
 31
0.0
  0
LINE
  5
16823
  8
34
 10
642.0
 20
175.0
 30
0.0
 11
636.0
 21
175.10473038956931
 31
0.0
  0
LINE
  5
16824
  8
34
 10
642.0
 20
170.0
 30
0.0
 11
636.0
 21
170.10473038956931
 31
0.0
  0
LINE
  5
1682B
  8
34
 10
642.0
 20
175.0
 30
0.0
 11
642.0
 21
165.0
 31
0.0
  0
LINE
  5
16830
  8
31
 10
633.0
 20
65.0
 30
0.0
 11
763.0
 21
65.0
 31
0.0
  0
LINE
  5
16831
  8
31
 10
637.5
 20
67.0
 30
0.0
 11
758.49999999999989
 21
67.0
 31
0.0
  0
LINE
  5
16832
  8
34
 10
642.0
 20
160.0
 30
0.0
 11
636.0
 21
159.8952696104306
 31
0.0
  0
LINE
  5
16833
  8
34
 10
642.0
 20
154.9999999999998
 30
0.0
 11
636.0
 21
154.8952696104306
 31
0.0
  0
LINE
  5
16834
  8
34
 10
766.0
 20
87.5
 30
0.0
 11
637.0
 21
87.5
 31
0.0
  0
ARC
  5
16835
  8
31
 10
637.5
 20
69.0
 30
0.0
 40
2.0
 50
180.0
 51
270.0
  0
ARC
  5
16838
  8
34
 10
637.0
 20
88.499999999999986
 30
0.0
 40
1.0
 50
180.0
 51
270.0
  0
ARC
  5
16851
  8
31
 10
758.49999999999989
 20
69.0
 30
0.0
 40
2.0
 50
270.0
 51
0.0
  0
LINE
  5
16852
  8
31
 10
763.0
 20
70.0
 30
0.0
 11
766.0
 21
70.803847577293368
 31
0.0
  0
LINE
  5
16854
  8
51
 10
-124.0
 20
265.0
 30
0.0
 11
-124.0
 21
462.5
 31
0.0
  0
LINE
  5
16855
  8
53
  6
DASHDOT
 10
-118.0
 20
265.0
 30
0.0
 11
-325.0
 21
265.0
 31
0.0
  0
LINE
  5
16857
  8
51
 10
-126.5
 20
65.0
 30
0.0
 11
-325.0
 21
65.0
 31
0.0
  0
LINE
  5
1685C
  8
51
 10
-124.0
 20
265.0
 30
0.0
 11
-124.0
 21
67.5
 31
0.0
  0
CIRCLE
  5
1685D
  8
51
 10
-144.0
 20
165.0
 30
0.0
 40
4.6500000000000004
  0
CIRCLE
  5
1685E
  8
51
 10
-144.0
 20
165.0
 30
0.0
 40
3.5
  0
ARC
  5
1685F
  8
51
 10
-126.5
 20
67.5
 30
0.0
 40
2.5
 50
270.0
 51
0.0
  0
CIRCLE
  5
16862
  8
51
 10
-138.0
 20
79.0
 30
0.0
 40
3.4500000000000002
  0
CIRCLE
  5
16863
  8
51
 10
-138.0
 20
79.0
 30
0.0
 40
5.4500000000000002
  0
LINE
  5
16864
  8
51
 10
-153.5
 20
72.999999999999972
 30
0.0
 11
-153.50000000000011
 21
85.420310216782809
 31
0.0
  0
LINE
  5
16865
  8
51
 10
-151.0
 20
73.0
 30
0.0
 11
-151.00000000000011
 21
84.384776310850114
 31
0.0
  0
LINE
  5
16866
  8
51
 10
-151.0
 20
73.0
 30
0.0
 11
-153.5
 21
72.999999999999972
 31
0.0
  0
LINE
  5
16867
  8
51
 10
-132.0
 20
94.500000000000014
 30
0.0
 11
-144.42031021678281
 21
94.500000000000014
 31
0.0
  0
LINE
  5
16868
  8
51
 10
-132.0
 20
92.0
 30
0.0
 11
-143.3847763108501
 21
92.0
 31
0.0
  0
LINE
  5
16869
  8
51
 10
-132.0
 20
92.0
 30
0.0
 11
-132.0
 21
94.500000000000014
 31
0.0
  0
LINE
  5
1686A
  8
51
 10
-141.62881885972411
 20
219.0
 30
0.0
 11
-130.0
 21
219.0
 31
0.0
  0
LINE
  5
1686B
  8
51
 10
-130.0
 20
211.0
 30
0.0
 11
-141.62881885972411
 21
211.0
 31
0.0
  0
LINE
  5
1686C
  8
51
 10
-130.0
 20
219.0
 30
0.0
 11
-130.0
 21
211.0
 31
0.0
  0
CIRCLE
  5
1686D
  8
51
 10
-144.0
 20
215.0
 30
0.0
 40
4.6500000000000004
  0
CIRCLE
  5
1686E
  8
51
 10
-144.0
 20
215.0
 30
0.0
 40
3.5
  0
LINE
  5
1686F
  8
51
 10
-141.62881885972419
 20
260.99999999999989
 30
0.0
 11
-130.0
 21
260.99999999999989
 31
0.0
  0
LINE
  5
16870
  8
51
 10
-130.0
 20
268.99999999999989
 30
0.0
 11
-141.62881885972391
 21
268.99999999999989
 31
0.0
  0
LINE
  5
16871
  8
51
 10
-130.0
 20
260.99999999999989
 30
0.0
 11
-130.0
 21
268.99999999999989
 31
0.0
  0
CIRCLE
  5
16872
  8
51
 10
-144.0
 20
265.0
 30
0.0
 40
4.6500000000000004
  0
CIRCLE
  5
16873
  8
51
 10
-144.0
 20
265.0
 30
0.0
 40
3.5
  0
CIRCLE
  5
16878
  8
51
 10
-174.0
 20
85.0
 30
0.0
 40
4.6500000000000004
  0
CIRCLE
  5
16879
  8
51
 10
-174.0
 20
85.0
 30
0.0
 40
3.5
  0
CIRCLE
  5
1687A
  8
51
 10
-224.0
 20
85.0
 30
0.0
 40
3.5
  0
CIRCLE
  5
1687B
  8
51
 10
-224.0
 20
85.0
 30
0.0
 40
4.6500000000000004
  0
LINE
  5
1687C
  8
51
 10
-228.0
 20
82.628818859724134
 30
0.0
 11
-228.0
 21
71.0
 31
0.0
  0
LINE
  5
1687D
  8
51
 10
-220.0
 20
82.628818859724134
 30
0.0
 11
-220.0
 21
71.0
 31
0.0
  0
LINE
  5
1687E
  8
51
 10
-220.0
 20
71.0
 30
0.0
 11
-228.0
 21
71.0
 31
0.0
  0
CIRCLE
  5
16882
  8
51
 10
-274.0
 20
85.0
 30
0.0
 40
3.5
  0
CIRCLE
  5
16883
  8
51
 10
-274.0
 20
85.0
 30
0.0
 40
4.6500000000000004
  0
LINE
  5
16884
  8
51
 10
-270.0
 20
82.628818859724134
 30
0.0
 11
-270.0
 21
71.0
 31
0.0
  0
LINE
  5
16885
  8
51
 10
-278.0
 20
82.628818859724134
 30
0.0
 11
-278.0
 21
71.0
 31
0.0
  0
LINE
  5
16886
  8
51
 10
-270.0
 20
71.0
 30
0.0
 11
-278.0
 21
71.0
 31
0.0
  0
LINE
  5
16889
  8
51
 10
-126.5
 20
465.0
 30
0.0
 11
-325.0
 21
465.0
 31
0.0
  0
LINE
  5
1688C
  8
51
 10
-151.0
 20
457.0
 30
0.0
 11
-151.00000000000011
 21
445.61522368914979
 31
0.0
  0
LINE
  5
1688D
  8
51
 10
-153.5
 20
457.0
 30
0.0
 11
-153.50000000000011
 21
444.57968978321708
 31
0.0
  0
CIRCLE
  5
1688E
  8
51
 10
-138.0
 20
451.0
 30
0.0
 40
5.4500000000000002
  0
CIRCLE
  5
1688F
  8
51
 10
-138.0
 20
451.0
 30
0.0
 40
3.4500000000000002
  0
LINE
  5
16890
  8
51
 10
-141.62881885972419
 20
310.99999999999989
 30
0.0
 11
-130.0
 21
310.99999999999989
 31
0.0
  0
LINE
  5
16891
  8
51
 10
-130.0
 20
318.99999999999989
 30
0.0
 11
-141.62881885972391
 21
318.99999999999989
 31
0.0
  0
LINE
  5
16892
  8
51
 10
-130.0
 20
310.99999999999989
 30
0.0
 11
-130.0
 21
318.99999999999989
 31
0.0
  0
CIRCLE
  5
16893
  8
51
 10
-144.0
 20
315.0
 30
0.0
 40
4.6500000000000004
  0
CIRCLE
  5
16894
  8
51
 10
-144.0
 20
315.0
 30
0.0
 40
3.5
  0
CIRCLE
  5
16895
  8
51
 10
-144.0
 20
365.0
 30
0.0
 40
4.6500000000000004
  0
CIRCLE
  5
16896
  8
51
 10
-144.0
 20
365.0
 30
0.0
 40
3.5
  0
LINE
  5
16899
  8
51
 10
-132.0
 20
438.0
 30
0.0
 11
-132.0
 21
435.5
 31
0.0
  0
LINE
  5
1689A
  8
51
 10
-132.0
 20
435.5
 30
0.0
 11
-144.42031021678281
 21
435.5
 31
0.0
  0
LINE
  5
1689B
  8
51
 10
-132.0
 20
438.0
 30
0.0
 11
-143.3847763108501
 21
438.0
 31
0.0
  0
ARC
  5
1689C
  8
51
 10
-126.5
 20
462.5
 30
0.0
 40
2.5
 50
0.0
 51
90.0
  0
LINE
  5
1689D
  8
51
 10
-151.0
 20
457.0
 30
0.0
 11
-153.5
 21
457.0
 31
0.0
  0
LINE
  5
1689E
  8
51
 10
-278.0
 20
447.37118114027578
 30
0.0
 11
-278.0
 21
459.0
 31
0.0
  0
LINE
  5
1689F
  8
51
 10
-270.0
 20
447.37118114027578
 30
0.0
 11
-270.0
 21
459.0
 31
0.0
  0
LINE
  5
168A0
  8
51
 10
-220.0
 20
447.37118114027589
 30
0.0
 11
-220.0
 21
459.0
 31
0.0
  0
LINE
  5
168A1
  8
51
 10
-228.0
 20
447.37118114027578
 30
0.0
 11
-228.0
 21
459.0
 31
0.0
  0
CIRCLE
  5
168A7
  8
51
 10
-174.0
 20
445.0
 30
0.0
 40
3.5
  0
CIRCLE
  5
168A8
  8
51
 10
-174.0
 20
445.0
 30
0.0
 40
4.6500000000000004
  0
CIRCLE
  5
168A9
  8
51
 10
-224.0
 20
445.0
 30
0.0
 40
3.5
  0
CIRCLE
  5
168AA
  8
51
 10
-224.0
 20
445.0
 30
0.0
 40
4.6500000000000004
  0
CIRCLE
  5
168AD
  8
51
 10
-274.0
 20
445.0
 30
0.0
 40
3.5
  0
CIRCLE
  5
168AE
  8
51
 10
-274.0
 20
445.0
 30
0.0
 40
4.6500000000000004
  0
LINE
  5
168AF
  8
51
 10
-220.0
 20
459.0
 30
0.0
 11
-228.0
 21
459.0
 31
0.0
  0
LINE
  5
168B0
  8
51
 10
-269.99999999999977
 20
459.0
 30
0.0
 11
-278.0
 21
459.0
 31
0.0
  0
LINE
  5
168B1
  8
51
 10
-320.0
 20
447.37118114027578
 30
0.0
 11
-320.0
 21
459.0
 31
0.0
  0
ARC
  5
168B3
  8
51
 10
-324.0
 20
445.0
 30
0.0
 40
4.6500000000000004
 50
270.0
 51
90.0
  0
ARC
  5
168B4
  8
51
 10
-324.0
 20
445.0
 30
0.0
 40
3.5
 50
270.0
 51
90.0
  0
LINE
  5
168B5
  8
51
 10
-319.99999999999977
 20
459.0
 30
0.0
 11
-324.0
 21
458.99999999999989
 31
0.0
  0
ARC
  5
168B7
  8
51
 10
-324.0
 20
85.0
 30
0.0
 40
3.5
 50
270.0
 51
90.0
  0
ARC
  5
168B8
  8
51
 10
-324.0
 20
85.0
 30
0.0
 40
4.6500000000000004
 50
270.0
 51
90.0
  0
LINE
  5
168B9
  8
51
 10
-320.0
 20
82.628818859724106
 30
0.0
 11
-320.0
 21
71.0
 31
0.0
  0
LINE
  5
168BA
  8
51
 10
-320.0
 20
71.0
 30
0.0
 11
-324.0
 21
71.0
 31
0.0
  0
LINE
  5
1692B
  8
11
 10
182.0
 20
39.0
 30
0.0
 11
203.59999999999999
 21
39.0
 31
0.0
  0
LINE
  5
1692C
  8
11
 10
174.0
 20
37.0
 30
0.0
 11
374.0
 21
37.0
 31
0.0
  0
LINE
  5
1692D
  8
11
 10
174.0
 20
-93.0
 30
0.0
 11
374.0
 21
-93.0
 31
0.0
  0
LINE
  5
1692E
  8
11
 10
178.0
 20
-90.5
 30
0.0
 11
374.0
 21
-90.5
 31
0.0
  0
LINE
  5
1692F
  8
11
 10
178.0
 20
34.5
 30
0.0
 11
374.0
 21
34.5
 31
0.0
  0
LINE
  5
16930
  8
11
 10
179.80384757729331
 20
-96.0
 30
0.0
 11
374.0
 21
-96.0
 31
0.0
  0
LINE
  5
16931
  8
11
 10
174.0
 20
37.0
 30
0.0
 11
174.0
 21
-93.0
 31
0.0
  0
LINE
  5
16932
  8
11
 10
176.0
 20
32.5
 30
0.0
 11
176.0
 21
-88.499999999999986
 31
0.0
  0
LINE
  5
16936
  8
11
 10
182.0
 20
37.0
 30
0.0
 11
182.0
 21
39.0
 31
0.0
  0
ARC
  5
16937
  8
11
 10
178.0
 20
32.5
 30
0.0
 40
2.0
 50
90.0
 51
180.0
  0
LINE
  5
1693C
  8
11
 10
179.0
 20
-93.0
 30
0.0
 11
179.80384757729331
 21
-96.0
 31
0.0
  0
ARC
  5
1693F
  8
11
 10
178.0
 20
-88.499999999999986
 30
0.0
 40
2.0
 50
180.0
 51
270.0
  0
LINE
  5
16943
  8
13
  6
DASHDOT
 10
374.0
 20
-100.0
 30
0.0
 11
374.0
 21
44.0
 31
0.0
  0
LINE
  5
16944
  8
11
 10
572.0
 20
32.5
 30
0.0
 11
572.0
 21
-88.499999999999986
 31
0.0
  0
LINE
  5
16945
  8
11
 10
574.0
 20
37.0
 30
0.0
 11
574.0
 21
-93.0
 31
0.0
  0
LINE
  5
1694C
  8
11
 10
570.0
 20
34.5
 30
0.0
 11
374.0
 21
34.5
 31
0.0
  0
LINE
  5
1694D
  8
11
 10
574.0
 20
37.0
 30
0.0
 11
374.0
 21
37.0
 31
0.0
  0
LINE
  5
1694E
  8
14
 10
550.49999999999989
 20
34.0
 30
0.0
 11
374.0
 21
34.0
 31
0.0
  0
LINE
  5
1694F
  8
14
 10
197.5
 20
34.0
 30
0.0
 11
374.0
 21
34.0
 31
0.0
  0
LINE
  5
16950
  8
14
 10
196.5
 20
-96.0
 30
0.0
 11
196.5
 21
33.0
 31
0.0
  0
LINE
  5
16951
  8
11
 10
192.59999999999999
 20
39.0
 30
0.0
 11
192.59999999999999
 21
37.0
 31
0.0
  0
LINE
  5
16952
  8
11
 10
203.59999999999999
 20
39.0
 30
0.0
 11
203.59999999999999
 21
37.0
 31
0.0
  0
LINE
  5
16953
  8
11
 10
201.09999999999999
 20
39.0
 30
0.0
 11
201.09999999999999
 21
37.0
 31
0.0
  0
ARC
  5
16954
  8
14
 10
197.5
 20
33.0
 30
0.0
 40
1.0
 50
90.0
 51
180.0
  0
LINE
  5
16955
  8
11
 10
227.49999999999989
 20
39.0
 30
0.0
 11
228.6547005383793
 21
37.0
 31
0.0
  0
LINE
  5
16956
  8
11
 10
224.0
 20
39.0
 30
0.0
 11
220.5
 21
39.0
 31
0.0
  0
LINE
  5
16957
  8
11
 10
220.5
 20
39.0
 30
0.0
 11
219.34529946162061
 21
37.0
 31
0.0
  0
LINE
  5
16958
  8
11
 10
224.0
 20
39.0
 30
0.0
 11
227.49999999999989
 21
39.0
 31
0.0
  0
LINE
  5
1695C
  8
11
 10
270.5
 20
39.0
 30
0.0
 11
269.34529946162058
 21
37.0
 31
0.0
  0
LINE
  5
1695D
  8
11
 10
274.0
 20
39.0
 30
0.0
 11
270.5
 21
39.0
 31
0.0
  0
LINE
  5
1695E
  8
11
 10
277.49999999999989
 20
39.0
 30
0.0
 11
278.6547005383793
 21
37.0
 31
0.0
  0
LINE
  5
1695F
  8
11
 10
274.0
 20
39.0
 30
0.0
 11
277.49999999999989
 21
39.0
 31
0.0
  0
LINE
  5
16960
  8
11
 10
324.0
 20
39.0
 30
0.0
 11
327.49999999999989
 21
39.0
 31
0.0
  0
LINE
  5
16961
  8
11
 10
320.5
 20
39.0
 30
0.0
 11
319.34529946162058
 21
37.0
 31
0.0
  0
LINE
  5
16962
  8
11
 10
324.0
 20
39.0
 30
0.0
 11
320.5
 21
39.0
 31
0.0
  0
LINE
  5
16963
  8
11
 10
327.49999999999989
 20
39.0
 30
0.0
 11
328.6547005383793
 21
37.0
 31
0.0
  0
LINE
  5
16964
  8
11
 10
374.0
 20
39.0
 30
0.0
 11
370.5
 21
39.0
 31
0.0
  0
LINE
  5
16965
  8
11
 10
370.5
 20
39.0
 30
0.0
 11
369.3452994616207
 21
37.0
 31
0.0
  0
LINE
  5
16966
  8
11
 10
374.0
 20
39.0
 30
0.0
 11
377.49999999999989
 21
39.0
 31
0.0
  0
LINE
  5
16967
  8
11
 10
377.49999999999989
 20
39.0
 30
0.0
 11
378.65470053837919
 21
37.0
 31
0.0
  0
LINE
  5
16968
  8
14
 10
514.0
 20
28.0
 30
0.0
 11
524.0
 21
28.0
 31
0.0
  0
LINE
  5
16969
  8
11
 10
524.0
 20
39.0
 30
0.0
 11
520.5
 21
39.0
 31
0.0
  0
LINE
  5
1696A
  8
11
 10
424.0
 20
39.0
 30
0.0
 11
420.5
 21
39.0
 31
0.0
  0
LINE
  5
1696B
  8
11
 10
420.5
 20
39.0
 30
0.0
 11
419.3452994616207
 21
37.0
 31
0.0
  0
LINE
  5
1696C
  8
11
 10
427.5
 20
39.0
 30
0.0
 11
428.65470053837919
 21
37.0
 31
0.0
  0
LINE
  5
1696D
  8
11
 10
424.0
 20
39.0
 30
0.0
 11
427.5
 21
39.0
 31
0.0
  0
LINE
  5
1696E
  8
11
 10
477.5
 20
39.0
 30
0.0
 11
478.65470053837919
 21
37.0
 31
0.0
  0
LINE
  5
1696F
  8
11
 10
470.5
 20
39.0
 30
0.0
 11
469.3452994616207
 21
37.0
 31
0.0
  0
LINE
  5
16970
  8
11
 10
474.0
 20
39.0
 30
0.0
 11
470.5
 21
39.0
 31
0.0
  0
LINE
  5
16971
  8
11
 10
474.0
 20
39.0
 30
0.0
 11
477.5
 21
39.0
 31
0.0
  0
LINE
  5
16972
  8
11
 10
520.5
 20
39.0
 30
0.0
 11
519.34529946162058
 21
37.0
 31
0.0
  0
LINE
  5
16973
  8
14
 10
519.0
 20
28.0
 30
0.0
 11
518.89526961043066
 21
34.0
 31
0.0
  0
LINE
  5
16974
  8
14
 10
514.0
 20
28.0
 30
0.0
 11
513.89526961043055
 21
34.0
 31
0.0
  0
LINE
  5
16975
  8
14
 10
551.49999999999989
 20
-96.0
 30
0.0
 11
551.49999999999989
 21
33.0
 31
0.0
  0
LINE
  5
16976
  8
11
 10
566.0
 20
39.0
 30
0.0
 11
544.39999999999986
 21
39.0
 31
0.0
  0
LINE
  5
16977
  8
11
 10
524.0
 20
39.0
 30
0.0
 11
527.5
 21
39.0
 31
0.0
  0
LINE
  5
16978
  8
11
 10
527.5
 20
39.0
 30
0.0
 11
528.6547005383793
 21
37.0
 31
0.0
  0
LINE
  5
16979
  8
11
 10
546.89999999999998
 20
39.0
 30
0.0
 11
546.89999999999998
 21
37.0
 31
0.0
  0
LINE
  5
1697A
  8
11
 10
544.39999999999986
 20
39.0
 30
0.0
 11
544.39999999999986
 21
37.0
 31
0.0
  0
LINE
  5
1697B
  8
14
 10
534.00000000000011
 20
28.0
 30
0.0
 11
534.10473038956934
 21
34.0
 31
0.0
  0
LINE
  5
1697C
  8
14
 10
529.0
 20
28.0
 30
0.0
 11
529.10473038956934
 21
34.0
 31
0.0
  0
LINE
  5
1697D
  8
14
 10
534.00000000000011
 20
28.0
 30
0.0
 11
524.0
 21
28.0
 31
0.0
  0
LINE
  5
1697F
  8
11
 10
555.39999999999998
 20
39.0
 30
0.0
 11
555.39999999999998
 21
37.0
 31
0.0
  0
LINE
  5
16980
  8
11
 10
566.0
 20
37.0
 30
0.0
 11
566.0
 21
39.0
 31
0.0
  0
ARC
  5
16981
  8
14
 10
550.49999999999989
 20
33.0
 30
0.0
 40
1.0
 50
0.0
 51
90.0
  0
ARC
  5
16982
  8
11
 10
570.0
 20
32.5
 30
0.0
 40
2.0
 50
0.0
 51
90.0
  0
LINE
  5
1698B
  8
11
 10
568.19615242270663
 20
-96.0
 30
0.0
 11
374.0
 21
-96.0
 31
0.0
  0
LINE
  5
1698C
  8
11
 10
570.0
 20
-90.5
 30
0.0
 11
374.0
 21
-90.5
 31
0.0
  0
LINE
  5
1698D
  8
11
 10
574.0
 20
-93.0
 30
0.0
 11
374.0
 21
-93.0
 31
0.0
  0
LINE
  5
16996
  8
11
 10
569.0
 20
-93.0
 30
0.0
 11
568.19615242270663
 21
-96.0
 31
0.0
  0
ARC
  5
1699B
  8
11
 10
570.0
 20
-88.499999999999986
 30
0.0
 40
2.0
 50
270.0
 51
0.0
  0
TEXT
  5
169A1
  8
L20
 10
-507.05864064863619
 20
561.33772460043133
 30
0.0
 40
21.283142220845011
  1
FIBOX EKI 44-0 400x400x130 BASE
  0
ARC
  5
169A2
  8
62
 10
564.00000000000011
 20
75.000000000000014
 30
0.0
 40
5.0
 50
270.0
 51
0.0
  0
ARC
  5
169A3
  8
62
 10
564.0
 20
455.0
 30
0.0
 40
5.0
 50
0.0
 51
90.0
  0
CIRCLE
  5
16D97
  8
L1
 10
553.99999999999955
 20
364.99999999999949
 30
0.0
 40
2.3999999999999928
  0
CIRCLE
  5
16D98
  8
L1
 10
553.99999999999955
 20
364.99999999999949
 30
0.0
 40
2.0999999999999939
  0
ARC
  5
16D9A
  8
L1
 10
553.99999999999955
 20
364.99999999999949
 30
0.0
 40
4.9999999999999867
 50
278.62692655867659
 51
81.373073441323356
  0
CIRCLE
  5
16D9B
  8
L1
 10
553.99999999999955
 20
414.99999999999898
 30
0.0
 40
2.3999999999999928
  0
CIRCLE
  5
16D9C
  8
L1
 10
553.99999999999955
 20
414.99999999999898
 30
0.0
 40
2.0999999999999939
  0
ARC
  5
16D9D
  8
L1
 10
553.99999999999955
 20
414.99999999999898
 30
0.0
 40
4.9999999999999867
 50
278.62692655867659
 51
81.373073441323356
  0
CIRCLE
  5
16DA9
  8
L1
 10
553.99999999999955
 20
115.0
 30
0.0
 40
2.3999999999999928
  0
CIRCLE
  5
16DAA
  8
L1
 10
553.99999999999955
 20
115.0
 30
0.0
 40
2.0999999999999939
  0
ARC
  5
16DAC
  8
L1
 10
553.99999999999955
 20
115.0
 30
0.0
 40
4.9999999999999867
 50
278.62692655867659
 51
81.373073441323356
  0
ARC
  5
16DAD
  8
L1
 10
553.99999999999955
 20
265.0
 30
0.0
 40
4.9999999999999867
 50
278.62692655867659
 51
81.373073441323356
  0
CIRCLE
  5
16DAE
  8
L1
 10
553.99999999999955
 20
165.0
 30
0.0
 40
2.3999999999999928
  0
CIRCLE
  5
16DAF
  8
L1
 10
553.99999999999955
 20
165.0
 30
0.0
 40
2.0999999999999939
  0
ARC
  5
16DB1
  8
L1
 10
553.99999999999955
 20
165.0
 30
0.0
 40
4.9999999999999867
 50
278.62692655867659
 51
81.373073441323356
  0
CIRCLE
  5
16DB2
  8
L1
 10
553.99999999999955
 20
265.0
 30
0.0
 40
2.3999999999999928
  0
CIRCLE
  5
16DB3
  8
L1
 10
553.99999999999955
 20
265.0
 30
0.0
 40
2.0999999999999939
  0
CIRCLE
  5
16DB4
  8
L1
 10
553.99999999999955
 20
315.0
 30
0.0
 40
2.0999999999999939
  0
CIRCLE
  5
16DB5
  8
L1
 10
553.99999999999955
 20
315.0
 30
0.0
 40
2.3999999999999928
  0
ARC
  5
16DB6
  8
L1
 10
553.99999999999955
 20
315.0
 30
0.0
 40
4.9999999999999867
 50
278.62692655867659
 51
81.373073441323356
  0
CIRCLE
  5
16DB7
  8
L1
 10
553.99999999999955
 20
215.0
 30
0.0
 40
2.0999999999999939
  0
CIRCLE
  5
16DB8
  8
L1
 10
553.99999999999955
 20
215.0
 30
0.0
 40
2.3999999999999928
  0
ARC
  5
16DB9
  8
L1
 10
553.99999999999955
 20
215.0
 30
0.0
 40
4.9999999999999867
 50
278.62692655867659
 51
81.373073441323356
  0
LINE
  5
16DBD
  8
L1
 10
553.24999999999955
 20
155.0
 30
0.0
 11
553.24999999999955
 21
160.0565700166789
 31
0.0
  0
LINE
  5
16DBE
  8
L1
 10
554.74999999999955
 20
160.0565700166789
 30
0.0
 11
554.74999999999955
 21
155.0
 31
0.0
  0
LINE
  5
16DC0
  8
L1
 10
503.99999999999949
 20
161.0
 30
0.0
 11
503.99999999999949
 21
140.65685424949149
 31
0.0
  0
LINE
  5
16DC1
  8
L1
 10
193.2500000000004
 20
155.0
 30
0.0
 11
193.2500000000004
 21
160.0565700166789
 31
0.0
  0
LINE
  5
16DC2
  8
L1
 10
194.7500000000004
 20
160.0565700166789
 30
0.0
 11
194.7500000000004
 21
155.0
 31
0.0
  0
LINE
  5
16DC6
  8
L1
 10
244.0
 20
161.0
 30
0.0
 11
243.99999999999949
 21
140.656854249491
 31
0.0
  0
LINE
  5
16DCA
  8
L1
 10
344.0
 20
135.0
 30
0.0
 11
327.99999999999949
 21
135.0
 31
0.0
  0
LINE
  5
16DCD
  8
L1
 10
234.0000000000004
 20
84.25
 30
0.0
 11
228.94342998332149
 21
84.25
 31
0.0
  0
LINE
  5
16DCE
  8
L1
 10
228.94342998332149
 20
85.750000000000014
 30
0.0
 11
234.0000000000004
 21
85.750000000000014
 31
0.0
  0
LINE
  5
16DCF
  8
L1
 10
220.33385053542261
 20
116.9907047849137
 30
0.0
 11
244.0000000000004
 21
140.65685424949149
 31
0.0
  0
LINE
  5
16DD0
  8
L1
 10
225.99070478491461
 20
111.3338505354217
 30
0.0
 11
249.6568542494924
 21
135.0
 31
0.0
  0
CIRCLE
  5
16DD2
  8
L1
 10
220.0
 20
111.0000000000004
 30
0.0
 40
2.6000000000000001
  0
CIRCLE
  5
16DD3
  8
L1
 10
209.0
 20
117.4999999999995
 30
0.0
 40
6.0
  0
ARC
  5
16DD4
  8
L1
 10
194.0000000000004
 20
115.0
 30
0.0
 40
4.9999999999999867
 50
98.626926558676629
 51
261.3730734413233
  0
ARC
  5
16DD5
  8
L1
 10
194.0000000000004
 20
115.0
 30
0.0
 40
4.9999999999999867
 50
278.62692655867659
 51
81.373073441323356
  0
CIRCLE
  5
16DD7
  8
L1
 10
220.0
 20
111.0000000000004
 30
0.0
 40
6.0
  0
CIRCLE
  5
16DDA
  8
L1
 10
200.0
 20
91.000000000000455
 30
0.0
 40
6.0
  0
CIRCLE
  5
16DDC
  8
L1
 10
200.0
 20
91.000000000000455
 30
0.0
 40
2.6000000000000001
  0
LINE
  5
16DDD
  8
L1
 10
200.33385053542219
 20
96.990704784914215
 30
0.0
 11
214.0092952150853
 21
110.6661494645768
 31
0.0
  0
LINE
  5
16DF6
  8
L1
 10
194.7500000000004
 20
105.0
 30
0.0
 11
193.2500000000004
 21
105.0
 31
0.0
  0
LINE
  5
16DF9
  8
L1
 10
193.2500000000004
 20
105.0
 30
0.0
 11
193.2500000000004
 21
110.0565700166789
 31
0.0
  0
LINE
  5
16DFA
  8
L1
 10
194.7500000000004
 20
110.0565700166789
 30
0.0
 11
194.7500000000004
 21
105.0
 31
0.0
  0
ARC
  5
16DFF
  8
L1
 10
224.0000000000004
 20
85.0
 30
0.0
 40
4.9999999999999867
 50
188.626926558684
 51
351.37307344131591
  0
ARC
  5
16E00
  8
L1
 10
224.0000000000004
 20
85.0
 30
0.0
 40
4.9999999999999867
 50
8.6269265586840387
 51
171.37307344131591
  0
LINE
  5
16E01
  8
L1
 10
214.0000000000004
 20
85.750000000000014
 30
0.0
 11
214.0000000000004
 21
84.25
 31
0.0
  0
LINE
  5
16E02
  8
L1
 10
214.0000000000004
 20
84.25
 30
0.0
 11
219.05657001667851
 21
84.25
 31
0.0
  0
LINE
  5
16E03
  8
L1
 10
219.05657001667851
 20
85.750000000000014
 30
0.0
 11
214.0000000000004
 21
85.750000000000014
 31
0.0
  0
CIRCLE
  5
16E04
  8
L1
 10
224.0000000000004
 20
85.0
 30
0.0
 40
2.3999999999999928
  0
CIRCLE
  5
16E05
  8
L1
 10
224.0000000000004
 20
85.0
 30
0.0
 40
2.0999999999999939
  0
LINE
  5
16E08
  8
L1
 10
205.99070478491461
 20
91.333850535421789
 30
0.0
 11
219.66614946457821
 21
105.0092952150848
 31
0.0
  0
LINE
  5
16E09
  8
L1
 10
194.7500000000004
 20
155.0
 30
0.0
 11
193.2500000000004
 21
155.0
 31
0.0
  0
CIRCLE
  5
16E0A
  8
L1
 10
194.0000000000004
 20
115.0
 30
0.0
 40
2.3999999999999928
  0
CIRCLE
  5
16E0B
  8
L1
 10
194.0000000000004
 20
115.0
 30
0.0
 40
2.0999999999999939
  0
LINE
  5
16E0D
  8
L1
 10
193.2500000000004
 20
125.0
 30
0.0
 11
193.2500000000004
 21
119.94342998332149
 31
0.0
  0
LINE
  5
16E0E
  8
L1
 10
194.7500000000004
 20
119.94342998332149
 30
0.0
 11
194.7500000000004
 21
125.0
 31
0.0
  0
LINE
  5
16E0F
  8
L1
 10
194.7500000000004
 20
125.0
 30
0.0
 11
193.2500000000004
 21
125.0
 31
0.0
  0
CIRCLE
  5
16E11
  8
L1
 10
209.0
 20
117.4999999999995
 30
0.0
 40
2.6000000000000001
  0
CIRCLE
  5
16E13
  8
L1
 10
212.0
 20
139.99999999999949
 30
0.0
 40
2.6000000000000001
  0
CIRCLE
  5
16E17
  8
L1
 10
212.0
 20
139.99999999999949
 30
0.0
 40
6.0
  0
LINE
  5
16E1A
  8
L1
 10
319.99999999999949
 20
135.0
 30
0.0
 11
277.99999999999949
 21
135.0
 31
0.0
  0
LINE
  5
16E1B
  8
L1
 10
284.0
 20
84.25
 30
0.0
 11
278.94342998332149
 21
84.25
 31
0.0
  0
LINE
  5
16E1C
  8
L1
 10
278.94342998332149
 20
85.750000000000014
 30
0.0
 11
284.0
 21
85.750000000000014
 31
0.0
  0
LINE
  5
16E1E
  8
L1
 10
277.99999999999949
 20
135.0
 30
0.0
 11
277.99999999999949
 21
88.000000000000455
 31
0.0
  0
LINE
  5
16E1F
  8
L1
 10
269.99999999999949
 20
135.0
 30
0.0
 11
269.99999999999949
 21
88.000000000000455
 31
0.0
  0
CIRCLE
  5
16E22
  8
L1
 10
249.04469157790481
 20
100.04469157793299
 30
0.0
 40
10.0
  0
CIRCLE
  5
16E23
  8
L1
 10
249.04469157790481
 20
100.04469157793299
 30
0.0
 40
8.0
  0
LINE
  5
16E24
  8
L1
 10
234.0000000000004
 20
85.750000000000014
 30
0.0
 11
234.0000000000004
 21
84.25
 31
0.0
  0
ARC
  5
16E25
  8
L1
 10
250.81245853087049
 20
98.276924624966355
 30
0.0
 40
2.5
 50
225.00000000000909
 51
45.000000000009209
  0
LINE
  5
16E26
  8
L1
 10
249.04469157790481
 20
96.509157672000129
 30
0.0
 11
245.50915767197151
 21
100.04469157793299
 31
0.0
  0
LINE
  5
16E27
  8
L1
 10
249.0446915779039
 20
103.58022548386541
 30
0.0
 11
252.58022548383721
 21
100.04469157793299
 31
0.0
  0
ARC
  5
16E28
  8
L1
 10
247.27692462493809
 20
101.81245853089921
 30
0.0
 40
2.5
 50
45.000000000009209
 51
225.00000000000909
  0
LINE
  5
16E29
  8
L1
 10
269.99999999999949
 20
82.000000000000455
 30
0.0
 11
269.99999999999949
 21
73.000000000000455
 31
0.0
  0
LINE
  5
16E2A
  8
L1
 10
277.99999999999949
 20
82.000000000000455
 30
0.0
 11
277.99999999999949
 21
73.000000000000455
 31
0.0
  0
LINE
  5
16E2C
  8
L1
 10
264.0
 20
85.750000000000014
 30
0.0
 11
264.0
 21
84.25
 31
0.0
  0
LINE
  5
16E2D
  8
L1
 10
264.0
 20
84.25
 30
0.0
 11
269.05657001667851
 21
84.25
 31
0.0
  0
LINE
  5
16E2E
  8
L1
 10
269.05657001667851
 20
85.750000000000014
 30
0.0
 11
264.0
 21
85.750000000000014
 31
0.0
  0
ARC
  5
16E2F
  8
L1
 10
274.0
 20
85.0
 30
0.0
 40
4.9999999999999867
 50
188.626926558684
 51
351.37307344131591
  0
ARC
  5
16E30
  8
L1
 10
274.0
 20
85.0
 30
0.0
 40
4.9999999999999867
 50
8.6269265586840387
 51
171.37307344131591
  0
CIRCLE
  5
16E31
  8
L1
 10
274.0
 20
85.0
 30
0.0
 40
2.3999999999999928
  0
CIRCLE
  5
16E32
  8
L1
 10
274.0
 20
85.0
 30
0.0
 40
2.0999999999999939
  0
LINE
  5
16E34
  8
L1
 10
269.99999999999949
 20
135.0
 30
0.0
 11
249.6568542494924
 21
135.0
 31
0.0
  0
LINE
  5
16E35
  8
L1
 10
319.99999999999949
 20
135.0
 30
0.0
 11
319.99999999999949
 21
88.000000000000455
 31
0.0
  0
LINE
  5
16E36
  8
L1
 10
327.99999999999949
 20
135.0
 30
0.0
 11
327.99999999999949
 21
88.000000000000455
 31
0.0
  0
LINE
  5
16E37
  8
L1
 10
284.0
 20
85.750000000000014
 30
0.0
 11
284.0
 21
84.25
 31
0.0
  0
CIRCLE
  5
16E38
  8
L1
 10
324.0
 20
85.0
 30
0.0
 40
2.0999999999999939
  0
CIRCLE
  5
16E39
  8
L1
 10
324.0
 20
85.0
 30
0.0
 40
2.3999999999999928
  0
ARC
  5
16E3B
  8
L1
 10
324.0
 20
85.0
 30
0.0
 40
4.9999999999999867
 50
8.6269265586840387
 51
171.37307344131591
  0
ARC
  5
16E3C
  8
L1
 10
324.0
 20
85.0
 30
0.0
 40
4.9999999999999867
 50
188.626926558684
 51
351.37307344131591
  0
LINE
  5
16E3D
  8
L1
 10
319.05657001667851
 20
85.750000000000014
 30
0.0
 11
314.0
 21
85.750000000000014
 31
0.0
  0
LINE
  5
16E3E
  8
L1
 10
314.0
 20
84.25
 30
0.0
 11
319.05657001667851
 21
84.25
 31
0.0
  0
LINE
  5
16E3F
  8
L1
 10
314.0
 20
85.750000000000014
 30
0.0
 11
314.0
 21
84.25
 31
0.0
  0
LINE
  5
16E41
  8
L1
 10
334.0
 20
85.750000000000014
 30
0.0
 11
334.0
 21
84.25
 31
0.0
  0
LINE
  5
16E42
  8
L1
 10
328.94342998332149
 20
85.750000000000014
 30
0.0
 11
334.0
 21
85.750000000000014
 31
0.0
  0
LINE
  5
16E43
  8
L1
 10
334.0
 20
84.25
 30
0.0
 11
328.94342998332149
 21
84.25
 31
0.0
  0
LINE
  5
16E45
  8
L1
 10
319.99999999999949
 20
82.000000000000455
 30
0.0
 11
319.99999999999949
 21
73.000000000000455
 31
0.0
  0
LINE
  5
16E46
  8
L1
 10
327.99999999999949
 20
82.000000000000455
 30
0.0
 11
327.99999999999949
 21
73.000000000000455
 31
0.0
  0
LINE
  5
16E48
  8
L1
 10
428.0000000000004
 20
135.0
 30
0.0
 11
470.0
 21
135.0
 31
0.0
  0
LINE
  5
16E49
  8
L1
 10
389.99999999999949
 20
135.0
 30
0.0
 11
407.99999999999949
 21
135.0
 31
0.0
  0
LINE
  5
16E4A
  8
L1
 10
420.0000000000004
 20
135.0
 30
0.0
 11
389.99999999999949
 21
135.0000000000004
 31
0.0
  0
LINE
  5
16E4C
  8
L1
 10
369.05657001667851
 20
85.750000000000014
 30
0.0
 11
364.0
 21
85.750000000000014
 31
0.0
  0
LINE
  5
16E4D
  8
L1
 10
364.0
 20
84.25
 30
0.0
 11
369.05657001667851
 21
84.25
 31
0.0
  0
LINE
  5
16E4E
  8
L1
 10
364.0
 20
85.750000000000014
 30
0.0
 11
364.0
 21
84.25
 31
0.0
  0
ARC
  5
16E4F
  8
L1
 10
374.0
 20
85.0
 30
0.0
 40
4.9999999999999867
 50
8.6269265586840387
 51
171.37307344131591
  0
ARC
  5
16E50
  8
L1
 10
374.0
 20
85.0
 30
0.0
 40
4.9999999999999867
 50
188.626926558684
 51
351.37307344131591
  0
CIRCLE
  5
16E51
  8
L1
 10
374.0
 20
85.0
 30
0.0
 40
2.0999999999999939
  0
CIRCLE
  5
16E52
  8
L1
 10
374.0
 20
85.0
 30
0.0
 40
2.3999999999999928
  0
LINE
  5
16E53
  8
L1
 10
384.0
 20
85.750000000000014
 30
0.0
 11
384.0
 21
84.25
 31
0.0
  0
LINE
  5
16E54
  8
L1
 10
378.94342998332149
 20
85.750000000000014
 30
0.0
 11
384.0
 21
85.750000000000014
 31
0.0
  0
LINE
  5
16E55
  8
L1
 10
384.0
 20
84.25
 30
0.0
 11
378.94342998332149
 21
84.25
 31
0.0
  0
LINE
  5
16E56
  8
L1
 10
368.0
 20
145.0
 30
0.0
 11
358.0
 21
135.0
 31
0.0
  0
LINE
  5
16E57
  8
L1
 10
358.0
 20
135.0
 30
0.0
 11
344.0
 21
135.0
 31
0.0
  0
LINE
  5
16E58
  8
L1
 10
340.0
 20
135.0
 30
0.0
 11
354.0
 21
135.0
 31
0.0
  0
LINE
  5
16E59
  8
L1
 10
380.0
 20
145.0
 30
0.0
 11
368.0
 21
145.0
 31
0.0
  0
LINE
  5
16E5A
  8
L1
 10
380.0
 20
145.0
 30
0.0
 11
389.99999999999949
 21
135.0
 31
0.0
  0
LINE
  5
16E5B
  8
L1
 10
428.0000000000004
 20
135.0
 30
0.0
 11
428.0000000000004
 21
88.000000000000455
 31
0.0
  0
LINE
  5
16E5C
  8
L1
 10
420.0000000000004
 20
135.0
 30
0.0
 11
420.0000000000004
 21
88.000000000000455
 31
0.0
  0
ARC
  5
16E5E
  8
L1
 10
423.99999999999949
 20
85.0
 30
0.0
 40
4.9999999999999867
 50
188.626926558684
 51
351.37307344131591
  0
ARC
  5
16E5F
  8
L1
 10
423.99999999999949
 20
85.0
 30
0.0
 40
4.9999999999999867
 50
8.6269265586840387
 51
171.37307344131591
  0
LINE
  5
16E60
  8
L1
 10
413.99999999999949
 20
85.750000000000014
 30
0.0
 11
413.99999999999949
 21
84.25
 31
0.0
  0
LINE
  5
16E61
  8
L1
 10
413.99999999999949
 20
84.25
 30
0.0
 11
419.05657001667851
 21
84.25
 31
0.0
  0
LINE
  5
16E62
  8
L1
 10
419.05657001667851
 20
85.750000000000014
 30
0.0
 11
413.99999999999949
 21
85.750000000000014
 31
0.0
  0
LINE
  5
16E63
  8
L1
 10
433.99999999999949
 20
84.25
 30
0.0
 11
428.94342998332098
 21
84.25
 31
0.0
  0
LINE
  5
16E64
  8
L1
 10
428.94342998332098
 20
85.750000000000014
 30
0.0
 11
433.99999999999949
 21
85.750000000000014
 31
0.0
  0
CIRCLE
  5
16E65
  8
L1
 10
423.99999999999949
 20
85.0
 30
0.0
 40
2.3999999999999928
  0
CIRCLE
  5
16E66
  8
L1
 10
423.99999999999949
 20
85.0
 30
0.0
 40
2.0999999999999939
  0
LINE
  5
16E67
  8
L1
 10
433.99999999999949
 20
85.750000000000014
 30
0.0
 11
433.99999999999949
 21
84.25
 31
0.0
  0
LINE
  5
16E68
  8
L1
 10
420.0000000000004
 20
82.000000000000455
 30
0.0
 11
420.0000000000004
 21
73.000000000000455
 31
0.0
  0
LINE
  5
16E69
  8
L1
 10
428.0000000000004
 20
82.000000000000455
 30
0.0
 11
428.0000000000004
 21
73.000000000000455
 31
0.0
  0
ARC
  5
16E6A
  8
L1
 10
500.7230753750618
 20
101.81245853089921
 30
0.0
 40
2.5
 50
314.99999999999068
 51
134.99999999999071
  0
CIRCLE
  5
16E6B
  8
L1
 10
498.95530842209507
 20
100.04469157793299
 30
0.0
 40
8.0
  0
CIRCLE
  5
16E6C
  8
L1
 10
498.95530842209507
 20
100.04469157793299
 30
0.0
 40
10.0
  0
LINE
  5
16E6D
  8
L1
 10
498.95530842209507
 20
96.509157672000129
 30
0.0
 11
502.49084232802852
 21
100.04469157793299
 31
0.0
  0
LINE
  5
16E6F
  8
L1
 10
522.00929521508533
 20
111.3338505354217
 30
0.0
 11
498.34314575050752
 21
135.0
 31
0.0
  0
LINE
  5
16E70
  8
L1
 10
470.0000000000004
 20
135.0
 30
0.0
 11
470.0000000000004
 21
88.000000000000455
 31
0.0
  0
LINE
  5
16E71
  8
L1
 10
478.0000000000004
 20
135.0
 30
0.0
 11
478.0000000000004
 21
88.000000000000455
 31
0.0
  0
ARC
  5
16E73
  8
L1
 10
473.99999999999949
 20
85.0
 30
0.0
 40
4.9999999999999867
 50
8.6269265586840387
 51
171.37307344131591
  0
ARC
  5
16E74
  8
L1
 10
473.99999999999949
 20
85.0
 30
0.0
 40
4.9999999999999867
 50
188.626926558684
 51
351.37307344131591
  0
CIRCLE
  5
16E75
  8
L1
 10
473.99999999999949
 20
85.0
 30
0.0
 40
2.0999999999999939
  0
CIRCLE
  5
16E76
  8
L1
 10
473.99999999999949
 20
85.0
 30
0.0
 40
2.3999999999999928
  0
LINE
  5
16E78
  8
L1
 10
470.0000000000004
 20
82.000000000000455
 30
0.0
 11
470.0000000000004
 21
73.000000000000455
 31
0.0
  0
LINE
  5
16E79
  8
L1
 10
469.05657001667851
 20
85.750000000000014
 30
0.0
 11
463.99999999999949
 21
85.750000000000014
 31
0.0
  0
LINE
  5
16E7A
  8
L1
 10
463.99999999999949
 20
84.25
 30
0.0
 11
469.05657001667851
 21
84.25
 31
0.0
  0
LINE
  5
16E7B
  8
L1
 10
463.99999999999949
 20
85.750000000000014
 30
0.0
 11
463.99999999999949
 21
84.25
 31
0.0
  0
LINE
  5
16E7C
  8
L1
 10
478.0000000000004
 20
82.000000000000455
 30
0.0
 11
478.0000000000004
 21
73.000000000000455
 31
0.0
  0
LINE
  5
16E7D
  8
L1
 10
483.99999999999949
 20
85.750000000000014
 30
0.0
 11
483.99999999999949
 21
84.25
 31
0.0
  0
LINE
  5
16E7E
  8
L1
 10
478.94342998332098
 20
85.750000000000014
 30
0.0
 11
483.99999999999949
 21
85.750000000000014
 31
0.0
  0
LINE
  5
16E7F
  8
L1
 10
483.99999999999949
 20
84.25
 30
0.0
 11
478.94342998332098
 21
84.25
 31
0.0
  0
LINE
  5
16E81
  8
L1
 10
498.95530842209598
 20
103.58022548386541
 30
0.0
 11
495.41977451616282
 21
100.04469157793299
 31
0.0
  0
ARC
  5
16E82
  8
L1
 10
497.18754146912943
 20
98.276924624966355
 30
0.0
 40
2.5
 50
134.99999999999071
 51
314.99999999999068
  0
LINE
  5
16E83
  8
L1
 10
478.0000000000004
 20
135.0
 30
0.0
 11
498.34314575050712
 21
135.0
 31
0.0
  0
ARC
  5
16E84
  8
L1
 10
553.99999999999955
 20
115.0
 30
0.0
 40
4.9999999999999867
 50
98.626926558676629
 51
261.3730734413233
  0
CIRCLE
  5
16E85
  8
L1
 10
539.0
 20
117.4999999999995
 30
0.0
 40
6.0
  0
CIRCLE
  5
16E86
  8
L1
 10
528.0
 20
111.0000000000004
 30
0.0
 40
2.6000000000000001
  0
CIRCLE
  5
16E87
  8
L1
 10
528.0
 20
111.0000000000004
 30
0.0
 40
6.0
  0
ARC
  5
16E8B
  8
L1
 10
523.99999999999955
 20
85.0
 30
0.0
 40
4.9999999999999867
 50
188.626926558684
 51
351.37307344131591
  0
ARC
  5
16E8C
  8
L1
 10
523.99999999999955
 20
85.0
 30
0.0
 40
4.9999999999999867
 50
8.6269265586840387
 51
171.37307344131591
  0
CIRCLE
  5
16E8E
  8
L1
 10
523.99999999999955
 20
85.0
 30
0.0
 40
2.0999999999999939
  0
CIRCLE
  5
16E8F
  8
L1
 10
523.99999999999955
 20
85.0
 30
0.0
 40
2.3999999999999928
  0
LINE
  5
16E93
  8
L1
 10
513.99999999999955
 20
84.25
 30
0.0
 11
519.05657001667851
 21
84.25
 31
0.0
  0
LINE
  5
16E94
  8
L1
 10
513.99999999999955
 20
85.750000000000014
 30
0.0
 11
513.99999999999955
 21
84.25
 31
0.0
  0
LINE
  5
16E95
  8
L1
 10
519.05657001667851
 20
85.750000000000014
 30
0.0
 11
513.99999999999955
 21
85.750000000000014
 31
0.0
  0
LINE
  5
16E97
  8
L1
 10
533.99999999999955
 20
85.750000000000014
 30
0.0
 11
533.99999999999955
 21
84.25
 31
0.0
  0
LINE
  5
16E98
  8
L1
 10
528.94342998332104
 20
85.750000000000014
 30
0.0
 11
533.99999999999955
 21
85.750000000000014
 31
0.0
  0
LINE
  5
16E99
  8
L1
 10
533.99999999999955
 20
84.25
 30
0.0
 11
528.94342998332104
 21
84.25
 31
0.0
  0
LINE
  5
16EA1
  8
L1
 10
554.74999999999955
 20
105.0
 30
0.0
 11
553.24999999999955
 21
105.0
 31
0.0
  0
CIRCLE
  5
16EA2
  8
L1
 10
548.0
 20
91.000000000000455
 30
0.0
 40
2.6000000000000001
  0
CIRCLE
  5
16EA4
  8
L1
 10
548.0
 20
91.000000000000455
 30
0.0
 40
6.0
  0
LINE
  5
16EA5
  8
L1
 10
533.99999999999955
 20
84.250000000000909
 30
0.0
 11
533.99999999999955
 21
85.750000000000909
 31
0.0
  0
LINE
  5
16EA8
  8
L1
 10
542.00929521508533
 20
91.333850535421789
 30
0.0
 11
528.33385053542167
 21
105.0092952150848
 31
0.0
  0
LINE
  5
16EA9
  8
L1
 10
553.24999999999955
 20
105.0
 30
0.0
 11
553.24999999999955
 21
110.0565700166789
 31
0.0
  0
LINE
  5
16EAA
  8
L1
 10
554.74999999999955
 20
110.0565700166789
 30
0.0
 11
554.74999999999955
 21
105.0
 31
0.0
  0
LINE
  5
16EAB
  8
L1
 10
547.66614946457776
 20
96.990704784914215
 30
0.0
 11
533.99070478491467
 21
110.6661494645768
 31
0.0
  0
LINE
  5
16EAC
  8
L1
 10
527.6661494645773
 20
116.9907047849137
 30
0.0
 11
503.99999999999949
 21
140.65685424949149
 31
0.0
  0
LINE
  5
16EAD
  8
L1
 10
554.74999999999955
 20
155.0
 30
0.0
 11
553.24999999999955
 21
155.0
 31
0.0
  0
LINE
  5
16EAE
  8
L1
 10
553.24999999999955
 20
125.0
 30
0.0
 11
553.24999999999955
 21
119.94342998332149
 31
0.0
  0
LINE
  5
16EAF
  8
L1
 10
554.74999999999955
 20
119.94342998332149
 30
0.0
 11
554.74999999999955
 21
125.0
 31
0.0
  0
LINE
  5
16EB2
  8
L1
 10
554.74999999999955
 20
125.0
 30
0.0
 11
553.24999999999955
 21
125.0
 31
0.0
  0
CIRCLE
  5
16EB4
  8
L1
 10
539.0
 20
117.4999999999995
 30
0.0
 40
2.6000000000000001
  0
CIRCLE
  5
16EB7
  8
L1
 10
536.0
 20
139.99999999999949
 30
0.0
 40
6.0
  0
CIRCLE
  5
16EB9
  8
L1
 10
536.0
 20
139.99999999999949
 30
0.0
 40
2.6000000000000001
  0
LINE
  5
16EBC
  8
L1
 10
327.99999999999949
 20
394.99999999999898
 30
0.0
 11
358.0
 21
394.99999999999898
 31
0.0
  0
LINE
  5
16EBF
  8
L1
 10
244.0
 20
360.99999999999949
 30
0.0
 11
244.0
 21
319.0
 31
0.0
  0
LINE
  5
16EC3
  8
L1
 10
244.0
 20
169.0
 30
0.0
 11
197.0000000000004
 21
169.0
 31
0.0
  0
LINE
  5
16EC4
  8
L1
 10
244.0
 20
161.0
 30
0.0
 11
197.0000000000004
 21
161.0
 31
0.0
  0
LINE
  5
16EC5
  8
L1
 10
244.0
 20
219.0
 30
0.0
 11
197.0000000000004
 21
219.0
 31
0.0
  0
LINE
  5
16EC6
  8
L1
 10
244.0
 20
211.0
 30
0.0
 11
197.0000000000004
 21
211.0
 31
0.0
  0
LINE
  5
16EC7
  8
L1
 10
244.0
 20
319.0
 30
0.0
 11
197.0000000000004
 21
319.0
 31
0.0
  0
LINE
  5
16EC8
  8
L1
 10
244.0
 20
311.0
 30
0.0
 11
197.0000000000004
 21
311.0
 31
0.0
  0
CIRCLE
  5
16EC9
  8
L1
 10
194.0000000000004
 20
165.0
 30
0.0
 40
2.3999999999999928
  0
CIRCLE
  5
16ECA
  8
L1
 10
194.0000000000004
 20
165.0
 30
0.0
 40
2.0999999999999939
  0
ARC
  5
16ECB
  8
L1
 10
194.0000000000004
 20
165.0
 30
0.0
 40
4.9999999999999867
 50
98.626926558676629
 51
261.3730734413233
  0
LINE
  5
16ECD
  8
L1
 10
191.0000000000004
 20
161.0
 30
0.0
 11
182.5000000000004
 21
161.0
 31
0.0
  0
LINE
  5
16ECE
  8
L1
 10
191.0000000000004
 20
169.0
 30
0.0
 11
182.5000000000004
 21
169.0
 31
0.0
  0
LINE
  5
16ECF
  8
L1
 10
193.2500000000004
 20
175.0
 30
0.0
 11
193.2500000000004
 21
169.94342998332101
 31
0.0
  0
LINE
  5
16ED0
  8
L1
 10
194.7500000000004
 20
169.94342998332101
 30
0.0
 11
194.7500000000004
 21
175.0
 31
0.0
  0
LINE
  5
16ED1
  8
L1
 10
194.7500000000004
 20
175.0
 30
0.0
 11
193.2500000000004
 21
175.0
 31
0.0
  0
ARC
  5
16ED2
  8
L1
 10
194.0000000000004
 20
165.0
 30
0.0
 40
4.9999999999999867
 50
278.62692655867659
 51
81.373073441323356
  0
LINE
  5
16ED3
  8
L1
 10
194.7500000000004
 20
210.0565700166789
 30
0.0
 11
194.7500000000004
 21
205.0
 31
0.0
  0
LINE
  5
16ED4
  8
L1
 10
193.2500000000004
 20
205.0
 30
0.0
 11
193.2500000000004
 21
210.0565700166789
 31
0.0
  0
LINE
  5
16ED6
  8
L1
 10
194.7500000000004
 20
205.0
 30
0.0
 11
193.2500000000004
 21
205.0
 31
0.0
  0
LINE
  5
16ED7
  8
L1
 10
194.7500000000004
 20
225.0
 30
0.0
 11
193.2500000000004
 21
225.0
 31
0.0
  0
LINE
  5
16ED8
  8
L1
 10
194.7500000000004
 20
219.94342998332101
 30
0.0
 11
194.7500000000004
 21
225.0
 31
0.0
  0
LINE
  5
16ED9
  8
L1
 10
193.2500000000004
 20
225.0
 30
0.0
 11
193.2500000000004
 21
219.94342998332101
 31
0.0
  0
ARC
  5
16EDA
  8
L1
 10
194.0000000000004
 20
215.0
 30
0.0
 40
4.9999999999999867
 50
278.62692655867659
 51
81.373073441323356
  0
ARC
  5
16EDB
  8
L1
 10
194.0000000000004
 20
215.0
 30
0.0
 40
4.9999999999999867
 50
98.626926558676629
 51
261.3730734413233
  0
CIRCLE
  5
16EDC
  8
L1
 10
194.0000000000004
 20
215.0
 30
0.0
 40
2.0999999999999939
  0
CIRCLE
  5
16EDD
  8
L1
 10
194.0000000000004
 20
215.0
 30
0.0
 40
2.3999999999999928
  0
LINE
  5
16EDE
  8
L1
 10
191.0000000000004
 20
219.0
 30
0.0
 11
182.5000000000004
 21
219.0
 31
0.0
  0
LINE
  5
16EDF
  8
L1
 10
191.0000000000004
 20
211.0
 30
0.0
 11
182.5000000000004
 21
211.0
 31
0.0
  0
CIRCLE
  5
16EE0
  8
L1
 10
194.0000000000004
 20
265.0
 30
0.0
 40
2.3999999999999928
  0
CIRCLE
  5
16EE1
  8
L1
 10
194.0000000000004
 20
265.0
 30
0.0
 40
2.0999999999999939
  0
ARC
  5
16EE2
  8
L1
 10
194.0000000000004
 20
265.0
 30
0.0
 40
4.9999999999999867
 50
98.626926558676629
 51
261.3730734413233
  0
ARC
  5
16EE4
  8
L1
 10
194.0000000000004
 20
265.0
 30
0.0
 40
4.9999999999999867
 50
278.62692655867659
 51
81.373073441323356
  0
LINE
  5
16EE5
  8
L1
 10
193.2500000000004
 20
255.0
 30
0.0
 11
193.2500000000004
 21
260.0565700166789
 31
0.0
  0
LINE
  5
16EE6
  8
L1
 10
194.7500000000004
 20
260.0565700166789
 30
0.0
 11
194.7500000000004
 21
255.0
 31
0.0
  0
LINE
  5
16EE7
  8
L1
 10
194.7500000000004
 20
255.0
 30
0.0
 11
193.2500000000004
 21
255.0
 31
0.0
  0
LINE
  5
16EE8
  8
L1
 10
193.2500000000004
 20
275.0
 30
0.0
 11
193.2500000000004
 21
269.94342998332098
 31
0.0
  0
LINE
  5
16EE9
  8
L1
 10
194.7500000000004
 20
269.94342998332098
 30
0.0
 11
194.7500000000004
 21
275.0
 31
0.0
  0
LINE
  5
16EEA
  8
L1
 10
194.7500000000004
 20
275.0
 30
0.0
 11
193.2500000000004
 21
275.0
 31
0.0
  0
LINE
  5
16EEB
  8
L1
 10
194.7500000000004
 20
310.0565700166789
 30
0.0
 11
194.7500000000004
 21
305.0
 31
0.0
  0
LINE
  5
16EEC
  8
L1
 10
193.2500000000004
 20
305.0
 30
0.0
 11
193.2500000000004
 21
310.0565700166789
 31
0.0
  0
LINE
  5
16EEE
  8
L1
 10
194.7500000000004
 20
305.0
 30
0.0
 11
193.2500000000004
 21
305.0
 31
0.0
  0
LINE
  5
16EEF
  8
L1
 10
194.7500000000004
 20
324.99999999999949
 30
0.0
 11
193.2500000000004
 21
324.99999999999949
 31
0.0
  0
LINE
  5
16EF0
  8
L1
 10
194.7500000000004
 20
319.94342998332098
 30
0.0
 11
194.7500000000004
 21
324.99999999999949
 31
0.0
  0
LINE
  5
16EF1
  8
L1
 10
193.2500000000004
 20
324.99999999999949
 30
0.0
 11
193.2500000000004
 21
319.94342998332098
 31
0.0
  0
ARC
  5
16EF2
  8
L1
 10
194.0000000000004
 20
315.0
 30
0.0
 40
4.9999999999999867
 50
278.62692655867659
 51
81.373073441323356
  0
ARC
  5
16EF3
  8
L1
 10
194.0000000000004
 20
315.0
 30
0.0
 40
4.9999999999999867
 50
98.626926558676629
 51
261.3730734413233
  0
CIRCLE
  5
16EF4
  8
L1
 10
194.0000000000004
 20
315.0
 30
0.0
 40
2.0999999999999939
  0
CIRCLE
  5
16EF5
  8
L1
 10
194.0000000000004
 20
315.0
 30
0.0
 40
2.3999999999999928
  0
LINE
  5
16EF6
  8
L1
 10
191.0000000000004
 20
319.0
 30
0.0
 11
182.5000000000004
 21
319.0
 31
0.0
  0
LINE
  5
16EF7
  8
L1
 10
191.0000000000004
 20
311.0
 30
0.0
 11
182.5000000000004
 21
311.0
 31
0.0
  0
LINE
  5
16EF8
  8
L1
 10
244.0
 20
249.0
 30
0.0
 11
244.0
 21
219.0
 31
0.0
  0
LINE
  5
16EF9
  8
L1
 10
244.0
 20
211.0
 30
0.0
 11
244.0
 21
169.0
 31
0.0
  0
LINE
  5
16EFA
  8
L1
 10
244.0
 20
235.0
 30
0.0
 11
244.0
 21
219.0
 31
0.0
  0
LINE
  5
16EFB
  8
L1
 10
244.0
 20
231.0
 30
0.0
 11
244.0
 21
245.0
 31
0.0
  0
LINE
  5
16EFC
  8
L1
 10
244.0
 20
281.0
 30
0.0
 11
244.0
 21
311.0
 31
0.0
  0
LINE
  5
16EFD
  8
L1
 10
254.0
 20
259.0
 30
0.0
 11
244.0
 21
249.0
 31
0.0
  0
LINE
  5
16EFE
  8
L1
 10
254.0
 20
271.0
 30
0.0
 11
244.0
 21
281.0
 31
0.0
  0
LINE
  5
16EFF
  8
L1
 10
254.0
 20
259.0
 30
0.0
 11
254.0
 21
271.0
 31
0.0
  0
LINE
  5
16F00
  8
L1
 10
244.0
 20
368.99999999999949
 30
0.0
 11
197.0000000000004
 21
368.99999999999949
 31
0.0
  0
LINE
  5
16F01
  8
L1
 10
244.0
 20
360.99999999999949
 30
0.0
 11
197.0000000000004
 21
360.99999999999949
 31
0.0
  0
LINE
  5
16F02
  8
L1
 10
234.0000000000004
 20
444.24999999999909
 30
0.0
 11
228.94342998332149
 21
444.24999999999909
 31
0.0
  0
LINE
  5
16F03
  8
L1
 10
228.94342998332149
 20
445.74999999999898
 30
0.0
 11
234.0000000000004
 21
445.74999999999898
 31
0.0
  0
LINE
  5
16F04
  8
L1
 10
225.99070478491461
 20
418.6661494645777
 30
0.0
 11
249.6568542494924
 21
394.99999999999949
 31
0.0
  0
LINE
  5
16F05
  8
L1
 10
220.33385053542261
 20
413.00929521508527
 30
0.0
 11
244.0000000000004
 21
389.34314575050797
 31
0.0
  0
LINE
  5
16F06
  8
L1
 10
205.99070478491461
 20
438.6661494645777
 30
0.0
 11
219.66614946457821
 21
424.99070478491473
 31
0.0
  0
LINE
  5
16F08
  8
L1
 10
200.33385053542219
 20
433.00929521508527
 30
0.0
 11
214.0092952150853
 21
419.33385053542219
 31
0.0
  0
CIRCLE
  5
16F09
  8
L1
 10
194.0000000000004
 20
364.99999999999949
 30
0.0
 40
2.3999999999999928
  0
CIRCLE
  5
16F0A
  8
L1
 10
194.0000000000004
 20
364.99999999999949
 30
0.0
 40
2.0999999999999939
  0
ARC
  5
16F0B
  8
L1
 10
194.0000000000004
 20
364.99999999999949
 30
0.0
 40
4.9999999999999867
 50
98.626926558676629
 51
261.3730734413233
  0
LINE
  5
16F0D
  8
L1
 10
191.0000000000004
 20
368.99999999999949
 30
0.0
 11
182.5000000000004
 21
368.99999999999949
 31
0.0
  0
LINE
  5
16F0E
  8
L1
 10
191.0000000000004
 20
360.99999999999949
 30
0.0
 11
182.5000000000004
 21
360.99999999999949
 31
0.0
  0
LINE
  5
16F0F
  8
L1
 10
193.2500000000004
 20
374.99999999999949
 30
0.0
 11
193.2500000000004
 21
369.94342998332098
 31
0.0
  0
LINE
  5
16F10
  8
L1
 10
194.7500000000004
 20
369.94342998332098
 30
0.0
 11
194.7500000000004
 21
374.99999999999949
 31
0.0
  0
LINE
  5
16F11
  8
L1
 10
194.7500000000004
 20
374.99999999999949
 30
0.0
 11
193.2500000000004
 21
374.99999999999949
 31
0.0
  0
LINE
  5
16F12
  8
L1
 10
193.2500000000004
 20
354.99999999999949
 30
0.0
 11
193.2500000000004
 21
360.05657001667851
 31
0.0
  0
LINE
  5
16F13
  8
L1
 10
194.7500000000004
 20
360.05657001667851
 30
0.0
 11
194.7500000000004
 21
354.99999999999949
 31
0.0
  0
LINE
  5
16F14
  8
L1
 10
194.7500000000004
 20
354.99999999999949
 30
0.0
 11
193.2500000000004
 21
354.99999999999949
 31
0.0
  0
ARC
  5
16F15
  8
L1
 10
194.0000000000004
 20
364.99999999999949
 30
0.0
 40
4.9999999999999867
 50
278.62692655867659
 51
81.373073441323356
  0
LINE
  5
16F17
  8
L1
 10
194.7500000000004
 20
424.99999999999909
 30
0.0
 11
193.2500000000004
 21
424.99999999999909
 31
0.0
  0
CIRCLE
  5
16F18
  8
L1
 10
194.0000000000004
 20
414.99999999999898
 30
0.0
 40
2.3999999999999928
  0
CIRCLE
  5
16F19
  8
L1
 10
194.0000000000004
 20
414.99999999999898
 30
0.0
 40
2.0999999999999939
  0
ARC
  5
16F1A
  8
L1
 10
194.0000000000004
 20
414.99999999999898
 30
0.0
 40
4.9999999999999867
 50
98.626926558676629
 51
261.3730734413233
  0
LINE
  5
16F1C
  8
L1
 10
193.2500000000004
 20
404.99999999999898
 30
0.0
 11
193.2500000000004
 21
410.05657001667811
 31
0.0
  0
LINE
  5
16F1D
  8
L1
 10
194.7500000000004
 20
410.05657001667811
 30
0.0
 11
194.7500000000004
 21
404.99999999999898
 31
0.0
  0
LINE
  5
16F1E
  8
L1
 10
194.7500000000004
 20
404.99999999999898
 30
0.0
 11
193.2500000000004
 21
404.99999999999898
 31
0.0
  0
ARC
  5
16F1F
  8
L1
 10
194.0000000000004
 20
414.99999999999898
 30
0.0
 40
4.9999999999999867
 50
278.62692655867659
 51
81.373073441323356
  0
LINE
  5
16F20
  8
L1
 10
193.2500000000004
 20
424.99999999999909
 30
0.0
 11
193.2500000000004
 21
419.94342998332098
 31
0.0
  0
LINE
  5
16F21
  8
L1
 10
194.7500000000004
 20
419.94342998332098
 30
0.0
 11
194.7500000000004
 21
424.99999999999909
 31
0.0
  0
CIRCLE
  5
16F22
  8
L1
 10
209.0
 20
412.5
 30
0.0
 40
6.0
  0
CIRCLE
  5
16F24
  8
L1
 10
209.0
 20
412.5
 30
0.0
 40
2.6000000000000001
  0
CIRCLE
  5
16F25
  8
L1
 10
212.0
 20
390.0
 30
0.0
 40
6.0
  0
CIRCLE
  5
16F27
  8
L1
 10
212.0
 20
390.0
 30
0.0
 40
2.6000000000000001
  0
CIRCLE
  5
16F2A
  8
L1
 10
220.0
 20
419.0
 30
0.0
 40
6.0
  0
CIRCLE
  5
16F2C
  8
L1
 10
220.0
 20
419.0
 30
0.0
 40
2.6000000000000001
  0
CIRCLE
  5
16F2D
  8
L1
 10
200.0
 20
439.0
 30
0.0
 40
2.6000000000000001
  0
CIRCLE
  5
16F2F
  8
L1
 10
200.0
 20
439.0
 30
0.0
 40
6.0
  0
ARC
  5
16F5C
  8
L1
 10
224.0000000000004
 20
444.99999999999909
 30
0.0
 40
4.9999999999999867
 50
188.626926558684
 51
351.37307344131591
  0
ARC
  5
16F5D
  8
L1
 10
224.0000000000004
 20
444.99999999999909
 30
0.0
 40
4.9999999999999867
 50
8.6269265586840387
 51
171.37307344131591
  0
LINE
  5
16F5E
  8
L1
 10
214.0000000000004
 20
445.74999999999898
 30
0.0
 11
214.0000000000004
 21
444.24999999999909
 31
0.0
  0
LINE
  5
16F5F
  8
L1
 10
214.0000000000004
 20
444.24999999999909
 30
0.0
 11
219.05657001667851
 21
444.24999999999909
 31
0.0
  0
LINE
  5
16F60
  8
L1
 10
219.05657001667851
 20
445.74999999999898
 30
0.0
 11
214.0000000000004
 21
445.74999999999898
 31
0.0
  0
CIRCLE
  5
16F61
  8
L1
 10
224.0000000000004
 20
444.99999999999909
 30
0.0
 40
2.3999999999999928
  0
CIRCLE
  5
16F62
  8
L1
 10
224.0000000000004
 20
444.99999999999909
 30
0.0
 40
2.0999999999999939
  0
ARC
  5
16F64
  8
L1
 10
247.27692462493809
 20
428.18754146915762
 30
0.0
 40
2.5
 50
134.99999999999071
 51
314.99999999999068
  0
CIRCLE
  5
16F65
  8
L1
 10
249.04469157790481
 20
429.95530842212378
 30
0.0
 40
8.0
  0
LINE
  5
16F66
  8
L1
 10
319.99999999999949
 20
394.99999999999898
 30
0.0
 11
319.99999999999949
 21
441.99999999999909
 31
0.0
  0
LINE
  5
16F67
  8
L1
 10
327.99999999999949
 20
394.99999999999898
 30
0.0
 11
327.99999999999949
 21
441.99999999999909
 31
0.0
  0
LINE
  5
16F68
  8
L1
 10
277.99999999999949
 20
394.99999999999898
 30
0.0
 11
277.99999999999949
 21
441.99999999999909
 31
0.0
  0
LINE
  5
16F69
  8
L1
 10
269.99999999999949
 20
394.99999999999898
 30
0.0
 11
269.99999999999949
 21
441.99999999999909
 31
0.0
  0
CIRCLE
  5
16F6A
  8
L1
 10
249.04469157790481
 20
429.95530842212378
 30
0.0
 40
10.0
  0
LINE
  5
16F6C
  8
L1
 10
319.99999999999949
 20
394.99999999999898
 30
0.0
 11
277.99999999999949
 21
394.99999999999898
 31
0.0
  0
LINE
  5
16F6D
  8
L1
 10
244.0
 20
368.99999999999949
 30
0.0
 11
243.99999999999949
 21
389.34314575050848
 31
0.0
  0
LINE
  5
16F6E
  8
L1
 10
269.99999999999949
 20
394.99999999999898
 30
0.0
 11
249.6568542494924
 21
394.99999999999898
 31
0.0
  0
LINE
  5
16F6F
  8
L1
 10
278.94342998332149
 20
445.74999999999898
 30
0.0
 11
284.0
 21
445.74999999999898
 31
0.0
  0
LINE
  5
16F70
  8
L1
 10
284.0
 20
444.24999999999909
 30
0.0
 11
278.94342998332149
 21
444.24999999999909
 31
0.0
  0
LINE
  5
16F73
  8
L1
 10
234.0000000000004
 20
445.74999999999898
 30
0.0
 11
234.0000000000004
 21
444.24999999999909
 31
0.0
  0
LINE
  5
16F74
  8
L1
 10
249.0446915779039
 20
426.4197745161913
 30
0.0
 11
252.58022548383721
 21
429.95530842212378
 31
0.0
  0
ARC
  5
16F75
  8
L1
 10
250.81245853087049
 20
431.72307537509039
 30
0.0
 40
2.5
 50
314.99999999999068
 51
134.99999999999071
  0
LINE
  5
16F76
  8
L1
 10
249.04469157790481
 20
433.49084232805671
 30
0.0
 11
245.50915767197151
 21
429.95530842212378
 31
0.0
  0
LINE
  5
16F78
  8
L1
 10
269.05657001667851
 20
445.74999999999898
 30
0.0
 11
264.0
 21
445.74999999999898
 31
0.0
  0
LINE
  5
16F79
  8
L1
 10
264.0
 20
444.24999999999909
 30
0.0
 11
269.05657001667851
 21
444.24999999999909
 31
0.0
  0
LINE
  5
16F7A
  8
L1
 10
264.0
 20
445.74999999999898
 30
0.0
 11
264.0
 21
444.24999999999909
 31
0.0
  0
ARC
  5
16F7B
  8
L1
 10
274.0
 20
444.99999999999909
 30
0.0
 40
4.9999999999999867
 50
8.6269265586840387
 51
171.37307344131591
  0
ARC
  5
16F7C
  8
L1
 10
274.0
 20
444.99999999999909
 30
0.0
 40
4.9999999999999867
 50
188.626926558684
 51
351.37307344131591
  0
CIRCLE
  5
16F7D
  8
L1
 10
274.0
 20
444.99999999999909
 30
0.0
 40
2.0999999999999939
  0
CIRCLE
  5
16F7E
  8
L1
 10
274.0
 20
444.99999999999909
 30
0.0
 40
2.3999999999999928
  0
LINE
  5
16F7F
  8
L1
 10
277.99999999999949
 20
447.99999999999898
 30
0.0
 11
277.99999999999949
 21
455.89999999999691
 31
0.0
  0
LINE
  5
16F80
  8
L1
 10
269.99999999999949
 20
447.99999999999898
 30
0.0
 11
269.99999999999949
 21
455.89999999999691
 31
0.0
  0
LINE
  5
16F81
  8
L1
 10
284.0
 20
445.74999999999898
 30
0.0
 11
284.0
 21
444.24999999999909
 31
0.0
  0
CIRCLE
  5
16F82
  8
L1
 10
324.0
 20
444.99999999999909
 30
0.0
 40
2.3999999999999928
  0
CIRCLE
  5
16F83
  8
L1
 10
324.0
 20
444.99999999999909
 30
0.0
 40
2.0999999999999939
  0
ARC
  5
16F84
  8
L1
 10
324.0
 20
444.99999999999909
 30
0.0
 40
4.9999999999999867
 50
188.626926558684
 51
351.37307344131591
  0
ARC
  5
16F86
  8
L1
 10
324.0
 20
444.99999999999909
 30
0.0
 40
4.9999999999999867
 50
8.6269265586840387
 51
171.37307344131591
  0
LINE
  5
16F87
  8
L1
 10
314.0
 20
445.74999999999898
 30
0.0
 11
314.0
 21
444.24999999999909
 31
0.0
  0
LINE
  5
16F88
  8
L1
 10
314.0
 20
444.24999999999909
 30
0.0
 11
319.05657001667851
 21
444.24999999999909
 31
0.0
  0
LINE
  5
16F89
  8
L1
 10
319.05657001667851
 20
445.74999999999898
 30
0.0
 11
314.0
 21
445.74999999999898
 31
0.0
  0
LINE
  5
16F8A
  8
L1
 10
334.0
 20
445.74999999999898
 30
0.0
 11
334.0
 21
444.24999999999909
 31
0.0
  0
LINE
  5
16F8B
  8
L1
 10
334.0
 20
444.24999999999909
 30
0.0
 11
328.94342998332149
 21
444.24999999999909
 31
0.0
  0
LINE
  5
16F8C
  8
L1
 10
328.94342998332149
 20
445.74999999999898
 30
0.0
 11
334.0
 21
445.74999999999898
 31
0.0
  0
LINE
  5
16F8E
  8
L1
 10
319.99999999999949
 20
447.99999999999898
 30
0.0
 11
320.0
 21
455.89999999999691
 31
0.0
  0
LINE
  5
16F8F
  8
L1
 10
327.99999999999949
 20
447.99999999999898
 30
0.0
 11
328.0
 21
455.89999999999691
 31
0.0
  0
LINE
  5
16F90
  8
L1
 10
503.99999999999949
 20
360.99999999999949
 30
0.0
 11
503.99999999999949
 21
319.0
 31
0.0
  0
LINE
  5
16F94
  8
L1
 10
503.99999999999949
 20
248.99999999999949
 30
0.0
 11
503.99999999999949
 21
219.0
 31
0.0
  0
LINE
  5
16F95
  8
L1
 10
503.99999999999949
 20
211.0
 30
0.0
 11
503.99999999999949
 21
169.0
 31
0.0
  0
LINE
  5
16F96
  8
L1
 10
503.99999999999949
 20
161.0
 30
0.0
 11
550.99999999999955
 21
161.0
 31
0.0
  0
LINE
  5
16F97
  8
L1
 10
503.99999999999949
 20
169.0
 30
0.0
 11
550.99999999999955
 21
169.0
 31
0.0
  0
LINE
  5
16F98
  8
L1
 10
553.24999999999955
 20
175.0
 30
0.0
 11
553.24999999999955
 21
169.94342998332101
 31
0.0
  0
LINE
  5
16F99
  8
L1
 10
554.74999999999955
 20
169.94342998332101
 30
0.0
 11
554.74999999999955
 21
175.0
 31
0.0
  0
LINE
  5
16F9B
  8
L1
 10
554.74999999999955
 20
175.0
 30
0.0
 11
553.24999999999955
 21
175.0
 31
0.0
  0
ARC
  5
16F9C
  8
L1
 10
553.99999999999955
 20
165.0
 30
0.0
 40
4.9999999999999867
 50
98.626926558676629
 51
261.3730734413233
  0
LINE
  5
16F9D
  8
L1
 10
503.99999999999949
 20
219.0
 30
0.0
 11
550.99999999999955
 21
219.0
 31
0.0
  0
LINE
  5
16F9E
  8
L1
 10
503.99999999999949
 20
211.0
 30
0.0
 11
550.99999999999955
 21
211.0
 31
0.0
  0
ARC
  5
16F9F
  8
L1
 10
553.99999999999955
 20
215.0
 30
0.0
 40
4.9999999999999867
 50
98.626926558676629
 51
261.3730734413233
  0
LINE
  5
16FA0
  8
L1
 10
554.74999999999955
 20
210.0565700166789
 30
0.0
 11
554.74999999999955
 21
205.0
 31
0.0
  0
LINE
  5
16FA1
  8
L1
 10
553.24999999999955
 20
205.0
 30
0.0
 11
553.24999999999955
 21
210.0565700166789
 31
0.0
  0
LINE
  5
16FA3
  8
L1
 10
554.74999999999955
 20
205.0
 30
0.0
 11
553.24999999999955
 21
205.0
 31
0.0
  0
LINE
  5
16FA4
  8
L1
 10
554.74999999999955
 20
225.0
 30
0.0
 11
553.24999999999955
 21
225.0
 31
0.0
  0
LINE
  5
16FA5
  8
L1
 10
554.74999999999955
 20
219.94342998332101
 30
0.0
 11
554.74999999999955
 21
225.0
 31
0.0
  0
LINE
  5
16FA6
  8
L1
 10
553.24999999999955
 20
225.0
 30
0.0
 11
553.24999999999955
 21
219.94342998332101
 31
0.0
  0
LINE
  5
16FA7
  8
L1
 10
494.0000000000004
 20
259.0
 30
0.0
 11
504.0000000000004
 21
249.0
 31
0.0
  0
LINE
  5
16FA8
  8
L1
 10
494.0000000000004
 20
271.0
 30
0.0
 11
504.0000000000004
 21
281.0
 31
0.0
  0
LINE
  5
16FA9
  8
L1
 10
494.0000000000004
 20
259.0
 30
0.0
 11
494.0000000000004
 21
271.0
 31
0.0
  0
LINE
  5
16FAA
  8
L1
 10
503.99999999999949
 20
281.0
 30
0.0
 11
503.99999999999949
 21
311.0
 31
0.0
  0
ARC
  5
16FAC
  8
L1
 10
553.99999999999955
 20
265.0
 30
0.0
 40
4.9999999999999867
 50
98.626926558676629
 51
261.3730734413233
  0
POINT
  5
16FAD
  8
DEFPOINTS
  6
BYBLOCK
 62
     0
 10
546.59511434442766
 20
265.0
 30
0.0
  0
POINT
  5
16FAE
  8
DEFPOINTS
  6
BYBLOCK
 62
     0
 10
546.99999999999955
 20
265.0
 30
0.0
  0
LINE
  5
16FAF
  8
L1
 10
553.24999999999955
 20
255.0
 30
0.0
 11
553.24999999999955
 21
260.0565700166789
 31
0.0
  0
LINE
  5
16FB0
  8
L1
 10
554.74999999999955
 20
260.0565700166789
 30
0.0
 11
554.74999999999955
 21
255.0
 31
0.0
  0
LINE
  5
16FB1
  8
L1
 10
554.74999999999955
 20
255.0
 30
0.0
 11
553.24999999999955
 21
255.0
 31
0.0
  0
LINE
  5
16FB2
  8
L1
 10
553.24999999999955
 20
275.0
 30
0.0
 11
553.24999999999955
 21
269.94342998332098
 31
0.0
  0
LINE
  5
16FB3
  8
L1
 10
554.74999999999955
 20
269.94342998332098
 30
0.0
 11
554.74999999999955
 21
275.0
 31
0.0
  0
LINE
  5
16FB4
  8
L1
 10
554.74999999999955
 20
275.0
 30
0.0
 11
553.24999999999955
 21
275.0
 31
0.0
  0
LINE
  5
16FB5
  8
L1
 10
503.99999999999949
 20
319.0
 30
0.0
 11
550.99999999999955
 21
319.0
 31
0.0
  0
LINE
  5
16FB6
  8
L1
 10
503.99999999999949
 20
311.0
 30
0.0
 11
550.99999999999955
 21
311.0
 31
0.0
  0
ARC
  5
16FB7
  8
L1
 10
553.99999999999955
 20
315.0
 30
0.0
 40
4.9999999999999867
 50
98.626926558676629
 51
261.3730734413233
  0
LINE
  5
16FB8
  8
L1
 10
554.74999999999955
 20
310.0565700166789
 30
0.0
 11
554.74999999999955
 21
305.0
 31
0.0
  0
LINE
  5
16FB9
  8
L1
 10
553.24999999999955
 20
305.0
 30
0.0
 11
553.24999999999955
 21
310.0565700166789
 31
0.0
  0
LINE
  5
16FBA
  8
L1
 10
554.74999999999955
 20
305.0
 30
0.0
 11
553.24999999999955
 21
305.0
 31
0.0
  0
LINE
  5
16FBB
  8
L1
 10
554.74999999999955
 20
324.99999999999949
 30
0.0
 11
553.24999999999955
 21
324.99999999999949
 31
0.0
  0
LINE
  5
16FBC
  8
L1
 10
554.74999999999955
 20
319.94342998332098
 30
0.0
 11
554.74999999999955
 21
324.99999999999949
 31
0.0
  0
LINE
  5
16FBD
  8
L1
 10
553.24999999999955
 20
324.99999999999949
 30
0.0
 11
553.24999999999955
 21
319.94342998332098
 31
0.0
  0
LINE
  5
16FBE
  8
L1
 10
428.0000000000004
 20
394.99999999999898
 30
0.0
 11
498.34314575050797
 21
394.99999999999949
 31
0.0
  0
LINE
  5
16FC2
  8
L1
 10
420.0000000000004
 20
394.99999999999898
 30
0.0
 11
420.0000000000004
 21
441.99999999999909
 31
0.0
  0
LINE
  5
16FC3
  8
L1
 10
428.0000000000004
 20
394.99999999999898
 30
0.0
 11
428.0000000000004
 21
441.99999999999909
 31
0.0
  0
LINE
  5
16FC4
  8
L1
 10
389.99999999999949
 20
394.99999999999898
 30
0.0
 11
407.99999999999949
 21
394.99999999999898
 31
0.0
  0
LINE
  5
16FC5
  8
L1
 10
420.0000000000004
 20
394.99999999999898
 30
0.0
 11
389.99999999999949
 21
394.99999999999898
 31
0.0
  0
LINE
  5
16FC6
  8
L1
 10
368.0
 20
384.99999999999949
 30
0.0
 11
358.0000000000004
 21
394.99999999999898
 31
0.0
  0
LINE
  5
16FC7
  8
L1
 10
358.0000000000004
 20
394.99999999999898
 30
0.0
 11
344.0
 21
394.99999999999898
 31
0.0
  0
LINE
  5
16FC8
  8
L1
 10
340.0
 20
394.99999999999898
 30
0.0
 11
354.0
 21
394.99999999999898
 31
0.0
  0
POINT
  5
16FC9
  8
DEFPOINTS
  6
BYBLOCK
 62
     0
 10
358.0
 20
394.99999999999898
 30
0.0
  0
POINT
  5
16FCA
  8
DEFPOINTS
  6
BYBLOCK
 62
     0
 10
358.0
 20
394.99999999999898
 30
0.0
  0
POINT
  5
16FCB
  8
DEFPOINTS
  6
BYBLOCK
 62
     0
 10
358.0
 20
394.99999999999898
 30
0.0
  0
LINE
  5
16FCC
  8
L1
 10
374.0
 20
384.99999999999949
 30
0.0
 11
380.0
 21
384.99999999999949
 31
0.0
  0
POINT
  5
16FCD
  8
DEFPOINTS
  6
BYBLOCK
 62
     0
 10
368.0
 20
384.99999999999949
 30
0.0
  0
POINT
  5
16FCE
  8
DEFPOINTS
  6
BYBLOCK
 62
     0
 10
368.0
 20
384.99999999999949
 30
0.0
  0
LINE
  5
16FCF
  8
L1
 10
374.0
 20
384.99999999999949
 30
0.0
 11
368.0
 21
384.99999999999949
 31
0.0
  0
LINE
  5
16FD0
  8
L1
 10
380.0
 20
384.99999999999949
 30
0.0
 11
389.99999999999949
 21
394.99999999999898
 31
0.0
  0
POINT
  5
16FD1
  8
DEFPOINTS
  6
BYBLOCK
 62
     0
 10
380.0
 20
384.99999999999949
 30
0.0
  0
POINT
  5
16FD2
  8
DEFPOINTS
  6
BYBLOCK
 62
     0
 10
389.99999999999949
 20
394.99999999999898
 30
0.0
  0
LINE
  5
16FD4
  8
L1
 10
369.05657001667851
 20
445.74999999999898
 30
0.0
 11
364.0
 21
445.74999999999898
 31
0.0
  0
LINE
  5
16FD5
  8
L1
 10
364.0
 20
444.24999999999909
 30
0.0
 11
369.05657001667851
 21
444.24999999999909
 31
0.0
  0
LINE
  5
16FD6
  8
L1
 10
364.0
 20
445.74999999999898
 30
0.0
 11
364.0
 21
444.24999999999909
 31
0.0
  0
ARC
  5
16FD7
  8
L1
 10
374.0
 20
444.99999999999909
 30
0.0
 40
4.9999999999999867
 50
188.626926558684
 51
351.37307344131591
  0
ARC
  5
16FD8
  8
L1
 10
374.0
 20
444.99999999999909
 30
0.0
 40
4.9999999999999867
 50
8.6269265586840387
 51
171.37307344131591
  0
CIRCLE
  5
16FD9
  8
L1
 10
374.0
 20
444.99999999999909
 30
0.0
 40
2.0999999999999939
  0
CIRCLE
  5
16FDA
  8
L1
 10
374.0
 20
444.99999999999909
 30
0.0
 40
2.3999999999999928
  0
LINE
  5
16FDC
  8
L1
 10
378.94342998332149
 20
445.74999999999898
 30
0.0
 11
384.0
 21
445.74999999999898
 31
0.0
  0
LINE
  5
16FDD
  8
L1
 10
384.0
 20
444.24999999999909
 30
0.0
 11
378.94342998332149
 21
444.24999999999909
 31
0.0
  0
LINE
  5
16FDE
  8
L1
 10
384.0
 20
445.74999999999898
 30
0.0
 11
384.0
 21
444.24999999999909
 31
0.0
  0
ARC
  5
16FE0
  8
L1
 10
423.99999999999949
 20
444.99999999999909
 30
0.0
 40
4.9999999999999867
 50
188.626926558684
 51
351.37307344131591
  0
ARC
  5
16FE1
  8
L1
 10
423.99999999999949
 20
444.99999999999909
 30
0.0
 40
4.9999999999999867
 50
8.6269265586840387
 51
171.37307344131591
  0
LINE
  5
16FE2
  8
L1
 10
413.99999999999949
 20
445.74999999999898
 30
0.0
 11
413.99999999999949
 21
444.24999999999909
 31
0.0
  0
LINE
  5
16FE3
  8
L1
 10
413.99999999999949
 20
444.24999999999909
 30
0.0
 11
419.05657001667851
 21
444.24999999999909
 31
0.0
  0
LINE
  5
16FE4
  8
L1
 10
419.05657001667851
 20
445.74999999999898
 30
0.0
 11
413.99999999999949
 21
445.74999999999898
 31
0.0
  0
LINE
  5
16FE5
  8
L1
 10
433.99999999999949
 20
444.24999999999909
 30
0.0
 11
428.94342998332098
 21
444.24999999999909
 31
0.0
  0
LINE
  5
16FE6
  8
L1
 10
428.94342998332098
 20
445.74999999999898
 30
0.0
 11
433.99999999999949
 21
445.74999999999898
 31
0.0
  0
CIRCLE
  5
16FE7
  8
L1
 10
423.99999999999949
 20
444.99999999999909
 30
0.0
 40
2.3999999999999928
  0
CIRCLE
  5
16FE8
  8
L1
 10
423.99999999999949
 20
444.99999999999909
 30
0.0
 40
2.0999999999999939
  0
LINE
  5
16FEA
  8
L1
 10
433.99999999999949
 20
445.74999999999898
 30
0.0
 11
433.99999999999949
 21
444.24999999999909
 31
0.0
  0
LINE
  5
16FEB
  8
L1
 10
428.0000000000004
 20
447.99999999999898
 30
0.0
 11
428.0000000000004
 21
455.89999999999691
 31
0.0
  0
LINE
  5
16FEC
  8
L1
 10
420.0000000000004
 20
447.99999999999898
 30
0.0
 11
420.0000000000004
 21
455.89999999999691
 31
0.0
  0
LINE
  5
16FED
  8
L1
 10
542.00929521508533
 20
438.6661494645777
 30
0.0
 11
528.33385053542167
 21
424.99070478491473
 31
0.0
  0
ARC
  5
16FEE
  8
L1
 10
500.7230753750618
 20
428.18754146915762
 30
0.0
 40
2.5
 50
225.00000000000909
 51
45.000000000009209
  0
CIRCLE
  5
16FEF
  8
L1
 10
498.95530842209507
 20
429.95530842212378
 30
0.0
 40
8.0
  0
CIRCLE
  5
16FF1
  8
L1
 10
498.95530842209507
 20
429.95530842212378
 30
0.0
 40
10.0
  0
LINE
  5
16FF3
  8
L1
 10
547.66614946457776
 20
433.00929521508527
 30
0.0
 11
533.99070478491467
 21
419.33385053542219
 31
0.0
  0
LINE
  5
16FF4
  8
L1
 10
522.00929521508533
 20
418.6661494645777
 30
0.0
 11
498.34314575050752
 21
394.99999999999949
 31
0.0
  0
LINE
  5
16FF5
  8
L1
 10
503.99999999999949
 20
368.99999999999949
 30
0.0
 11
504.0
 21
389.34314575050848
 31
0.0
  0
LINE
  5
16FF6
  8
L1
 10
503.99999999999949
 20
360.99999999999949
 30
0.0
 11
550.99999999999955
 21
360.99999999999949
 31
0.0
  0
LINE
  5
16FF7
  8
L1
 10
503.99999999999949
 20
368.99999999999949
 30
0.0
 11
550.99999999999955
 21
368.99999999999949
 31
0.0
  0
LINE
  5
16FF8
  8
L1
 10
553.24999999999955
 20
374.99999999999949
 30
0.0
 11
553.24999999999955
 21
369.94342998332098
 31
0.0
  0
LINE
  5
16FF9
  8
L1
 10
554.74999999999955
 20
369.94342998332098
 30
0.0
 11
554.74999999999955
 21
374.99999999999949
 31
0.0
  0
LINE
  5
16FFA
  8
L1
 10
554.74999999999955
 20
374.99999999999949
 30
0.0
 11
553.24999999999955
 21
374.99999999999949
 31
0.0
  0
LINE
  5
16FFB
  8
L1
 10
553.24999999999955
 20
354.99999999999949
 30
0.0
 11
553.24999999999955
 21
360.05657001667851
 31
0.0
  0
LINE
  5
16FFC
  8
L1
 10
554.74999999999955
 20
360.05657001667851
 30
0.0
 11
554.74999999999955
 21
354.99999999999949
 31
0.0
  0
LINE
  5
16FFD
  8
L1
 10
554.74999999999955
 20
354.99999999999949
 30
0.0
 11
553.24999999999955
 21
354.99999999999949
 31
0.0
  0
ARC
  5
16FFE
  8
L1
 10
553.99999999999955
 20
364.99999999999949
 30
0.0
 40
4.9999999999999867
 50
98.626926558676629
 51
261.3730734413233
  0
CIRCLE
  5
17001
  8
L1
 10
528.0
 20
419.0
 30
0.0
 40
6.0
  0
CIRCLE
  5
17003
  8
L1
 10
528.0
 20
419.0
 30
0.0
 40
2.6000000000000001
  0
LINE
  5
17004
  8
L1
 10
527.6661494645773
 20
413.00929521508527
 30
0.0
 11
503.99999999999949
 21
389.34314575050797
 31
0.0
  0
LINE
  5
17006
  8
L1
 10
554.74999999999955
 20
424.99999999999909
 30
0.0
 11
553.24999999999955
 21
424.99999999999909
 31
0.0
  0
LINE
  5
17007
  8
L1
 10
553.24999999999955
 20
404.99999999999898
 30
0.0
 11
553.24999999999955
 21
410.05657001667811
 31
0.0
  0
LINE
  5
17008
  8
L1
 10
554.74999999999955
 20
410.05657001667811
 30
0.0
 11
554.74999999999955
 21
404.99999999999898
 31
0.0
  0
LINE
  5
17009
  8
L1
 10
554.74999999999955
 20
404.99999999999898
 30
0.0
 11
553.24999999999955
 21
404.99999999999898
 31
0.0
  0
ARC
  5
1700A
  8
L1
 10
553.99999999999955
 20
414.99999999999898
 30
0.0
 40
4.9999999999999867
 50
98.626926558676629
 51
261.3730734413233
  0
CIRCLE
  5
1700B
  8
L1
 10
539.0
 20
412.5
 30
0.0
 40
6.0
  0
CIRCLE
  5
1700C
  8
L1
 10
539.0
 20
412.5
 30
0.0
 40
2.6000000000000001
  0
CIRCLE
  5
17011
  8
L1
 10
536.0
 20
390.0
 30
0.0
 40
2.6000000000000001
  0
CIRCLE
  5
17014
  8
L1
 10
536.0
 20
390.0
 30
0.0
 40
6.0
  0
LINE
  5
17015
  8
L1
 10
553.24999999999955
 20
424.99999999999909
 30
0.0
 11
553.24999999999955
 21
419.94342998332098
 31
0.0
  0
LINE
  5
17016
  8
L1
 10
554.74999999999955
 20
419.94342998332098
 30
0.0
 11
554.74999999999955
 21
424.99999999999909
 31
0.0
  0
LINE
  5
17017
  8
L1
 10
498.95530842209507
 20
433.49084232805671
 30
0.0
 11
502.49084232802852
 21
429.95530842212378
 31
0.0
  0
CIRCLE
  5
17019
  8
L1
 10
473.99999999999949
 20
444.99999999999909
 30
0.0
 40
2.3999999999999928
  0
ARC
  5
1701A
  8
L1
 10
473.99999999999949
 20
444.99999999999909
 30
0.0
 40
4.9999999999999867
 50
188.626926558684
 51
351.37307344131591
  0
ARC
  5
1701B
  8
L1
 10
473.99999999999949
 20
444.99999999999909
 30
0.0
 40
4.9999999999999867
 50
8.6269265586840387
 51
171.37307344131591
  0
CIRCLE
  5
1701C
  8
L1
 10
473.99999999999949
 20
444.99999999999909
 30
0.0
 40
2.0999999999999939
  0
LINE
  5
1701D
  8
L1
 10
463.99999999999949
 20
445.74999999999898
 30
0.0
 11
463.99999999999949
 21
444.24999999999909
 31
0.0
  0
LINE
  5
1701E
  8
L1
 10
463.99999999999949
 20
444.24999999999909
 30
0.0
 11
469.05657001667851
 21
444.24999999999909
 31
0.0
  0
LINE
  5
1701F
  8
L1
 10
469.05657001667851
 20
445.74999999999898
 30
0.0
 11
463.99999999999949
 21
445.74999999999898
 31
0.0
  0
LINE
  5
17020
  8
L1
 10
483.99999999999949
 20
444.24999999999909
 30
0.0
 11
478.94342998332098
 21
444.24999999999909
 31
0.0
  0
LINE
  5
17021
  8
L1
 10
478.94342998332098
 20
445.74999999999898
 30
0.0
 11
483.99999999999949
 21
445.74999999999898
 31
0.0
  0
LINE
  5
17022
  8
L1
 10
483.99999999999949
 20
445.74999999999898
 30
0.0
 11
483.99999999999949
 21
444.24999999999909
 31
0.0
  0
ARC
  5
17024
  8
L1
 10
497.18754146912943
 20
431.72307537509039
 30
0.0
 40
2.5
 50
45.000000000009209
 51
225.00000000000909
  0
LINE
  5
17025
  8
L1
 10
498.95530842209598
 20
426.4197745161913
 30
0.0
 11
495.41977451616282
 21
429.95530842212378
 31
0.0
  0
ARC
  5
17026
  8
L1
 10
523.99999999999955
 20
444.99999999999909
 30
0.0
 40
4.9999999999999867
 50
188.626926558684
 51
351.37307344131591
  0
ARC
  5
17028
  8
L1
 10
523.99999999999955
 20
444.99999999999909
 30
0.0
 40
4.9999999999999867
 50
8.6269265586840387
 51
171.37307344131591
  0
CIRCLE
  5
17029
  8
L1
 10
523.99999999999955
 20
444.99999999999909
 30
0.0
 40
2.3999999999999928
  0
CIRCLE
  5
1702A
  8
L1
 10
523.99999999999955
 20
444.99999999999909
 30
0.0
 40
2.0999999999999939
  0
LINE
  5
1702B
  8
L1
 10
513.99999999999955
 20
445.74999999999898
 30
0.0
 11
513.99999999999955
 21
444.24999999999909
 31
0.0
  0
LINE
  5
1702C
  8
L1
 10
513.99999999999955
 20
444.24999999999909
 30
0.0
 11
519.05657001667851
 21
444.24999999999909
 31
0.0
  0
LINE
  5
1702E
  8
L1
 10
519.05657001667851
 20
445.74999999999898
 30
0.0
 11
513.99999999999955
 21
445.74999999999898
 31
0.0
  0
LINE
  5
17030
  8
L1
 10
533.99999999999955
 20
445.74999999999898
 30
0.0
 11
533.99999999999955
 21
444.24999999999909
 31
0.0
  0
LINE
  5
17031
  8
L1
 10
533.99999999999955
 20
444.24999999999909
 30
0.0
 11
528.94342998332104
 21
444.24999999999909
 31
0.0
  0
LINE
  5
17032
  8
L1
 10
528.94342998332104
 20
445.74999999999898
 30
0.0
 11
533.99999999999955
 21
445.74999999999898
 31
0.0
  0
CIRCLE
  5
17037
  8
L1
 10
548.0
 20
439.0
 30
0.0
 40
6.0
  0
CIRCLE
  5
17039
  8
L1
 10
548.0
 20
439.0
 30
0.0
 40
2.6000000000000001
  0
LINE
  5
17045
  8
L1
 10
633.0
 20
94.600000000000364
 30
0.0
 11
633.0
 21
265.0
 31
0.0
  0
LINE
  5
1704E
  8
L1
 10
633.0
 20
67.500000000000909
 30
0.0
 11
633.0
 21
73.0
 31
0.0
  0
LINE
  5
17065
  8
L1
 10
631.5
 20
115.0
 30
0.0
 11
631.5
 21
111.4999999999999
 31
0.0
  0
LINE
  5
17066
  8
L1
 10
631.5
 20
115.0
 30
0.0
 11
631.5
 21
111.4999999999999
 31
0.0
  0
LINE
  5
17067
  8
L1
 10
631.5
 20
121.7785298226535
 30
0.0
 11
631.5
 21
104.27852982265441
 31
0.0
  0
LINE
  5
17068
  8
L1
 10
631.5
 20
110.7785298226535
 30
0.0
 11
633.0
 21
110.0285298226535
 31
0.0
  0
LINE
  5
17069
  8
L1
 10
631.0
 20
92.100000000000364
 30
0.0
 11
633.0
 21
92.099999999999909
 31
0.0
  0
LINE
  5
1706A
  8
L1
 10
631.0
 20
94.600000000000364
 30
0.0
 11
633.0
 21
94.600000000000364
 31
0.0
  0
LINE
  5
1706B
  8
L1
 10
631.0
 20
83.600000000000364
 30
0.0
 11
633.0
 21
83.600000000000364
 31
0.0
  0
LINE
  5
1706C
  8
L1
 10
633.0
 20
73.0
 30
0.0
 11
631.0
 21
73.0
 31
0.0
  0
LINE
  5
1706D
  8
L1
 10
631.0
 20
73.0
 30
0.0
 11
631.0
 21
94.600000000000364
 31
0.0
  0
LINE
  5
1706E
  8
L1
 10
631.5
 20
104.27852982265441
 30
0.0
 11
633.0
 21
103.52852982265451
 31
0.0
  0
LINE
  5
1706F
  8
L1
 10
631.5
 20
115.0
 30
0.0
 11
631.5
 21
118.5
 31
0.0
  0
LINE
  5
17070
  8
L1
 10
633.0
 20
122.5285298226535
 30
0.0
 11
631.5
 21
121.7785298226535
 31
0.0
  0
LINE
  5
17071
  8
L1
 10
631.5
 20
115.0
 30
0.0
 11
631.5
 21
118.5
 31
0.0
  0
LINE
  5
1707B
  8
L1
 10
633.0
 20
435.39999999999958
 30
0.0
 11
633.0
 21
265.0
 31
0.0
  0
LINE
  5
1707F
  8
L1
 10
556.99999999999955
 20
161.0
 30
0.0
 11
565.99999999999955
 21
161.0
 31
0.0
  0
LINE
  5
17080
  8
L1
 10
556.99999999999955
 20
169.0
 30
0.0
 11
565.99999999999955
 21
169.0
 31
0.0
  0
LINE
  5
17081
  8
L1
 10
556.99999999999955
 20
219.0
 30
0.0
 11
565.99999999999955
 21
219.0
 31
0.0
  0
LINE
  5
17082
  8
L1
 10
556.99999999999955
 20
211.0
 30
0.0
 11
565.99999999999955
 21
211.0
 31
0.0
  0
LINE
  5
17083
  8
L1
 10
631.5
 20
168.5
 30
0.0
 11
633.0
 21
169.36602540378399
 31
0.0
  0
LINE
  5
17084
  8
L1
 10
631.5
 20
161.5
 30
0.0
 11
633.0
 21
160.63397459621541
 31
0.0
  0
LINE
  5
17085
  8
L1
 10
631.5
 20
165.0
 30
0.0
 11
631.5
 21
168.5
 31
0.0
  0
LINE
  5
17086
  8
L1
 10
631.5
 20
165.0
 30
0.0
 11
631.5
 21
161.5
 31
0.0
  0
LINE
  5
17087
  8
L1
 10
631.5
 20
165.0
 30
0.0
 11
631.5
 21
161.5
 31
0.0
  0
LINE
  5
17088
  8
L1
 10
631.5
 20
165.0
 30
0.0
 11
631.5
 21
168.5
 31
0.0
  0
LINE
  5
17089
  8
L1
 10
631.5
 20
161.5
 30
0.0
 11
633.0
 21
160.63397459621541
 31
0.0
  0
LINE
  5
1708A
  8
L1
 10
631.5
 20
168.5
 30
0.0
 11
633.0
 21
169.36602540378399
 31
0.0
  0
LINE
  5
1708B
  8
L1
 10
631.5
 20
215.0
 30
0.0
 11
631.5
 21
211.5
 31
0.0
  0
LINE
  5
1708C
  8
L1
 10
631.5
 20
215.0
 30
0.0
 11
631.5
 21
218.5
 31
0.0
  0
LINE
  5
1708D
  8
L1
 10
631.5
 20
211.5
 30
0.0
 11
633.0
 21
210.63397459621589
 31
0.0
  0
LINE
  5
1708E
  8
L1
 10
631.5
 20
218.5
 30
0.0
 11
633.0
 21
219.36602540378399
 31
0.0
  0
LINE
  5
17090
  8
L1
 10
556.99999999999955
 20
319.0
 30
0.0
 11
565.99999999999955
 21
319.0
 31
0.0
  0
LINE
  5
17091
  8
L1
 10
556.99999999999955
 20
311.0
 30
0.0
 11
565.99999999999955
 21
311.0
 31
0.0
  0
LINE
  5
17092
  8
L1
 10
631.5
 20
265.0
 30
0.0
 11
631.5
 21
268.5
 31
0.0
  0
LINE
  5
17093
  8
L1
 10
631.5
 20
261.5
 30
0.0
 11
633.0
 21
260.63397459621501
 31
0.0
  0
LINE
  5
17094
  8
L1
 10
631.5
 20
265.0
 30
0.0
 11
631.5
 21
261.5
 31
0.0
  0
LINE
  5
17095
  8
L1
 10
631.5
 20
268.5
 30
0.0
 11
632.99999999999955
 21
269.36602540378402
 31
0.0
  0
LINE
  5
17096
  8
L1
 10
631.5
 20
268.5
 30
0.0
 11
632.99999999999955
 21
269.36602540378402
 31
0.0
  0
LINE
  5
17097
  8
L1
 10
631.5
 20
261.5
 30
0.0
 11
633.0
 21
260.63397459621501
 31
0.0
  0
LINE
  5
17098
  8
L1
 10
631.5
 20
265.0
 30
0.0
 11
631.5
 21
268.5
 31
0.0
  0
LINE
  5
17099
  8
L1
 10
631.5
 20
265.0
 30
0.0
 11
631.5
 21
261.5
 31
0.0
  0
LINE
  5
1709A
  8
L1
 10
631.5
 20
265.0
 30
0.0
 11
631.5
 21
261.5
 31
0.0
  0
LINE
  5
1709B
  8
L1
 10
631.5
 20
265.0
 30
0.0
 11
631.5
 21
268.5
 31
0.0
  0
LINE
  5
1709C
  8
L1
 10
631.5
 20
261.5
 30
0.0
 11
633.0
 21
260.63397459621501
 31
0.0
  0
LINE
  5
1709D
  8
L1
 10
631.5
 20
268.5
 30
0.0
 11
632.99999999999955
 21
269.36602540378402
 31
0.0
  0
LINE
  5
1709E
  8
L1
 10
631.5
 20
318.49999999999949
 30
0.0
 11
632.99999999999955
 21
319.36602540378402
 31
0.0
  0
LINE
  5
1709F
  8
L1
 10
631.5
 20
311.49999999999949
 30
0.0
 11
632.99999999999955
 21
310.63397459621501
 31
0.0
  0
LINE
  5
170A0
  8
L1
 10
631.5
 20
314.99999999999949
 30
0.0
 11
631.5
 21
318.49999999999949
 31
0.0
  0
LINE
  5
170A1
  8
L1
 10
631.5
 20
314.99999999999949
 30
0.0
 11
631.5
 21
311.49999999999949
 31
0.0
  0
LINE
  5
170A5
  8
L1
 10
631.5
 20
408.2214701773454
 30
0.0
 11
631.5
 21
425.72147017734449
 31
0.0
  0
LINE
  5
170A8
  8
L1
 10
556.99999999999955
 20
360.99999999999949
 30
0.0
 11
565.99999999999955
 21
360.99999999999949
 31
0.0
  0
LINE
  5
170A9
  8
L1
 10
556.99999999999955
 20
368.99999999999949
 30
0.0
 11
565.99999999999955
 21
368.99999999999949
 31
0.0
  0
LINE
  5
170AB
  8
L1
 10
631.5
 20
361.49999999999949
 30
0.0
 11
632.99999999999955
 21
360.63397459621501
 31
0.0
  0
LINE
  5
170AC
  8
L1
 10
631.5
 20
368.49999999999949
 30
0.0
 11
632.99999999999955
 21
369.36602540378402
 31
0.0
  0
LINE
  5
170AD
  8
L1
 10
631.5
 20
364.99999999999949
 30
0.0
 11
631.5
 21
368.49999999999949
 31
0.0
  0
LINE
  5
170AE
  8
L1
 10
631.5
 20
364.99999999999949
 30
0.0
 11
631.5
 21
361.49999999999949
 31
0.0
  0
LINE
  5
170AF
  8
L1
 10
631.5
 20
414.99999999999898
 30
0.0
 11
631.5
 21
418.49999999999898
 31
0.0
  0
LINE
  5
170B0
  8
L1
 10
631.5
 20
414.99999999999898
 30
0.0
 11
631.5
 21
411.49999999999909
 31
0.0
  0
LINE
  5
170B1
  8
L1
 10
632.99999999999955
 20
407.47147017734591
 30
0.0
 11
631.5
 21
408.2214701773454
 31
0.0
  0
LINE
  5
170B2
  8
L1
 10
631.5
 20
419.22147017734551
 30
0.0
 11
632.99999999999955
 21
419.97147017734551
 31
0.0
  0
LINE
  5
170D4
  8
L1
 10
631.0
 20
456.99999999999909
 30
0.0
 11
631.0
 21
435.39999999999958
 31
0.0
  0
LINE
  5
170D5
  8
L1
 10
631.0
 20
435.39999999999958
 30
0.0
 11
633.0
 21
435.39999999999958
 31
0.0
  0
LINE
  5
170D6
  8
L1
 10
633.0
 20
456.99999999999909
 30
0.0
 11
631.0
 21
456.99999999999909
 31
0.0
  0
LINE
  5
170D7
  8
L1
 10
631.0
 20
446.39999999999958
 30
0.0
 11
633.0
 21
446.39999999999958
 31
0.0
  0
LINE
  5
170D8
  8
L1
 10
631.0
 20
437.89999999999958
 30
0.0
 11
633.0
 21
437.89999999999958
 31
0.0
  0
LINE
  5
170DA
  8
L1
 10
631.5
 20
425.72147017734449
 30
0.0
 11
632.99999999999955
 21
426.4714701773446
 31
0.0
  0
LINE
  5
170DB
  8
L1
 10
632.99999999999955
 20
456.99999999999909
 30
0.0
 11
632.99999999999955
 21
462.49999999999909
 31
0.0
  0
LINE
  5
17140
  8
L1
 10
116.5
 20
265.0
 30
0.0
 11
116.5
 21
268.5
 31
0.0
  0
LINE
  5
17141
  8
L1
 10
116.5
 20
265.0
 30
0.0
 11
116.5
 21
268.5
 31
0.0
  0
LINE
  5
17142
  8
L1
 10
116.5
 20
265.0
 30
0.0
 11
116.5
 21
268.5
 31
0.0
  0
LINE
  5
17143
  8
L1
 10
115.0
 20
435.39999999999958
 30
0.0
 11
115.0
 21
265.0
 31
0.0
  0
LINE
  5
17144
  8
34
 10
112.0
 20
441.5
 30
0.0
 11
112.0
 21
265.0
 31
0.0
  0
LINE
  5
17145
  8
31
 10
-18.0
 20
459.19615242270658
 30
0.0
 11
-18.0
 21
265.0
 31
0.0
  0
LINE
  5
17146
  8
31
 10
112.5
 20
461.0
 30
0.0
 11
112.5
 21
265.0
 31
0.0
  0
LINE
  5
17147
  8
31
 10
-12.5
 20
461.0
 30
0.0
 11
-12.5
 21
265.0
 31
0.0
  0
LINE
  5
17148
  8
31
 10
-15.0
 20
465.0
 30
0.0
 11
-15.0
 21
265.0
 31
0.0
  0
LINE
  5
17149
  8
31
 10
115.0
 20
465.0
 30
0.0
 11
115.0
 21
265.0
 31
0.0
  0
LINE
  5
1714A
  8
L1
 10
115.0
 20
67.500000000000909
 30
0.0
 11
115.0
 21
73.0
 31
0.0
  0
ARC
  5
1714B
  8
31
 10
-10.5
 20
69.0
 30
0.0
 40
2.0
 50
180.0
 51
270.0
  0
LINE
  5
1714C
  8
31
 10
-15.0
 20
65.0
 30
0.0
 11
-15.0
 21
265.0
 31
0.0
  0
ARC
  5
1714D
  8
31
 10
110.4999999999999
 20
69.0
 30
0.0
 40
2.0
 50
270.0
 51
0.000000000000007
  0
LINE
  5
1714E
  8
31
 10
115.0
 20
65.0
 30
0.0
 11
115.0
 21
265.0
 31
0.0
  0
LINE
  5
1714F
  8
31
 10
115.0
 20
65.0
 30
0.0
 11
-15.0
 21
65.0
 31
0.0
  0
LINE
  5
17150
  8
31
 10
110.4999999999999
 20
67.0
 30
0.0
 11
-10.5
 21
67.0
 31
0.0
  0
LINE
  5
17151
  8
34
 10
-18.0
 20
87.5
 30
0.0
 11
111.0
 21
87.5
 31
0.0
  0
LINE
  5
17152
  8
33
  6
DASHDOT
 10
-22.0
 20
265.0
 30
0.0
 11
122.0
 21
265.0
 31
0.0
  0
LINE
  5
17153
  8
34
 10
106.0
 20
175.0
 30
0.0
 11
106.0
 21
165.0
 31
0.0
  0
LINE
  5
17154
  8
L1
 10
116.5
 20
165.0
 30
0.0
 11
116.5
 21
168.5
 31
0.0
  0
LINE
  5
17155
  8
L1
 10
116.5
 20
165.0
 30
0.0
 11
116.5
 21
168.5
 31
0.0
  0
LINE
  5
17156
  8
L1
 10
115.0
 20
94.600000000000364
 30
0.0
 11
115.0
 21
265.0
 31
0.0
  0
LINE
  5
17157
  8
34
 10
112.0
 20
88.499999999999986
 30
0.0
 11
112.0
 21
265.0
 31
0.0
  0
LINE
  5
17158
  8
31
 10
112.5
 20
69.0
 30
0.0
 11
112.5
 21
265.0
 31
0.0
  0
LINE
  5
17159
  8
L1
 10
116.5
 20
115.0
 30
0.0
 11
116.5
 21
118.5
 31
0.0
  0
LINE
  5
1715A
  8
L1
 10
116.5
 20
115.0
 30
0.0
 11
116.5
 21
118.5
 31
0.0
  0
LINE
  5
1715B
  8
L1
 10
116.5
 20
121.7785298226535
 30
0.0
 11
116.5
 21
104.27852982265441
 31
0.0
  0
LINE
  5
1715C
  8
L1
 10
117.0
 20
73.0
 30
0.0
 11
117.0
 21
94.600000000000364
 31
0.0
  0
LINE
  5
1715D
  8
L1
 10
115.0
 20
73.0
 30
0.0
 11
117.0
 21
73.0
 31
0.0
  0
LINE
  5
1715E
  8
L1
 10
117.0
 20
83.600000000000364
 30
0.0
 11
115.0
 21
83.600000000000364
 31
0.0
  0
LINE
  5
1715F
  8
L1
 10
117.0
 20
92.100000000000364
 30
0.0
 11
115.0
 21
92.099999999999909
 31
0.0
  0
ARC
  5
17160
  8
34
 10
111.0
 20
88.499999999999986
 30
0.0
 40
1.0
 50
270.0
 51
0.000000000000007
  0
LINE
  5
17161
  8
L1
 10
117.0
 20
94.600000000000364
 30
0.0
 11
115.0
 21
94.600000000000364
 31
0.0
  0
LINE
  5
17162
  8
L1
 10
116.5
 20
104.27852982265441
 30
0.0
 11
115.0
 21
103.52852982265451
 31
0.0
  0
LINE
  5
17163
  8
L1
 10
116.5
 20
110.7785298226535
 30
0.0
 11
115.0
 21
110.0285298226535
 31
0.0
  0
LINE
  5
17164
  8
L1
 10
116.5
 20
115.0
 30
0.0
 11
116.5
 21
111.4999999999999
 31
0.0
  0
LINE
  5
17165
  8
L1
 10
116.5
 20
115.0
 30
0.0
 11
116.5
 21
111.4999999999999
 31
0.0
  0
LINE
  5
17166
  8
L1
 10
115.0
 20
122.5285298226535
 30
0.0
 11
116.5
 21
121.7785298226535
 31
0.0
  0
LINE
  5
17167
  8
34
 10
106.0
 20
154.9999999999998
 30
0.0
 11
112.0
 21
154.8952696104306
 31
0.0
  0
LINE
  5
17168
  8
34
 10
106.0
 20
160.0
 30
0.0
 11
112.0
 21
159.8952696104306
 31
0.0
  0
LINE
  5
17169
  8
L1
 10
116.5
 20
165.0
 30
0.0
 11
116.5
 21
161.5
 31
0.0
  0
LINE
  5
1716A
  8
L1
 10
116.5
 20
165.0
 30
0.0
 11
116.5
 21
161.5
 31
0.0
  0
LINE
  5
1716B
  8
L1
 10
116.5
 20
161.5
 30
0.0
 11
115.0
 21
160.63397459621541
 31
0.0
  0
LINE
  5
1716C
  8
L1
 10
116.5
 20
161.5
 30
0.0
 11
115.0
 21
160.63397459621541
 31
0.0
  0
LINE
  5
1716D
  8
34
 10
106.0
 20
154.9999999999998
 30
0.0
 11
106.0
 21
165.0
 31
0.0
  0
LINE
  5
1716E
  8
L1
 10
116.5
 20
215.0
 30
0.0
 11
116.5
 21
218.5
 31
0.0
  0
LINE
  5
1716F
  8
34
 10
106.0
 20
170.0
 30
0.0
 11
112.0
 21
170.10473038956931
 31
0.0
  0
LINE
  5
17170
  8
34
 10
106.0
 20
175.0
 30
0.0
 11
112.0
 21
175.10473038956931
 31
0.0
  0
LINE
  5
17171
  8
L1
 10
116.5
 20
168.5
 30
0.0
 11
115.0
 21
169.36602540378399
 31
0.0
  0
LINE
  5
17172
  8
L1
 10
116.5
 20
168.5
 30
0.0
 11
115.0
 21
169.36602540378399
 31
0.0
  0
LINE
  5
17173
  8
L1
 10
116.5
 20
211.5
 30
0.0
 11
115.0
 21
210.63397459621589
 31
0.0
  0
LINE
  5
17174
  8
L1
 10
116.5
 20
215.0
 30
0.0
 11
116.5
 21
211.5
 31
0.0
  0
LINE
  5
17175
  8
L1
 10
116.5
 20
218.5
 30
0.0
 11
115.0
 21
219.36602540378399
 31
0.0
  0
LINE
  5
17176
  8
L1
 10
116.5
 20
261.5
 30
0.0
 11
115.0
 21
260.63397459621501
 31
0.0
  0
LINE
  5
17177
  8
L1
 10
116.5
 20
265.0
 30
0.0
 11
116.5
 21
261.5
 31
0.0
  0
LINE
  5
17178
  8
L1
 10
116.5
 20
265.0
 30
0.0
 11
116.5
 21
261.5
 31
0.0
  0
LINE
  5
17179
  8
L1
 10
116.5
 20
261.5
 30
0.0
 11
115.0
 21
260.63397459621501
 31
0.0
  0
LINE
  5
1717A
  8
L1
 10
116.5
 20
265.0
 30
0.0
 11
116.5
 21
261.5
 31
0.0
  0
LINE
  5
1717B
  8
L1
 10
116.5
 20
261.5
 30
0.0
 11
115.0
 21
260.63397459621501
 31
0.0
  0
LINE
  5
1717C
  8
31
 10
-12.5
 20
69.0
 30
0.0
 11
-12.5
 21
265.0
 31
0.0
  0
LINE
  5
1717D
  8
31
 10
-18.0
 20
70.803847577293368
 30
0.0
 11
-18.0
 21
265.0
 31
0.0
  0
LINE
  5
1717E
  8
31
 10
-15.0
 20
70.0
 30
0.0
 11
-18.0
 21
70.803847577293368
 31
0.0
  0
LINE
  5
1717F
  8
L1
 10
115.0000000000004
 20
456.99999999999909
 30
0.0
 11
115.0000000000004
 21
462.49999999999909
 31
0.0
  0
ARC
  5
17180
  8
31
 10
-10.5
 20
461.0
 30
0.0
 40
2.0
 50
90.0
 51
180.0
  0
ARC
  5
17181
  8
31
 10
110.4999999999999
 20
461.0
 30
0.0
 40
2.0
 50
0.000000000000007
 51
90.0
  0
LINE
  5
17182
  8
34
 10
-18.0
 20
442.49999999999989
 30
0.0
 11
111.0
 21
442.49999999999989
 31
0.0
  0
LINE
  5
17183
  8
L1
 10
116.5
 20
364.99999999999949
 30
0.0
 11
116.5
 21
361.49999999999949
 31
0.0
  0
LINE
  5
17184
  8
L1
 10
116.5
 20
314.99999999999949
 30
0.0
 11
116.5
 21
311.49999999999949
 31
0.0
  0
LINE
  5
17185
  8
L1
 10
116.5
 20
268.5
 30
0.0
 11
115.0000000000004
 21
269.36602540378402
 31
0.0
  0
LINE
  5
17186
  8
L1
 10
116.5
 20
268.5
 30
0.0
 11
115.0000000000004
 21
269.36602540378402
 31
0.0
  0
LINE
  5
17187
  8
L1
 10
116.5
 20
268.5
 30
0.0
 11
115.0000000000004
 21
269.36602540378402
 31
0.0
  0
LINE
  5
17188
  8
L1
 10
116.5
 20
311.49999999999949
 30
0.0
 11
115.0000000000004
 21
310.63397459621501
 31
0.0
  0
LINE
  5
17189
  8
L1
 10
116.5
 20
314.99999999999949
 30
0.0
 11
116.5
 21
318.49999999999949
 31
0.0
  0
LINE
  5
1718A
  8
L1
 10
116.5
 20
318.49999999999949
 30
0.0
 11
115.0000000000004
 21
319.36602540378402
 31
0.0
  0
LINE
  5
1718B
  8
L1
 10
116.5
 20
361.49999999999949
 30
0.0
 11
115.0000000000004
 21
360.63397459621501
 31
0.0
  0
LINE
  5
1718C
  8
L1
 10
116.5
 20
414.99999999999898
 30
0.0
 11
116.5
 21
411.49999999999909
 31
0.0
  0
LINE
  5
1718D
  8
L1
 10
116.5
 20
408.2214701773454
 30
0.0
 11
116.5
 21
425.72147017734449
 31
0.0
  0
LINE
  5
1718E
  8
L1
 10
116.5
 20
364.99999999999949
 30
0.0
 11
116.5
 21
368.49999999999949
 31
0.0
  0
LINE
  5
1718F
  8
L1
 10
116.5
 20
368.49999999999949
 30
0.0
 11
115.0000000000004
 21
369.36602540378402
 31
0.0
  0
LINE
  5
17190
  8
L1
 10
115.0000000000004
 20
407.47147017734591
 30
0.0
 11
116.5
 21
408.2214701773454
 31
0.0
  0
LINE
  5
17191
  8
L1
 10
117.0
 20
456.99999999999909
 30
0.0
 11
117.0
 21
435.39999999999958
 31
0.0
  0
LINE
  5
17192
  8
L1
 10
116.5
 20
414.99999999999898
 30
0.0
 11
116.5
 21
418.49999999999898
 31
0.0
  0
LINE
  5
17193
  8
L1
 10
116.5
 20
419.22147017734551
 30
0.0
 11
115.0000000000004
 21
419.97147017734551
 31
0.0
  0
LINE
  5
17194
  8
L1
 10
117.0
 20
435.39999999999958
 30
0.0
 11
115.0
 21
435.39999999999958
 31
0.0
  0
LINE
  5
17195
  8
L1
 10
116.5
 20
425.72147017734449
 30
0.0
 11
115.0000000000004
 21
426.4714701773446
 31
0.0
  0
LINE
  5
17196
  8
L1
 10
117.0
 20
437.89999999999958
 30
0.0
 11
115.0
 21
437.89999999999958
 31
0.0
  0
LINE
  5
17197
  8
L1
 10
117.0
 20
446.39999999999958
 30
0.0
 11
115.0
 21
446.39999999999958
 31
0.0
  0
ARC
  5
17198
  8
34
 10
111.0
 20
441.5
 30
0.0
 40
1.0
 50
0.000000000000007
 51
90.0
  0
LINE
  5
17199
  8
L1
 10
115.0
 20
456.99999999999909
 30
0.0
 11
117.0
 21
456.99999999999909
 31
0.0
  0
LINE
  5
1719A
  8
31
 10
-15.0
 20
460.0
 30
0.0
 11
-18.0
 21
459.19615242270658
 31
0.0
  0
LINE
  5
1719B
  8
31
 10
110.4999999999999
 20
463.0
 30
0.0
 11
-10.5
 21
463.0
 31
0.0
  0
LINE
  5
1719C
  8
31
 10
115.0
 20
465.0
 30
0.0
 11
-15.0
 21
465.0
 31
0.0
  0
LINE
  5
171A0
  8
L1
 10
-454.0
 20
360.99999999999949
 30
0.0
 11
-500.99999999999949
 21
360.99999999999949
 31
0.0
  0
LINE
  5
171A1
  8
L1
 10
-454.0
 20
360.99999999999949
 30
0.0
 11
-454.0
 21
319.0
 31
0.0
  0
CIRCLE
  5
171A3
  8
L1
 10
-478.0
 20
419.0
 30
0.0
 40
6.0
  0
LINE
  5
171A4
  8
L1
 10
-477.6661494645773
 20
413.00929521508527
 30
0.0
 11
-453.99999999999949
 21
389.34314575050797
 31
0.0
  0
LINE
  5
171A5
  8
L1
 10
-454.0
 20
368.99999999999949
 30
0.0
 11
-500.99999999999949
 21
368.99999999999949
 31
0.0
  0
CIRCLE
  5
171A7
  8
L1
 10
-489.0
 20
412.5
 30
0.0
 40
6.0
  0
CIRCLE
  5
171A9
  8
L1
 10
-486.0
 20
390.0
 30
0.0
 40
6.0
  0
LINE
  5
171AB
  8
L1
 10
-492.00929521508527
 20
438.6661494645777
 30
0.0
 11
-478.33385053542167
 21
424.99070478491473
 31
0.0
  0
CIRCLE
  5
171AC
  8
L1
 10
-498.0
 20
439.0
 30
0.0
 40
6.0
  0
LINE
  5
171AD
  8
L1
 10
-497.6661494645777
 20
433.00929521508527
 30
0.0
 11
-483.99070478491473
 21
419.33385053542219
 31
0.0
  0
LINE
  5
171AE
  8
L1
 10
-472.00929521508527
 20
418.6661494645777
 30
0.0
 11
-448.34314575050752
 21
394.99999999999949
 31
0.0
  0
LINE
  5
171AF
  8
L1
 10
-428.0000000000004
 20
394.99999999999898
 30
0.0
 11
-428.0000000000004
 21
441.99999999999909
 31
0.0
  0
LINE
  5
171B0
  8
L1
 10
-420.0000000000004
 20
394.99999999999898
 30
0.0
 11
-420.0000000000004
 21
441.99999999999909
 31
0.0
  0
LINE
  5
171B1
  8
L1
 10
-454.0
 20
368.99999999999949
 30
0.0
 11
-454.0000000000004
 21
389.34314575050848
 31
0.0
  0
LINE
  5
171B2
  8
L1
 10
-428.0000000000004
 20
394.99999999999898
 30
0.0
 11
-448.34314575050752
 21
394.99999999999898
 31
0.0
  0
LINE
  5
171B3
  8
L1
 10
-378.0000000000004
 20
394.99999999999898
 30
0.0
 11
-420.0000000000004
 21
394.99999999999898
 31
0.0
  0
ARC
  5
171B6
  8
L1
 10
-452.49084232802852
 20
426.4197745161913
 30
0.0
 40
5.0
 50
134.99999999999071
 51
314.99999999999068
  0
LINE
  5
171B7
  8
L1
 10
-448.95530842209507
 20
437.02637623398948
 30
0.0
 11
-456.0263762339618
 21
429.95530842212378
 31
0.0
  0
LINE
  5
171B8
  8
L1
 10
-448.955308422097
 20
422.88424061025893
 30
0.0
 11
-441.88424061023028
 21
429.95530842212378
 31
0.0
  0
ARC
  5
171B9
  8
L1
 10
-445.41977451616373
 20
433.49084232805711
 30
0.0
 40
5.0
 50
314.99999999999068
 51
134.99999999999071
  0
LINE
  5
171BC
  8
L1
 10
-454.0
 20
311.0
 30
0.0
 11
-500.99999999999949
 21
311.0
 31
0.0
  0
LINE
  5
171BD
  8
L1
 10
-454.0
 20
319.0
 30
0.0
 11
-500.99999999999949
 21
319.0
 31
0.0
  0
LINE
  5
171BE
  8
L1
 10
-454.0
 20
269.0
 30
0.0
 11
-454.0
 21
311.0
 31
0.0
  0
LINE
  5
171C1
  8
L1
 10
-454.0
 20
211.0
 30
0.0
 11
-500.99999999999949
 21
211.0
 31
0.0
  0
LINE
  5
171C2
  8
L1
 10
-454.0
 20
219.0
 30
0.0
 11
-500.99999999999949
 21
219.0
 31
0.0
  0
LINE
  5
171C3
  8
L1
 10
-454.0
 20
211.0
 30
0.0
 11
-454.0
 21
169.0
 31
0.0
  0
LINE
  5
171C5
  8
L1
 10
-454.0
 20
261.0
 30
0.0
 11
-454.0
 21
219.0
 31
0.0
  0
LINE
  5
171C6
  8
L1
 10
-454.0
 20
235.0
 30
0.0
 11
-454.0
 21
219.0
 31
0.0
  0
LINE
  5
171C8
  8
L1
 10
-454.0
 20
161.0
 30
0.0
 11
-500.99999999999949
 21
161.0
 31
0.0
  0
CIRCLE
  5
171C9
  8
L1
 10
-478.0
 20
111.0000000000004
 30
0.0
 40
6.0
  0
LINE
  5
171CB
  8
L1
 10
-477.6661494645773
 20
116.9907047849137
 30
0.0
 11
-453.99999999999949
 21
140.65685424949149
 31
0.0
  0
CIRCLE
  5
171CD
  8
L1
 10
-489.0
 20
117.4999999999995
 30
0.0
 40
6.0
  0
LINE
  5
171CE
  8
L1
 10
-492.00929521508527
 20
91.333850535421789
 30
0.0
 11
-478.33385053542167
 21
105.0092952150848
 31
0.0
  0
LINE
  5
171CF
  8
L1
 10
-497.6661494645777
 20
96.990704784914215
 30
0.0
 11
-483.99070478491473
 21
110.6661494645768
 31
0.0
  0
CIRCLE
  5
171D1
  8
L1
 10
-486.0
 20
139.99999999999949
 30
0.0
 40
6.0
  0
LINE
  5
171D2
  8
L1
 10
-428.0000000000004
 20
135.0
 30
0.0
 11
-428.0000000000004
 21
88.000000000000455
 31
0.0
  0
LINE
  5
171D3
  8
L1
 10
-420.0000000000004
 20
135.0
 30
0.0
 11
-420.0000000000004
 21
88.000000000000455
 31
0.0
  0
LINE
  5
171D4
  8
L1
 10
-472.00929521508527
 20
111.3338505354217
 30
0.0
 11
-448.34314575050752
 21
135.0
 31
0.0
  0
LINE
  5
171D9
  8
L1
 10
-454.0
 20
161.0
 30
0.0
 11
-454.0000000000004
 21
140.656854249491
 31
0.0
  0
LINE
  5
171DA
  8
L1
 10
-428.0000000000004
 20
135.0
 30
0.0
 11
-448.34314575050752
 21
135.0
 31
0.0
  0
LINE
  5
171DB
  8
L1
 10
-378.0000000000004
 20
135.0
 30
0.0
 11
-420.0000000000004
 21
135.0
 31
0.0
  0
LINE
  5
171DC
  8
L1
 10
-454.0
 20
169.0
 30
0.0
 11
-500.99999999999949
 21
169.0
 31
0.0
  0
LINE
  5
171E1
  8
L1
 10
-378.0000000000004
 20
394.99999999999898
 30
0.0
 11
-378.0000000000004
 21
441.99999999999909
 31
0.0
  0
LINE
  5
171E2
  8
L1
 10
-370.0000000000004
 20
394.99999999999898
 30
0.0
 11
-370.0000000000004
 21
441.99999999999909
 31
0.0
  0
LINE
  5
171E3
  8
L1
 10
-370.0000000000004
 20
394.99999999999898
 30
0.0
 11
-328.0000000000004
 21
394.99999999999909
 31
0.0
  0
LINE
  5
171E4
  8
L1
 10
-358.0
 20
394.99999999999898
 30
0.0
 11
-344.0
 21
394.99999999999898
 31
0.0
  0
LINE
  5
171E5
  8
L1
 10
-339.99999999999949
 20
394.99999999999898
 30
0.0
 11
-354.0
 21
394.99999999999898
 31
0.0
  0
LINE
  5
171E9
  8
L1
 10
-277.99999999999949
 20
394.99999999999898
 30
0.0
 11
-320.0000000000004
 21
394.99999999999898
 31
0.0
  0
LINE
  5
171EA
  8
L1
 10
-308.0000000000004
 20
394.99999999999898
 30
0.0
 11
-290.0000000000004
 21
394.99999999999898
 31
0.0
  0
LINE
  5
171F3
  8
L1
 10
-277.99999999999949
 20
394.99999999999898
 30
0.0
 11
-277.99999999999949
 21
441.99999999999909
 31
0.0
  0
LINE
  5
171F4
  8
L1
 10
-269.99999999999949
 20
394.99999999999898
 30
0.0
 11
-269.99999999999949
 21
441.99999999999909
 31
0.0
  0
CIRCLE
  5
171F7
  8
L1
 10
-170.0
 20
419.0
 30
0.0
 40
6.0
  0
LINE
  5
171F8
  8
L1
 10
-170.33385053542261
 20
413.00929521508527
 30
0.0
 11
-194.0000000000004
 21
389.34314575050797
 31
0.0
  0
LINE
  5
171F9
  8
L1
 10
-175.99070478491461
 20
418.6661494645777
 30
0.0
 11
-199.65685424949291
 21
394.99999999999898
 31
0.0
  0
LINE
  5
171FA
  8
L1
 10
-194.0000000000004
 20
368.99999999999949
 30
0.0
 11
-194.0
 21
389.34314575050848
 31
0.0
  0
CIRCLE
  5
17200
  8
L1
 10
-159.0
 20
412.5
 30
0.0
 40
6.0
  0
CIRCLE
  5
17202
  8
L1
 10
-162.0
 20
390.0
 30
0.0
 40
6.0
  0
CIRCLE
  5
17203
  8
L1
 10
-150.0
 20
439.0
 30
0.0
 40
6.0
  0
LINE
  5
17204
  8
L1
 10
-155.99070478491461
 20
438.6661494645777
 30
0.0
 11
-169.66614946457821
 21
424.99070478491473
 31
0.0
  0
LINE
  5
17205
  8
L1
 10
-150.33385053542219
 20
433.00929521508527
 30
0.0
 11
-164.0092952150853
 21
419.33385053542219
 31
0.0
  0
LINE
  5
17207
  8
L1
 10
-194.0000000000004
 20
368.99999999999949
 30
0.0
 11
-147.0000000000004
 21
368.99999999999949
 31
0.0
  0
LINE
  5
17208
  8
L1
 10
-194.0000000000004
 20
360.99999999999949
 30
0.0
 11
-147.0000000000004
 21
360.99999999999949
 31
0.0
  0
LINE
  5
17209
  8
L1
 10
-194.0000000000004
 20
360.99999999999949
 30
0.0
 11
-194.0000000000004
 21
319.0
 31
0.0
  0
LINE
  5
1720B
  8
L1
 10
-194.0000000000004
 20
311.0
 30
0.0
 11
-147.0000000000004
 21
311.0
 31
0.0
  0
LINE
  5
1720C
  8
L1
 10
-194.0000000000004
 20
319.0
 30
0.0
 11
-147.0000000000004
 21
319.0
 31
0.0
  0
LINE
  5
1720D
  8
L1
 10
-194.0000000000004
 20
281.0
 30
0.0
 11
-194.0000000000004
 21
311.0
 31
0.0
  0
LINE
  5
17210
  8
L1
 10
-194.0000000000004
 20
248.99999999999949
 30
0.0
 11
-194.0000000000004
 21
219.0
 31
0.0
  0
CIRCLE
  5
17212
  8
L1
 10
-170.0
 20
111.0000000000004
 30
0.0
 40
6.0
  0
LINE
  5
17214
  8
L1
 10
-170.33385053542261
 20
116.9907047849137
 30
0.0
 11
-194.0000000000004
 21
140.65685424949149
 31
0.0
  0
LINE
  5
17215
  8
L1
 10
-175.99070478491461
 20
111.3338505354217
 30
0.0
 11
-199.6568542494924
 21
135.0
 31
0.0
  0
LINE
  5
17216
  8
L1
 10
-194.0000000000004
 20
161.0
 30
0.0
 11
-194.0000000000004
 21
140.65685424949149
 31
0.0
  0
LINE
  5
17217
  8
L1
 10
-219.99999999999949
 20
135.0
 30
0.0
 11
-199.6568542494928
 21
135.0
 31
0.0
  0
LINE
  5
17218
  8
L1
 10
-194.0000000000004
 20
211.0
 30
0.0
 11
-194.0000000000004
 21
169.0
 31
0.0
  0
LINE
  5
1721A
  8
L1
 10
-219.99999999999949
 20
135.0
 30
0.0
 11
-219.99999999999949
 21
88.000000000000455
 31
0.0
  0
LINE
  5
1721B
  8
L1
 10
-227.99999999999949
 20
135.0
 30
0.0
 11
-227.99999999999949
 21
88.000000000000455
 31
0.0
  0
LINE
  5
17222
  8
L1
 10
-277.99999999999949
 20
135.0
 30
0.0
 11
-277.99999999999949
 21
88.000000000000455
 31
0.0
  0
LINE
  5
17225
  8
L1
 10
-277.99999999999949
 20
135.0
 30
0.0
 11
-320.0000000000004
 21
135.0000000000006
 31
0.0
  0
LINE
  5
17226
  8
L1
 10
-308.0000000000004
 20
135.0
 30
0.0
 11
-290.0000000000004
 21
135.0
 31
0.0
  0
LINE
  5
17227
  8
L1
 10
-269.99999999999949
 20
135.0
 30
0.0
 11
-269.99999999999949
 21
88.000000000000455
 31
0.0
  0
LINE
  5
17228
  8
L1
 10
-269.99999999999949
 20
135.0
 30
0.0
 11
-228.0
 21
135.0
 31
0.0
  0
LINE
  5
17229
  8
L1
 10
-378.0000000000004
 20
135.0
 30
0.0
 11
-378.0000000000004
 21
88.000000000000455
 31
0.0
  0
LINE
  5
1722A
  8
L1
 10
-370.0000000000004
 20
135.0
 30
0.0
 11
-370.0000000000004
 21
88.000000000000455
 31
0.0
  0
LINE
  5
1722C
  8
L1
 10
-358.0
 20
135.0
 30
0.0
 11
-344.0
 21
135.0
 31
0.0
  0
LINE
  5
1722D
  8
L1
 10
-328.0000000000004
 20
135.0
 30
0.0
 11
-354.0
 21
135.0
 31
0.0
  0
LINE
  5
1722E
  8
L1
 10
-354.0
 20
135.0
 30
0.0
 11
-370.0000000000004
 21
135.0
 31
0.0
  0
CIRCLE
  5
17230
  8
L1
 10
-150.0
 20
91.000000000000455
 30
0.0
 40
6.0
  0
LINE
  5
17231
  8
L1
 10
-155.99070478491461
 20
91.333850535421789
 30
0.0
 11
-169.66614946457821
 21
105.0092952150848
 31
0.0
  0
LINE
  5
17233
  8
L1
 10
-150.33385053542219
 20
96.990704784914215
 30
0.0
 11
-164.0092952150853
 21
110.6661494645768
 31
0.0
  0
CIRCLE
  5
17234
  8
L1
 10
-159.0
 20
117.4999999999995
 30
0.0
 40
6.0
  0
LINE
  5
17236
  8
L1
 10
-194.0000000000004
 20
211.0
 30
0.0
 11
-147.0000000000004
 21
211.0
 31
0.0
  0
LINE
  5
17237
  8
L1
 10
-194.0000000000004
 20
219.0
 30
0.0
 11
-147.0000000000004
 21
219.0
 31
0.0
  0
LINE
  5
17238
  8
L1
 10
-194.0000000000004
 20
169.0
 30
0.0
 11
-147.0000000000004
 21
169.0
 31
0.0
  0
LINE
  5
17239
  8
L1
 10
-194.0000000000004
 20
161.0
 30
0.0
 11
-147.0000000000004
 21
161.0
 31
0.0
  0
LINE
  5
1723B
  8
51
 10
-518.0
 20
360.99999999999989
 30
0.0
 11
-518.0
 21
368.99999999999989
 31
0.0
  0
LINE
  5
1723C
  8
51
 10
-506.37118114027572
 20
360.99999999999989
 30
0.0
 11
-518.0
 21
360.99999999999989
 31
0.0
  0
LINE
  5
1723D
  8
51
 10
-518.0
 20
368.99999999999989
 30
0.0
 11
-506.37118114027601
 21
368.99999999999989
 31
0.0
  0
CIRCLE
  5
1723F
  8
51
 10
-503.99999999999949
 20
414.99999999999898
 30
0.0
 40
4.6500000000000004
  0
CIRCLE
  5
17240
  8
51
 10
-503.99999999999949
 20
414.99999999999898
 30
0.0
 40
3.5
  0
LINE
  5
17244
  8
L1
 10
-454.0
 20
269.0
 30
0.0
 11
-500.99999999999949
 21
269.0
 31
0.0
  0
LINE
  5
17245
  8
L1
 10
-454.0
 20
261.0
 30
0.0
 11
-500.99999999999949
 21
261.0
 31
0.0
  0
LINE
  5
17246
  8
L1
 10
-320.0000000000004
 20
394.99999999999898
 30
0.0
 11
-320.0000000000004
 21
441.99999999999909
 31
0.0
  0
LINE
  5
17247
  8
L1
 10
-328.0000000000004
 20
394.99999999999909
 30
0.0
 11
-328.0000000000004
 21
441.99999999999909
 31
0.0
  0
LINE
  5
17248
  8
L1
 10
-227.99999999999949
 20
394.99999999999898
 30
0.0
 11
-269.99999999999949
 21
394.99999999999898
 31
0.0
  0
LINE
  5
17249
  8
L1
 10
-219.99999999999949
 20
394.99999999999898
 30
0.0
 11
-219.99999999999949
 21
441.99999999999909
 31
0.0
  0
LINE
  5
1724A
  8
L1
 10
-227.99999999999949
 20
394.99999999999898
 30
0.0
 11
-227.99999999999949
 21
441.99999999999909
 31
0.0
  0
LINE
  5
1724B
  8
L1
 10
-199.65685424949291
 20
394.99999999999898
 30
0.0
 11
-219.99999999999949
 21
394.99999999999898
 31
0.0
  0
LINE
  5
1724C
  8
L1
 10
-320.0000000000004
 20
135.0000000000006
 30
0.0
 11
-320.0000000000004
 21
88.000000000000455
 31
0.0
  0
LINE
  5
1724D
  8
L1
 10
-328.0000000000004
 20
135.0
 30
0.0
 11
-328.0000000000004
 21
88.000000000000455
 31
0.0
  0
LINE
  5
1724E
  8
L1
 10
-194.0000000000004
 20
269.0
 30
0.0
 11
-147.0000000000004
 21
269.0
 31
0.0
  0
LINE
  5
1724F
  8
L1
 10
-194.0000000000004
 20
261.0
 30
0.0
 11
-147.0000000000004
 21
261.0
 31
0.0
  0
LINE
  5
17250
  8
L1
 10
-194.0000000000004
 20
261.0
 30
0.0
 11
-194.0000000000004
 21
219.0
 31
0.0
  0
LINE
  5
17251
  8
L1
 10
-194.0000000000004
 20
298.99999999999949
 30
0.0
 11
-194.0000000000004
 21
269.0
 31
0.0
  0
CIRCLE
  5
17252
  8
51
 10
-144.0000000000004
 20
414.99999999999898
 30
0.0
 40
3.5
  0
CIRCLE
  5
17253
  8
51
 10
-144.0000000000004
 20
414.99999999999898
 30
0.0
 40
4.6500000000000004
  0
CIRCLE
  5
17254
  8
51
 10
-144.0000000000004
 20
115.0
 30
0.0
 40
3.5
  0
CIRCLE
  5
17255
  8
51
 10
-144.0000000000004
 20
115.0
 30
0.0
 40
4.6500000000000004
  0
CIRCLE
  5
17256
  8
L1
 10
-162.0
 20
139.99999999999949
 30
0.0
 40
6.0
  0
CIRCLE
  5
17257
  8
51
 10
-503.99999999999949
 20
115.0
 30
0.0
 40
4.6500000000000004
  0
CIRCLE
  5
17258
  8
51
 10
-503.99999999999949
 20
115.0
 30
0.0
 40
3.5
  0
CIRCLE
  5
17259
  8
L1
 10
-498.0
 20
91.000000000000455
 30
0.0
 40
6.0
  0
ARC
  5
1725A
  8
L1
 10
-202.5802254838363
 20
433.49084232805711
 30
0.0
 40
5.0
 50
45.000000000009209
 51
225.00000000000921
  0
LINE
  5
1725B
  8
L1
 10
-199.044691577903
 20
422.88424061025893
 30
0.0
 11
-206.11575938976961
 21
429.95530842212378
 31
0.0
  0
ARC
  5
1725C
  8
L1
 10
-195.50915767197139
 20
426.4197745161913
 30
0.0
 40
5.0
 50
225.00000000000921
 51
45.000000000009209
  0
LINE
  5
1725D
  8
L1
 10
-199.0446915779047
 20
437.02637623398948
 30
0.0
 11
-191.97362376603809
 21
429.95530842212378
 31
0.0
  0
ARC
  5
1725E
  8
L1
 10
-445.41977451616373
 20
96.509157671942845
 30
0.0
 40
5.0
 50
225.00000000000909
 51
45.000000000009223
  0
LINE
  5
1725F
  8
L1
 10
-448.955308422097
 20
107.115759389741
 30
0.0
 11
-441.88424061023028
 21
100.04469157787609
 31
0.0
  0
ARC
  5
17260
  8
L1
 10
-452.49084232802852
 20
103.5802254838085
 30
0.0
 40
5.0
 50
45.000000000009223
 51
225.00000000000909
  0
LINE
  5
17261
  8
L1
 10
-448.95530842209507
 20
92.973623766010405
 30
0.0
 11
-456.0263762339618
 21
100.04469157787609
 31
0.0
  0
ARC
  5
17262
  8
L1
 10
-202.5802254838363
 20
96.509157671942845
 30
0.0
 40
5.0
 50
134.99999999999071
 51
314.99999999999068
  0
ARC
  5
17263
  8
L1
 10
-195.50915767197139
 20
103.5802254838085
 30
0.0
 40
5.0
 50
314.99999999999068
 51
134.99999999999071
  0
LINE
  5
17264
  8
L1
 10
-199.044691577903
 20
107.115759389741
 30
0.0
 11
-206.11575938976961
 21
100.04469157787609
 31
0.0
  0
LINE
  5
17265
  8
L1
 10
-199.0446915779047
 20
92.973623766010405
 30
0.0
 11
-191.97362376603809
 21
100.04469157787609
 31
0.0
  0
VIEWPORT
  5
1
 67
     1
  8
0
 10
210.0
 20
152.0942408376963
 30
0.0
 40
420.0
 41
304.18848167539261
 68
     1
 69
     1
1001
ACAD
1000
MVIEW
1002
{
1070
    16
1010
0.0
1020
0.0
1030
0.0
1010
0.0
1020
0.0
1030
1.0
1040
0.0
1040
304.18848167539261
1040
210.0
1040
152.0942408376963
1040
50.0
1040
0.0
1040
0.0
1070
     0
1070
   100
1070
     1
1070
     1
1070
     1
1070
     0
1070
     0
1070
     0
1040
0.0
1040
0.0
1040
0.0
1040
1.0
1040
1.0
1040
0.0
1040
0.0
1070
     0
1002
{
1002
}
1002
}
  0
ENDSEC
  0
EOF
