  0
SECTION
  2
HEADER
  9
$ACADVER
  1
AC1009
  9
$INSBASE
 10
0.0
 20
0.0
 30
0.0
  9
$EXTMIN
 10
-869.730064
 20
55.605557
 30
0.0
  9
$EXTMAX
 10
554.107458
 20
579.102004
 30
0.0
  9
$LIMMIN
 10
0.0
 20
0.0
  9
$LIMMAX
 10
420.0
 20
297.0
  9
$ORTHOMODE
 70
     1
  9
$REGENMODE
 70
     1
  9
$FILLMODE
 70
     1
  9
$QTEXTMODE
 70
     0
  9
$MIRRTEXT
 70
     1
  9
$DRAGMODE
 70
     2
  9
$LTSCALE
 40
7.0
  9
$OSMODE
 70
     0
  9
$ATTMODE
 70
     1
  9
$TEXTSIZE
 40
3.5
  9
$TRACEWID
 40
0.05
  9
$TEXTSTYLE
  7
STANDARD
  9
$CLAYER
  8
11
  9
$CELTYPE
  6
BYLAYER
  9
$CECOLOR
 62
   256
  9
$DIMSCALE
 40
1.0
  9
$DIMASZ
 40
3.5
  9
$DIMEXO
 40
0.0
  9
$DIMDLI
 40
10.0
  9
$DIMRND
 40
0.0
  9
$DIMDLE
 40
0.0
  9
$DIMEXE
 40
2.0
  9
$DIMTP
 40
0.0
  9
$DIMTM
 40
0.0
  9
$DIMTXT
 40
3.5
  9
$DIMCEN
 40
2.5
  9
$DIMTSZ
 40
0.0
  9
$DIMTOL
 70
     0
  9
$DIMLIM
 70
     0
  9
$DIMTIH
 70
     0
  9
$DIMTOH
 70
     0
  9
$DIMSE1
 70
     0
  9
$DIMSE2
 70
     0
  9
$DIMTAD
 70
     1
  9
$DIMZIN
 70
     8
  9
$DIMBLK
  1

  9
$DIMASO
 70
     1
  9
$DIMSHO
 70
     1
  9
$DIMPOST
  1

  9
$DIMAPOST
  1

  9
$DIMALT
 70
     0
  9
$DIMALTD
 70
     2
  9
$DIMALTF
 40
25.4
  9
$DIMLFAC
 40
1.0
  9
$DIMTOFL
 70
     1
  9
$DIMTVP
 40
0.0
  9
$DIMTIX
 70
     0
  9
$DIMSOXD
 70
     0
  9
$DIMSAH
 70
     0
  9
$DIMBLK1
  1

  9
$DIMBLK2
  1

  9
$DIMSTYLE
  2
ACADUS
  9
$DIMCLRD
 70
   256
  9
$DIMCLRE
 70
   256
  9
$DIMCLRT
 70
     3
  9
$DIMTFAC
 40
1.0
  9
$DIMGAP
 40
2.0
  9
$LUNITS
 70
     2
  9
$LUPREC
 70
     1
  9
$SKETCHINC
 40
1.0
  9
$FILLETRAD
 40
0.0
  9
$AUNITS
 70
     0
  9
$AUPREC
 70
     2
  9
$MENU
  1
CAESAR
  9
$ELEVATION
 40
0.0
  9
$PELEVATION
 40
0.0
  9
$THICKNESS
 40
0.0
  9
$LIMCHECK
 70
     0
  9
$BLIPMODE
 70
     1
  9
$CHAMFERA
 40
5.0
  9
$CHAMFERB
 40
5.0
  9
$SKPOLY
 70
     0
  9
$TDCREATE
 40
2449496.445009
  9
$TDUPDATE
 40
2453059.655011
  9
$TDINDWG
 40
0.000044
  9
$TDUSRTIMER
 40
0.000044
  9
$USRTIMER
 70
     1
  9
$ANGBASE
 50
0.0
  9
$ANGDIR
 70
     0
  9
$PDMODE
 70
     0
  9
$PDSIZE
 40
0.0
  9
$PLINEWID
 40
0.0
  9
$COORDS
 70
     2
  9
$SPLFRAME
 70
     0
  9
$SPLINETYPE
 70
     6
  9
$SPLINESEGS
 70
     8
  9
$ATTDIA
 70
     0
  9
$ATTREQ
 70
     1
  9
$HANDLING
 70
     1
  9
$HANDSEED
  5
4C31
  9
$SURFTAB1
 70
     6
  9
$SURFTAB2
 70
     6
  9
$SURFTYPE
 70
     6
  9
$SURFU
 70
     6
  9
$SURFV
 70
     6
  9
$UCSNAME
  2

  9
$UCSORG
 10
165.338632
 20
94.601356
 30
0.0
  9
$UCSXDIR
 10
1.0
 20
0.0
 30
0.0
  9
$UCSYDIR
 10
0.0
 20
1.0
 30
0.0
  9
$PUCSNAME
  2

  9
$PUCSORG
 10
0.0
 20
0.0
 30
0.0
  9
$PUCSXDIR
 10
1.0
 20
0.0
 30
0.0
  9
$PUCSYDIR
 10
0.0
 20
1.0
 30
0.0
  9
$USERI1
 70
     0
  9
$USERI2
 70
     0
  9
$USERI3
 70
     0
  9
$USERI4
 70
     0
  9
$USERI5
 70
     0
  9
$USERR1
 40
1.0
  9
$USERR2
 40
0.0
  9
$USERR3
 40
3.5
  9
$USERR4
 40
0.0
  9
$USERR5
 40
0.0
  9
$WORLDVIEW
 70
     1
  9
$SHADEDGE
 70
     3
  9
$SHADEDIF
 70
    70
  9
$TILEMODE
 70
     1
  9
$MAXACTVP
 70
    16
  9
$PLIMCHECK
 70
     0
  9
$PEXTMIN
 10
1.000000E+020
 20
1.000000E+020
 30
1.000000E+020
  9
$PEXTMAX
 10
-1.000000E+020
 20
-1.000000E+020
 30
-1.000000E+020
  9
$PLIMMIN
 10
0.0
 20
0.0
  9
$PLIMMAX
 10
420.0
 20
297.0
  9
$UNITMODE
 70
     0
  9
$VISRETAIN
 70
     0
  9
$PLINEGEN
 70
     0
  9
$PSLTSCALE
 70
     0
  0
ENDSEC
  0
SECTION
  2
TABLES
  0
TABLE
  2
VPORT
 70
     2
  0
VPORT
  2
*ACTIVE
 70
     0
 10
0.0
 20
0.0
 11
1.0
 21
1.0
 12
-157.811299
 22
317.341467
 13
0.0
 23
0.0
 14
1.0
 24
1.0
 15
10.0
 25
10.0
 16
0.0
 26
0.0
 36
1.0
 17
0.0
 27
0.0
 37
0.0
 40
886.290179
 41
1.616838
 42
50.0
 43
0.0
 44
0.0
 50
0.0
 51
0.0
 71
     0
 72
   100
 73
     1
 74
     1
 75
     0
 76
     0
 77
     0
 78
     0
  0
ENDTAB
  0
TABLE
  2
LTYPE
 70
    10
  0
LTYPE
  2
CONTINUOUS
 70
     0
  3
Solid line
 72
    65
 73
     0
 40
0.0
  0
LTYPE
  2
BORDER
 70
     0
  3
__ __ . __ __ . __ __ . __ __ . __ __ . __ __ .
 72
    65
 73
     6
 40
1.75
 49
0.5
 49
-0.25
 49
0.5
 49
-0.25
 49
0.0
 49
-0.25
  0
LTYPE
  2
CENTER
 70
     0
  3
____ _ ____ _ ____ _ ____ _ ____ _ ____ _ ____ 
 72
    65
 73
     4
 40
2.0
 49
1.25
 49
-0.25
 49
0.25
 49
-0.25
  0
LTYPE
  2
DASHDOT
 70
     0
  3
__ . __ . __ . __ . __ . __ . __ . __ . __ . __
 72
    65
 73
     4
 40
1.0
 49
0.5
 49
-0.25
 49
0.0
 49
-0.25
  0
LTYPE
  2
DASHED
 70
     0
  3
__ __ __ __ __ __ __ __ __ __ __ __ __ __ __ __
 72
    65
 73
     2
 40
0.75
 49
0.5
 49
-0.25
  0
LTYPE
  2
DIVIDE
 70
     0
  3
____ . . ____ . . ____ . . ____ . . ____ . . __
 72
    65
 73
     6
 40
1.25
 49
0.5
 49
-0.25
 49
0.0
 49
-0.25
 49
0.0
 49
-0.25
  0
LTYPE
  2
DOT
 70
     0
  3
. . . . . . . . . . . . . . . . . . . . . . . .
 72
    65
 73
     2
 40
0.25
 49
0.0
 49
-0.25
  0
LTYPE
  2
HIDDEN
 70
     0
  3
__ __ __ __ __ __ __ __ __ __ __ __ __ __ __ __
 72
    65
 73
     2
 40
0.375
 49
0.25
 49
-0.125
  0
LTYPE
  2
PHANTOM
 70
     0
  3
______  __  __  ______  __  __  ______  __  __ 
 72
    65
 73
     6
 40
2.5
 49
1.25
 49
-0.25
 49
0.25
 49
-0.25
 49
0.25
 49
-0.25
  0
LTYPE
  2
DOTX2
 70
     0
  3
.  .  .  .  .  .  .  .  .  .  .  .  .  .  .  . 
 72
    65
 73
     2
 40
0.5
 49
0.0
 49
-0.5
  0
ENDTAB
  0
TABLE
  2
LAYER
 70
   128
  0
LAYER
  2
0
 70
     0
 62
     7
  6
CONTINUOUS
  0
LAYER
  2
L1
 70
     0
 62
     7
  6
CONTINUOUS
  0
LAYER
  2
L2
 70
     0
 62
     1
  6
CONTINUOUS
  0
LAYER
  2
L3
 70
     0
 62
     7
  6
DASHED
  0
LAYER
  2
L4
 70
     0
 62
     1
  6
DASHED
  0
LAYER
  2
L5
 70
     0
 62
     7
  6
CENTER
  0
LAYER
  2
L6
 70
     0
 62
     1
  6
CENTER
  0
LAYER
  2
L7
 70
     0
 62
     1
  6
PHANTOM
  0
LAYER
  2
VPORT
 70
     0
 62
     7
  6
CONTINUOUS
  0
LAYER
  2
L8
 70
     0
 62
     1
  6
CONTINUOUS
  0
LAYER
  2
L20
 70
     0
 62
     3
  6
CONTINUOUS
  0
LAYER
  2
L21
 70
     0
 62
     1
  6
CONTINUOUS
  0
LAYER
  2
L22
 70
     0
 62
     1
  6
CONTINUOUS
  0
LAYER
  2
L23
 70
     0
 62
     1
  6
CONTINUOUS
  0
LAYER
  2
L30
 70
     0
 62
     3
  6
CONTINUOUS
  0
LAYER
  2
L31
 70
     0
 62
     1
  6
CONTINUOUS
  0
LAYER
  2
L32
 70
     0
 62
     3
  6
CONTINUOUS
  0
LAYER
  2
L33
 70
     0
 62
     1
  6
CONTINUOUS
  0
LAYER
  2
L34
 70
     0
 62
     1
  6
DASHED
  0
LAYER
  2
L35
 70
     0
 62
     1
  6
CONTINUOUS
  0
LAYER
  2
L40
 70
     0
 62
     7
  6
CONTINUOUS
  0
LAYER
  2
L41
 70
     0
 62
     1
  6
CONTINUOUS
  0
LAYER
  2
L42
 70
     0
 62
     1
  6
CONTINUOUS
  0
LAYER
  2
L43
 70
     0
 62
     7
  6
CONTINUOUS
  0
LAYER
  2
L44
 70
     0
 62
     1
  6
DASHED
  0
LAYER
  2
L45
 70
     0
 62
     1
  6
CONTINUOUS
  0
LAYER
  2
L46
 70
     0
 62
     3
  6
CONTINUOUS
  0
LAYER
  2
L50
 70
     0
 62
     7
  6
CONTINUOUS
  0
LAYER
  2
L51
 70
     0
 62
     1
  6
CONTINUOUS
  0
LAYER
  2
L52
 70
     0
 62
     7
  6
CONTINUOUS
  0
LAYER
  2
L53
 70
     0
 62
     1
  6
CONTINUOUS
  0
LAYER
  2
L54
 70
     0
 62
     1
  6
DASHED
  0
LAYER
  2
L55
 70
     0
 62
     3
  6
CONTINUOUS
  0
LAYER
  2
L56
 70
     0
 62
     3
  6
CONTINUOUS
  0
LAYER
  2
L57
 70
     0
 62
     1
  6
CONTINUOUS
  0
LAYER
  2
L9
 70
     0
 62
     7
  6
HIDDEN
  0
LAYER
  2
L15
 70
     0
 62
     2
  6
CONTINUOUS
  0
LAYER
  2
L16
 70
     0
 62
     5
  6
DOTX2
  0
LAYER
  2
L24
 70
     0
 62
     1
  6
DASHED
  0
LAYER
  2
1
 70
     0
 62
     7
  6
CONTINUOUS
  0
LAYER
  2
2
 70
     0
 62
     7
  6
CONTINUOUS
  0
LAYER
  2
8
 70
     0
 62
     7
  6
CONTINUOUS
  0
LAYER
  2
11
 70
     0
 62
     7
  6
CONTINUOUS
  0
LAYER
  2
60
 70
     0
 62
     7
  6
CONTINUOUS
  0
LAYER
  2
63
 70
     0
 62
     1
  6
CENTER
  0
LAYER
  2
66
 70
     0
 62
     7
  6
CONTINUOUS
  0
LAYER
  2
69
 70
     0
 62
     7
  6
CONTINUOUS
  0
LAYER
  2
72
 70
     0
 62
     7
  6
CONTINUOUS
  0
LAYER
  2
75
 70
     0
 62
     7
  6
CONTINUOUS
  0
LAYER
  2
86
 70
     0
 62
     7
  6
CONTINUOUS
  0
LAYER
  2
89
 70
     0
 62
     7
  6
CONTINUOUS
  0
LAYER
  2
98
 70
     0
 62
     7
  6
CONTINUOUS
  0
LAYER
  2
DEFPOINTS
 70
     0
 62
    -7
  6
CONTINUOUS
  0
LAYER
  2
A1
 70
     0
 62
     7
  6
CONTINUOUS
  0
LAYER
  2
RA1
 70
     0
 62
     1
  6
CONTINUOUS
  0
LAYER
  2
TITEL
 70
     0
 62
     7
  6
CONTINUOUS
  0
LAYER
  2
TITEL1
 70
     0
 62
     1
  6
CONTINUOUS
  0
LAYER
  2
L38
 70
     0
 62
     1
  6
CENTER
  0
LAYER
  2
L37
 70
     0
 62
     1
  6
CONTINUOUS
  0
LAYER
  2
L36
 70
     0
 62
     7
  6
CONTINUOUS
  0
LAYER
  2
L54-1
 70
     0
 62
     3
  6
CONTINUOUS
  0
LAYER
  2
L54-2
 70
     0
 62
     3
  6
CONTINUOUS
  0
LAYER
  2
L54-3
 70
     0
 62
     3
  6
CONTINUOUS
  0
LAYER
  2
L54-4
 70
     0
 62
     1
  6
DASHED
  0
LAYER
  2
L54-5
 70
     0
 62
     3
  6
CONTINUOUS
  0
LAYER
  2
MUOTOV
 70
     0
 62
     3
  6
CONTINUOUS
  0
LAYER
  2
KATKOV
 70
     0
 62
   130
  6
HIDDEN
  0
LAYER
  2
PIKATKOV
 70
     0
 62
     7
  6
DASHDOT
  0
LAYER
  2
MITAT
 70
     0
 62
   255
  6
CONTINUOUS
  0
LAYER
  2
LEIKV
 70
     0
 62
   130
  6
CONTINUOUS
  0
LAYER
  2
MUUTOS
 70
     0
 62
   130
  6
CONTINUOUS
  0
LAYER
  2
MUUTOS1
 70
     0
 62
   130
  6
CONTINUOUS
  0
LAYER
  2
MUUTOSTEXT
 70
     0
 62
     1
  6
CONTINUOUS
  0
LAYER
  2
MUUTOS2
 70
     0
 62
   130
  6
CONTINUOUS
  0
LAYER
  2
L58
 70
     0
 62
     1
  6
CONTINUOUS
  0
LAYER
  2
A2
 70
     0
 62
     5
  6
CONTINUOUS
  0
LAYER
  2
A3
 70
     0
 62
     4
  6
CONTINUOUS
  0
LAYER
  2
A4
 70
     0
 62
     1
  6
DASHED
  0
LAYER
  2
A5
 70
     0
 62
     2
  6
CONTINUOUS
  0
LAYER
  2
A6
 70
     0
 62
     8
  6
CONTINUOUS
  0
LAYER
  2
RA2
 70
     0
 62
     5
  6
CONTINUOUS
  0
LAYER
  2
RA4
 70
     0
 62
     1
  6
DASHED
  0
LAYER
  2
CAM-A1
 70
     0
 62
     7
  6
CONTINUOUS
  0
LAYER
  2
CAM-A2
 70
     0
 62
     1
  6
CONTINUOUS
  0
LAYER
  2
CAM-A3
 70
     0
 62
     1
  6
DASHED
  0
LAYER
  2
CAM-B1
 70
     0
 62
     7
  6
CONTINUOUS
  0
LAYER
  2
CAM-B2
 70
     0
 62
     1
  6
CONTINUOUS
  0
LAYER
  2
CAM-B3
 70
     0
 62
     1
  6
DASHED
  0
LAYER
  2
CAM-C1
 70
     0
 62
     7
  6
CONTINUOUS
  0
LAYER
  2
CAM-C2
 70
     0
 62
     1
  6
CONTINUOUS
  0
LAYER
  2
CAM-C3
 70
     0
 62
     1
  6
DASHED
  0
LAYER
  2
CAM-D1
 70
     0
 62
     7
  6
CONTINUOUS
  0
LAYER
  2
CAM-D2
 70
     0
 62
     1
  6
CONTINUOUS
  0
LAYER
  2
CAM-D3
 70
     0
 62
     1
  6
DASHED
  0
LAYER
  2
CAM-E1
 70
     0
 62
     7
  6
CONTINUOUS
  0
LAYER
  2
CAM-E2
 70
     0
 62
     1
  6
CONTINUOUS
  0
LAYER
  2
CAM-E3
 70
     0
 62
     1
  6
DASHED
  0
LAYER
  2
CAM-F1
 70
     0
 62
     7
  6
CONTINUOUS
  0
LAYER
  2
CAM-F2
 70
     0
 62
     1
  6
CONTINUOUS
  0
LAYER
  2
CAM-F3
 70
     0
 62
     1
  6
DASHED
  0
LAYER
  2
12
 70
     0
 62
     1
  6
CONTINUOUS
  0
LAYER
  2
13
 70
     0
 62
     1
  6
CENTER
  0
LAYER
  2
14
 70
     0
 62
     1
  6
DASHED
  0
LAYER
  2
15
 70
     0
 62
     2
  6
DASHED
  0
LAYER
  2
21
 70
     0
 62
     7
  6
CONTINUOUS
  0
LAYER
  2
22
 70
     0
 62
     1
  6
CONTINUOUS
  0
LAYER
  2
23
 70
     0
 62
     1
  6
CENTER
  0
LAYER
  2
24
 70
     0
 62
     1
  6
DASHED
  0
LAYER
  2
25
 70
     0
 62
     2
  6
DASHED
  0
LAYER
  2
31
 70
     0
 62
     7
  6
CONTINUOUS
  0
LAYER
  2
32
 70
     0
 62
     1
  6
CONTINUOUS
  0
LAYER
  2
33
 70
     0
 62
     1
  6
CENTER
  0
LAYER
  2
34
 70
     0
 62
     1
  6
DASHED
  0
LAYER
  2
35
 70
     0
 62
     2
  6
DASHED
  0
LAYER
  2
41
 70
     0
 62
     7
  6
CONTINUOUS
  0
LAYER
  2
42
 70
     0
 62
     1
  6
CONTINUOUS
  0
LAYER
  2
43
 70
     0
 62
     1
  6
CENTER
  0
LAYER
  2
44
 70
     0
 62
     1
  6
DASHED
  0
LAYER
  2
45
 70
     0
 62
     2
  6
DASHED
  0
LAYER
  2
51
 70
     0
 62
     7
  6
CONTINUOUS
  0
LAYER
  2
52
 70
     0
 62
     1
  6
CONTINUOUS
  0
LAYER
  2
53
 70
     0
 62
     1
  6
CENTER
  0
LAYER
  2
54
 70
     0
 62
     1
  6
DASHED
  0
LAYER
  2
55
 70
     0
 62
     2
  6
DASHED
  0
LAYER
  2
61
 70
     0
 62
     7
  6
CONTINUOUS
  0
LAYER
  2
62
 70
     0
 62
     1
  6
CONTINUOUS
  0
LAYER
  2
64
 70
     0
 62
     1
  6
DASHED
  0
LAYER
  2
65
 70
     0
 62
     2
  6
DASHED
  0
ENDTAB
  0
TABLE
  2
STYLE
 70
     9
  0
STYLE
  2
STANDARD
 70
     0
 40
0.0
 41
1.0
 50
0.0
 71
     0
 42
3.5
  3
CAEISO
  4

  0
STYLE
  2
COMPLEX
 70
     0
 40
5.0
 41
1.0
 50
0.0
 71
     0
 42
5.0
  3
ROMANS.SHX
  4

  0
STYLE
  2
SIMPLEX
 70
     0
 40
10.0
 41
1.0
 50
0.0
 71
     0
 42
10.0
  3
SIMPLEX
  4

  0
STYLE
  2
TKKISO
 70
     0
 40
0.0
 41
1.0
 50
0.0
 71
     0
 42
3.5
  3
caeiso
  4

  0
STYLE
  2
TXT
 70
     0
 40
0.0
 41
1.0
 50
0.0
 71
     0
 42
0.2
  3
TXT
  4

  0
STYLE
  2
USER
 70
     0
 40
0.0
 41
1.0
 50
0.0
 71
     0
 42
0.2
  3
KIRJAIN
  4

  0
STYLE
  2
ITALIC
 70
     0
 40
0.0
 41
1.0
 50
0.0
 71
     0
 42
0.2
  3
ITALIC
  4

  0
STYLE
  2
MONO
 70
     0
 40
0.0
 41
1.0
 50
0.0
 71
     0
 42
9.5
  3
MONOTXT
  4

  0
STYLE
  2
CAEISO
 70
     0
 40
0.0
 41
1.0
 50
0.0
 71
     0
 42
1.0
  3
CAEISO
  4

  0
ENDTAB
  0
TABLE
  2
VIEW
 70
     0
  0
ENDTAB
  0
TABLE
  2
UCS
 70
     0
  0
ENDTAB
  0
TABLE
  2
APPID
 70
     1
  0
APPID
  2
ACAD
 70
     0
  0
ENDTAB
  0
TABLE
  2
DIMSTYLE
 70
     5
  0
DIMSTYLE
  2
ACADUS
 70
     0
  3

  4

  5

  6

  7

 40
1.0
 41
0.18
 42
0.0625
 43
0.38
 44
0.18
 45
0.0
 46
0.0
 47
0.0
 48
0.0
140
0.18
141
0.09
142
0.0
143
25.4
144
1.0
145
0.0
146
1.0
147
0.09
 71
     0
 72
     0
 73
     1
 74
     1
 75
     0
 76
     0
 77
     0
 78
     0
170
     0
171
     2
172
     0
173
     0
174
     0
175
     0
176
     0
177
     0
178
     0
  0
DIMSTYLE
  2
NORDIC
 70
     0
  3

  4

  5

  6

  7

 40
1.0
 41
3.5
 42
1.0
 43
10.0
 44
2.0
 45
0.0
 46
0.0
 47
0.0
 48
0.0
140
3.5
141
2.5
142
0.0
143
25.4
144
1.0
145
0.0
146
1.0
147
2.0
 71
     0
 72
     0
 73
     0
 74
     0
 75
     0
 76
     0
 77
     1
 78
     8
170
     0
171
     2
172
     1
173
     0
174
     0
175
     0
176
     0
177
     0
178
     0
  0
DIMSTYLE
  2
RADIAL
 70
     0
  3

  4

  5

  6

  7

 40
1.0
 41
3.5
 42
1.0
 43
10.0
 44
2.0
 45
0.0
 46
0.0
 47
0.0
 48
0.0
140
3.5
141
2.5
142
0.0
143
25.4
144
1.0
145
0.0
146
1.0
147
2.0
 71
     0
 72
     0
 73
     0
 74
     1
 75
     0
 76
     0
 77
     1
 78
     8
170
     0
171
     2
172
     0
173
     0
174
     0
175
     0
176
     0
177
     0
178
     0
  0
DIMSTYLE
  2
NORTOL
 70
     0
  3

  4

  5

  6

  7

 40
1.0
 41
3.5
 42
1.0
 43
10.0
 44
2.0
 45
0.0
 46
0.0
 47
0.2
 48
0.1
140
3.5
141
2.5
142
0.0
143
25.4
144
1.0
145
0.7
146
0.71
147
2.0
 71
     1
 72
     0
 73
     0
 74
     0
 75
     0
 76
     0
 77
     0
 78
     8
170
     0
171
     2
172
     1
173
     0
174
     0
175
     0
176
     0
177
     0
178
     0
  0
DIMSTYLE
  2
RADTOL
 70
     0
  3

  4

  5

  6

  7

 40
1.0
 41
3.5
 42
1.0
 43
10.0
 44
2.0
 45
0.0
 46
0.0
 47
0.2
 48
0.1
140
3.5
141
2.5
142
0.0
143
25.4
144
1.0
145
0.7
146
0.7
147
2.0
 71
     1
 72
     0
 73
     0
 74
     1
 75
     0
 76
     0
 77
     0
 78
     8
170
     0
171
     2
172
     0
173
     0
174
     0
175
     0
176
     0
177
     0
178
     0
  0
ENDTAB
  0
ENDSEC
  0
SECTION
  2
BLOCKS
  0
BLOCK
  8
0
  2
$MODEL_SPACE
 70
     0
 10
0.0
 20
0.0
 30
0.0
  3
$MODEL_SPACE
  1

  0
ENDBLK
  5
4C21
  8
0
  0
BLOCK
 67
     1
  8
0
  2
$PAPER_SPACE
 70
     0
 10
0.0
 20
0.0
 30
0.0
  3
$PAPER_SPACE
  1

  0
ENDBLK
  5
4C1F
 67
     1
  8
0
  0
ENDSEC
  0
SECTION
  2
ENTITIES
  0
TEXT
  5
45A0
  8
0
  6
CONTINUOUS
 10
330.035074
 20
372.358918
 30
0.0
 40
2.5
  1
  
 50
21.66214
  0
LINE
  5
45A3
  8
53
  6
DASHDOT
 10
165.338632
 20
473.068695
 30
0.0
 11
165.338632
 21
157.068695
 31
0.0
  0
CIRCLE
  5
45B8
  8
51
 10
432.838632
 20
442.730064
 30
0.0
 40
8.2
  0
ARC
  5
45B9
  8
51
 10
432.838632
 20
442.730064
 30
0.0
 40
12.0
 50
174.892469
 51
274.783425
  0
ARC
  5
45BA
  8
51
 10
432.838632
 20
442.730064
 30
0.0
 40
10.8
 50
293.810147
 51
155.803248
  0
ARC
  5
45BB
  8
51
 10
165.338632
 20
442.730064
 30
0.0
 40
10.8
 50
24.196752
 51
155.7951
  0
ARC
  5
45BC
  8
51
 10
165.338632
 20
442.730064
 30
0.0
 40
12.0
 50
174.885648
 51
5.107531
  0
CIRCLE
  5
45BD
  8
51
 10
165.338632
 20
442.730064
 30
0.0
 40
8.2
  0
ARC
  5
45BE
  8
51
 10
-102.161368
 20
442.730064
 30
0.0
 40
10.8
 50
24.2049
 51
245.825653
  0
ARC
  5
45BF
  8
51
 10
-102.161368
 20
442.730064
 30
0.0
 40
12.0
 50
264.91123
 51
5.114352
  0
CIRCLE
  5
45C0
  8
51
 10
-102.161368
 20
442.730064
 30
0.0
 40
8.2
  0
ARC
  5
45C1
  8
51
 10
432.838632
 20
188.730064
 30
0.0
 40
10.8
 50
204.066667
 51
66.189853
  0
ARC
  5
45C2
  8
51
 10
432.838632
 20
188.730064
 30
0.0
 40
12.0
 50
85.216575
 51
184.998567
  0
CIRCLE
  5
45C3
  8
51
 10
432.838632
 20
188.730064
 30
0.0
 40
8.2
  0
CIRCLE
  5
45C4
  8
51
 10
165.338632
 20
188.730064
 30
0.0
 40
8.2
  0
ARC
  5
45C5
  8
51
 10
165.338632
 20
188.730064
 30
0.0
 40
12.0
 50
355.001433
 51
185.097198
  0
ARC
  5
45C6
  8
51
 10
165.338632
 20
188.730064
 30
0.0
 40
10.8
 50
204.184411
 51
335.933333
  0
CIRCLE
  5
45C7
  8
51
 10
-102.161368
 20
188.730064
 30
0.0
 40
8.2
  0
ARC
  5
45C8
  8
51
 10
-102.161368
 20
188.730064
 30
0.0
 40
12.0
 50
354.902802
 51
95.08877
  0
ARC
  5
45C9
  8
51
 10
-102.161368
 20
188.730064
 30
0.0
 40
10.8
 50
114.174347
 51
335.815589
  0
LINE
  5
45CA
  8
51
 10
443.638632
 20
442.730064
 30
0.0
 11
443.638632
 21
257.874977
 31
0.0
  0
LINE
  5
45CB
  8
51
 10
432.838632
 20
177.930064
 30
0.0
 11
165.338632
 21
177.930064
 31
0.0
  0
LINE
  5
45CC
  8
51
 10
165.338632
 20
177.930064
 30
0.0
 11
-102.161368
 21
177.930064
 31
0.0
  0
LINE
  5
45CD
  8
51
 10
432.838632
 20
453.530064
 30
0.0
 11
165.338632
 21
453.530064
 31
0.0
  0
LINE
  5
45CE
  8
51
 10
165.338632
 20
453.530064
 30
0.0
 11
-102.161368
 21
453.530064
 31
0.0
  0
LINE
  5
45CF
  8
51
 10
-112.961368
 20
442.730064
 30
0.0
 11
-112.961368
 21
257.774744
 31
0.0
  0
LINE
  5
45D0
  8
51
 10
432.14628
 20
450.700048
 30
0.0
 11
440.808616
 21
442.037712
 31
0.0
  0
LINE
  5
45D1
  8
51
 10
424.909754
 20
443.794439
 30
0.0
 11
433.903007
 21
434.801186
 31
0.0
  0
ARC
  5
45D2
  8
51
 10
432.838632
 20
442.730064
 30
0.0
 40
8.0
 50
94.964813
 51
172.354304
  0
ARC
  5
45D3
  8
51
 10
432.838632
 20
442.730064
 30
0.0
 40
8.0
 50
277.645696
 51
355.035187
  0
LINE
  5
45D4
  8
51
 10
159.213435
 20
447.876127
 30
0.0
 11
171.463828
 21
447.876127
 31
0.0
  0
LINE
  5
45D5
  8
51
 10
158.979441
 20
437.876127
 30
0.0
 11
171.697822
 21
437.876127
 31
0.0
  0
ARC
  5
45D6
  8
51
 10
165.338632
 20
442.730064
 30
0.0
 40
8.0
 50
322.645696
 51
40.035187
  0
ARC
  5
45D7
  8
51
 10
165.338632
 20
442.730064
 30
0.0
 40
8.0
 50
139.964813
 51
217.354304
  0
LINE
  5
45D8
  8
51
 10
-110.131353
 20
442.037712
 30
0.0
 11
-101.469017
 21
450.700048
 31
0.0
  0
LINE
  5
45D9
  8
51
 10
-103.225744
 20
434.801186
 30
0.0
 11
-94.232491
 21
443.794439
 31
0.0
  0
ARC
  5
45DA
  8
51
 10
-102.161368
 20
442.730064
 30
0.0
 40
8.0
 50
184.964813
 51
262.354304
  0
ARC
  5
45DB
  8
51
 10
-102.161368
 20
442.730064
 30
0.0
 40
8.0
 50
7.645696
 51
85.035187
  0
ARC
  5
45DC
  8
51
 10
165.338632
 20
188.730064
 30
0.0
 40
8.0
 50
322.645696
 51
40.035187
  0
LINE
  5
45DD
  8
51
 10
159.213435
 20
193.876127
 30
0.0
 11
171.463828
 21
193.876127
 31
0.0
  0
LINE
  5
45DE
  8
51
 10
158.979441
 20
183.876127
 30
0.0
 11
171.697822
 21
183.876127
 31
0.0
  0
ARC
  5
45DF
  8
51
 10
165.338632
 20
188.730064
 30
0.0
 40
8.0
 50
139.964813
 51
217.354304
  0
LINE
  5
45E1
  8
51
 10
424.868647
 20
188.037712
 30
0.0
 11
433.530983
 21
196.700048
 31
0.0
  0
ARC
  5
45E2
  8
51
 10
432.838632
 20
188.730064
 30
0.0
 40
8.0
 50
7.645696
 51
85.035187
  0
LINE
  5
45E3
  8
51
 10
431.774256
 20
180.801186
 30
0.0
 11
440.767509
 21
189.794439
 31
0.0
  0
ARC
  5
45E4
  8
51
 10
432.838632
 20
188.730064
 30
0.0
 40
8.0
 50
184.964813
 51
262.354304
  0
ARC
  5
45E5
  8
51
 10
-102.161368
 20
188.730064
 30
0.0
 40
8.0
 50
97.645696
 51
175.035187
  0
LINE
  5
45E6
  8
51
 10
-94.232491
 20
187.665689
 30
0.0
 11
-103.225744
 21
196.658942
 31
0.0
  0
ARC
  5
45E7
  8
51
 10
-102.161368
 20
188.730064
 30
0.0
 40
8.0
 50
274.964813
 51
352.354304
  0
LINE
  5
45E8
  8
51
 10
-101.469017
 20
180.760079
 30
0.0
 11
-110.131353
 21
189.422415
 31
0.0
  0
LINE
  5
45E9
  8
51
 10
443.638632
 20
257.774744
 30
0.0
 11
443.638632
 21
188.730064
 31
0.0
  0
LINE
  5
45EA
  8
51
 10
-112.961368
 20
257.774744
 30
0.0
 11
-112.961368
 21
188.589105
 31
0.0
  0
LINE
  5
45F1
  8
51
 10
436.006085
 20
431.019495
 30
0.0
 11
436.006085
 21
257.82752
 31
0.0
  0
LINE
  5
45F2
  8
51
 10
421.151315
 20
185.510232
 30
0.0
 11
177.025948
 21
185.510232
 31
0.0
  0
LINE
  5
45F3
  8
51
 10
153.662067
 20
185.486226
 30
0.0
 11
-90.484804
 21
185.486226
 31
0.0
  0
LINE
  5
45F4
  8
51
 10
421.163197
 20
445.976417
 30
0.0
 11
177.014066
 21
445.976417
 31
0.0
  0
LINE
  5
45F5
  8
51
 10
153.663943
 20
445.978077
 30
0.0
 11
-90.48668
 21
445.978077
 31
0.0
  0
LINE
  5
45F6
  8
51
 10
-105.403155
 20
431.052578
 30
0.0
 11
-105.403155
 21
257.700795
 31
0.0
  0
ARC
  5
45F7
  8
51
 10
-88.216733
 20
187.486226
 30
0.0
 40
2.0
 50
174.902802
 51
270.0
  0
ARC
  5
45F8
  8
51
 10
-103.403155
 20
202.674882
 30
0.0
 40
2.0
 50
180.0
 51
275.08877
  0
ARC
  5
45F9
  8
51
 10
-90.484804
 20
183.486226
 30
0.0
 40
2.0
 50
90.0
 51
155.815589
  0
ARC
  5
45FA
  8
51
 10
-107.403155
 20
200.407549
 30
0.0
 40
2.0
 50
294.174347
 51
0.0
  0
ARC
  5
45FB
  8
51
 10
-88.217106
 20
443.978077
 30
0.0
 40
2.0
 50
90.0
 51
185.114352
  0
ARC
  5
45FC
  8
51
 10
-103.403155
 20
428.785245
 30
0.0
 40
2.0
 50
84.91123
 51
180.0
  0
ARC
  5
45FD
  8
51
 10
-107.403155
 20
431.052578
 30
0.0
 40
2.0
 50
0.0
 51
65.825653
  0
ARC
  5
45FE
  8
51
 10
-90.48668
 20
447.978077
 30
0.0
 40
2.0
 50
204.2049
 51
270.0
  0
ARC
  5
45FF
  8
51
 10
434.006085
 20
428.778825
 30
0.0
 40
2.0
 50
0.0
 51
94.783425
  0
ARC
  5
4600
  8
51
 10
418.89422
 20
443.976417
 30
0.0
 40
2.0
 50
354.892469
 51
90.0
  0
ARC
  5
4601
  8
51
 10
421.163197
 20
447.976417
 30
0.0
 40
2.0
 50
270.0
 51
335.803248
  0
ARC
  5
4602
  8
51
 10
438.006085
 20
431.019495
 30
0.0
 40
2.0
 50
113.810147
 51
180.0
  0
ARC
  5
4603
  8
51
 10
418.891875
 20
187.510232
 30
0.0
 40
2.0
 50
270.0
 51
4.998567
  0
ARC
  5
4604
  8
51
 10
434.006085
 20
202.681302
 30
0.0
 40
2.0
 50
265.216575
 51
0.0
  0
ARC
  5
4605
  8
51
 10
438.006085
 20
200.440633
 30
0.0
 40
2.0
 50
180.0
 51
246.189853
  0
ARC
  5
4606
  8
51
 10
421.151315
 20
183.510232
 30
0.0
 40
2.0
 50
24.066667
 51
90.0
  0
ARC
  5
4607
  8
51
 10
151.394369
 20
443.978077
 30
0.0
 40
2.0
 50
354.885648
 51
90.0
  0
ARC
  5
4608
  8
51
 10
179.283043
 20
443.976417
 30
0.0
 40
2.0
 50
90.0
 51
185.107531
  0
ARC
  5
4609
  8
51
 10
177.014066
 20
447.976417
 30
0.0
 40
2.0
 50
204.196752
 51
270.0
  0
ARC
  5
460A
  8
51
 10
153.663943
 20
447.978077
 30
0.0
 40
2.0
 50
270.0
 51
335.7951
  0
ARC
  5
460B
  8
51
 10
151.393996
 20
187.486226
 30
0.0
 40
2.0
 50
270.0
 51
5.097198
  0
ARC
  5
460C
  8
51
 10
179.285388
 20
187.510232
 30
0.0
 40
2.0
 50
175.001433
 51
270.0
  0
ARC
  5
460D
  8
51
 10
177.025948
 20
183.510232
 30
0.0
 40
2.0
 50
90.0
 51
155.933333
  0
ARC
  5
460E
  8
51
 10
153.662067
 20
183.486226
 30
0.0
 40
2.0
 50
24.184411
 51
90.0
  0
LINE
  5
4623
  8
52
 10
-310.192352
 20
450.700048
 30
0.0
 11
-301.530016
 21
442.037712
 31
0.0
  0
ARC
  5
4624
  8
52
 10
-309.5
 20
442.730064
 30
0.0
 40
8.0
 50
277.645696
 51
355.035187
  0
ARC
  5
4625
  8
52
 10
-309.5
 20
442.730064
 30
0.0
 40
8.0
 50
94.964813
 51
172.354304
  0
LINE
  5
4626
  8
52
 10
-317.428878
 20
443.794439
 30
0.0
 11
-308.435625
 21
434.801186
 31
0.0
  0
LINE
  5
4627
  8
51
 10
-309.5
 20
453.530064
 30
0.0
 11
-577.0
 21
453.530064
 31
0.0
  0
LINE
  5
4628
  8
51
 10
-298.7
 20
442.730064
 30
0.0
 11
-298.7
 21
257.774744
 31
0.0
  0
ARC
  5
4629
  8
51
 10
-309.5
 20
442.730064
 30
0.0
 40
10.8
 50
293.289549
 51
156.710451
  0
LINE
  5
462A
  8
51
 10
-298.7
 20
257.774744
 30
0.0
 11
-298.7
 21
188.730064
 31
0.0
  0
ARC
  5
462B
  8
51
 10
-309.5
 20
188.730064
 30
0.0
 40
10.8
 50
203.289549
 51
66.710451
  0
LINE
  5
462C
  8
52
 10
-310.564375
 20
180.801186
 30
0.0
 11
-301.571122
 21
189.794439
 31
0.0
  0
LINE
  5
462D
  8
52
 10
-317.469984
 20
188.037712
 30
0.0
 11
-308.807648
 21
196.700048
 31
0.0
  0
ARC
  5
462E
  8
52
 10
-309.5
 20
188.730064
 30
0.0
 40
8.0
 50
184.964813
 51
262.354304
  0
ARC
  5
462F
  8
52
 10
-309.5
 20
188.730064
 30
0.0
 40
8.0
 50
7.645696
 51
85.035187
  0
LINE
  5
4630
  8
51
 10
-309.5
 20
177.930064
 30
0.0
 11
-577.0
 21
177.930064
 31
0.0
  0
ARC
  5
4632
  8
52
 10
-577.0
 20
442.730064
 30
0.0
 40
10.8
 50
22.588165
 51
90.0
  0
ARC
  5
4633
  8
52
 10
-577.0
 20
442.730064
 30
0.0
 40
8.0
 50
322.645696
 51
40.035187
  0
LINE
  5
4635
  8
52
 10
-577.0
 20
437.876127
 30
0.0
 11
-570.64081
 21
437.876127
 31
0.0
  0
LINE
  5
4636
  8
52
 10
-577.0
 20
447.876127
 30
0.0
 11
-570.874804
 21
447.876127
 31
0.0
  0
ARC
  5
4638
  8
52
 10
-577.0
 20
188.730064
 30
0.0
 40
8.0
 50
322.645696
 51
40.035187
  0
LINE
  5
4639
  8
52
 10
-577.0
 20
193.876127
 30
0.0
 11
-570.874804
 21
193.876127
 31
0.0
  0
LINE
  5
463A
  8
52
 10
-577.0
 20
183.876127
 30
0.0
 11
-570.64081
 21
183.876127
 31
0.0
  0
ARC
  5
463B
  8
52
 10
-577.0
 20
188.730064
 30
0.0
 40
10.8
 50
270.0
 51
337.415426
  0
LINE
  5
463D
  8
51
 10
-306.7
 20
425.430064
 30
0.0
 11
-306.7
 21
257.774744
 31
0.0
  0
LINE
  5
463E
  8
51
 10
-306.7
 20
257.774744
 30
0.0
 11
-306.7
 21
206.030064
 31
0.0
  0
LINE
  5
463F
  8
51
 10
-326.8
 20
445.530064
 30
0.0
 11
-559.7
 21
445.530064
 31
0.0
  0
ARC
  5
4640
  8
52
 10
-577.0
 20
442.730064
 30
0.0
 40
9.0
 50
270.0
 51
0.654823
  0
ARC
  5
4641
  8
52
 10
-577.0
 20
188.730064
 30
0.0
 40
9.0
 50
360.0
 51
90.0
  0
LINE
  5
4644
  8
52
 10
-327.0
 20
447.030064
 30
0.0
 11
-559.3
 21
447.030064
 31
0.0
  0
LINE
  5
4645
  8
52
 10
-305.2
 20
425.230064
 30
0.0
 11
-305.2
 21
257.774744
 31
0.0
  0
LINE
  5
4646
  8
52
 10
-305.2
 20
257.774744
 30
0.0
 11
-305.2
 21
206.230064
 31
0.0
  0
LINE
  5
4648
  8
52
 10
-327.0
 20
451.430064
 30
0.0
 11
-559.501143
 21
451.430064
 31
0.0
  0
LINE
  5
464A
  8
52
 10
-300.8
 20
425.230064
 30
0.0
 11
-300.8
 21
257.774744
 31
0.0
  0
LINE
  5
464B
  8
52
 10
-300.8
 20
257.774744
 30
0.0
 11
-300.8
 21
206.030064
 31
0.0
  0
ARC
  5
464C
  8
51
 10
-309.5
 20
442.730064
 30
0.0
 40
14.5
 50
180.0
 51
270.0
  0
ARC
  5
464D
  8
52
 10
-309.5
 20
442.730064
 30
0.0
 40
13.2
 50
180.0
 51
270.0
  0
ARC
  5
464E
  8
52
 10
-309.5
 20
442.730064
 30
0.0
 40
8.8
 50
180.0
 51
270.0
  0
ARC
  5
4653
  8
51
 10
-326.8
 20
442.730064
 30
0.0
 40
2.8
 50
360.0
 51
90.0
  0
ARC
  5
4654
  8
51
 10
-309.5
 20
425.430064
 30
0.0
 40
2.8
 50
0.0
 51
90.0
  0
ARC
  5
4655
  8
52
 10
-309.5
 20
425.230064
 30
0.0
 40
4.3
 50
0.0
 51
90.0
  0
ARC
  5
4656
  8
52
 10
-327.0
 20
442.730064
 30
0.0
 40
4.3
 50
360.0
 51
90.0
  0
ARC
  5
4657
  8
52
 10
-309.5
 20
425.230064
 30
0.0
 40
8.7
 50
0.0
 51
90.0
  0
ARC
  5
4658
  8
52
 10
-327.0
 20
442.730064
 30
0.0
 40
8.7
 50
360.0
 51
90.0
  0
ARC
  5
4659
  8
52
 10
-559.501143
 20
442.930064
 30
0.0
 40
8.5
 50
90.0
 51
180.654823
  0
ARC
  5
465B
  8
51
 10
-577.0
 20
442.730064
 30
0.0
 40
14.5
 50
270.0
 51
0.0
  0
ARC
  5
465C
  8
52
 10
-577.0
 20
442.730064
 30
0.0
 40
13.4
 50
270.0
 51
0.0
  0
ARC
  5
465D
  8
51
 10
-559.7
 20
442.730064
 30
0.0
 40
2.8
 50
90.0
 51
180.0
  0
ARC
  5
465F
  8
52
 10
-559.3
 20
442.730064
 30
0.0
 40
4.3
 50
90.0
 51
180.0
  0
ARC
  5
4661
  8
51
 10
-576.999412
 20
188.730064
 30
0.0
 40
14.5
 50
360.0
 51
90.002323
  0
ARC
  5
4662
  8
52
 10
-576.999412
 20
188.730064
 30
0.0
 40
13.4
 50
360.0
 51
90.002513
  0
ARC
  5
4666
  8
52
 10
-559.299412
 20
188.730064
 30
0.0
 40
4.3
 50
180.0
 51
270.0
  0
ARC
  5
4667
  8
51
 10
-559.699412
 20
188.730064
 30
0.0
 40
2.8
 50
180.0
 51
270.0
  0
ARC
  5
4668
  8
52
 10
-559.500555
 20
188.530064
 30
0.0
 40
8.5
 50
178.65174
 51
270.0
  0
LINE
  5
466B
  8
52
 10
-326.999992
 20
184.430064
 30
0.0
 11
-559.29942
 21
184.430064
 31
0.0
  0
LINE
  5
466C
  8
51
 10
-326.8
 20
185.930064
 30
0.0
 11
-559.699412
 21
185.930064
 31
0.0
  0
ARC
  5
466D
  8
52
 10
-309.5
 20
206.230064
 30
0.0
 40
8.7
 50
270.0
 51
0.0
  0
ARC
  5
466E
  8
52
 10
-309.5
 20
206.230064
 30
0.0
 40
4.3
 50
270.0
 51
0.0
  0
ARC
  5
466F
  8
51
 10
-309.5
 20
188.730064
 30
0.0
 40
14.5
 50
90.0
 51
180.0
  0
ARC
  5
4670
  8
52
 10
-309.5
 20
188.730064
 30
0.0
 40
13.2
 50
90.0
 51
180.0
  0
ARC
  5
4671
  8
52
 10
-309.5
 20
188.730064
 30
0.0
 40
8.8
 50
90.0
 51
180.0
  0
ARC
  5
4672
  8
52
 10
-327.0
 20
188.730064
 30
0.0
 40
8.7
 50
270.0
 51
0.0
  0
ARC
  5
4673
  8
52
 10
-327.0
 20
188.730064
 30
0.0
 40
4.3
 50
270.0
 51
0.0
  0
ARC
  5
4678
  8
51
 10
-326.8
 20
188.730064
 30
0.0
 40
2.8
 50
270.0
 51
0.0
  0
ARC
  5
4679
  8
51
 10
-309.5
 20
206.030064
 30
0.0
 40
2.8
 50
270.0
 51
0.0
  0
LINE
  5
467A
  8
52
 10
-326.8
 20
180.030064
 30
0.0
 11
-560.499438
 21
180.030064
 31
0.0
  0
LINE
  5
468B
  8
11
 10
443.647359
 20
95.101356
 30
0.0
 11
422.807865
 21
95.101356
 31
0.0
  0
LINE
  5
468C
  8
11
 10
430.759737
 20
65.101356
 30
0.0
 11
165.35299
 21
65.101356
 31
0.0
  0
LINE
  5
468D
  8
11
 10
443.638632
 20
94.601356
 30
0.0
 11
-104.961368
 21
94.601356
 31
0.0
  0
LINE
  5
468E
  8
11
 10
-92.130602
 20
95.101356
 30
0.0
 11
-112.970096
 21
95.101356
 31
0.0
  0
LINE
  5
468F
  8
11
 10
443.21971
 20
70.601356
 30
0.0
 11
165.338632
 21
70.601356
 31
0.0
  0
LINE
  5
4690
  8
14
 10
165.35299
 20
68.601356
 30
0.0
 11
-84.581916
 21
68.601356
 31
0.0
  0
LINE
  5
4691
  8
11
 10
443.647359
 20
95.101356
 30
0.0
 11
443.21971
 21
70.601356
 31
0.0
  0
LINE
  5
4692
  8
11
 10
-112.970096
 20
95.101356
 30
0.0
 11
-112.868439
 21
89.277408
 31
0.0
  0
LINE
  5
4693
  8
14
 10
165.338632
 20
79.527061
 30
0.0
 11
165.338632
 21
55.605557
 31
0.0
  0
LINE
  5
4694
  8
13
  6
DASHDOT
 10
165.338632
 20
79.167725
 30
0.0
 11
165.338632
 21
100.856213
 31
0.0
  0
LINE
  5
4697
  8
11
 10
165.338632
 20
70.601356
 30
0.0
 11
-112.542447
 21
70.601356
 31
0.0
  0
ARC
  5
4698
  8
11
 10
-100.082466
 20
71.101356
 30
0.0
 40
6.0
 50
185.0
 51
270.0
  0
LINE
  5
469A
  8
11
 10
-92.130602
 20
95.101356
 30
0.0
 11
-92.130602
 21
94.601356
 31
0.0
  0
LINE
  5
46A1
  8
11
 10
-112.868439
 20
89.277403
 30
0.0
 11
-112.542447
 21
70.601356
 31
0.0
  0
LINE
  5
46A5
  8
51
 10
436.006085
 20
257.660702
 30
0.0
 11
436.006085
 21
200.440633
 31
0.0
  0
LINE
  5
46A6
  8
51
 10
-105.403155
 20
257.634209
 30
0.0
 11
-105.403155
 21
200.407549
 31
0.0
  0
LINE
  5
46A8
  8
11
 10
436.738904
 20
70.601356
 30
0.0
 11
436.736897
 21
70.578421
 31
0.0
  0
ARC
  5
46A9
  8
11
 10
430.759729
 20
71.101356
 30
0.0
 40
6.0
 50
270.0
 51
355.0
  0
LINE
  5
46AA
  8
11
 10
422.807865
 20
95.101356
 30
0.0
 11
422.807865
 21
94.601356
 31
0.0
  0
LINE
  5
46AB
  8
11
 10
420.804117
 20
70.601356
 30
0.0
 11
420.802111
 21
70.578421
 31
0.0
  0
ARC
  5
46AC
  8
11
 10
414.824943
 20
71.101356
 30
0.0
 40
6.0
 50
270.0
 51
355.0
  0
LINE
  5
46AD
  8
11
 10
432.838632
 20
88.101356
 30
0.0
 11
165.338632
 21
88.101356
 31
0.0
  0
LINE
  5
46AE
  8
11
 10
420.804117
 20
70.601356
 30
0.0
 11
420.677976
 21
85.055747
 31
0.0
  0
ARC
  5
46B0
  8
11
 10
431.946571
 20
65.862583
 30
0.0
 40
22.256656
 50
92.297066
 51
120.417837
  0
LINE
  5
46B2
  8
11
 10
-106.478225
 20
94.601356
 30
0.0
 11
-110.867271
 21
94.601356
 31
0.0
  0
LINE
  5
46B3
  8
11
 10
-104.961368
 20
94.601356
 30
0.0
 11
-106.478225
 21
94.601356
 31
0.0
  0
LINE
  5
46B4
  8
11
 10
-110.867271
 20
94.601356
 30
0.0
 11
-112.961368
 21
94.601356
 31
0.0
  0
LINE
  5
46B5
  8
11
 10
165.35299
 20
65.101356
 30
0.0
 11
-100.082466
 21
65.101356
 31
0.0
  0
LINE
  5
46B9
  8
14
 10
-87.43675
 20
94.601356
 30
0.0
 11
-87.43675
 21
71.60135
 31
0.0
  0
ARC
  5
46BA
  8
14
 10
-84.436752
 20
71.597841
 30
0.0
 40
3.0
 50
179.932998
 51
272.773515
  0
TEXT
  5
489D
  8
0
  6
CONTINUOUS
 10
371.447819
 20
990.602016
 30
0.0
 40
2.5
  1
  
 50
21.66214
  0
TEXT
  5
489E
  8
0
  6
CONTINUOUS
 10
372.178455
 20
1595.311933
 30
0.0
 40
2.5
  1
  
 50
21.66214
  0
LINE
  5
4914
  8
53
  6
DASHDOT
 10
-577.0
 20
475.116222
 30
0.0
 11
-577.0
 21
163.06792
 31
0.0
  0
LINE
  5
497B
  8
52
 10
-827.2
 20
180.030064
 30
0.0
 11
-593.500562
 21
180.030064
 31
0.0
  0
ARC
  5
497C
  8
51
 10
-844.5
 20
206.030064
 30
0.0
 40
2.8
 50
180.0
 51
270.0
  0
ARC
  5
497D
  8
51
 10
-827.2
 20
188.730064
 30
0.0
 40
2.8
 50
180.0
 51
270.0
  0
ARC
  5
497E
  8
52
 10
-827.0
 20
188.730064
 30
0.0
 40
4.3
 50
180.0
 51
270.0
  0
ARC
  5
497F
  8
52
 10
-827.0
 20
188.730064
 30
0.0
 40
8.7
 50
180.0
 51
270.0
  0
ARC
  5
4980
  8
52
 10
-844.5
 20
188.730064
 30
0.0
 40
8.8
 50
360.0
 51
90.0
  0
ARC
  5
4981
  8
52
 10
-844.5
 20
188.730064
 30
0.0
 40
13.2
 50
360.0
 51
90.0
  0
ARC
  5
4982
  8
51
 10
-844.5
 20
188.730064
 30
0.0
 40
14.5
 50
360.0
 51
90.0
  0
ARC
  5
4983
  8
52
 10
-844.5
 20
206.230064
 30
0.0
 40
4.3
 50
180.0
 51
270.0
  0
ARC
  5
4984
  8
52
 10
-844.5
 20
206.230064
 30
0.0
 40
8.7
 50
180.0
 51
270.0
  0
LINE
  5
4985
  8
51
 10
-827.2
 20
185.930064
 30
0.0
 11
-594.300588
 21
185.930064
 31
0.0
  0
LINE
  5
4986
  8
52
 10
-827.000008
 20
184.430064
 30
0.0
 11
-594.70058
 21
184.430064
 31
0.0
  0
ARC
  5
4987
  8
52
 10
-594.499445
 20
188.530064
 30
0.0
 40
8.5
 50
270.0
 51
1.34826
  0
ARC
  5
4988
  8
51
 10
-594.300588
 20
188.730064
 30
0.0
 40
2.8
 50
270.0
 51
0.0
  0
ARC
  5
4989
  8
52
 10
-594.700588
 20
188.730064
 30
0.0
 40
4.3
 50
270.0
 51
0.0
  0
ARC
  5
498A
  8
52
 10
-577.000588
 20
188.730064
 30
0.0
 40
13.4
 50
89.997487
 51
180.0
  0
ARC
  5
498B
  8
51
 10
-577.000588
 20
188.730064
 30
0.0
 40
14.5
 50
89.997677
 51
180.0
  0
ARC
  5
498C
  8
52
 10
-594.7
 20
442.730064
 30
0.0
 40
4.3
 50
360.0
 51
90.0
  0
ARC
  5
498D
  8
51
 10
-594.3
 20
442.730064
 30
0.0
 40
2.8
 50
360.0
 51
90.0
  0
ARC
  5
498E
  8
52
 10
-577.0
 20
442.730064
 30
0.0
 40
13.4
 50
180.0
 51
270.0
  0
ARC
  5
498F
  8
51
 10
-577.0
 20
442.730064
 30
0.0
 40
14.5
 50
180.0
 51
270.0
  0
ARC
  5
4990
  8
52
 10
-594.498857
 20
442.930064
 30
0.0
 40
8.5
 50
359.345177
 51
90.0
  0
ARC
  5
4991
  8
52
 10
-827.0
 20
442.730064
 30
0.0
 40
8.7
 50
90.0
 51
180.0
  0
ARC
  5
4992
  8
52
 10
-844.5
 20
425.230064
 30
0.0
 40
8.7
 50
90.0
 51
180.0
  0
ARC
  5
4993
  8
52
 10
-827.0
 20
442.730064
 30
0.0
 40
4.3
 50
90.0
 51
180.0
  0
ARC
  5
4994
  8
52
 10
-844.5
 20
425.230064
 30
0.0
 40
4.3
 50
90.0
 51
180.0
  0
ARC
  5
4995
  8
51
 10
-844.5
 20
425.430064
 30
0.0
 40
2.8
 50
90.0
 51
180.0
  0
ARC
  5
4996
  8
51
 10
-827.2
 20
442.730064
 30
0.0
 40
2.8
 50
90.0
 51
180.0
  0
ARC
  5
4997
  8
52
 10
-844.5
 20
442.730064
 30
0.0
 40
8.8
 50
270.0
 51
0.0
  0
ARC
  5
4998
  8
52
 10
-844.5
 20
442.730064
 30
0.0
 40
13.2
 50
270.0
 51
0.0
  0
ARC
  5
4999
  8
51
 10
-844.5
 20
442.730064
 30
0.0
 40
14.5
 50
270.0
 51
0.0
  0
LINE
  5
499A
  8
52
 10
-853.2
 20
257.774744
 30
0.0
 11
-853.2
 21
206.030064
 31
0.0
  0
LINE
  5
499B
  8
52
 10
-853.2
 20
425.230064
 30
0.0
 11
-853.2
 21
257.774744
 31
0.0
  0
LINE
  5
499C
  8
52
 10
-827.0
 20
451.430064
 30
0.0
 11
-594.498857
 21
451.430064
 31
0.0
  0
LINE
  5
499D
  8
52
 10
-848.8
 20
257.774744
 30
0.0
 11
-848.8
 21
206.230064
 31
0.0
  0
LINE
  5
499E
  8
52
 10
-848.8
 20
425.230064
 30
0.0
 11
-848.8
 21
257.774744
 31
0.0
  0
LINE
  5
499F
  8
52
 10
-827.0
 20
447.030064
 30
0.0
 11
-594.7
 21
447.030064
 31
0.0
  0
ARC
  5
49A0
  8
52
 10
-577.0
 20
188.730064
 30
0.0
 40
9.0
 50
90.0
 51
180.0
  0
ARC
  5
49A1
  8
52
 10
-577.0
 20
442.730064
 30
0.0
 40
9.0
 50
179.345177
 51
270.0
  0
LINE
  5
49A2
  8
51
 10
-827.2
 20
445.530064
 30
0.0
 11
-594.3
 21
445.530064
 31
0.0
  0
LINE
  5
49A3
  8
51
 10
-847.3
 20
257.774744
 30
0.0
 11
-847.3
 21
206.030064
 31
0.0
  0
LINE
  5
49A4
  8
51
 10
-847.3
 20
425.430064
 30
0.0
 11
-847.3
 21
257.774744
 31
0.0
  0
ARC
  5
49A5
  8
52
 10
-577.0
 20
188.730064
 30
0.0
 40
10.8
 50
202.584574
 51
270.0
  0
LINE
  5
49A6
  8
52
 10
-577.0
 20
183.876127
 30
0.0
 11
-583.35919
 21
183.876127
 31
0.0
  0
LINE
  5
49A7
  8
52
 10
-577.0
 20
193.876127
 30
0.0
 11
-583.125196
 21
193.876127
 31
0.0
  0
ARC
  5
49A8
  8
52
 10
-577.0
 20
188.730064
 30
0.0
 40
8.0
 50
139.964813
 51
217.354304
  0
LINE
  5
49A9
  8
52
 10
-577.0
 20
447.876127
 30
0.0
 11
-583.125196
 21
447.876127
 31
0.0
  0
LINE
  5
49AA
  8
52
 10
-577.0
 20
437.876127
 30
0.0
 11
-583.35919
 21
437.876127
 31
0.0
  0
ARC
  5
49AB
  8
52
 10
-577.0
 20
442.730064
 30
0.0
 40
8.0
 50
139.964813
 51
217.354304
  0
ARC
  5
49AC
  8
52
 10
-577.0
 20
442.730064
 30
0.0
 40
10.8
 50
90.0
 51
157.411835
  0
LINE
  5
49AD
  8
51
 10
-844.5
 20
177.930064
 30
0.0
 11
-577.0
 21
177.930064
 31
0.0
  0
ARC
  5
49AE
  8
52
 10
-844.5
 20
188.730064
 30
0.0
 40
8.0
 50
94.964813
 51
172.354304
  0
ARC
  5
49AF
  8
52
 10
-844.5
 20
188.730064
 30
0.0
 40
8.0
 50
277.645696
 51
355.035187
  0
LINE
  5
49B0
  8
52
 10
-836.530016
 20
188.037712
 30
0.0
 11
-845.192352
 21
196.700048
 31
0.0
  0
LINE
  5
49B1
  8
52
 10
-843.435625
 20
180.801186
 30
0.0
 11
-852.428878
 21
189.794439
 31
0.0
  0
ARC
  5
49B2
  8
51
 10
-844.5
 20
188.730064
 30
0.0
 40
10.8
 50
113.289549
 51
336.710451
  0
LINE
  5
49B3
  8
51
 10
-855.3
 20
257.774744
 30
0.0
 11
-855.3
 21
188.730064
 31
0.0
  0
ARC
  5
49B4
  8
51
 10
-844.5
 20
442.730064
 30
0.0
 40
10.8
 50
23.289549
 51
246.710451
  0
LINE
  5
49B5
  8
51
 10
-855.3
 20
442.730064
 30
0.0
 11
-855.3
 21
257.774744
 31
0.0
  0
LINE
  5
49B6
  8
51
 10
-844.5
 20
453.530064
 30
0.0
 11
-577.0
 21
453.530064
 31
0.0
  0
LINE
  5
49B7
  8
52
 10
-836.571122
 20
443.794439
 30
0.0
 11
-845.564375
 21
434.801186
 31
0.0
  0
ARC
  5
49B8
  8
52
 10
-844.5
 20
442.730064
 30
0.0
 40
8.0
 50
7.645696
 51
85.035187
  0
ARC
  5
49B9
  8
52
 10
-844.5
 20
442.730064
 30
0.0
 40
8.0
 50
184.964813
 51
262.354304
  0
LINE
  5
49BA
  8
52
 10
-843.807648
 20
450.700048
 30
0.0
 11
-852.469984
 21
442.037712
 31
0.0
  0
LINE
  5
49BB
  8
11
 10
-102.161368
 20
88.101356
 30
0.0
 11
165.338632
 21
88.101356
 31
0.0
  0
ARC
  5
49BC
  8
11
 10
-101.269308
 20
65.862583
 30
0.0
 40
22.256656
 50
59.582163
 51
87.702934
  0
LINE
  5
49BD
  8
11
 10
-90.126854
 20
70.601356
 30
0.0
 11
-90.000713
 21
85.055747
 31
0.0
  0
ARC
  5
49BE
  8
11
 10
-84.14768
 20
71.101356
 30
0.0
 40
6.0
 50
185.0
 51
270.0
  0
ARC
  5
49BF
  8
14
 10
415.114015
 20
71.597841
 30
0.0
 40
3.0
 50
267.226485
 51
0.067002
  0
LINE
  5
49C0
  8
14
 10
418.114013
 20
94.601356
 30
0.0
 11
418.114013
 21
71.60135
 31
0.0
  0
LINE
  5
49C1
  8
14
 10
165.324274
 20
68.601356
 30
0.0
 11
415.259179
 21
68.601356
 31
0.0
  0
LINE
  5
49C2
  8
34
 10
541.11166
 20
315.715706
 30
0.0
 11
541.11166
 21
425.350611
 31
0.0
  0
LINE
  5
49C3
  8
34
 10
515.11166
 20
428.205445
 30
0.0
 11
538.111666
 21
428.205445
 31
0.0
  0
ARC
  5
49C4
  8
34
 10
538.115174
 20
425.205447
 30
0.0
 40
3.0
 50
357.226485
 51
90.067002
  0
ARC
  5
49C5
  8
31
 10
538.61166
 20
206.543753
 30
0.0
 40
6.0
 50
275.0
 51
0.0
  0
LINE
  5
49C6
  8
31
 10
539.11166
 20
200.564578
 30
0.0
 11
524.657268
 21
200.690719
 31
0.0
  0
ARC
  5
49C7
  8
31
 10
543.850432
 20
189.422124
 30
0.0
 40
22.256656
 50
149.582163
 51
177.702934
  0
LINE
  5
49C8
  8
31
 10
521.61166
 20
188.530064
 30
0.0
 11
521.61166
 21
315.730064
 31
0.0
  0
ARC
  5
49C9
  8
34
 10
538.115174
 20
206.254681
 30
0.0
 40
3.0
 50
269.932998
 51
2.773515
  0
LINE
  5
49CA
  8
34
 10
515.11166
 20
203.254683
 30
0.0
 11
538.111666
 21
203.254683
 31
0.0
  0
LINE
  5
49CB
  8
31
 10
544.61166
 20
315.744422
 30
0.0
 11
544.61166
 21
190.608966
 31
0.0
  0
LINE
  5
49CC
  8
31
 10
515.11166
 20
179.824162
 30
0.0
 11
515.11166
 21
177.730064
 31
0.0
  0
LINE
  5
49CD
  8
31
 10
515.11166
 20
185.730064
 30
0.0
 11
515.11166
 21
184.213207
 31
0.0
  0
LINE
  5
49CE
  8
31
 10
515.11166
 20
184.213207
 30
0.0
 11
515.11166
 21
179.824162
 31
0.0
  0
ARC
  5
49CF
  8
31
 10
543.850432
 20
442.038003
 30
0.0
 40
22.256656
 50
182.297066
 51
210.417837
  0
LINE
  5
49D0
  8
31
 10
539.11166
 20
430.89555
 30
0.0
 11
524.657268
 21
430.769408
 31
0.0
  0
LINE
  5
49D1
  8
31
 10
521.61166
 20
442.930064
 30
0.0
 11
521.61166
 21
315.730064
 31
0.0
  0
ARC
  5
49D2
  8
31
 10
538.61166
 20
424.916375
 30
0.0
 40
6.0
 50
0.0
 51
85.0
  0
LINE
  5
49D3
  8
31
 10
539.11166
 20
430.89555
 30
0.0
 11
539.134594
 21
430.893543
 31
0.0
  0
LINE
  5
49D4
  8
31
 10
514.61166
 20
432.899298
 30
0.0
 11
515.11166
 21
432.899298
 31
0.0
  0
ARC
  5
49D5
  8
31
 10
538.61166
 20
440.851161
 30
0.0
 40
6.0
 50
0.0
 51
85.0
  0
LINE
  5
49D6
  8
31
 10
539.11166
 20
446.830336
 30
0.0
 11
539.134594
 21
446.828329
 31
0.0
  0
LINE
  5
49D7
  8
31
 10
520.435612
 20
177.822994
 30
0.0
 11
539.11166
 21
178.148985
 31
0.0
  0
LINE
  5
49D8
  8
31
 10
514.61166
 20
198.56083
 30
0.0
 11
515.11166
 21
198.56083
 31
0.0
  0
ARC
  5
49D9
  8
31
 10
538.61166
 20
190.608966
 30
0.0
 40
6.0
 50
275.0
 51
0.0
  0
LINE
  5
49DA
  8
31
 10
539.11166
 20
315.730064
 30
0.0
 11
539.11166
 21
178.148985
 31
0.0
  0
LINE
  5
49DC
  8
33
  6
DASHDOT
 10
513.342572
 20
315.748056
 30
0.0
 11
554.107458
 21
315.730064
 31
0.0
  0
LINE
  5
49DD
  8
31
 10
514.61166
 20
177.721336
 30
0.0
 11
520.435607
 21
177.822994
 31
0.0
  0
LINE
  5
49DE
  8
31
 10
514.61166
 20
453.738791
 30
0.0
 11
539.11166
 21
453.311142
 31
0.0
  0
LINE
  5
49DF
  8
34
 10
541.11166
 20
315.744422
 30
0.0
 11
541.11166
 21
206.109516
 31
0.0
  0
LINE
  5
49E0
  8
31
 10
539.11166
 20
453.311142
 30
0.0
 11
539.11166
 21
315.730064
 31
0.0
  0
LINE
  5
49E1
  8
31
 10
514.61166
 20
198.56083
 30
0.0
 11
514.61166
 21
177.721336
 31
0.0
  0
LINE
  5
49E2
  8
31
 10
515.11166
 20
453.730064
 30
0.0
 11
515.11166
 21
185.730064
 31
0.0
  0
LINE
  5
49E3
  8
31
 10
544.61166
 20
440.851169
 30
0.0
 11
544.61166
 21
315.744422
 31
0.0
  0
LINE
  5
49E4
  8
31
 10
514.61166
 20
453.738791
 30
0.0
 11
514.61166
 21
432.899298
 31
0.0
  0
LINE
  5
49E6
  8
53
  6
DASHDOT
 10
-869.730064
 20
315.730064
 30
0.0
 11
-292.730064
 21
315.730064
 31
0.0
  0
LINE
  5
49E7
  8
53
  6
DASHDOT
 10
-120.391432
 20
315.730064
 30
0.0
 11
454.608568
 21
315.730064
 31
0.0
  0
LINE
  5
49E8
  8
41
 10
-185.643734
 20
453.738791
 30
0.0
 11
-185.643734
 21
432.899298
 31
0.0
  0
LINE
  5
49E9
  8
41
 10
-215.643734
 20
440.851169
 30
0.0
 11
-215.643734
 21
315.744422
 31
0.0
  0
LINE
  5
49EA
  8
41
 10
-186.143734
 20
453.730064
 30
0.0
 11
-186.143734
 21
185.730064
 31
0.0
  0
LINE
  5
49EB
  8
41
 10
-185.643734
 20
198.56083
 30
0.0
 11
-185.643734
 21
177.721336
 31
0.0
  0
LINE
  5
49EC
  8
41
 10
-210.143734
 20
453.311142
 30
0.0
 11
-210.143734
 21
315.730064
 31
0.0
  0
LINE
  5
49ED
  8
44
 10
-212.143734
 20
315.744422
 30
0.0
 11
-212.143734
 21
206.109516
 31
0.0
  0
LINE
  5
49EE
  8
41
 10
-185.643734
 20
453.738791
 30
0.0
 11
-210.143734
 21
453.311142
 31
0.0
  0
LINE
  5
49EF
  8
41
 10
-185.643734
 20
177.721336
 30
0.0
 11
-191.467681
 21
177.822994
 31
0.0
  0
LINE
  5
49F0
  8
43
 10
-201.218028
 20
315.730064
 30
0.0
 11
-225.139532
 21
315.730064
 31
0.0
  0
LINE
  5
49F1
  8
43
  6
DASHDOT
 10
-201.577364
 20
315.730064
 30
0.0
 11
-179.888876
 21
315.730064
 31
0.0
  0
LINE
  5
49F2
  8
41
 10
-210.143734
 20
315.730064
 30
0.0
 11
-210.143734
 21
178.148985
 31
0.0
  0
ARC
  5
49F3
  8
41
 10
-209.643734
 20
190.608966
 30
0.0
 40
6.0
 50
180.0
 51
265.0
  0
LINE
  5
49F4
  8
41
 10
-185.643734
 20
198.56083
 30
0.0
 11
-186.143734
 21
198.56083
 31
0.0
  0
LINE
  5
49F5
  8
41
 10
-191.467686
 20
177.822994
 30
0.0
 11
-210.143734
 21
178.148985
 31
0.0
  0
LINE
  5
49F6
  8
41
 10
-210.143734
 20
446.830336
 30
0.0
 11
-210.166668
 21
446.828329
 31
0.0
  0
ARC
  5
49F7
  8
41
 10
-209.643734
 20
440.851161
 30
0.0
 40
6.0
 50
95.0
 51
180.0
  0
LINE
  5
49F8
  8
41
 10
-185.643734
 20
432.899298
 30
0.0
 11
-186.143734
 21
432.899298
 31
0.0
  0
LINE
  5
49F9
  8
41
 10
-210.143734
 20
430.89555
 30
0.0
 11
-210.166668
 21
430.893543
 31
0.0
  0
ARC
  5
49FA
  8
41
 10
-209.643734
 20
424.916375
 30
0.0
 40
6.0
 50
95.0
 51
180.0
  0
LINE
  5
49FB
  8
41
 10
-192.643734
 20
442.930064
 30
0.0
 11
-192.643734
 21
315.730064
 31
0.0
  0
LINE
  5
49FC
  8
41
 10
-210.143734
 20
430.89555
 30
0.0
 11
-195.689343
 21
430.769408
 31
0.0
  0
ARC
  5
49FD
  8
41
 10
-214.882506
 20
442.038003
 30
0.0
 40
22.256656
 50
329.582163
 51
357.702934
  0
LINE
  5
49FE
  8
41
 10
-186.143734
 20
184.213207
 30
0.0
 11
-186.143734
 21
179.824162
 31
0.0
  0
LINE
  5
49FF
  8
41
 10
-186.143734
 20
185.730064
 30
0.0
 11
-186.143734
 21
184.213207
 31
0.0
  0
LINE
  5
4A00
  8
41
 10
-186.143734
 20
179.824162
 30
0.0
 11
-186.143734
 21
177.730064
 31
0.0
  0
LINE
  5
4A01
  8
41
 10
-215.643734
 20
315.744422
 30
0.0
 11
-215.643734
 21
190.608966
 31
0.0
  0
LINE
  5
4A02
  8
44
 10
-186.143734
 20
203.254683
 30
0.0
 11
-209.14374
 21
203.254683
 31
0.0
  0
ARC
  5
4A03
  8
44
 10
-209.147248
 20
206.254681
 30
0.0
 40
3.0
 50
177.226485
 51
270.067002
  0
LINE
  5
4A04
  8
41
 10
-192.643734
 20
188.530064
 30
0.0
 11
-192.643734
 21
315.730064
 31
0.0
  0
ARC
  5
4A05
  8
41
 10
-214.882506
 20
189.422124
 30
0.0
 40
22.256656
 50
2.297066
 51
30.417837
  0
LINE
  5
4A06
  8
41
 10
-210.143734
 20
200.564578
 30
0.0
 11
-195.689343
 21
200.690719
 31
0.0
  0
ARC
  5
4A07
  8
41
 10
-209.643734
 20
206.543753
 30
0.0
 40
6.0
 50
180.0
 51
265.0
  0
ARC
  5
4A08
  8
44
 10
-209.147248
 20
425.205447
 30
0.0
 40
3.0
 50
89.932998
 51
182.773515
  0
LINE
  5
4A09
  8
44
 10
-186.143734
 20
428.205445
 30
0.0
 11
-209.14374
 21
428.205445
 31
0.0
  0
LINE
  5
4A0A
  8
44
 10
-212.143734
 20
315.715706
 30
0.0
 11
-212.143734
 21
425.350611
 31
0.0
  0
LINE
  5
4A0B
  8
24
 10
165.324274
 20
562.858772
 30
0.0
 11
415.259179
 21
562.858772
 31
0.0
  0
LINE
  5
4A0C
  8
24
 10
418.114013
 20
536.858772
 30
0.0
 11
418.114013
 21
559.858778
 31
0.0
  0
ARC
  5
4A0D
  8
24
 10
415.114015
 20
559.862286
 30
0.0
 40
3.0
 50
359.932998
 51
92.773515
  0
ARC
  5
4A0E
  8
21
 10
-84.14768
 20
560.358772
 30
0.0
 40
6.0
 50
90.0
 51
175.0
  0
LINE
  5
4A0F
  8
21
 10
-90.126854
 20
560.858772
 30
0.0
 11
-90.000713
 21
546.404381
 31
0.0
  0
ARC
  5
4A10
  8
21
 10
-101.269308
 20
565.597544
 30
0.0
 40
22.256656
 50
272.297066
 51
300.417837
  0
LINE
  5
4A11
  8
21
 10
-102.161368
 20
543.358772
 30
0.0
 11
165.338632
 21
543.358772
 31
0.0
  0
ARC
  5
4A12
  8
24
 10
-84.436752
 20
559.862286
 30
0.0
 40
3.0
 50
87.226485
 51
180.067002
  0
LINE
  5
4A13
  8
24
 10
-87.43675
 20
536.858772
 30
0.0
 11
-87.43675
 21
559.858778
 31
0.0
  0
LINE
  5
4A14
  8
21
 10
165.35299
 20
566.358772
 30
0.0
 11
-100.082466
 21
566.358772
 31
0.0
  0
LINE
  5
4A15
  8
21
 10
-110.867271
 20
536.858772
 30
0.0
 11
-112.961368
 21
536.858772
 31
0.0
  0
LINE
  5
4A16
  8
21
 10
-104.961368
 20
536.858772
 30
0.0
 11
-106.478225
 21
536.858772
 31
0.0
  0
LINE
  5
4A17
  8
21
 10
-106.478225
 20
536.858772
 30
0.0
 11
-110.867271
 21
536.858772
 31
0.0
  0
ARC
  5
4A18
  8
21
 10
431.946571
 20
565.597544
 30
0.0
 40
22.256656
 50
239.582163
 51
267.702934
  0
LINE
  5
4A19
  8
21
 10
420.804117
 20
560.858772
 30
0.0
 11
420.677976
 21
546.404381
 31
0.0
  0
LINE
  5
4A1A
  8
21
 10
432.838632
 20
543.358772
 30
0.0
 11
165.338632
 21
543.358772
 31
0.0
  0
ARC
  5
4A1B
  8
21
 10
414.824943
 20
560.358772
 30
0.0
 40
6.0
 50
5.0
 51
90.0
  0
LINE
  5
4A1C
  8
21
 10
420.804117
 20
560.858772
 30
0.0
 11
420.802111
 21
560.881706
 31
0.0
  0
LINE
  5
4A1D
  8
21
 10
422.807865
 20
536.358772
 30
0.0
 11
422.807865
 21
536.858772
 31
0.0
  0
ARC
  5
4A1E
  8
21
 10
430.759729
 20
560.358772
 30
0.0
 40
6.0
 50
5.0
 51
90.0
  0
LINE
  5
4A1F
  8
21
 10
436.738904
 20
560.858772
 30
0.0
 11
436.736897
 21
560.881706
 31
0.0
  0
LINE
  5
4A20
  8
21
 10
-112.868439
 20
542.182724
 30
0.0
 11
-112.542447
 21
560.858772
 31
0.0
  0
LINE
  5
4A21
  8
21
 10
-92.130602
 20
536.358772
 30
0.0
 11
-92.130602
 21
536.858772
 31
0.0
  0
ARC
  5
4A22
  8
21
 10
-100.082466
 20
560.358772
 30
0.0
 40
6.0
 50
90.0
 51
175.0
  0
LINE
  5
4A23
  8
21
 10
165.338632
 20
560.858772
 30
0.0
 11
-112.542447
 21
560.858772
 31
0.0
  0
LINE
  5
4A24
  8
24
  6
DASHDOT
 10
165.338632
 20
552.292402
 30
0.0
 11
165.338632
 21
530.603914
 31
0.0
  0
LINE
  5
4A25
  8
23
 10
165.338632
 20
551.933067
 30
0.0
 11
165.338632
 21
575.854571
 31
0.0
  0
LINE
  5
4A26
  8
21
 10
-112.970096
 20
536.358772
 30
0.0
 11
-112.868439
 21
542.182719
 31
0.0
  0
LINE
  5
4A27
  8
21
 10
443.647359
 20
536.358772
 30
0.0
 11
443.21971
 21
560.858772
 31
0.0
  0
LINE
  5
4A28
  8
24
 10
165.35299
 20
562.858772
 30
0.0
 11
-84.581916
 21
562.858772
 31
0.0
  0
LINE
  5
4A29
  8
21
 10
443.21971
 20
560.858772
 30
0.0
 11
165.338632
 21
560.858772
 31
0.0
  0
LINE
  5
4A2A
  8
21
 10
-92.130602
 20
536.358772
 30
0.0
 11
-112.970096
 21
536.358772
 31
0.0
  0
LINE
  5
4A2B
  8
21
 10
443.638632
 20
536.858772
 30
0.0
 11
-104.961368
 21
536.858772
 31
0.0
  0
LINE
  5
4A2C
  8
21
 10
430.759737
 20
566.358772
 30
0.0
 11
165.35299
 21
566.358772
 31
0.0
  0
LINE
  5
4A2D
  8
21
 10
443.647359
 20
536.358772
 30
0.0
 11
422.807865
 21
536.358772
 31
0.0
  0
TEXT
  5
4A2E
  8
L20
 10
-657.0
 20
558.0
 30
0.0
 40
21.102004
  1
FIBOX EK-T 30 COVER
  0
LINE
  5
4A2F
  8
31
 10
524.657268
 20
430.769408
 30
0.0
 11
524.657268
 21
200.690719
 31
0.0
  0
LINE
  5
4A30
  8
41
 10
-195.689343
 20
430.769408
 30
0.0
 11
-195.689343
 21
200.690719
 31
0.0
  0
LINE
  5
4A31
  8
21
 10
420.677976
 20
546.404381
 30
0.0
 11
-90.000713
 21
546.404381
 31
0.0
  0
LINE
  5
4A32
  8
11
 10
-90.000713
 20
85.055747
 30
0.0
 11
420.677976
 21
85.055747
 31
0.0
  0
LINE
  5
4B51
  8
14
 10
180.038632
 20
94.601356
 30
0.0
 11
180.038632
 21
71.60135
 31
0.0
  0
ARC
  5
4B52
  8
14
 10
183.038629
 20
71.597841
 30
0.0
 40
3.0
 50
179.932998
 51
272.773515
  0
LINE
  5
4B53
  8
14
 10
418.114013
 20
94.601356
 30
0.0
 11
418.114013
 21
71.60135
 31
0.0
  0
ARC
  5
4B54
  8
14
 10
415.114015
 20
71.597841
 30
0.0
 40
3.0
 50
267.226485
 51
0.067002
  0
ARC
  5
4B55
  8
14
 10
147.638634
 20
71.597841
 30
0.0
 40
3.0
 50
267.226485
 51
0.067002
  0
LINE
  5
4B56
  8
14
 10
150.638632
 20
94.601356
 30
0.0
 11
150.638632
 21
71.60135
 31
0.0
  0
LINE
  5
4B57
  8
14
 10
418.114013
 20
94.601356
 30
0.0
 11
418.114013
 21
71.60135
 31
0.0
  0
ARC
  5
4B58
  8
14
 10
415.114015
 20
71.597841
 30
0.0
 40
3.0
 50
267.226485
 51
0.067002
  0
ARC
  5
4B59
  8
14
 10
147.638634
 20
71.597841
 30
0.0
 40
3.0
 50
267.226485
 51
0.067002
  0
LINE
  5
4B5A
  8
14
 10
150.638632
 20
94.601356
 30
0.0
 11
150.638632
 21
71.60135
 31
0.0
  0
ARC
  5
4B60
  8
14
 10
183.038629
 20
559.862286
 30
0.0
 40
3.0
 50
87.226485
 51
180.067002
  0
ARC
  5
4B61
  8
14
 10
183.038629
 20
559.862286
 30
0.0
 40
3.0
 50
87.226485
 51
180.067002
  0
ARC
  5
4B62
  8
14
 10
147.638634
 20
559.862286
 30
0.0
 40
3.0
 50
359.932998
 51
92.773515
  0
LINE
  5
4B63
  8
14
 10
150.638632
 20
536.858772
 30
0.0
 11
150.638632
 21
559.858778
 31
0.0
  0
LINE
  5
4B64
  8
14
 10
180.038632
 20
536.858772
 30
0.0
 11
180.038632
 21
559.858778
 31
0.0
  0
VIEWPORT
  5
1
 67
     1
  8
0
 10
210.0
 20
152.094241
 30
0.0
 40
420.0
 41
304.188482
 68
    -1
 69
     1
1001
ACAD
1000
MVIEW
1002
{
1070
    16
1010
0.0
1020
0.0
1030
0.0
1010
0.0
1020
0.0
1030
1.0
1040
0.0
1040
304.188482
1040
210.0
1040
152.094241
1040
50.0
1040
0.0
1040
0.0
1070
     0
1070
   100
1070
     1
1070
     1
1070
     1
1070
     0
1070
     0
1070
     0
1040
0.0
1040
0.0
1040
0.0
1040
1.0
1040
1.0
1040
0.0
1040
0.0
1070
     0
1002
{
1002
}
1002
}
  0
ENDSEC
  0
EOF
