  0
SECTION
  2
HEADER
  9
$ACADVER
  1
AC1009
  9
$INSBASE
 10
0.0
 20
0.0
 30
0.0
  9
$EXTMIN
 10
-72.172156
 20
72.04587
 30
0.0
  9
$EXTMAX
 10
1079.890276
 20
687.998516
 30
0.0
  9
$LIMMIN
 10
0.0
 20
0.0
  9
$LIMMAX
 10
420.0
 20
297.0
  9
$ORTHOMODE
 70
     0
  9
$REGENMODE
 70
     1
  9
$FILLMODE
 70
     1
  9
$QTEXTMODE
 70
     0
  9
$MIRRTEXT
 70
     1
  9
$DRAGMODE
 70
     2
  9
$LTSCALE
 40
7.0
  9
$OSMODE
 70
     0
  9
$ATTMODE
 70
     1
  9
$TEXTSIZE
 40
3.5
  9
$TRACEWID
 40
0.05
  9
$TEXTSTYLE
  7
STANDARD
  9
$CLAYER
  8
1
  9
$CELTYPE
  6
BYLAYER
  9
$CECOLOR
 62
   256
  9
$DIMSCALE
 40
1.0
  9
$DIMASZ
 40
3.5
  9
$DIMEXO
 40
0.0
  9
$DIMDLI
 40
10.0
  9
$DIMRND
 40
0.0
  9
$DIMDLE
 40
0.0
  9
$DIMEXE
 40
2.0
  9
$DIMTP
 40
0.0
  9
$DIMTM
 40
0.0
  9
$DIMTXT
 40
3.5
  9
$DIMCEN
 40
2.5
  9
$DIMTSZ
 40
0.0
  9
$DIMTOL
 70
     0
  9
$DIMLIM
 70
     0
  9
$DIMTIH
 70
     0
  9
$DIMTOH
 70
     0
  9
$DIMSE1
 70
     0
  9
$DIMSE2
 70
     0
  9
$DIMTAD
 70
     1
  9
$DIMZIN
 70
     8
  9
$DIMBLK
  1

  9
$DIMASO
 70
     1
  9
$DIMSHO
 70
     1
  9
$DIMPOST
  1

  9
$DIMAPOST
  1

  9
$DIMALT
 70
     0
  9
$DIMALTD
 70
     2
  9
$DIMALTF
 40
25.4
  9
$DIMLFAC
 40
1.0
  9
$DIMTOFL
 70
     1
  9
$DIMTVP
 40
0.0
  9
$DIMTIX
 70
     0
  9
$DIMSOXD
 70
     0
  9
$DIMSAH
 70
     0
  9
$DIMBLK1
  1

  9
$DIMBLK2
  1

  9
$DIMSTYLE
  2
ACADUS
  9
$DIMCLRD
 70
   256
  9
$DIMCLRE
 70
   256
  9
$DIMCLRT
 70
     3
  9
$DIMTFAC
 40
1.0
  9
$DIMGAP
 40
2.0
  9
$LUNITS
 70
     2
  9
$LUPREC
 70
     1
  9
$SKETCHINC
 40
1.0
  9
$FILLETRAD
 40
0.0
  9
$AUNITS
 70
     0
  9
$AUPREC
 70
     2
  9
$MENU
  1
CAESAR
  9
$ELEVATION
 40
0.0
  9
$PELEVATION
 40
0.0
  9
$THICKNESS
 40
0.0
  9
$LIMCHECK
 70
     0
  9
$BLIPMODE
 70
     1
  9
$CHAMFERA
 40
5.0
  9
$CHAMFERB
 40
5.0
  9
$SKPOLY
 70
     0
  9
$TDCREATE
 40
2449496.456866
  9
$TDUPDATE
 40
2453059.654284
  9
$TDINDWG
 40
0.000956
  9
$TDUSRTIMER
 40
0.000956
  9
$USRTIMER
 70
     1
  9
$ANGBASE
 50
0.0
  9
$ANGDIR
 70
     0
  9
$PDMODE
 70
     0
  9
$PDSIZE
 40
0.0
  9
$PLINEWID
 40
0.0
  9
$COORDS
 70
     2
  9
$SPLFRAME
 70
     0
  9
$SPLINETYPE
 70
     6
  9
$SPLINESEGS
 70
     8
  9
$ATTDIA
 70
     0
  9
$ATTREQ
 70
     1
  9
$HANDLING
 70
     1
  9
$HANDSEED
  5
8150D
  9
$SURFTAB1
 70
     6
  9
$SURFTAB2
 70
     6
  9
$SURFTYPE
 70
     6
  9
$SURFU
 70
     6
  9
$SURFV
 70
     6
  9
$UCSNAME
  2

  9
$UCSORG
 10
0.0
 20
0.0
 30
0.0
  9
$UCSXDIR
 10
1.0
 20
0.0
 30
0.0
  9
$UCSYDIR
 10
0.0
 20
1.0
 30
0.0
  9
$PUCSNAME
  2

  9
$PUCSORG
 10
0.0
 20
0.0
 30
0.0
  9
$PUCSXDIR
 10
1.0
 20
0.0
 30
0.0
  9
$PUCSYDIR
 10
0.0
 20
1.0
 30
0.0
  9
$USERI1
 70
     0
  9
$USERI2
 70
     0
  9
$USERI3
 70
     0
  9
$USERI4
 70
     0
  9
$USERI5
 70
     0
  9
$USERR1
 40
1.0
  9
$USERR2
 40
0.0
  9
$USERR3
 40
3.5
  9
$USERR4
 40
0.0
  9
$USERR5
 40
0.0
  9
$WORLDVIEW
 70
     1
  9
$SHADEDGE
 70
     3
  9
$SHADEDIF
 70
    70
  9
$TILEMODE
 70
     1
  9
$MAXACTVP
 70
    16
  9
$PLIMCHECK
 70
     0
  9
$PEXTMIN
 10
1.000000E+020
 20
1.000000E+020
 30
1.000000E+020
  9
$PEXTMAX
 10
-1.000000E+020
 20
-1.000000E+020
 30
-1.000000E+020
  9
$PLIMMIN
 10
0.0
 20
0.0
  9
$PLIMMAX
 10
420.0
 20
297.0
  9
$UNITMODE
 70
     0
  9
$VISRETAIN
 70
     0
  9
$PLINEGEN
 70
     0
  9
$PSLTSCALE
 70
     0
  0
ENDSEC
  0
SECTION
  2
TABLES
  0
TABLE
  2
VPORT
 70
     2
  0
VPORT
  2
*ACTIVE
 70
     0
 10
0.0
 20
0.0
 11
1.0
 21
1.0
 12
503.859063
 22
380.007483
 13
0.0
 23
0.0
 14
1.0
 24
1.0
 15
10.0
 25
10.0
 16
0.0
 26
0.0
 36
1.0
 17
0.0
 27
0.0
 37
0.0
 40
717.119478
 41
1.616838
 42
50.0
 43
0.0
 44
0.0
 50
0.0
 51
0.0
 71
     0
 72
   100
 73
     1
 74
     1
 75
     0
 76
     0
 77
     0
 78
     0
  0
ENDTAB
  0
TABLE
  2
LTYPE
 70
    10
  0
LTYPE
  2
CONTINUOUS
 70
     0
  3
Solid line
 72
    65
 73
     0
 40
0.0
  0
LTYPE
  2
BORDER
 70
     0
  3
__ __ . __ __ . __ __ . __ __ . __ __ . __ __ .
 72
    65
 73
     6
 40
1.75
 49
0.5
 49
-0.25
 49
0.5
 49
-0.25
 49
0.0
 49
-0.25
  0
LTYPE
  2
CENTER
 70
     0
  3
____ _ ____ _ ____ _ ____ _ ____ _ ____ _ ____ 
 72
    65
 73
     4
 40
2.0
 49
1.25
 49
-0.25
 49
0.25
 49
-0.25
  0
LTYPE
  2
DASHDOT
 70
     0
  3
__ . __ . __ . __ . __ . __ . __ . __ . __ . __
 72
    65
 73
     4
 40
1.0
 49
0.5
 49
-0.25
 49
0.0
 49
-0.25
  0
LTYPE
  2
DASHED
 70
     0
  3
__ __ __ __ __ __ __ __ __ __ __ __ __ __ __ __
 72
    65
 73
     2
 40
0.75
 49
0.5
 49
-0.25
  0
LTYPE
  2
DIVIDE
 70
     0
  3
____ . . ____ . . ____ . . ____ . . ____ . . __
 72
    65
 73
     6
 40
1.25
 49
0.5
 49
-0.25
 49
0.0
 49
-0.25
 49
0.0
 49
-0.25
  0
LTYPE
  2
DOT
 70
     0
  3
. . . . . . . . . . . . . . . . . . . . . . . .
 72
    65
 73
     2
 40
0.25
 49
0.0
 49
-0.25
  0
LTYPE
  2
HIDDEN
 70
     0
  3
__ __ __ __ __ __ __ __ __ __ __ __ __ __ __ __
 72
    65
 73
     2
 40
0.375
 49
0.25
 49
-0.125
  0
LTYPE
  2
PHANTOM
 70
     0
  3
______  __  __  ______  __  __  ______  __  __ 
 72
    65
 73
     6
 40
2.5
 49
1.25
 49
-0.25
 49
0.25
 49
-0.25
 49
0.25
 49
-0.25
  0
LTYPE
  2
DOTX2
 70
     0
  3
.  .  .  .  .  .  .  .  .  .  .  .  .  .  .  . 
 72
    65
 73
     2
 40
0.5
 49
0.0
 49
-0.5
  0
ENDTAB
  0
TABLE
  2
LAYER
 70
   124
  0
LAYER
  2
0
 70
     0
 62
     7
  6
CONTINUOUS
  0
LAYER
  2
L1
 70
     0
 62
     7
  6
CONTINUOUS
  0
LAYER
  2
L2
 70
     0
 62
     1
  6
CONTINUOUS
  0
LAYER
  2
L3
 70
     0
 62
     7
  6
DASHED
  0
LAYER
  2
L4
 70
     0
 62
     1
  6
DASHED
  0
LAYER
  2
L5
 70
     0
 62
     7
  6
CENTER
  0
LAYER
  2
L6
 70
     0
 62
     1
  6
CENTER
  0
LAYER
  2
L7
 70
     0
 62
     1
  6
PHANTOM
  0
LAYER
  2
VPORT
 70
     0
 62
     7
  6
CONTINUOUS
  0
LAYER
  2
L8
 70
     0
 62
     1
  6
CONTINUOUS
  0
LAYER
  2
L20
 70
     0
 62
     3
  6
CONTINUOUS
  0
LAYER
  2
L21
 70
     0
 62
     1
  6
CONTINUOUS
  0
LAYER
  2
L22
 70
     0
 62
     1
  6
CONTINUOUS
  0
LAYER
  2
L23
 70
     0
 62
     1
  6
CONTINUOUS
  0
LAYER
  2
L30
 70
     0
 62
     3
  6
CONTINUOUS
  0
LAYER
  2
L31
 70
     0
 62
     1
  6
CONTINUOUS
  0
LAYER
  2
L32
 70
     0
 62
     3
  6
CONTINUOUS
  0
LAYER
  2
L33
 70
     0
 62
     1
  6
CONTINUOUS
  0
LAYER
  2
L34
 70
     0
 62
     1
  6
DASHED
  0
LAYER
  2
L35
 70
     0
 62
     1
  6
CONTINUOUS
  0
LAYER
  2
L40
 70
     0
 62
     7
  6
CONTINUOUS
  0
LAYER
  2
L41
 70
     0
 62
     1
  6
CONTINUOUS
  0
LAYER
  2
L42
 70
     0
 62
     1
  6
CONTINUOUS
  0
LAYER
  2
L43
 70
     0
 62
     7
  6
CONTINUOUS
  0
LAYER
  2
L44
 70
     0
 62
     1
  6
DASHED
  0
LAYER
  2
L45
 70
     0
 62
     1
  6
CONTINUOUS
  0
LAYER
  2
L46
 70
     0
 62
     3
  6
CONTINUOUS
  0
LAYER
  2
L50
 70
     0
 62
     7
  6
CONTINUOUS
  0
LAYER
  2
L51
 70
     0
 62
     1
  6
CONTINUOUS
  0
LAYER
  2
L52
 70
     0
 62
     7
  6
CONTINUOUS
  0
LAYER
  2
L53
 70
     0
 62
     1
  6
CONTINUOUS
  0
LAYER
  2
L54
 70
     0
 62
     1
  6
DASHED
  0
LAYER
  2
L55
 70
     0
 62
     3
  6
CONTINUOUS
  0
LAYER
  2
L56
 70
     0
 62
     3
  6
CONTINUOUS
  0
LAYER
  2
L57
 70
     0
 62
     1
  6
CONTINUOUS
  0
LAYER
  2
L9
 70
     0
 62
     7
  6
HIDDEN
  0
LAYER
  2
L15
 70
     0
 62
     2
  6
CONTINUOUS
  0
LAYER
  2
L16
 70
     0
 62
     5
  6
DOTX2
  0
LAYER
  2
L24
 70
     0
 62
     1
  6
DASHED
  0
LAYER
  2
1
 70
     0
 62
     7
  6
CONTINUOUS
  0
LAYER
  2
2
 70
     0
 62
     7
  6
CONTINUOUS
  0
LAYER
  2
8
 70
     0
 62
     7
  6
CONTINUOUS
  0
LAYER
  2
11
 70
     0
 62
     7
  6
CONTINUOUS
  0
LAYER
  2
60
 70
     0
 62
     7
  6
CONTINUOUS
  0
LAYER
  2
63
 70
     0
 62
     1
  6
CENTER
  0
LAYER
  2
66
 70
     0
 62
     7
  6
CONTINUOUS
  0
LAYER
  2
69
 70
     0
 62
     7
  6
CONTINUOUS
  0
LAYER
  2
72
 70
     0
 62
     7
  6
CONTINUOUS
  0
LAYER
  2
75
 70
     0
 62
     7
  6
CONTINUOUS
  0
LAYER
  2
86
 70
     0
 62
     7
  6
CONTINUOUS
  0
LAYER
  2
89
 70
     0
 62
     7
  6
CONTINUOUS
  0
LAYER
  2
98
 70
     0
 62
     7
  6
CONTINUOUS
  0
LAYER
  2
DEFPOINTS
 70
     0
 62
     7
  6
CONTINUOUS
  0
LAYER
  2
MUOTOV
 70
     0
 62
     7
  6
CONTINUOUS
  0
LAYER
  2
KATKOV
 70
     0
 62
     1
  6
HIDDEN
  0
LAYER
  2
PIKATKOV
 70
     0
 62
     5
  6
DASHDOT
  0
LAYER
  2
MITAT
 70
     0
 62
     5
  6
CONTINUOUS
  0
LAYER
  2
LEIKV
 70
     0
 62
     5
  6
CONTINUOUS
  0
LAYER
  2
A1
 70
     0
 62
     7
  6
CONTINUOUS
  0
LAYER
  2
RA1
 70
     0
 62
     5
  6
CONTINUOUS
  0
LAYER
  2
TITEL
 70
     0
 62
     7
  6
CONTINUOUS
  0
LAYER
  2
TITEL1
 70
     0
 62
     5
  6
CONTINUOUS
  0
LAYER
  2
MUUTOS
 70
     0
 62
     7
  6
CONTINUOUS
  0
LAYER
  2
MUUTOS1
 70
     0
 62
     1
  6
CONTINUOUS
  0
LAYER
  2
MUUTOSTEXT
 70
     0
 62
     5
  6
CONTINUOUS
  0
LAYER
  2
MUUTOS2
 70
     0
 62
     5
  6
CONTINUOUS
  0
LAYER
  2
A2
 70
     0
 62
     7
  6
CONTINUOUS
  0
LAYER
  2
RA2
 70
     0
 62
     5
  6
CONTINUOUS
  0
LAYER
  2
RA4
 70
     0
 62
     1
  6
DASHED
  0
LAYER
  2
L36
 70
     0
 62
     7
  6
CONTINUOUS
  0
LAYER
  2
L37
 70
     0
 62
     1
  6
CONTINUOUS
  0
LAYER
  2
L38
 70
     0
 62
     1
  6
DASHDOT
  0
LAYER
  2
L58
 70
     0
 62
     1
  6
CONTINUOUS
  0
LAYER
  2
A3
 70
     0
 62
     4
  6
CONTINUOUS
  0
LAYER
  2
A4
 70
     0
 62
     1
  6
DASHED
  0
LAYER
  2
A5
 70
     0
 62
     2
  6
CONTINUOUS
  0
LAYER
  2
A6
 70
     0
 62
     8
  6
CONTINUOUS
  0
LAYER
  2
CAM-A1
 70
     0
 62
     7
  6
CONTINUOUS
  0
LAYER
  2
CAM-A2
 70
     0
 62
     1
  6
CONTINUOUS
  0
LAYER
  2
CAM-A3
 70
     0
 62
     1
  6
DASHED
  0
LAYER
  2
CAM-B1
 70
     0
 62
     7
  6
CONTINUOUS
  0
LAYER
  2
CAM-B2
 70
     0
 62
     1
  6
CONTINUOUS
  0
LAYER
  2
CAM-B3
 70
     0
 62
     1
  6
DASHED
  0
LAYER
  2
CAM-C1
 70
     0
 62
     7
  6
CONTINUOUS
  0
LAYER
  2
CAM-C2
 70
     0
 62
     1
  6
CONTINUOUS
  0
LAYER
  2
CAM-C3
 70
     0
 62
     1
  6
DASHED
  0
LAYER
  2
CAM-D1
 70
     0
 62
     7
  6
CONTINUOUS
  0
LAYER
  2
CAM-D2
 70
     0
 62
     1
  6
CONTINUOUS
  0
LAYER
  2
CAM-D3
 70
     0
 62
     1
  6
DASHED
  0
LAYER
  2
CAM-E1
 70
     0
 62
     7
  6
CONTINUOUS
  0
LAYER
  2
CAM-E2
 70
     0
 62
     1
  6
CONTINUOUS
  0
LAYER
  2
CAM-E3
 70
     0
 62
     1
  6
DASHED
  0
LAYER
  2
CAM-F1
 70
     0
 62
     7
  6
CONTINUOUS
  0
LAYER
  2
CAM-F2
 70
     0
 62
     1
  6
CONTINUOUS
  0
LAYER
  2
CAM-F3
 70
     0
 62
     1
  6
DASHED
  0
LAYER
  2
CAM-2
 70
     0
 62
     7
  6
CONTINUOUS
  0
LAYER
  2
12
 70
     0
 62
     1
  6
CONTINUOUS
  0
LAYER
  2
13
 70
     0
 62
     1
  6
CENTER
  0
LAYER
  2
14
 70
     0
 62
     1
  6
DASHED
  0
LAYER
  2
15
 70
     0
 62
     2
  6
DASHED
  0
LAYER
  2
21
 70
     0
 62
     7
  6
CONTINUOUS
  0
LAYER
  2
22
 70
     0
 62
     1
  6
CONTINUOUS
  0
LAYER
  2
23
 70
     0
 62
     1
  6
CENTER
  0
LAYER
  2
24
 70
     0
 62
     1
  6
DASHED
  0
LAYER
  2
25
 70
     0
 62
     2
  6
DASHED
  0
LAYER
  2
31
 70
     0
 62
     7
  6
CONTINUOUS
  0
LAYER
  2
32
 70
     0
 62
     1
  6
CONTINUOUS
  0
LAYER
  2
33
 70
     0
 62
     1
  6
CENTER
  0
LAYER
  2
34
 70
     0
 62
     1
  6
DASHED
  0
LAYER
  2
35
 70
     0
 62
     2
  6
DASHED
  0
LAYER
  2
41
 70
     0
 62
     7
  6
CONTINUOUS
  0
LAYER
  2
42
 70
     0
 62
     1
  6
CONTINUOUS
  0
LAYER
  2
43
 70
     0
 62
     1
  6
CENTER
  0
LAYER
  2
44
 70
     0
 62
     1
  6
DASHED
  0
LAYER
  2
45
 70
     0
 62
     2
  6
DASHED
  0
LAYER
  2
51
 70
     0
 62
     7
  6
CONTINUOUS
  0
LAYER
  2
52
 70
     0
 62
     1
  6
CONTINUOUS
  0
LAYER
  2
53
 70
     0
 62
     1
  6
CENTER
  0
LAYER
  2
54
 70
     0
 62
     1
  6
DASHED
  0
LAYER
  2
55
 70
     0
 62
     2
  6
DASHED
  0
LAYER
  2
61
 70
     0
 62
     7
  6
CONTINUOUS
  0
LAYER
  2
62
 70
     0
 62
     1
  6
CONTINUOUS
  0
LAYER
  2
64
 70
     0
 62
     1
  6
DASHED
  0
LAYER
  2
65
 70
     0
 62
     2
  6
DASHED
  0
ENDTAB
  0
TABLE
  2
STYLE
 70
     8
  0
STYLE
  2
STANDARD
 70
     0
 40
0.0
 41
1.0
 50
0.0
 71
     0
 42
3.5
  3
CAEISO
  4

  0
STYLE
  2
COMPLEX
 70
     0
 40
5.0
 41
1.0
 50
0.0
 71
     0
 42
5.0
  3
ROMANS.SHX
  4

  0
STYLE
  2
SIMPLEX
 70
     0
 40
2.5
 41
0.8
 50
0.0
 71
     0
 42
5.0
  3
SIMPLEX
  4

  0
STYLE
  2
CAEISO
 70
     0
 40
0.0
 41
1.0
 50
0.0
 71
     0
 42
1.0
  3
CAEISO
  4

  0
STYLE
  2
TXT
 70
     0
 40
0.0
 41
1.0
 50
0.0
 71
     0
 42
0.2
  3
TXT
  4

  0
STYLE
  2
USER
 70
     0
 40
0.0
 41
1.0
 50
0.0
 71
     0
 42
0.2
  3
KIRJAIN
  4

  0
STYLE
  2
ITALIC
 70
     0
 40
0.0
 41
1.0
 50
0.0
 71
     0
 42
0.2
  3
ITALIC
  4

  0
STYLE
  2
MONO
 70
     0
 40
0.0
 41
1.0
 50
0.0
 71
     0
 42
9.5
  3
MONOTXT
  4

  0
ENDTAB
  0
TABLE
  2
VIEW
 70
     0
  0
ENDTAB
  0
TABLE
  2
UCS
 70
     0
  0
ENDTAB
  0
TABLE
  2
APPID
 70
     1
  0
APPID
  2
ACAD
 70
     0
  0
ENDTAB
  0
TABLE
  2
DIMSTYLE
 70
     5
  0
DIMSTYLE
  2
ACADUS
 70
     0
  3

  4

  5

  6

  7

 40
1.0
 41
0.18
 42
0.0625
 43
0.38
 44
0.18
 45
0.0
 46
0.0
 47
0.0
 48
0.0
140
0.18
141
0.09
142
0.0
143
25.4
144
1.0
145
0.0
146
1.0
147
0.09
 71
     0
 72
     0
 73
     1
 74
     1
 75
     0
 76
     0
 77
     0
 78
     0
170
     0
171
     2
172
     0
173
     0
174
     0
175
     0
176
     0
177
     0
178
     0
  0
DIMSTYLE
  2
NORDIC
 70
     0
  3

  4

  5

  6

  7

 40
1.0
 41
3.5
 42
1.0
 43
10.0
 44
2.0
 45
0.0
 46
0.0
 47
0.0
 48
0.0
140
3.5
141
2.5
142
0.0
143
25.4
144
1.0
145
0.0
146
1.0
147
2.0
 71
     0
 72
     0
 73
     0
 74
     0
 75
     0
 76
     0
 77
     1
 78
     8
170
     0
171
     2
172
     1
173
     0
174
     0
175
     0
176
     0
177
     0
178
     0
  0
DIMSTYLE
  2
RADIAL
 70
     0
  3

  4

  5

  6

  7

 40
1.0
 41
3.5
 42
1.0
 43
10.0
 44
2.0
 45
0.0
 46
0.0
 47
0.0
 48
0.0
140
3.5
141
2.5
142
0.0
143
25.4
144
1.0
145
0.0
146
1.0
147
2.0
 71
     0
 72
     0
 73
     0
 74
     1
 75
     0
 76
     0
 77
     1
 78
     8
170
     0
171
     2
172
     0
173
     0
174
     0
175
     0
176
     0
177
     0
178
     0
  0
DIMSTYLE
  2
NORTOL
 70
     0
  3

  4

  5

  6

  7

 40
1.0
 41
3.5
 42
1.0
 43
10.0
 44
2.0
 45
0.0
 46
0.0
 47
0.2
 48
0.1
140
3.5
141
2.5
142
0.0
143
25.4
144
1.0
145
0.7
146
0.71
147
2.0
 71
     1
 72
     0
 73
     0
 74
     0
 75
     0
 76
     0
 77
     0
 78
     8
170
     0
171
     2
172
     1
173
     0
174
     0
175
     0
176
     0
177
     0
178
     0
  0
DIMSTYLE
  2
RADTOL
 70
     0
  3

  4

  5

  6

  7

 40
1.0
 41
3.5
 42
1.0
 43
10.0
 44
2.0
 45
0.0
 46
0.0
 47
0.2
 48
0.1
140
3.5
141
2.5
142
0.0
143
25.4
144
1.0
145
0.7
146
0.7
147
2.0
 71
     1
 72
     0
 73
     0
 74
     1
 75
     0
 76
     0
 77
     0
 78
     8
170
     0
171
     2
172
     0
173
     0
174
     0
175
     0
176
     0
177
     0
178
     0
  0
ENDTAB
  0
ENDSEC
  0
SECTION
  2
BLOCKS
  0
BLOCK
  8
0
  2
$MODEL_SPACE
 70
     0
 10
0.0
 20
0.0
 30
0.0
  3
$MODEL_SPACE
  1

  0
ENDBLK
  5
814FC
  8
0
  0
BLOCK
 67
     1
  8
0
  2
$PAPER_SPACE
 70
     0
 10
0.0
 20
0.0
 30
0.0
  3
$PAPER_SPACE
  1

  0
ENDBLK
  5
814FA
 67
     1
  8
0
  0
BLOCK
  8
0
  2
GEOTOL
 70
     0
 10
0.0
 20
0.0
 30
0.0
  3
GEOTOL
  1

  0
ENDBLK
  5
BA53
  8
0
  0
ENDSEC
  0
SECTION
  2
ENTITIES
  0
TEXT
  5
812EC
  8
0
  6
CONTINUOUS
 10
330.035074
 20
372.358918
 30
0.0
 40
2.5
  1
  
 50
21.66214
  0
LINE
  5
812ED
  8
61
 10
923.24588
 20
507.022193
 30
0.0
 11
923.24588
 21
253.022188
 31
0.0
  0
LINE
  5
812EE
  8
61
 10
912.44588
 20
517.822193
 30
0.0
 11
558.44588
 21
517.822193
 31
0.0
  0
LINE
  5
812EF
  8
61
 10
915.613334
 20
495.311624
 30
0.0
 11
915.613334
 21
266.971095
 31
0.0
  0
LINE
  5
812F0
  8
61
 10
900.770445
 20
510.268546
 30
0.0
 11
570.121315
 21
510.268546
 31
0.0
  0
LINE
  5
812F1
  8
53
  6
DASHDOT
 10
305.0
 20
380.022193
 30
0.0
 11
-72.172156
 21
380.022193
 31
0.0
  0
LINE
  5
812F2
  8
52
 10
304.307648
 20
514.992177
 30
0.0
 11
312.969984
 21
506.329842
 31
0.0
  0
ARC
  5
812F3
  8
52
 10
305.0
 20
507.022193
 30
0.0
 40
8.0
 50
277.645696
 51
355.035187
  0
ARC
  5
812F4
  8
52
 10
305.0
 20
507.022193
 30
0.0
 40
8.0
 50
94.964813
 51
172.354304
  0
LINE
  5
812F5
  8
52
 10
297.071122
 20
508.086568
 30
0.0
 11
306.064375
 21
499.093315
 31
0.0
  0
LINE
  5
812F6
  8
51
 10
305.0
 20
517.822193
 30
0.0
 11
-48.999995
 21
517.822193
 31
0.0
  0
LINE
  5
812F7
  8
51
 10
315.8
 20
507.022193
 30
0.0
 11
315.8
 21
380.022193
 31
0.0
  0
ARC
  5
812F8
  8
51
 10
305.0
 20
507.022193
 30
0.0
 40
10.8
 50
293.289549
 51
156.710451
  0
ARC
  5
812F9
  8
51
 10
-49.0
 20
507.022193
 30
0.0
 40
10.8
 50
23.289549
 51
246.710451
  0
LINE
  5
812FA
  8
52
 10
-56.969984
 20
506.329842
 30
0.0
 11
-48.307648
 21
514.992177
 31
0.0
  0
LINE
  5
812FB
  8
52
 10
-50.064375
 20
499.093315
 30
0.0
 11
-41.071122
 21
508.086568
 31
0.0
  0
ARC
  5
812FC
  8
52
 10
-49.0
 20
507.022193
 30
0.0
 40
8.0
 50
7.645696
 51
85.035187
  0
ARC
  5
812FD
  8
52
 10
-49.0
 20
507.022193
 30
0.0
 40
8.0
 50
184.964813
 51
262.354304
  0
LINE
  5
812FE
  8
51
 10
307.8
 20
489.722193
 30
0.0
 11
307.8
 21
380.022193
 31
0.0
  0
LINE
  5
812FF
  8
51
 10
287.7
 20
509.822193
 30
0.0
 11
-31.700009
 21
509.822193
 31
0.0
  0
LINE
  5
81300
  8
52
 10
287.5
 20
511.322193
 30
0.0
 11
-31.5
 21
511.322193
 31
0.0
  0
LINE
  5
81301
  8
52
 10
309.3
 20
489.522193
 30
0.0
 11
309.3
 21
380.022193
 31
0.0
  0
LINE
  5
81302
  8
52
 10
287.5
 20
515.722193
 30
0.0
 11
-31.7
 21
515.722193
 31
0.0
  0
LINE
  5
81303
  8
52
 10
313.7
 20
489.522193
 30
0.0
 11
313.7
 21
380.022193
 31
0.0
  0
ARC
  5
81304
  8
51
 10
305.0
 20
507.022193
 30
0.0
 40
14.5
 50
180.0
 51
270.0
  0
ARC
  5
81305
  8
52
 10
305.0
 20
507.022193
 30
0.0
 40
13.2
 50
180.0
 51
270.0
  0
ARC
  5
81306
  8
52
 10
305.0
 20
507.022193
 30
0.0
 40
8.8
 50
180.0
 51
270.0
  0
ARC
  5
81307
  8
51
 10
287.7
 20
507.022193
 30
0.0
 40
2.8
 50
360.0
 51
90.0
  0
ARC
  5
81308
  8
51
 10
305.0
 20
489.722193
 30
0.0
 40
2.8
 50
0.0
 51
90.0
  0
ARC
  5
81309
  8
52
 10
305.0
 20
489.522193
 30
0.0
 40
4.3
 50
0.0
 51
90.0
  0
ARC
  5
8130A
  8
52
 10
287.5
 20
507.022193
 30
0.0
 40
4.3
 50
360.0
 51
90.0
  0
ARC
  5
8130B
  8
52
 10
305.0
 20
489.522193
 30
0.0
 40
8.7
 50
0.0
 51
90.0
  0
ARC
  5
8130C
  8
52
 10
287.5
 20
507.022193
 30
0.0
 40
8.7
 50
360.0
 51
90.0
  0
ARC
  5
8130D
  8
52
 10
-49.0
 20
489.522193
 30
0.0
 40
8.7
 50
90.0
 51
180.0
  0
ARC
  5
8130E
  8
52
 10
-49.0
 20
507.022193
 30
0.0
 40
8.8
 50
270.0
 51
0.0
  0
ARC
  5
8130F
  8
52
 10
-31.5
 20
507.022193
 30
0.0
 40
8.7
 50
90.0
 51
180.0
  0
ARC
  5
81310
  8
52
 10
-31.5
 20
507.022193
 30
0.0
 40
4.3
 50
90.0
 51
180.0
  0
ARC
  5
81311
  8
51
 10
-49.0
 20
507.022193
 30
0.0
 40
14.5
 50
270.0
 51
0.0
  0
ARC
  5
81312
  8
52
 10
-49.0
 20
507.022193
 30
0.0
 40
13.2
 50
270.0
 51
0.0
  0
ARC
  5
81313
  8
52
 10
-49.0
 20
489.522193
 30
0.0
 40
4.3
 50
90.0
 51
180.0
  0
ARC
  5
81314
  8
51
 10
-49.0
 20
489.722193
 30
0.0
 40
2.8
 50
90.0
 51
180.0
  0
ARC
  5
81315
  8
51
 10
-31.7
 20
507.022193
 30
0.0
 40
2.8
 50
90.0
 51
180.0
  0
LINE
  5
81316
  8
63
  6
DASHDOT
 10
735.44588
 20
233.991887
 30
0.0
 11
735.44588
 21
528.351345
 31
0.0
  0
LINE
  5
81317
  8
61
 10
547.64588
 20
507.022193
 30
0.0
 11
547.64588
 21
253.022193
 31
0.0
  0
LINE
  5
81318
  8
61
 10
555.278426
 20
495.311624
 30
0.0
 11
555.278426
 21
264.732758
 31
0.0
  0
ARC
  5
81319
  8
61
 10
917.613334
 20
264.732762
 30
0.0
 40
2.0
 50
180.0
 51
246.189853
  0
ARC
  5
8131A
  8
61
 10
900.770445
 20
247.77584
 30
0.0
 40
2.0
 50
24.196752
 51
90.0
  0
ARC
  5
8131B
  8
61
 10
898.501469
 20
251.77584
 30
0.0
 40
2.0
 50
270.0
 51
5.107531
  0
ARC
  5
8131C
  8
61
 10
913.613334
 20
266.973432
 30
0.0
 40
2.0
 50
265.216575
 51
360.0
  0
LINE
  5
8131D
  8
61
 10
900.770445
 20
249.77584
 30
0.0
 11
570.121315
 21
249.77584
 31
0.0
  0
LINE
  5
8131E
  8
61
 10
904.517002
 20
251.957818
 30
0.0
 11
913.510255
 21
260.951071
 31
0.0
  0
LINE
  5
8131F
  8
61
 10
911.753528
 20
245.052209
 30
0.0
 11
920.415864
 21
253.714545
 31
0.0
  0
LINE
  5
81320
  8
61
 10
912.44588
 20
242.222193
 30
0.0
 11
558.44588
 21
242.222193
 31
0.0
  0
ARC
  5
81321
  8
61
 10
912.44588
 20
253.022193
 30
0.0
 40
10.8
 50
204.196752
 51
66.189853
  0
ARC
  5
81322
  8
61
 10
912.44588
 20
253.022193
 30
0.0
 40
12.0
 50
85.216575
 51
185.107531
  0
LINE
  5
81323
  8
61
 10
915.613334
 20
264.732762
 30
0.0
 11
915.613334
 21
266.509091
 31
0.0
  0
LINE
  5
81324
  8
53
  6
DASHDOT
 10
128.0
 20
234.97147
 30
0.0
 11
128.0
 21
540.468073
 31
0.0
  0
LINE
  5
81325
  8
53
 10
305.0
 20
380.022193
 30
0.0
 11
334.003633
 21
380.022193
 31
0.0
  0
LINE
  5
81326
  8
53
 10
305.0
 20
380.022193
 30
0.0
 11
334.003633
 21
380.022193
 31
0.0
  0
LINE
  5
81327
  8
52
 10
-48.307648
 20
245.052209
 30
0.0
 11
-56.969984
 21
253.714545
 31
0.0
  0
ARC
  5
81328
  8
52
 10
-49.0
 20
253.022193
 30
0.0
 40
8.0
 50
97.645696
 51
175.035187
  0
ARC
  5
81329
  8
52
 10
-49.0
 20
253.022193
 30
0.0
 40
8.0
 50
274.964813
 51
352.354304
  0
LINE
  5
8132A
  8
52
 10
-41.071122
 20
251.957818
 30
0.0
 11
-50.064375
 21
260.951071
 31
0.0
  0
ARC
  5
8132B
  8
51
 10
-49.0
 20
253.022193
 30
0.0
 40
10.8
 50
113.289549
 51
336.710451
  0
ARC
  5
8132C
  8
51
 10
-49.0
 20
253.022193
 30
0.0
 40
14.5
 50
360.0
 51
90.0
  0
ARC
  5
8132D
  8
52
 10
-49.0
 20
253.022193
 30
0.0
 40
13.2
 50
360.0
 51
90.0
  0
ARC
  5
8132E
  8
52
 10
-49.0
 20
253.022193
 30
0.0
 40
8.8
 50
360.0
 51
90.0
  0
ARC
  5
8132F
  8
51
 10
-31.7
 20
253.022193
 30
0.0
 40
2.8
 50
180.0
 51
270.0
  0
ARC
  5
81330
  8
51
 10
-49.0
 20
270.322193
 30
0.0
 40
2.8
 50
180.0
 51
270.0
  0
ARC
  5
81331
  8
52
 10
-49.0
 20
270.522193
 30
0.0
 40
4.3
 50
180.0
 51
270.0
  0
ARC
  5
81332
  8
52
 10
-31.5
 20
253.022193
 30
0.0
 40
4.3
 50
180.0
 51
270.0
  0
ARC
  5
81333
  8
52
 10
-49.0
 20
270.522193
 30
0.0
 40
8.7
 50
180.0
 51
270.0
  0
ARC
  5
81334
  8
52
 10
-31.5
 20
253.022193
 30
0.0
 40
8.7
 50
180.0
 51
270.0
  0
ARC
  5
81335
  8
52
 10
287.5
 20
253.022193
 30
0.0
 40
8.7
 50
270.0
 51
0.0
  0
ARC
  5
81336
  8
52
 10
305.0
 20
270.522193
 30
0.0
 40
8.7
 50
270.0
 51
0.0
  0
ARC
  5
81337
  8
52
 10
287.5
 20
253.022193
 30
0.0
 40
4.3
 50
270.0
 51
0.0
  0
ARC
  5
81338
  8
52
 10
305.0
 20
270.522193
 30
0.0
 40
4.3
 50
270.0
 51
0.0
  0
ARC
  5
81339
  8
51
 10
305.0
 20
270.322193
 30
0.0
 40
2.8
 50
270.0
 51
0.0
  0
ARC
  5
8133A
  8
51
 10
287.7
 20
253.022193
 30
0.0
 40
2.8
 50
270.0
 51
0.0
  0
ARC
  5
8133B
  8
52
 10
305.0
 20
253.022193
 30
0.0
 40
8.8
 50
90.0
 51
180.0
  0
ARC
  5
8133C
  8
52
 10
305.0
 20
253.022193
 30
0.0
 40
13.2
 50
90.0
 51
180.0
  0
ARC
  5
8133D
  8
51
 10
305.0
 20
253.022193
 30
0.0
 40
14.5
 50
90.0
 51
180.0
  0
LINE
  5
8133E
  8
52
 10
313.7
 20
270.522193
 30
0.0
 11
313.7
 21
380.022193
 31
0.0
  0
LINE
  5
8133F
  8
52
 10
287.5
 20
244.322193
 30
0.0
 11
-31.7
 21
244.322193
 31
0.0
  0
LINE
  5
81340
  8
52
 10
309.3
 20
270.522193
 30
0.0
 11
309.3
 21
380.022193
 31
0.0
  0
LINE
  5
81341
  8
52
 10
287.5
 20
248.722193
 30
0.0
 11
-31.5
 21
248.722193
 31
0.0
  0
LINE
  5
81342
  8
51
 10
287.7
 20
250.222193
 30
0.0
 11
-31.700009
 21
250.222193
 31
0.0
  0
LINE
  5
81343
  8
51
 10
307.8
 20
270.322193
 30
0.0
 11
307.8
 21
380.022193
 31
0.0
  0
ARC
  5
81344
  8
51
 10
305.0
 20
253.022193
 30
0.0
 40
10.8
 50
203.289549
 51
66.710451
  0
LINE
  5
81345
  8
51
 10
315.8
 20
253.022193
 30
0.0
 11
315.8
 21
380.022193
 31
0.0
  0
LINE
  5
81346
  8
51
 10
305.0
 20
242.222193
 30
0.0
 11
-48.999995
 21
242.222193
 31
0.0
  0
LINE
  5
81347
  8
52
 10
297.071122
 20
251.957818
 30
0.0
 11
306.064375
 21
260.951071
 31
0.0
  0
ARC
  5
81348
  8
52
 10
305.0
 20
253.022193
 30
0.0
 40
8.0
 50
187.645696
 51
265.035187
  0
ARC
  5
81349
  8
52
 10
305.0
 20
253.022193
 30
0.0
 40
8.0
 50
4.964813
 51
82.354304
  0
LINE
  5
8134A
  8
52
 10
304.307648
 20
245.052209
 30
0.0
 11
312.969984
 21
253.714545
 31
0.0
  0
LINE
  5
8134B
  8
51
 10
-51.8
 20
489.722193
 30
0.0
 11
-51.8
 21
380.022193
 31
0.0
  0
LINE
  5
8134C
  8
52
 10
-53.295346
 20
489.722193
 30
0.0
 11
-53.295346
 21
270.322193
 31
0.0
  0
LINE
  5
8134D
  8
52
 10
-57.697701
 20
489.722193
 30
0.0
 11
-57.697701
 21
270.322193
 31
0.0
  0
LINE
  5
8134E
  8
51
 10
-59.8
 20
507.022193
 30
0.0
 11
-59.8
 21
253.022193
 31
0.0
  0
CIRCLE
  5
8134F
  8
61
 10
912.44588
 20
253.022193
 30
0.0
 40
8.0
  0
ARC
  5
81350
  8
61
 10
912.44588
 20
253.022193
 30
0.0
 40
10.0
 50
97.519679
 51
172.493404
  0
LINE
  5
81351
  8
61
 10
916.804249
 20
260.26147
 30
0.0
 11
912.71438
 21
262.622756
 31
0.0
  0
LINE
  5
81352
  8
61
 10
905.168127
 20
248.728383
 30
0.0
 11
902.845093
 21
252.751996
 31
0.0
  0
ARC
  5
81353
  8
61
 10
912.44588
 20
253.022193
 30
0.0
 40
8.45
 50
209.459771
 51
58.950175
  0
LINE
  5
81354
  8
61
 10
916.572146
 20
259.875946
 30
0.0
 11
912.624155
 21
262.15532
 31
0.0
  0
LINE
  5
81355
  8
61
 10
905.559942
 20
248.949699
 30
0.0
 11
903.312514
 21
252.842359
 31
0.0
  0
ARC
  5
81356
  8
61
 10
912.44588
 20
253.022193
 30
0.0
 40
9.55
 50
98.743877
 51
171.268945
  0
ARC
  5
81357
  8
61
 10
911.374155
 20
259.990256
 30
0.0
 40
2.5
 50
60.0
 51
98.743877
  0
ARC
  5
81358
  8
61
 10
905.477577
 20
254.092359
 30
0.0
 40
2.5
 50
171.268945
 51
210.0
  0
ARC
  5
81359
  8
61
 10
911.46438
 20
260.457693
 30
0.0
 40
2.5
 50
60.0
 51
97.519679
  0
ARC
  5
8135A
  8
61
 10
905.010156
 20
254.001996
 30
0.0
 40
2.5
 50
172.493404
 51
210.0
  0
ARC
  5
8135B
  8
61
 10
905.010156
 20
506.042391
 30
0.0
 40
2.5
 50
150.0
 51
187.506596
  0
ARC
  5
8135C
  8
61
 10
911.46438
 20
499.586693
 30
0.0
 40
2.5
 50
262.480321
 51
300.0
  0
ARC
  5
8135D
  8
61
 10
905.477577
 20
505.952027
 30
0.0
 40
2.5
 50
150.0
 51
188.731055
  0
ARC
  5
8135E
  8
61
 10
911.374155
 20
500.05413
 30
0.0
 40
2.5
 50
261.256123
 51
300.0
  0
ARC
  5
8135F
  8
61
 10
912.44588
 20
507.022193
 30
0.0
 40
9.55
 50
188.731055
 51
261.256123
  0
LINE
  5
81360
  8
61
 10
905.559942
 20
511.094688
 30
0.0
 11
903.312514
 21
507.202027
 31
0.0
  0
LINE
  5
81361
  8
61
 10
916.572146
 20
500.16844
 30
0.0
 11
912.624155
 21
497.889066
 31
0.0
  0
ARC
  5
81362
  8
61
 10
912.44588
 20
507.022193
 30
0.0
 40
8.45
 50
301.049825
 51
150.540229
  0
LINE
  5
81363
  8
61
 10
905.168127
 20
511.316003
 30
0.0
 11
902.845093
 21
507.292391
 31
0.0
  0
LINE
  5
81364
  8
61
 10
916.804249
 20
499.782917
 30
0.0
 11
912.71438
 21
497.42163
 31
0.0
  0
ARC
  5
81365
  8
61
 10
912.44588
 20
507.022193
 30
0.0
 40
10.0
 50
187.506596
 51
262.480321
  0
CIRCLE
  5
81366
  8
61
 10
912.44588
 20
507.022193
 30
0.0
 40
8.0
  0
LINE
  5
81367
  8
61
 10
915.613334
 20
495.311624
 30
0.0
 11
915.613334
 21
493.535295
 31
0.0
  0
ARC
  5
81368
  8
61
 10
912.44588
 20
507.022193
 30
0.0
 40
12.0
 50
174.892469
 51
274.783425
  0
ARC
  5
81369
  8
61
 10
912.44588
 20
507.022193
 30
0.0
 40
10.8
 50
293.810147
 51
155.803248
  0
LINE
  5
8136A
  8
61
 10
911.753528
 20
514.992177
 30
0.0
 11
920.415864
 21
506.329842
 31
0.0
  0
LINE
  5
8136B
  8
61
 10
904.517002
 20
508.086568
 30
0.0
 11
913.510255
 21
499.093315
 31
0.0
  0
ARC
  5
8136C
  8
61
 10
913.613334
 20
493.070955
 30
0.0
 40
2.0
 50
0.0
 51
94.783425
  0
ARC
  5
8136D
  8
61
 10
898.501469
 20
508.268546
 30
0.0
 40
2.0
 50
354.892469
 51
90.0
  0
ARC
  5
8136E
  8
61
 10
900.770445
 20
512.268546
 30
0.0
 40
2.0
 50
270.0
 51
335.803248
  0
ARC
  5
8136F
  8
61
 10
917.613334
 20
495.311624
 30
0.0
 40
2.0
 50
113.810147
 51
180.0
  0
ARC
  5
81370
  8
61
 10
553.278426
 20
495.311624
 30
0.0
 40
2.0
 50
0.0
 51
66.189853
  0
ARC
  5
81371
  8
61
 10
570.121315
 20
512.268546
 30
0.0
 40
2.0
 50
204.196752
 51
270.0
  0
ARC
  5
81372
  8
61
 10
572.390291
 20
508.268546
 30
0.0
 40
2.0
 50
90.0
 51
185.107531
  0
ARC
  5
81373
  8
61
 10
557.278426
 20
493.070955
 30
0.0
 40
2.0
 50
85.216575
 51
180.0
  0
LINE
  5
81374
  8
61
 10
566.374758
 20
508.086568
 30
0.0
 11
557.381505
 21
499.093315
 31
0.0
  0
LINE
  5
81375
  8
61
 10
559.138232
 20
514.992177
 30
0.0
 11
550.475896
 21
506.329842
 31
0.0
  0
ARC
  5
81376
  8
61
 10
558.44588
 20
507.022193
 30
0.0
 40
10.8
 50
24.196752
 51
246.189853
  0
ARC
  5
81377
  8
61
 10
558.44588
 20
507.022193
 30
0.0
 40
12.0
 50
265.216575
 51
5.107531
  0
LINE
  5
81378
  8
61
 10
555.278426
 20
495.311624
 30
0.0
 11
555.278426
 21
493.535295
 31
0.0
  0
CIRCLE
  5
81379
  8
61
 10
558.44588
 20
507.022193
 30
0.0
 40
8.0
  0
ARC
  5
8137A
  8
61
 10
558.44588
 20
507.022193
 30
0.0
 40
10.0
 50
277.519679
 51
352.493404
  0
LINE
  5
8137B
  8
61
 10
554.087511
 20
499.782917
 30
0.0
 11
558.17738
 21
497.42163
 31
0.0
  0
LINE
  5
8137C
  8
61
 10
565.723633
 20
511.316003
 30
0.0
 11
568.046667
 21
507.292391
 31
0.0
  0
ARC
  5
8137D
  8
61
 10
558.44588
 20
507.022193
 30
0.0
 40
8.45
 50
29.459771
 51
238.950175
  0
LINE
  5
8137E
  8
61
 10
554.319614
 20
500.16844
 30
0.0
 11
558.267605
 21
497.889066
 31
0.0
  0
LINE
  5
8137F
  8
61
 10
565.331818
 20
511.094688
 30
0.0
 11
567.579246
 21
507.202027
 31
0.0
  0
ARC
  5
81380
  8
61
 10
558.44588
 20
507.022193
 30
0.0
 40
9.55
 50
278.743877
 51
351.268945
  0
ARC
  5
81381
  8
61
 10
559.517605
 20
500.05413
 30
0.0
 40
2.5
 50
240.0
 51
278.743877
  0
ARC
  5
81382
  8
61
 10
565.414183
 20
505.952027
 30
0.0
 40
2.5
 50
351.268945
 51
30.0
  0
ARC
  5
81383
  8
61
 10
559.42738
 20
499.586693
 30
0.0
 40
2.5
 50
240.0
 51
277.519679
  0
ARC
  5
81384
  8
61
 10
565.881604
 20
506.042391
 30
0.0
 40
2.5
 50
352.493404
 51
30.0
  0
ARC
  5
81385
  8
61
 10
565.881604
 20
254.001996
 30
0.0
 40
2.5
 50
330.0
 51
7.506596
  0
ARC
  5
81386
  8
61
 10
559.42738
 20
260.457693
 30
0.0
 40
2.5
 50
82.480321
 51
120.0
  0
ARC
  5
81387
  8
61
 10
565.414183
 20
254.092359
 30
0.0
 40
2.5
 50
330.0
 51
8.731055
  0
ARC
  5
81388
  8
61
 10
559.517605
 20
259.990256
 30
0.0
 40
2.5
 50
81.256123
 51
120.0
  0
ARC
  5
81389
  8
61
 10
558.44588
 20
253.022193
 30
0.0
 40
9.55
 50
8.731055
 51
81.256123
  0
LINE
  5
8138A
  8
61
 10
565.331818
 20
248.949699
 30
0.0
 11
567.579246
 21
252.842359
 31
0.0
  0
LINE
  5
8138B
  8
61
 10
554.319614
 20
259.875946
 30
0.0
 11
558.267605
 21
262.15532
 31
0.0
  0
ARC
  5
8138C
  8
61
 10
558.44588
 20
253.022193
 30
0.0
 40
8.45
 50
121.049825
 51
330.540229
  0
LINE
  5
8138D
  8
61
 10
565.723633
 20
248.728383
 30
0.0
 11
568.046667
 21
252.751996
 31
0.0
  0
LINE
  5
8138E
  8
61
 10
554.087511
 20
260.26147
 30
0.0
 11
558.17738
 21
262.622756
 31
0.0
  0
ARC
  5
8138F
  8
61
 10
558.44588
 20
253.022193
 30
0.0
 40
10.0
 50
7.506596
 51
82.480321
  0
CIRCLE
  5
81390
  8
61
 10
558.44588
 20
253.022193
 30
0.0
 40
8.0
  0
LINE
  5
81391
  8
61
 10
555.278426
 20
264.732762
 30
0.0
 11
555.278426
 21
266.509091
 31
0.0
  0
ARC
  5
81392
  8
61
 10
558.44588
 20
253.022193
 30
0.0
 40
12.0
 50
354.892469
 51
94.783425
  0
ARC
  5
81393
  8
61
 10
558.44588
 20
253.022193
 30
0.0
 40
10.8
 50
113.810147
 51
335.803248
  0
LINE
  5
81394
  8
61
 10
559.138232
 20
245.052209
 30
0.0
 11
550.475896
 21
253.714545
 31
0.0
  0
LINE
  5
81395
  8
61
 10
566.374758
 20
251.957818
 30
0.0
 11
557.381505
 21
260.951071
 31
0.0
  0
ARC
  5
81396
  8
61
 10
557.278426
 20
266.973432
 30
0.0
 40
2.0
 50
180.0
 51
274.783425
  0
ARC
  5
81397
  8
61
 10
572.390291
 20
251.77584
 30
0.0
 40
2.0
 50
174.892469
 51
270.0
  0
ARC
  5
81398
  8
61
 10
570.121315
 20
247.77584
 30
0.0
 40
2.0
 50
90.0
 51
155.803248
  0
ARC
  5
81399
  8
61
 10
553.278426
 20
264.732762
 30
0.0
 40
2.0
 50
293.810147
 51
360.0
  0
ARC
  5
8139A
  8
51
 10
-558.327278
 20
452.386648
 30
0.0
 40
507.032791
 50
5.059524
 51
5.059524
  0
LINE
  5
8139B
  8
51
 10
-51.8
 20
380.022193
 30
0.0
 11
-51.8
 21
270.322193
 31
0.0
  0
LINE
  5
8139C
  8
63
 10
539.976098
 20
380.022193
 30
0.0
 11
937.67462
 21
380.022193
 31
0.0
  0
TEXT
  5
8139D
  8
0
  6
CONTINUOUS
 10
351.035074
 20
974.358918
 30
0.0
 40
2.5
  1
  
 50
21.66214
  0
TEXT
  5
8139E
  8
0
  6
CONTINUOUS
 10
595.035074
 20
986.358918
 30
0.0
 40
2.5
  1
  
 50
21.66214
  0
TEXT
  5
813A0
  8
0
  6
CONTINUOUS
 10
412.035074
 20
959.358918
 30
0.0
 40
2.5
  1
  
 50
21.66214
  0
TEXT
  5
813A1
  8
0
  6
CONTINUOUS
 10
433.035074
 20
1561.358918
 30
0.0
 40
2.5
  1
  
 50
21.66214
  0
TEXT
  5
813A2
  8
0
  6
CONTINUOUS
 10
677.035074
 20
1573.358918
 30
0.0
 40
2.5
  1
  
 50
21.66214
  0
TEXT
  5
813A3
  8
0
  6
CONTINUOUS
 10
405.295817
 20
1570.470837
 30
0.0
 40
2.5
  1
  
 50
21.66214
  0
INSERT
  5
813A4
  8
L32
  2
GEOTOL
 10
544.289574
 20
1296.889725
 30
0.0
  0
INSERT
  5
813A5
  8
L32
  2
GEOTOL
 10
75.260742
 20
1198.111918
 30
0.0
  0
LINE
  5
813A6
  8
44
 10
479.919435
 20
492.476592
 30
0.0
 11
405.919435
 21
492.476592
 31
0.0
  0
LINE
  5
813A7
  8
44
 10
402.919435
 20
380.022193
 30
0.0
 11
402.919435
 21
489.476592
 31
0.0
  0
LINE
  5
813A8
  8
44
 10
402.919435
 20
380.022193
 30
0.0
 11
402.919435
 21
270.422628
 31
0.0
  0
ARC
  5
813A9
  8
44
 10
405.91592
 20
270.567792
 30
0.0
 40
3.0
 50
177.226485
 51
270.067002
  0
LINE
  5
813AA
  8
44
 10
479.919435
 20
267.567794
 30
0.0
 11
405.919429
 21
267.567794
 31
0.0
  0
ARC
  5
813AB
  8
41
 10
451.180662
 20
507.435899
 30
0.0
 40
22.256656
 50
329.582163
 51
357.702934
  0
LINE
  5
813AC
  8
41
 10
405.122036
 20
496.293445
 30
0.0
 11
470.373826
 21
496.167304
 31
0.0
  0
ARC
  5
813AD
  8
41
 10
405.622036
 20
490.314271
 30
0.0
 40
6.0
 50
95.0
 51
180.0
  0
LINE
  5
813AE
  8
41
 10
405.122036
 20
496.293445
 30
0.0
 11
405.099102
 21
496.291439
 31
0.0
  0
LINE
  5
813AF
  8
41
 10
480.419435
 20
498.297194
 30
0.0
 11
479.919435
 21
498.297194
 31
0.0
  0
LINE
  5
813B0
  8
41
 10
405.122036
 20
512.228232
 30
0.0
 11
405.099102
 21
512.226225
 31
0.0
  0
LINE
  5
813B1
  8
41
 10
473.3521
 20
517.903625
 30
0.0
 11
405.122036
 21
517.599336
 31
0.0
  0
LINE
  5
813B2
  8
41
 10
479.919435
 20
497.187492
 30
0.0
 11
479.919435
 21
496.289268
 31
0.0
  0
LINE
  5
813B3
  8
41
 10
480.419435
 20
497.187492
 30
0.0
 11
480.419435
 21
518.026986
 31
0.0
  0
LINE
  5
813B4
  8
41
 10
480.419435
 20
518.026986
 30
0.0
 11
479.919435
 21
518.018258
 31
0.0
  0
LINE
  5
813B5
  8
41
 10
405.122036
 20
496.293445
 30
0.0
 11
405.122036
 21
517.599336
 31
0.0
  0
LINE
  5
813B6
  8
41
 10
480.419435
 20
497.187492
 30
0.0
 11
479.919435
 21
497.187492
 31
0.0
  0
LINE
  5
813B7
  8
41
 10
474.595482
 20
517.925328
 30
0.0
 11
473.3521
 21
517.903625
 31
0.0
  0
LINE
  5
813B8
  8
41
 10
479.919435
 20
507.217626
 30
0.0
 11
479.919435
 21
497.187492
 31
0.0
  0
LINE
  5
813B9
  8
41
 10
479.919435
 20
518.018258
 30
0.0
 11
474.593196
 21
517.925288
 31
0.0
  0
LINE
  5
813BA
  8
41
 10
399.622036
 20
496.289268
 30
0.0
 11
399.622036
 21
504.683291
 31
0.0
  0
ARC
  5
813BB
  8
41
 10
405.735236
 20
503.877251
 30
0.0
 40
6.16611
 50
95.921525
 51
172.48874
  0
LINE
  5
813BC
  8
41
 10
480.419435
 20
242.018033
 30
0.0
 11
480.419435
 21
262.857527
 31
0.0
  0
LINE
  5
813BD
  8
41
 10
405.122036
 20
242.445682
 30
0.0
 11
405.122036
 21
264.861275
 31
0.0
  0
LINE
  5
813BE
  8
41
 10
480.419435
 20
242.018033
 30
0.0
 11
405.122036
 21
242.445682
 31
0.0
  0
LINE
  5
813BF
  8
41
 10
405.122036
 20
248.926489
 30
0.0
 11
405.099102
 21
248.928495
 31
0.0
  0
ARC
  5
813C0
  8
41
 10
405.622036
 20
254.905663
 30
0.0
 40
6.0
 50
180.0
 51
265.0
  0
LINE
  5
813C1
  8
41
 10
480.419435
 20
262.857527
 30
0.0
 11
479.919435
 21
262.857527
 31
0.0
  0
LINE
  5
813C2
  8
41
 10
405.122036
 20
264.861275
 30
0.0
 11
405.099102
 21
264.863281
 31
0.0
  0
ARC
  5
813C3
  8
41
 10
405.622036
 20
270.84045
 30
0.0
 40
6.0
 50
180.0
 51
265.0
  0
LINE
  5
813C4
  8
41
 10
405.122036
 20
264.861275
 30
0.0
 11
470.373826
 21
264.987416
 31
0.0
  0
ARC
  5
813C5
  8
41
 10
451.180662
 20
253.718821
 30
0.0
 40
22.256656
 50
2.297066
 51
30.417837
  0
LINE
  5
813C6
  8
42
 10
405.600753
 20
496.289268
 30
0.0
 11
405.600753
 21
264.865453
 31
0.0
  0
LINE
  5
813C7
  8
42
 10
470.373826
 20
264.987416
 30
0.0
 11
470.373826
 21
496.289268
 31
0.0
  0
LINE
  5
813C8
  8
41
 10
473.419435
 20
507.217626
 30
0.0
 11
473.419435
 21
254.610882
 31
0.0
  0
LINE
  5
813C9
  8
41
 10
479.919435
 20
496.289268
 30
0.0
 11
479.919435
 21
252.826761
 31
0.0
  0
LINE
  5
813CA
  8
41
 10
399.622036
 20
496.289268
 30
0.0
 11
399.622036
 21
254.905663
 31
0.0
  0
LINE
  5
813CB
  8
43
  6
DASHDOT
 10
487.423687
 20
380.022193
 30
0.0
 11
391.001484
 21
380.022193
 31
0.0
  0
LINE
  5
813CC
  8
14
 10
897.900279
 20
160.963821
 30
0.0
 11
897.900279
 21
86.963821
 31
0.0
  0
LINE
  5
813CD
  8
14
 10
735.44588
 20
83.963821
 30
0.0
 11
894.900279
 21
83.963821
 31
0.0
  0
LINE
  5
813CE
  8
14
 10
735.44588
 20
83.963821
 30
0.0
 11
575.846315
 21
83.963821
 31
0.0
  0
ARC
  5
813CF
  8
14
 10
575.991479
 20
86.960307
 30
0.0
 40
3.0
 50
179.932998
 51
272.773515
  0
LINE
  5
813D0
  8
14
 10
572.991481
 20
160.963821
 30
0.0
 11
572.991481
 21
86.963815
 31
0.0
  0
ARC
  5
813D1
  8
11
 10
912.859586
 20
132.225049
 30
0.0
 40
22.256656
 50
92.297066
 51
120.417837
  0
LINE
  5
813D2
  8
11
 10
901.717132
 20
86.166423
 30
0.0
 11
901.590991
 21
151.418212
 31
0.0
  0
ARC
  5
813D3
  8
11
 10
895.737958
 20
86.666423
 30
0.0
 40
6.0
 50
270.0
 51
355.0
  0
LINE
  5
813D4
  8
11
 10
901.717132
 20
86.166423
 30
0.0
 11
901.715126
 21
86.143488
 31
0.0
  0
LINE
  5
813D5
  8
11
 10
903.72088
 20
161.463821
 30
0.0
 11
903.72088
 21
160.963821
 31
0.0
  0
LINE
  5
813D6
  8
11
 10
917.651919
 20
86.166423
 30
0.0
 11
917.649912
 21
86.143488
 31
0.0
  0
LINE
  5
813D7
  8
11
 10
923.327312
 20
154.396486
 30
0.0
 11
923.023023
 21
86.166423
 31
0.0
  0
LINE
  5
813D8
  8
11
 10
902.611179
 20
160.963821
 30
0.0
 11
901.712955
 21
160.963821
 31
0.0
  0
LINE
  5
813D9
  8
11
 10
902.611179
 20
161.463821
 30
0.0
 11
923.450672
 21
161.463821
 31
0.0
  0
LINE
  5
813DA
  8
11
 10
923.450672
 20
161.463821
 30
0.0
 11
923.441945
 21
160.963821
 31
0.0
  0
LINE
  5
813DB
  8
11
 10
901.717132
 20
86.166423
 30
0.0
 11
923.023023
 21
86.166423
 31
0.0
  0
LINE
  5
813DC
  8
11
 10
902.611179
 20
161.463821
 30
0.0
 11
902.611179
 21
160.963821
 31
0.0
  0
LINE
  5
813DD
  8
11
 10
923.349015
 20
155.639869
 30
0.0
 11
923.327312
 21
154.396486
 31
0.0
  0
LINE
  5
813DE
  8
11
 10
912.641312
 20
160.963821
 30
0.0
 11
902.611179
 21
160.963821
 31
0.0
  0
LINE
  5
813DF
  8
11
 10
923.441945
 20
160.963821
 30
0.0
 11
923.348975
 21
155.637582
 31
0.0
  0
LINE
  5
813E0
  8
11
 10
901.712955
 20
80.666423
 30
0.0
 11
910.106978
 21
80.666423
 31
0.0
  0
ARC
  5
813E1
  8
11
 10
909.300938
 20
86.779623
 30
0.0
 40
6.16611
 50
277.51126
 51
354.078475
  0
LINE
  5
813E2
  8
11
 10
547.44172
 20
161.463821
 30
0.0
 11
568.281214
 21
161.463821
 31
0.0
  0
LINE
  5
813E3
  8
11
 10
547.869369
 20
86.166423
 30
0.0
 11
570.284962
 21
86.166423
 31
0.0
  0
LINE
  5
813E4
  8
11
 10
547.44172
 20
161.463821
 30
0.0
 11
547.869369
 21
86.166423
 31
0.0
  0
LINE
  5
813E5
  8
11
 10
554.350175
 20
86.166423
 30
0.0
 11
554.352182
 21
86.143488
 31
0.0
  0
ARC
  5
813E6
  8
11
 10
560.32935
 20
86.666423
 30
0.0
 40
6.0
 50
185.0
 51
270.0
  0
LINE
  5
813E7
  8
11
 10
568.281214
 20
161.463821
 30
0.0
 11
568.281214
 21
160.963821
 31
0.0
  0
LINE
  5
813E8
  8
11
 10
570.284962
 20
86.166423
 30
0.0
 11
570.286968
 21
86.143488
 31
0.0
  0
ARC
  5
813E9
  8
11
 10
576.264136
 20
86.666423
 30
0.0
 40
6.0
 50
185.0
 51
270.0
  0
LINE
  5
813EA
  8
11
 10
570.284962
 20
86.166423
 30
0.0
 11
570.411103
 21
151.418212
 31
0.0
  0
ARC
  5
813EB
  8
11
 10
559.142508
 20
132.225049
 30
0.0
 40
22.256656
 50
59.582163
 51
87.702934
  0
LINE
  5
813EC
  8
12
 10
901.712955
 20
86.645139
 30
0.0
 11
570.289139
 21
86.645139
 31
0.0
  0
LINE
  5
813ED
  8
12
 10
570.411103
 20
151.418212
 30
0.0
 11
901.712955
 21
151.418212
 31
0.0
  0
LINE
  5
813EE
  8
11
 10
912.641312
 20
154.463821
 30
0.0
 11
560.034569
 21
154.463821
 31
0.0
  0
LINE
  5
813EF
  8
11
 10
901.712955
 20
160.963821
 30
0.0
 11
558.250448
 21
160.963821
 31
0.0
  0
LINE
  5
813F0
  8
11
 10
901.712955
 20
80.666423
 30
0.0
 11
560.32935
 21
80.666423
 31
0.0
  0
LINE
  5
813F1
  8
13
  6
DASHDOT
 10
735.44588
 20
168.468073
 30
0.0
 11
735.44588
 21
72.04587
 31
0.0
  0
LINE
  5
813F2
  8
33
  6
DASHDOT
 10
983.468073
 20
380.022193
 30
0.0
 11
1079.890276
 21
380.022193
 31
0.0
  0
LINE
  5
813F3
  8
31
 10
1071.269723
 20
496.289268
 30
0.0
 11
1071.269723
 21
254.905663
 31
0.0
  0
LINE
  5
813F4
  8
31
 10
990.972325
 20
496.289268
 30
0.0
 11
990.972325
 21
252.826761
 31
0.0
  0
LINE
  5
813F5
  8
31
 10
997.472325
 20
507.217626
 30
0.0
 11
997.472325
 21
254.610882
 31
0.0
  0
LINE
  5
813F6
  8
32
 10
1000.517934
 20
264.987416
 30
0.0
 11
1000.517934
 21
496.289268
 31
0.0
  0
LINE
  5
813F7
  8
32
 10
1065.291007
 20
496.289268
 30
0.0
 11
1065.291007
 21
264.865453
 31
0.0
  0
ARC
  5
813F8
  8
31
 10
1019.711097
 20
253.718821
 30
0.0
 40
22.256656
 50
149.582163
 51
177.702934
  0
LINE
  5
813F9
  8
31
 10
1065.769723
 20
264.861275
 30
0.0
 11
1000.517934
 21
264.987416
 31
0.0
  0
ARC
  5
813FA
  8
31
 10
1065.269723
 20
270.84045
 30
0.0
 40
6.0
 50
275.0
 51
0.0
  0
LINE
  5
813FB
  8
31
 10
1065.769723
 20
264.861275
 30
0.0
 11
1065.792658
 21
264.863281
 31
0.0
  0
LINE
  5
813FC
  8
31
 10
990.472325
 20
262.857527
 30
0.0
 11
990.972325
 21
262.857527
 31
0.0
  0
ARC
  5
813FD
  8
31
 10
1065.269723
 20
254.905663
 30
0.0
 40
6.0
 50
275.0
 51
0.0
  0
LINE
  5
813FE
  8
31
 10
1065.769723
 20
248.926489
 30
0.0
 11
1065.792658
 21
248.928495
 31
0.0
  0
LINE
  5
813FF
  8
31
 10
990.472325
 20
242.018033
 30
0.0
 11
1065.769723
 21
242.445682
 31
0.0
  0
LINE
  5
81400
  8
31
 10
1065.769723
 20
242.445682
 30
0.0
 11
1065.769723
 21
264.861275
 31
0.0
  0
LINE
  5
81401
  8
31
 10
990.472325
 20
242.018033
 30
0.0
 11
990.472325
 21
262.857527
 31
0.0
  0
ARC
  5
81402
  8
31
 10
1065.156524
 20
503.877251
 30
0.0
 40
6.16611
 50
7.51126
 51
84.078475
  0
LINE
  5
81403
  8
31
 10
1071.269723
 20
496.289268
 30
0.0
 11
1071.269723
 21
504.683291
 31
0.0
  0
LINE
  5
81404
  8
31
 10
990.972325
 20
518.018258
 30
0.0
 11
996.298564
 21
517.925288
 31
0.0
  0
LINE
  5
81405
  8
31
 10
990.972325
 20
507.217626
 30
0.0
 11
990.972325
 21
497.187492
 31
0.0
  0
LINE
  5
81406
  8
31
 10
996.296278
 20
517.925328
 30
0.0
 11
997.53966
 21
517.903625
 31
0.0
  0
LINE
  5
81407
  8
31
 10
990.472325
 20
497.187492
 30
0.0
 11
990.972325
 21
497.187492
 31
0.0
  0
LINE
  5
81408
  8
31
 10
1065.769723
 20
496.293445
 30
0.0
 11
1065.769723
 21
517.599336
 31
0.0
  0
LINE
  5
81409
  8
31
 10
990.472325
 20
518.026986
 30
0.0
 11
990.972325
 21
518.018258
 31
0.0
  0
LINE
  5
8140A
  8
31
 10
990.472325
 20
497.187492
 30
0.0
 11
990.472325
 21
518.026986
 31
0.0
  0
LINE
  5
8140B
  8
31
 10
990.972325
 20
497.187492
 30
0.0
 11
990.972325
 21
496.289268
 31
0.0
  0
LINE
  5
8140C
  8
31
 10
997.53966
 20
517.903625
 30
0.0
 11
1065.769723
 21
517.599336
 31
0.0
  0
LINE
  5
8140D
  8
31
 10
1065.769723
 20
512.228232
 30
0.0
 11
1065.792658
 21
512.226225
 31
0.0
  0
LINE
  5
8140E
  8
31
 10
990.472325
 20
498.297194
 30
0.0
 11
990.972325
 21
498.297194
 31
0.0
  0
LINE
  5
8140F
  8
31
 10
1065.769723
 20
496.293445
 30
0.0
 11
1065.792658
 21
496.291439
 31
0.0
  0
ARC
  5
81410
  8
31
 10
1065.269723
 20
490.314271
 30
0.0
 40
6.0
 50
0.0
 51
85.0
  0
LINE
  5
81411
  8
31
 10
1065.769723
 20
496.293445
 30
0.0
 11
1000.517934
 21
496.167304
 31
0.0
  0
ARC
  5
81412
  8
31
 10
1019.711097
 20
507.435899
 30
0.0
 40
22.256656
 50
182.297066
 51
210.417837
  0
LINE
  5
81413
  8
34
 10
990.972325
 20
267.567794
 30
0.0
 11
1064.972331
 21
267.567794
 31
0.0
  0
ARC
  5
81414
  8
34
 10
1064.97584
 20
270.567792
 30
0.0
 40
3.0
 50
269.932998
 51
2.773515
  0
LINE
  5
81415
  8
34
 10
1067.972325
 20
380.022193
 30
0.0
 11
1067.972325
 21
270.422628
 31
0.0
  0
LINE
  5
81416
  8
34
 10
1067.972325
 20
380.022193
 30
0.0
 11
1067.972325
 21
489.476592
 31
0.0
  0
LINE
  5
81417
  8
34
 10
990.972325
 20
492.476592
 30
0.0
 11
1064.972325
 21
492.476592
 31
0.0
  0
LINE
  5
81418
  8
21
 10
901.712955
 20
599.080565
 30
0.0
 11
558.250448
 21
599.080565
 31
0.0
  0
LINE
  5
81419
  8
21
 10
912.641312
 20
605.580565
 30
0.0
 11
560.034569
 21
605.580565
 31
0.0
  0
LINE
  5
8141A
  8
22
 10
570.411103
 20
608.626174
 30
0.0
 11
901.712955
 21
608.626174
 31
0.0
  0
LINE
  5
8141B
  8
22
 10
901.712955
 20
673.399247
 30
0.0
 11
570.289139
 21
673.399247
 31
0.0
  0
ARC
  5
8141C
  8
21
 10
559.142508
 20
627.819338
 30
0.0
 40
22.256656
 50
272.297066
 51
300.417837
  0
LINE
  5
8141D
  8
21
 10
570.284962
 20
673.877964
 30
0.0
 11
570.411103
 21
608.626174
 31
0.0
  0
LINE
  5
8141E
  8
21
 10
570.284962
 20
673.877964
 30
0.0
 11
570.286968
 21
673.900898
 31
0.0
  0
LINE
  5
8141F
  8
21
 10
568.281214
 20
598.580565
 30
0.0
 11
568.281214
 21
599.080565
 31
0.0
  0
LINE
  5
81420
  8
21
 10
554.350175
 20
673.877964
 30
0.0
 11
554.352182
 21
673.900898
 31
0.0
  0
LINE
  5
81421
  8
21
 10
547.44172
 20
598.580565
 30
0.0
 11
547.869369
 21
673.877964
 31
0.0
  0
LINE
  5
81422
  8
21
 10
547.869369
 20
673.877964
 30
0.0
 11
570.284962
 21
673.877964
 31
0.0
  0
LINE
  5
81423
  8
21
 10
547.44172
 20
598.580565
 30
0.0
 11
568.281214
 21
598.580565
 31
0.0
  0
LINE
  5
81424
  8
21
 10
923.441945
 20
599.080565
 30
0.0
 11
923.348975
 21
604.406804
 31
0.0
  0
LINE
  5
81425
  8
21
 10
912.641312
 20
599.080565
 30
0.0
 11
902.611179
 21
599.080565
 31
0.0
  0
LINE
  5
81426
  8
21
 10
923.349015
 20
604.404518
 30
0.0
 11
923.327312
 21
605.6479
 31
0.0
  0
LINE
  5
81427
  8
21
 10
902.611179
 20
598.580565
 30
0.0
 11
902.611179
 21
599.080565
 31
0.0
  0
LINE
  5
81428
  8
21
 10
901.717132
 20
673.877964
 30
0.0
 11
923.023023
 21
673.877964
 31
0.0
  0
LINE
  5
81429
  8
21
 10
923.450672
 20
598.580565
 30
0.0
 11
923.441945
 21
599.080565
 31
0.0
  0
LINE
  5
8142A
  8
21
 10
902.611179
 20
598.580565
 30
0.0
 11
923.450672
 21
598.580565
 31
0.0
  0
LINE
  5
8142B
  8
21
 10
902.611179
 20
599.080565
 30
0.0
 11
901.712955
 21
599.080565
 31
0.0
  0
LINE
  5
8142C
  8
21
 10
923.327312
 20
605.6479
 30
0.0
 11
923.023023
 21
673.877964
 31
0.0
  0
LINE
  5
8142D
  8
21
 10
917.651919
 20
673.877964
 30
0.0
 11
917.649912
 21
673.900898
 31
0.0
  0
LINE
  5
8142E
  8
21
 10
903.72088
 20
598.580565
 30
0.0
 11
903.72088
 21
599.080565
 31
0.0
  0
LINE
  5
8142F
  8
21
 10
901.717132
 20
673.877964
 30
0.0
 11
901.715126
 21
673.900898
 31
0.0
  0
LINE
  5
81430
  8
21
 10
901.717132
 20
673.877964
 30
0.0
 11
901.590991
 21
608.626174
 31
0.0
  0
ARC
  5
81431
  8
21
 10
912.859586
 20
627.819338
 30
0.0
 40
22.256656
 50
239.582163
 51
267.702934
  0
LINE
  5
81432
  8
24
 10
572.991481
 20
599.080565
 30
0.0
 11
572.991481
 21
673.080571
 31
0.0
  0
LINE
  5
81433
  8
24
 10
897.900279
 20
599.080565
 30
0.0
 11
897.900279
 21
673.080565
 31
0.0
  0
LINE
  5
81434
  8
23
  6
DASHDOT
 10
735.44588
 20
591.576313
 30
0.0
 11
735.44588
 21
687.998516
 31
0.0
  0
LINE
  5
81435
  8
21
 10
901.712955
 20
679.377964
 30
0.0
 11
560.32935
 21
679.377964
 31
0.0
  0
ARC
  5
81436
  8
21
 10
576.264136
 20
673.377964
 30
0.0
 40
6.0
 50
90.0
 51
175.0
  0
ARC
  5
81437
  8
21
 10
560.32935
 20
673.377964
 30
0.0
 40
6.0
 50
90.0
 51
175.0
  0
ARC
  5
81438
  8
21
 10
909.300938
 20
673.264764
 30
0.0
 40
6.16611
 50
5.921525
 51
82.48874
  0
LINE
  5
81439
  8
21
 10
901.712955
 20
679.377964
 30
0.0
 11
910.106978
 21
679.377964
 31
0.0
  0
ARC
  5
8143A
  8
21
 10
895.737958
 20
673.377964
 30
0.0
 40
6.0
 50
5.0
 51
90.0
  0
ARC
  5
8143B
  8
24
 10
575.991479
 20
673.08408
 30
0.0
 40
3.0
 50
87.226485
 51
180.067002
  0
LINE
  5
8143C
  8
24
 10
735.44588
 20
676.080565
 30
0.0
 11
575.846315
 21
676.080565
 31
0.0
  0
LINE
  5
8143D
  8
24
 10
735.44588
 20
676.080565
 30
0.0
 11
894.900279
 21
676.080565
 31
0.0
  0
TEXT
  5
8143E
  8
L20
 10
93.0
 20
574.0
 30
0.0
 40
10.0
  1
FIBOX EK-P 80 COVER
  0
ARC
  5
8143F
  8
44
 10
405.919435
 20
489.476592
 30
0.0
 40
3.0
 50
90.0
 51
180.0
  0
ARC
  5
81440
  8
34
 10
1064.972325
 20
489.476592
 30
0.0
 40
3.0
 50
0.0
 51
90.0
  0
ARC
  5
81441
  8
24
 10
894.900279
 20
673.080565
 30
0.0
 40
3.0
 50
0.0
 51
90.0
  0
ARC
  5
81442
  8
14
 10
894.900279
 20
86.963821
 30
0.0
 40
3.0
 50
270.0
 51
0.0
  0
VIEWPORT
  5
1
 67
     1
  8
0
 10
210.0
 20
152.094241
 30
0.0
 40
420.0
 41
304.188482
 68
    -1
 69
     1
1001
ACAD
1000
MVIEW
1002
{
1070
    16
1010
0.0
1020
0.0
1030
0.0
1010
0.0
1020
0.0
1030
1.0
1040
0.0
1040
304.188482
1040
210.0
1040
152.094241
1040
50.0
1040
0.0
1040
0.0
1070
     0
1070
   100
1070
     1
1070
     1
1070
     1
1070
     0
1070
     0
1070
     0
1040
0.0
1040
0.0
1040
0.0
1040
1.0
1040
1.0
1040
0.0
1040
0.0
1070
     0
1002
{
1002
}
1002
}
  0
ENDSEC
  0
EOF
