  0
SECTION
  2
HEADER
  9
$ACADVER
  1
AC1009
  9
$INSBASE
 10
0.0
 20
0.0
 30
0.0
  9
$EXTMIN
 10
-495.961003
 20
138.594227
 30
0.0
  9
$EXTMAX
 10
503.066475
 20
647.450159
 30
0.0
  9
$LIMMIN
 10
0.0
 20
0.0
  9
$LIMMAX
 10
420.0
 20
297.0
  9
$ORTHOMODE
 70
     0
  9
$REGENMODE
 70
     1
  9
$FILLMODE
 70
     1
  9
$QTEXTMODE
 70
     0
  9
$MIRRTEXT
 70
     1
  9
$DRAGMODE
 70
     2
  9
$LTSCALE
 40
7.0
  9
$OSMODE
 70
     0
  9
$ATTMODE
 70
     1
  9
$TEXTSIZE
 40
3.5
  9
$TRACEWID
 40
0.05
  9
$TEXTSTYLE
  7
STANDARD
  9
$CLAYER
  8
1
  9
$CELTYPE
  6
BYLAYER
  9
$CECOLOR
 62
   256
  9
$DIMSCALE
 40
1.0
  9
$DIMASZ
 40
3.5
  9
$DIMEXO
 40
0.0
  9
$DIMDLI
 40
10.0
  9
$DIMRND
 40
0.0
  9
$DIMDLE
 40
0.0
  9
$DIMEXE
 40
2.0
  9
$DIMTP
 40
0.0
  9
$DIMTM
 40
0.0
  9
$DIMTXT
 40
3.5
  9
$DIMCEN
 40
2.5
  9
$DIMTSZ
 40
0.0
  9
$DIMTOL
 70
     0
  9
$DIMLIM
 70
     0
  9
$DIMTIH
 70
     0
  9
$DIMTOH
 70
     0
  9
$DIMSE1
 70
     0
  9
$DIMSE2
 70
     0
  9
$DIMTAD
 70
     1
  9
$DIMZIN
 70
     8
  9
$DIMBLK
  1

  9
$DIMASO
 70
     1
  9
$DIMSHO
 70
     1
  9
$DIMPOST
  1

  9
$DIMAPOST
  1

  9
$DIMALT
 70
     0
  9
$DIMALTD
 70
     2
  9
$DIMALTF
 40
25.4
  9
$DIMLFAC
 40
1.0
  9
$DIMTOFL
 70
     1
  9
$DIMTVP
 40
0.0
  9
$DIMTIX
 70
     0
  9
$DIMSOXD
 70
     0
  9
$DIMSAH
 70
     0
  9
$DIMBLK1
  1

  9
$DIMBLK2
  1

  9
$DIMSTYLE
  2
ACADUS
  9
$DIMCLRD
 70
   256
  9
$DIMCLRE
 70
   256
  9
$DIMCLRT
 70
     3
  9
$DIMTFAC
 40
1.0
  9
$DIMGAP
 40
2.0
  9
$LUNITS
 70
     2
  9
$LUPREC
 70
     1
  9
$SKETCHINC
 40
1.0
  9
$FILLETRAD
 40
0.0
  9
$AUNITS
 70
     0
  9
$AUPREC
 70
     2
  9
$MENU
  1
CAESAR
  9
$ELEVATION
 40
0.0
  9
$PELEVATION
 40
0.0
  9
$THICKNESS
 40
0.0
  9
$LIMCHECK
 70
     0
  9
$BLIPMODE
 70
     1
  9
$CHAMFERA
 40
5.0
  9
$CHAMFERB
 40
5.0
  9
$SKPOLY
 70
     0
  9
$TDCREATE
 40
2449496.443355
  9
$TDUPDATE
 40
2453059.653265
  9
$TDINDWG
 40
0.000081
  9
$TDUSRTIMER
 40
0.000081
  9
$USRTIMER
 70
     1
  9
$ANGBASE
 50
0.0
  9
$ANGDIR
 70
     0
  9
$PDMODE
 70
     0
  9
$PDSIZE
 40
0.0
  9
$PLINEWID
 40
0.0
  9
$COORDS
 70
     2
  9
$SPLFRAME
 70
     0
  9
$SPLINETYPE
 70
     6
  9
$SPLINESEGS
 70
     8
  9
$ATTDIA
 70
     0
  9
$ATTREQ
 70
     1
  9
$HANDLING
 70
     1
  9
$HANDSEED
  5
5A08
  9
$SURFTAB1
 70
     6
  9
$SURFTAB2
 70
     6
  9
$SURFTYPE
 70
     6
  9
$SURFU
 70
     6
  9
$SURFV
 70
     6
  9
$UCSNAME
  2

  9
$UCSORG
 10
0.0
 20
0.0
 30
0.0
  9
$UCSXDIR
 10
1.0
 20
0.0
 30
0.0
  9
$UCSYDIR
 10
0.0
 20
1.0
 30
0.0
  9
$PUCSNAME
  2

  9
$PUCSORG
 10
0.0
 20
0.0
 30
0.0
  9
$PUCSXDIR
 10
1.0
 20
0.0
 30
0.0
  9
$PUCSYDIR
 10
0.0
 20
1.0
 30
0.0
  9
$USERI1
 70
     0
  9
$USERI2
 70
     0
  9
$USERI3
 70
     0
  9
$USERI4
 70
     0
  9
$USERI5
 70
     0
  9
$USERR1
 40
1.0
  9
$USERR2
 40
0.0
  9
$USERR3
 40
3.5
  9
$USERR4
 40
0.0
  9
$USERR5
 40
0.0
  9
$WORLDVIEW
 70
     1
  9
$SHADEDGE
 70
     3
  9
$SHADEDIF
 70
    70
  9
$TILEMODE
 70
     1
  9
$MAXACTVP
 70
    16
  9
$PLIMCHECK
 70
     0
  9
$PEXTMIN
 10
1.000000E+020
 20
1.000000E+020
 30
1.000000E+020
  9
$PEXTMAX
 10
-1.000000E+020
 20
-1.000000E+020
 30
-1.000000E+020
  9
$PLIMMIN
 10
0.0
 20
0.0
  9
$PLIMMAX
 10
420.0
 20
297.0
  9
$UNITMODE
 70
     0
  9
$VISRETAIN
 70
     0
  9
$PLINEGEN
 70
     0
  9
$PSLTSCALE
 70
     0
  0
ENDSEC
  0
SECTION
  2
TABLES
  0
TABLE
  2
VPORT
 70
     2
  0
VPORT
  2
*ACTIVE
 70
     0
 10
0.0
 20
0.0
 11
1.0
 21
1.0
 12
3.552738
 22
393.028409
 13
0.0
 23
0.0
 14
1.0
 24
1.0
 15
10.0
 25
10.0
 16
0.0
 26
0.0
 36
1.0
 17
0.0
 27
0.0
 37
0.0
 40
621.86045
 41
1.616838
 42
50.0
 43
0.0
 44
0.0
 50
0.0
 51
0.0
 71
     0
 72
   100
 73
     1
 74
     0
 75
     0
 76
     0
 77
     0
 78
     0
  0
ENDTAB
  0
TABLE
  2
LTYPE
 70
    10
  0
LTYPE
  2
CONTINUOUS
 70
     0
  3
Solid line
 72
    65
 73
     0
 40
0.0
  0
LTYPE
  2
BORDER
 70
     0
  3
__ __ . __ __ . __ __ . __ __ . __ __ . __ __ .
 72
    65
 73
     6
 40
1.75
 49
0.5
 49
-0.25
 49
0.5
 49
-0.25
 49
0.0
 49
-0.25
  0
LTYPE
  2
CENTER
 70
     0
  3
____ _ ____ _ ____ _ ____ _ ____ _ ____ _ ____ 
 72
    65
 73
     4
 40
2.0
 49
1.25
 49
-0.25
 49
0.25
 49
-0.25
  0
LTYPE
  2
DASHDOT
 70
     0
  3
__ . __ . __ . __ . __ . __ . __ . __ . __ . __
 72
    65
 73
     4
 40
1.0
 49
0.5
 49
-0.25
 49
0.0
 49
-0.25
  0
LTYPE
  2
DASHED
 70
     0
  3
__ __ __ __ __ __ __ __ __ __ __ __ __ __ __ __
 72
    65
 73
     2
 40
0.75
 49
0.5
 49
-0.25
  0
LTYPE
  2
DIVIDE
 70
     0
  3
____ . . ____ . . ____ . . ____ . . ____ . . __
 72
    65
 73
     6
 40
1.25
 49
0.5
 49
-0.25
 49
0.0
 49
-0.25
 49
0.0
 49
-0.25
  0
LTYPE
  2
DOT
 70
     0
  3
. . . . . . . . . . . . . . . . . . . . . . . .
 72
    65
 73
     2
 40
0.25
 49
0.0
 49
-0.25
  0
LTYPE
  2
HIDDEN
 70
     0
  3
__ __ __ __ __ __ __ __ __ __ __ __ __ __ __ __
 72
    65
 73
     2
 40
0.375
 49
0.25
 49
-0.125
  0
LTYPE
  2
PHANTOM
 70
     0
  3
______  __  __  ______  __  __  ______  __  __ 
 72
    65
 73
     6
 40
2.5
 49
1.25
 49
-0.25
 49
0.25
 49
-0.25
 49
0.25
 49
-0.25
  0
LTYPE
  2
DOTX2
 70
     0
  3
.  .  .  .  .  .  .  .  .  .  .  .  .  .  .  . 
 72
    65
 73
     2
 40
0.5
 49
0.0
 49
-0.5
  0
ENDTAB
  0
TABLE
  2
LAYER
 70
   102
  0
LAYER
  2
0
 70
     0
 62
     7
  6
CONTINUOUS
  0
LAYER
  2
L1
 70
     0
 62
     7
  6
CONTINUOUS
  0
LAYER
  2
L2
 70
     0
 62
     1
  6
CONTINUOUS
  0
LAYER
  2
L3
 70
     0
 62
     7
  6
DASHED
  0
LAYER
  2
L4
 70
     0
 62
     1
  6
DASHED
  0
LAYER
  2
L5
 70
     0
 62
     7
  6
CENTER
  0
LAYER
  2
L6
 70
     0
 62
     1
  6
CENTER
  0
LAYER
  2
L7
 70
     0
 62
     1
  6
PHANTOM
  0
LAYER
  2
VPORT
 70
     0
 62
     7
  6
CONTINUOUS
  0
LAYER
  2
L8
 70
     0
 62
     1
  6
CONTINUOUS
  0
LAYER
  2
L20
 70
     0
 62
     3
  6
CONTINUOUS
  0
LAYER
  2
L21
 70
     0
 62
     1
  6
CONTINUOUS
  0
LAYER
  2
L22
 70
     0
 62
     1
  6
CONTINUOUS
  0
LAYER
  2
L23
 70
     0
 62
     1
  6
CONTINUOUS
  0
LAYER
  2
L30
 70
     0
 62
     3
  6
CONTINUOUS
  0
LAYER
  2
L31
 70
     0
 62
     1
  6
CONTINUOUS
  0
LAYER
  2
L32
 70
     0
 62
     3
  6
CONTINUOUS
  0
LAYER
  2
L33
 70
     0
 62
     1
  6
CONTINUOUS
  0
LAYER
  2
L34
 70
     0
 62
     1
  6
DASHED
  0
LAYER
  2
L35
 70
     0
 62
     1
  6
CONTINUOUS
  0
LAYER
  2
L40
 70
     0
 62
     7
  6
CONTINUOUS
  0
LAYER
  2
L41
 70
     0
 62
     1
  6
CONTINUOUS
  0
LAYER
  2
L42
 70
     0
 62
     1
  6
CONTINUOUS
  0
LAYER
  2
L43
 70
     0
 62
     7
  6
CONTINUOUS
  0
LAYER
  2
L44
 70
     0
 62
     1
  6
DASHED
  0
LAYER
  2
L45
 70
     0
 62
     1
  6
CONTINUOUS
  0
LAYER
  2
L46
 70
     0
 62
     3
  6
CONTINUOUS
  0
LAYER
  2
L50
 70
     0
 62
     7
  6
CONTINUOUS
  0
LAYER
  2
L51
 70
     0
 62
     1
  6
CONTINUOUS
  0
LAYER
  2
L52
 70
     0
 62
     7
  6
CONTINUOUS
  0
LAYER
  2
L53
 70
     0
 62
     1
  6
CONTINUOUS
  0
LAYER
  2
L54
 70
     0
 62
     1
  6
DASHED
  0
LAYER
  2
L55
 70
     0
 62
     3
  6
CONTINUOUS
  0
LAYER
  2
L56
 70
     0
 62
     3
  6
CONTINUOUS
  0
LAYER
  2
L57
 70
     0
 62
     1
  6
CONTINUOUS
  0
LAYER
  2
L9
 70
     0
 62
     7
  6
HIDDEN
  0
LAYER
  2
L15
 70
     0
 62
     2
  6
CONTINUOUS
  0
LAYER
  2
L16
 70
     0
 62
     5
  6
DOTX2
  0
LAYER
  2
L24
 70
     0
 62
     1
  6
DASHED
  0
LAYER
  2
1
 70
     0
 62
     7
  6
CONTINUOUS
  0
LAYER
  2
2
 70
     0
 62
   130
  6
CONTINUOUS
  0
LAYER
  2
8
 70
     0
 62
   130
  6
CONTINUOUS
  0
LAYER
  2
11
 70
     0
 62
     7
  6
CONTINUOUS
  0
LAYER
  2
60
 70
     0
 62
   130
  6
CONTINUOUS
  0
LAYER
  2
63
 70
     0
 62
     1
  6
CENTER
  0
LAYER
  2
66
 70
     0
 62
   130
  6
CONTINUOUS
  0
LAYER
  2
69
 70
     0
 62
   130
  6
CONTINUOUS
  0
LAYER
  2
72
 70
     0
 62
   130
  6
CONTINUOUS
  0
LAYER
  2
75
 70
     0
 62
   130
  6
CONTINUOUS
  0
LAYER
  2
86
 70
     0
 62
   130
  6
CONTINUOUS
  0
LAYER
  2
89
 70
     0
 62
   130
  6
CONTINUOUS
  0
LAYER
  2
98
 70
     0
 62
   130
  6
CONTINUOUS
  0
LAYER
  2
DEFPOINTS
 70
     0
 62
   130
  6
CONTINUOUS
  0
LAYER
  2
MUOTOV
 70
     0
 62
     3
  6
CONTINUOUS
  0
LAYER
  2
A1
 70
     0
 62
   130
  6
CONTINUOUS
  0
LAYER
  2
RA1
 70
     0
 62
   130
  6
CONTINUOUS
  0
LAYER
  2
TITEL
 70
     0
 62
   130
  6
CONTINUOUS
  0
LAYER
  2
TITEL1
 70
     0
 62
   130
  6
CONTINUOUS
  0
LAYER
  2
MUUTOS
 70
     0
 62
   130
  6
CONTINUOUS
  0
LAYER
  2
MUUTOS1
 70
     0
 62
   130
  6
CONTINUOUS
  0
LAYER
  2
MUUTOSTEXT
 70
     0
 62
     1
  6
CONTINUOUS
  0
LAYER
  2
MUUTOS2
 70
     0
 62
   130
  6
CONTINUOUS
  0
LAYER
  2
L36
 70
     0
 62
     7
  6
CONTINUOUS
  0
LAYER
  2
L37
 70
     0
 62
     1
  6
CONTINUOUS
  0
LAYER
  2
L38
 70
     0
 62
     1
  6
DASHDOT
  0
LAYER
  2
L58
 70
     0
 62
     1
  6
CONTINUOUS
  0
LAYER
  2
A2
 70
     0
 62
     5
  6
CONTINUOUS
  0
LAYER
  2
A3
 70
     0
 62
     4
  6
CONTINUOUS
  0
LAYER
  2
A4
 70
     0
 62
     1
  6
DASHED
  0
LAYER
  2
A5
 70
     0
 62
     2
  6
CONTINUOUS
  0
LAYER
  2
A6
 70
     0
 62
     8
  6
CONTINUOUS
  0
LAYER
  2
RA2
 70
     0
 62
     5
  6
CONTINUOUS
  0
LAYER
  2
RA4
 70
     0
 62
     1
  6
DASHED
  0
LAYER
  2
CAM-A1
 70
     0
 62
     7
  6
CONTINUOUS
  0
LAYER
  2
12
 70
     0
 62
     1
  6
CONTINUOUS
  0
LAYER
  2
13
 70
     0
 62
     1
  6
CENTER
  0
LAYER
  2
14
 70
     0
 62
     1
  6
DASHED
  0
LAYER
  2
15
 70
     0
 62
     2
  6
DASHED
  0
LAYER
  2
21
 70
     0
 62
     7
  6
CONTINUOUS
  0
LAYER
  2
22
 70
     0
 62
     1
  6
CONTINUOUS
  0
LAYER
  2
23
 70
     0
 62
     1
  6
CENTER
  0
LAYER
  2
24
 70
     0
 62
     1
  6
DASHED
  0
LAYER
  2
25
 70
     0
 62
     2
  6
DASHED
  0
LAYER
  2
31
 70
     0
 62
     7
  6
CONTINUOUS
  0
LAYER
  2
32
 70
     0
 62
     1
  6
CONTINUOUS
  0
LAYER
  2
33
 70
     0
 62
     1
  6
CENTER
  0
LAYER
  2
34
 70
     0
 62
     1
  6
DASHED
  0
LAYER
  2
35
 70
     0
 62
     2
  6
DASHED
  0
LAYER
  2
41
 70
     0
 62
     7
  6
CONTINUOUS
  0
LAYER
  2
42
 70
     0
 62
     1
  6
CONTINUOUS
  0
LAYER
  2
43
 70
     0
 62
     1
  6
CENTER
  0
LAYER
  2
44
 70
     0
 62
     1
  6
DASHED
  0
LAYER
  2
45
 70
     0
 62
     2
  6
DASHED
  0
LAYER
  2
51
 70
     0
 62
     7
  6
CONTINUOUS
  0
LAYER
  2
52
 70
     0
 62
     1
  6
CONTINUOUS
  0
LAYER
  2
53
 70
     0
 62
     1
  6
CENTER
  0
LAYER
  2
54
 70
     0
 62
     1
  6
DASHED
  0
LAYER
  2
55
 70
     0
 62
     2
  6
DASHED
  0
LAYER
  2
61
 70
     0
 62
     7
  6
CONTINUOUS
  0
LAYER
  2
62
 70
     0
 62
     1
  6
CONTINUOUS
  0
LAYER
  2
64
 70
     0
 62
     1
  6
DASHED
  0
LAYER
  2
65
 70
     0
 62
     2
  6
DASHED
  0
ENDTAB
  0
TABLE
  2
STYLE
 70
     8
  0
STYLE
  2
STANDARD
 70
     0
 40
0.0
 41
1.0
 50
0.0
 71
     0
 42
3.5
  3
CAEISO
  4

  0
STYLE
  2
COMPLEX
 70
     0
 40
5.0
 41
1.0
 50
0.0
 71
     0
 42
5.0
  3
ROMANS.SHX
  4

  0
STYLE
  2
SIMPLEX
 70
     0
 40
3.5
 41
0.8
 50
0.0
 71
     0
 42
3.5
  3
CAEISO
  4

  0
STYLE
  2
TXT
 70
     0
 40
0.0
 41
1.0
 50
0.0
 71
     0
 42
0.2
  3
TXT
  4

  0
STYLE
  2
USER
 70
     0
 40
0.0
 41
1.0
 50
0.0
 71
     0
 42
0.2
  3
KIRJAIN
  4

  0
STYLE
  2
ITALIC
 70
     0
 40
0.0
 41
1.0
 50
0.0
 71
     0
 42
0.2
  3
ITALIC
  4

  0
STYLE
  2
MONO
 70
     0
 40
0.0
 41
1.0
 50
0.0
 71
     0
 42
9.5
  3
MONOTXT
  4

  0
STYLE
  2
CAEISO
 70
     0
 40
0.0
 41
1.0
 50
0.0
 71
     0
 42
1.0
  3
CAEISO
  4

  0
ENDTAB
  0
TABLE
  2
VIEW
 70
     0
  0
ENDTAB
  0
TABLE
  2
UCS
 70
     0
  0
ENDTAB
  0
TABLE
  2
APPID
 70
     1
  0
APPID
  2
ACAD
 70
     0
  0
ENDTAB
  0
TABLE
  2
DIMSTYLE
 70
     5
  0
DIMSTYLE
  2
ACADUS
 70
     0
  3

  4

  5

  6

  7

 40
1.0
 41
0.18
 42
0.0625
 43
0.38
 44
0.18
 45
0.0
 46
0.0
 47
0.0
 48
0.0
140
0.18
141
0.09
142
0.0
143
25.4
144
1.0
145
0.0
146
1.0
147
0.09
 71
     0
 72
     0
 73
     1
 74
     1
 75
     0
 76
     0
 77
     0
 78
     0
170
     0
171
     2
172
     0
173
     0
174
     0
175
     0
176
     0
177
     0
178
     0
  0
DIMSTYLE
  2
NORDIC
 70
     0
  3

  4

  5

  6

  7

 40
1.0
 41
3.5
 42
1.0
 43
10.0
 44
2.0
 45
0.0
 46
0.0
 47
0.0
 48
0.0
140
3.5
141
2.5
142
0.0
143
25.4
144
1.0
145
0.0
146
1.0
147
2.0
 71
     0
 72
     0
 73
     0
 74
     0
 75
     0
 76
     0
 77
     1
 78
     8
170
     0
171
     2
172
     1
173
     0
174
     0
175
     0
176
     0
177
     0
178
     0
  0
DIMSTYLE
  2
RADIAL
 70
     0
  3

  4

  5

  6

  7

 40
1.0
 41
3.5
 42
1.0
 43
10.0
 44
2.0
 45
0.0
 46
0.0
 47
0.0
 48
0.0
140
3.5
141
2.5
142
0.0
143
25.4
144
1.0
145
0.0
146
1.0
147
2.0
 71
     0
 72
     0
 73
     0
 74
     1
 75
     0
 76
     0
 77
     1
 78
     8
170
     0
171
     2
172
     0
173
     0
174
     0
175
     0
176
     0
177
     0
178
     0
  0
DIMSTYLE
  2
NORTOL
 70
     0
  3

  4

  5

  6

  7

 40
1.0
 41
3.5
 42
1.0
 43
10.0
 44
2.0
 45
0.0
 46
0.0
 47
0.2
 48
0.1
140
3.5
141
2.5
142
0.0
143
25.4
144
1.0
145
0.7
146
0.71
147
2.0
 71
     1
 72
     0
 73
     0
 74
     0
 75
     0
 76
     0
 77
     0
 78
     8
170
     0
171
     2
172
     1
173
     0
174
     0
175
     0
176
     0
177
     0
178
     0
  0
DIMSTYLE
  2
RADTOL
 70
     0
  3

  4

  5

  6

  7

 40
1.0
 41
3.5
 42
1.0
 43
10.0
 44
2.0
 45
0.0
 46
0.0
 47
0.2
 48
0.1
140
3.5
141
2.5
142
0.0
143
25.4
144
1.0
145
0.7
146
0.7
147
2.0
 71
     1
 72
     0
 73
     0
 74
     1
 75
     0
 76
     0
 77
     0
 78
     8
170
     0
171
     2
172
     0
173
     0
174
     0
175
     0
176
     0
177
     0
178
     0
  0
ENDTAB
  0
ENDSEC
  0
SECTION
  2
BLOCKS
  0
BLOCK
  8
0
  2
$MODEL_SPACE
 70
     0
 10
0.0
 20
0.0
 30
0.0
  3
$MODEL_SPACE
  1

  0
ENDBLK
  5
59F8
  8
0
  0
BLOCK
 67
     1
  8
0
  2
$PAPER_SPACE
 70
     0
 10
0.0
 20
0.0
 30
0.0
  3
$PAPER_SPACE
  1

  0
ENDBLK
  5
59F6
 67
     1
  8
0
  0
ENDSEC
  0
SECTION
  2
ENTITIES
  0
TEXT
  5
57E7
  8
0
  6
CONTINUOUS
 10
330.035074
 20
372.358918
 30
0.0
 40
2.5
  1
  
 50
21.66214
  0
LINE
  5
57E8
  8
61
 10
418.940425
 20
520.222193
 30
0.0
 11
418.940425
 21
265.822188
 31
0.0
  0
LINE
  5
57E9
  8
61
 10
408.140425
 20
531.022193
 30
0.0
 11
53.740425
 21
531.022193
 31
0.0
  0
LINE
  5
57EA
  8
62
 10
412.977927
 20
510.566181
 30
0.0
 11
412.977927
 21
275.478206
 31
0.0
  0
LINE
  5
57EB
  8
62
 10
398.512101
 20
525.114572
 30
0.0
 11
63.368749
 21
525.114572
 31
0.0
  0
LINE
  5
57EC
  8
61
 10
411.307879
 20
508.511624
 30
0.0
 11
411.307879
 21
279.771095
 31
0.0
  0
LINE
  5
57ED
  8
61
 10
396.46499
 20
523.468546
 30
0.0
 11
65.41586
 21
523.468546
 31
0.0
  0
LINE
  5
57EE
  8
53
 10
-92.464037
 20
393.022193
 30
0.0
 11
-296.158166
 21
393.022193
 31
0.0
  0
LINE
  5
57EF
  8
52
 10
-113.279429
 20
528.192177
 30
0.0
 11
-104.617093
 21
519.529842
 31
0.0
  0
ARC
  5
57F0
  8
52
 10
-112.587078
 20
520.222193
 30
0.0
 40
8.0
 50
277.645696
 51
355.035187
  0
ARC
  5
57F1
  8
52
 10
-112.587078
 20
520.222193
 30
0.0
 40
8.0
 50
94.964813
 51
172.354304
  0
LINE
  5
57F2
  8
52
 10
-120.515956
 20
521.286568
 30
0.0
 11
-111.522703
 21
512.293315
 31
0.0
  0
LINE
  5
57F3
  8
51
 10
-112.587078
 20
531.022193
 30
0.0
 11
-466.987072
 21
531.022193
 31
0.0
  0
LINE
  5
57F4
  8
51
 10
-101.787078
 20
520.222193
 30
0.0
 11
-101.787078
 21
348.022193
 31
0.0
  0
ARC
  5
57F5
  8
51
 10
-112.587078
 20
520.222193
 30
0.0
 40
10.8
 50
293.289549
 51
156.710451
  0
ARC
  5
57F6
  8
51
 10
-466.987078
 20
520.222193
 30
0.0
 40
10.8
 50
23.289549
 51
246.710451
  0
LINE
  5
57F7
  8
52
 10
-474.957062
 20
519.529842
 30
0.0
 11
-466.294726
 21
528.192177
 31
0.0
  0
LINE
  5
57F8
  8
52
 10
-468.051453
 20
512.293315
 30
0.0
 11
-459.0582
 21
521.286568
 31
0.0
  0
ARC
  5
57F9
  8
52
 10
-466.987078
 20
520.222193
 30
0.0
 40
8.0
 50
7.645696
 51
85.035187
  0
ARC
  5
57FA
  8
52
 10
-466.987078
 20
520.222193
 30
0.0
 40
8.0
 50
184.964813
 51
262.354304
  0
LINE
  5
57FB
  8
51
 10
-109.787078
 20
502.922193
 30
0.0
 11
-109.787078
 21
348.022193
 31
0.0
  0
LINE
  5
57FC
  8
51
 10
-129.887078
 20
523.022193
 30
0.0
 11
-449.687087
 21
523.022193
 31
0.0
  0
LINE
  5
57FD
  8
52
 10
-130.087078
 20
524.522193
 30
0.0
 11
-449.487078
 21
524.522193
 31
0.0
  0
LINE
  5
57FE
  8
52
 10
-108.287078
 20
502.722193
 30
0.0
 11
-108.287078
 21
348.022193
 31
0.0
  0
LINE
  5
57FF
  8
52
 10
-130.087078
 20
528.922193
 30
0.0
 11
-449.687078
 21
528.922193
 31
0.0
  0
LINE
  5
5800
  8
52
 10
-103.887078
 20
502.722193
 30
0.0
 11
-103.887078
 21
348.022193
 31
0.0
  0
ARC
  5
5801
  8
51
 10
-112.587078
 20
520.222193
 30
0.0
 40
14.5
 50
180.0
 51
270.0
  0
ARC
  5
5802
  8
52
 10
-112.587078
 20
520.222193
 30
0.0
 40
13.2
 50
180.0
 51
270.0
  0
ARC
  5
5803
  8
52
 10
-112.587078
 20
520.222193
 30
0.0
 40
8.8
 50
180.0
 51
270.0
  0
ARC
  5
5804
  8
51
 10
-129.887078
 20
520.222193
 30
0.0
 40
2.8
 50
360.0
 51
90.0
  0
ARC
  5
5805
  8
51
 10
-112.587078
 20
502.922193
 30
0.0
 40
2.8
 50
0.0
 51
90.0
  0
ARC
  5
5806
  8
52
 10
-112.587078
 20
502.722193
 30
0.0
 40
4.3
 50
0.0
 51
90.0
  0
ARC
  5
5807
  8
52
 10
-130.087078
 20
520.222193
 30
0.0
 40
4.3
 50
360.0
 51
90.0
  0
ARC
  5
5808
  8
52
 10
-112.587078
 20
502.722193
 30
0.0
 40
8.7
 50
0.0
 51
90.0
  0
ARC
  5
5809
  8
52
 10
-130.087078
 20
520.222193
 30
0.0
 40
8.7
 50
360.0
 51
90.0
  0
ARC
  5
580A
  8
52
 10
-466.987078
 20
502.722193
 30
0.0
 40
8.7
 50
90.0
 51
180.0
  0
ARC
  5
580B
  8
52
 10
-466.987078
 20
520.222193
 30
0.0
 40
8.8
 50
270.0
 51
0.0
  0
ARC
  5
580C
  8
52
 10
-449.487078
 20
520.222193
 30
0.0
 40
8.7
 50
90.0
 51
180.0
  0
ARC
  5
580D
  8
52
 10
-449.487078
 20
520.222193
 30
0.0
 40
4.3
 50
90.0
 51
180.0
  0
ARC
  5
580E
  8
51
 10
-466.987078
 20
520.222193
 30
0.0
 40
14.5
 50
270.534442
 51
0.0
  0
ARC
  5
580F
  8
52
 10
-466.987078
 20
520.222193
 30
0.0
 40
13.2
 50
270.0
 51
0.0
  0
ARC
  5
5810
  8
52
 10
-466.987078
 20
502.722193
 30
0.0
 40
4.3
 50
90.0
 51
180.0
  0
ARC
  5
5811
  8
51
 10
-466.787097
 20
502.923572
 30
0.0
 40
2.8
 50
90.0
 51
180.0
  0
ARC
  5
5812
  8
51
 10
-449.687078
 20
520.222193
 30
0.0
 40
2.8
 50
90.0
 51
180.0
  0
LINE
  5
5813
  8
62
 10
405.310102
 20
502.02442
 30
0.0
 11
405.310102
 21
284.185793
 31
0.0
  0
ARC
  5
5814
  8
62
 10
408.140425
 20
520.222193
 30
0.0
 40
18.0
 50
190.020436
 51
259.629223
  0
LINE
  5
5815
  8
31
 10
495.912286
 20
509.293203
 30
0.0
 11
495.912286
 21
267.909599
 31
0.0
  0
LINE
  5
5816
  8
31
 10
466.412286
 20
509.293203
 30
0.0
 11
466.412286
 21
255.030696
 31
0.0
  0
LINE
  5
5817
  8
31
 10
472.912286
 20
518.429569
 30
0.0
 11
472.912286
 21
267.614817
 31
0.0
  0
LINE
  5
5818
  8
32
 10
475.957895
 20
277.991352
 30
0.0
 11
475.957895
 21
508.053035
 31
0.0
  0
LINE
  5
5819
  8
32
 10
489.933569
 20
508.174999
 30
0.0
 11
489.933569
 21
277.869388
 31
0.0
  0
LINE
  5
581A
  8
63
  6
DASHDOT
 10
230.940425
 20
246.791887
 30
0.0
 11
230.940425
 21
541.551345
 31
0.0
  0
ARC
  5
581B
  8
62
 10
53.740425
 20
520.222193
 30
0.0
 40
18.0
 50
280.370777
 51
349.979564
  0
LINE
  5
581C
  8
61
 10
42.940425
 20
520.222193
 30
0.0
 11
42.940425
 21
265.822193
 31
0.0
  0
LINE
  5
581D
  8
62
 10
48.902924
 20
510.566181
 30
0.0
 11
48.902924
 21
275.478206
 31
0.0
  0
LINE
  5
581E
  8
61
 10
50.572971
 20
508.511624
 30
0.0
 11
50.572971
 21
277.532758
 31
0.0
  0
LINE
  5
581F
  8
62
 10
56.570748
 20
502.02442
 30
0.0
 11
56.570748
 21
284.057459
 31
0.0
  0
LINE
  5
5820
  8
62
 10
71.915262
 20
517.503204
 30
0.0
 11
389.922629
 21
517.503204
 31
0.0
  0
LINE
  5
5821
  8
62
 10
71.915262
 20
268.541183
 30
0.0
 11
389.922629
 21
268.541183
 31
0.0
  0
ARC
  5
5822
  8
62
 10
53.740425
 20
265.822193
 30
0.0
 40
18.0
 50
10.020436
 51
79.629223
  0
ARC
  5
5823
  8
62
 10
408.140425
 20
265.822193
 30
0.0
 40
18.0
 50
100.370777
 51
169.979564
  0
ARC
  5
5824
  8
61
 10
413.307879
 20
277.532762
 30
0.0
 40
2.0
 50
180.0
 51
246.189853
  0
ARC
  5
5825
  8
61
 10
396.46499
 20
260.57584
 30
0.0
 40
2.0
 50
24.196752
 51
90.0
  0
ARC
  5
5826
  8
61
 10
394.196014
 20
264.57584
 30
0.0
 40
2.0
 50
270.0
 51
5.107531
  0
ARC
  5
5827
  8
61
 10
409.307879
 20
279.773432
 30
0.0
 40
2.0
 50
265.216575
 51
360.0
  0
LINE
  5
5828
  8
61
 10
396.46499
 20
262.57584
 30
0.0
 11
65.41586
 21
262.57584
 31
0.0
  0
LINE
  5
5829
  8
62
 10
398.512101
 20
260.929814
 30
0.0
 11
63.368749
 21
260.929814
 31
0.0
  0
LINE
  5
582A
  8
61
 10
400.211547
 20
264.757818
 30
0.0
 11
409.2048
 21
273.751071
 31
0.0
  0
LINE
  5
582B
  8
61
 10
407.448074
 20
257.852209
 30
0.0
 11
416.11041
 21
266.514545
 31
0.0
  0
LINE
  5
582C
  8
61
 10
408.140425
 20
255.022193
 30
0.0
 11
53.740425
 21
255.022193
 31
0.0
  0
ARC
  5
582D
  8
61
 10
408.140425
 20
265.822193
 30
0.0
 40
10.8
 50
204.196752
 51
66.189853
  0
ARC
  5
582E
  8
61
 10
408.140425
 20
265.822193
 30
0.0
 40
12.0
 50
85.216575
 51
185.107531
  0
LINE
  5
582F
  8
61
 10
411.307879
 20
277.532762
 30
0.0
 11
411.307879
 21
279.309091
 31
0.0
  0
LINE
  5
5830
  8
53
  6
DASHDOT
 10
-289.787078
 20
247.77147
 30
0.0
 11
-289.787078
 21
541.67729
 31
0.0
  0
ARC
  5
5831
  8
31
 10
495.151058
 20
266.722756
 30
0.0
 40
22.256656
 50
149.582163
 51
177.702934
  0
LINE
  5
5832
  8
31
 10
490.412286
 20
277.86521
 30
0.0
 11
475.957895
 21
277.991352
 31
0.0
  0
ARC
  5
5833
  8
31
 10
489.912286
 20
283.844385
 30
0.0
 40
6.0
 50
275.0
 51
0.0
  0
LINE
  5
5834
  8
31
 10
490.412286
 20
277.86521
 30
0.0
 11
490.43522
 21
277.867217
 31
0.0
  0
LINE
  5
5835
  8
31
 10
465.912286
 20
275.861462
 30
0.0
 11
466.412286
 21
275.861462
 31
0.0
  0
ARC
  5
5836
  8
31
 10
489.912286
 20
267.909599
 30
0.0
 40
6.0
 50
275.0
 51
0.0
  0
LINE
  5
5837
  8
31
 10
490.412286
 20
261.930424
 30
0.0
 11
490.43522
 21
261.93243
 31
0.0
  0
LINE
  5
5839
  8
31
 10
465.912286
 20
255.021968
 30
0.0
 11
490.412286
 21
255.449617
 31
0.0
  0
LINE
  5
583A
  8
31
 10
490.412286
 20
255.449617
 30
0.0
 11
490.412286
 21
277.86521
 31
0.0
  0
LINE
  5
583B
  8
31
 10
465.912286
 20
255.021968
 30
0.0
 11
465.912286
 21
275.861462
 31
0.0
  0
LINE
  5
583C
  8
52
 10
-466.294726
 20
257.852209
 30
0.0
 11
-474.957062
 21
266.514545
 31
0.0
  0
ARC
  5
583D
  8
52
 10
-466.987078
 20
265.822193
 30
0.0
 40
8.0
 50
97.645696
 51
175.035187
  0
ARC
  5
583E
  8
52
 10
-466.987078
 20
265.822193
 30
0.0
 40
8.0
 50
274.964813
 51
352.354304
  0
LINE
  5
583F
  8
52
 10
-459.0582
 20
264.757818
 30
0.0
 11
-468.051453
 21
273.751071
 31
0.0
  0
ARC
  5
5840
  8
51
 10
-466.987078
 20
265.822193
 30
0.0
 40
10.8
 50
113.289549
 51
336.710451
  0
ARC
  5
5841
  8
51
 10
-466.987078
 20
265.822193
 30
0.0
 40
14.5
 50
360.0
 51
89.465558
  0
ARC
  5
5842
  8
52
 10
-466.987078
 20
265.822193
 30
0.0
 40
13.2
 50
360.0
 51
90.0
  0
ARC
  5
5843
  8
52
 10
-466.987078
 20
265.822193
 30
0.0
 40
8.8
 50
360.0
 51
90.0
  0
ARC
  5
5844
  8
51
 10
-449.687078
 20
265.822193
 30
0.0
 40
2.8
 50
180.0
 51
270.0
  0
ARC
  5
5845
  8
51
 10
-466.787097
 20
283.120814
 30
0.0
 40
2.8
 50
180.0
 51
270.0
  0
ARC
  5
5846
  8
52
 10
-466.987078
 20
283.322193
 30
0.0
 40
4.3
 50
180.0
 51
270.0
  0
ARC
  5
5847
  8
52
 10
-449.487078
 20
265.822193
 30
0.0
 40
4.3
 50
180.0
 51
270.0
  0
ARC
  5
5848
  8
52
 10
-466.987078
 20
283.322193
 30
0.0
 40
8.7
 50
180.0
 51
270.0
  0
ARC
  5
5849
  8
52
 10
-449.487078
 20
265.822193
 30
0.0
 40
8.7
 50
180.0
 51
270.0
  0
ARC
  5
584A
  8
52
 10
-130.087078
 20
265.822193
 30
0.0
 40
8.7
 50
270.0
 51
0.0
  0
ARC
  5
584B
  8
52
 10
-112.587078
 20
283.322193
 30
0.0
 40
8.7
 50
270.0
 51
0.0
  0
ARC
  5
584C
  8
52
 10
-130.087078
 20
265.822193
 30
0.0
 40
4.3
 50
270.0
 51
0.0
  0
ARC
  5
584D
  8
52
 10
-112.587078
 20
283.322193
 30
0.0
 40
4.3
 50
270.0
 51
0.0
  0
ARC
  5
584E
  8
51
 10
-112.587078
 20
283.122193
 30
0.0
 40
2.8
 50
270.0
 51
0.0
  0
ARC
  5
584F
  8
51
 10
-129.887078
 20
265.822193
 30
0.0
 40
2.8
 50
270.0
 51
0.0
  0
ARC
  5
5850
  8
52
 10
-112.587078
 20
265.822193
 30
0.0
 40
8.8
 50
90.0
 51
180.0
  0
ARC
  5
5851
  8
52
 10
-112.587078
 20
265.822193
 30
0.0
 40
13.2
 50
90.0
 51
180.0
  0
ARC
  5
5852
  8
51
 10
-112.587078
 20
265.822193
 30
0.0
 40
14.5
 50
90.0
 51
180.0
  0
LINE
  5
5853
  8
52
 10
-103.887078
 20
283.322193
 30
0.0
 11
-103.887078
 21
348.022193
 31
0.0
  0
LINE
  5
5854
  8
52
 10
-130.087078
 20
257.122193
 30
0.0
 11
-449.687078
 21
257.122193
 31
0.0
  0
LINE
  5
5855
  8
52
 10
-108.287078
 20
283.322193
 30
0.0
 11
-108.287078
 21
348.022193
 31
0.0
  0
LINE
  5
5856
  8
52
 10
-130.087078
 20
261.522193
 30
0.0
 11
-449.487078
 21
261.522193
 31
0.0
  0
LINE
  5
5857
  8
51
 10
-129.887078
 20
263.022193
 30
0.0
 11
-449.687087
 21
263.022193
 31
0.0
  0
LINE
  5
5858
  8
51
 10
-109.787078
 20
283.122193
 30
0.0
 11
-109.787078
 21
348.022193
 31
0.0
  0
ARC
  5
5859
  8
51
 10
-112.587078
 20
265.822193
 30
0.0
 40
10.8
 50
203.289549
 51
66.710451
  0
LINE
  5
585A
  8
51
 10
-101.787078
 20
265.822193
 30
0.0
 11
-101.787078
 21
348.022193
 31
0.0
  0
LINE
  5
585B
  8
51
 10
-112.587078
 20
255.022193
 30
0.0
 11
-466.987072
 21
255.022193
 31
0.0
  0
LINE
  5
585C
  8
52
 10
-120.515956
 20
264.757818
 30
0.0
 11
-111.522703
 21
273.751071
 31
0.0
  0
ARC
  5
585D
  8
52
 10
-112.587078
 20
265.822193
 30
0.0
 40
8.0
 50
187.645696
 51
265.035187
  0
ARC
  5
585E
  8
52
 10
-112.587078
 20
265.822193
 30
0.0
 40
8.0
 50
4.964813
 51
82.354304
  0
LINE
  5
585F
  8
52
 10
-113.279429
 20
257.852209
 30
0.0
 11
-104.617093
 21
266.514545
 31
0.0
  0
LINE
  5
5860
  8
51
 10
-469.587078
 20
502.922193
 30
0.0
 11
-469.587078
 21
435.522193
 31
0.0
  0
LINE
  5
5861
  8
52
 10
-471.282424
 20
502.922193
 30
0.0
 11
-471.282424
 21
283.122193
 31
0.0
  0
LINE
  5
5862
  8
52
 10
-475.684779
 20
502.922193
 30
0.0
 11
-475.684779
 21
283.122193
 31
0.0
  0
LINE
  5
5863
  8
51
 10
-477.787078
 20
520.222193
 30
0.0
 11
-477.787078
 21
265.822193
 31
0.0
  0
LINE
  5
5864
  8
13
  6
DASHDOT
 10
230.940425
 20
138.594227
 30
0.0
 11
230.940425
 21
207.817721
 31
0.0
  0
LINE
  5
5865
  8
11
 10
42.939928
 20
189.206662
 30
0.0
 11
418.940923
 21
189.206662
 31
0.0
  0
LINE
  5
5866
  8
14
 10
390.551754
 20
162.031018
 30
0.0
 11
230.940425
 21
162.109756
 31
0.0
  0
ARC
  5
5867
  8
14
 10
390.41487
 20
165.027893
 30
0.0
 40
3.0
 50
267.226485
 51
0.067002
  0
LINE
  5
5868
  8
14
 10
393.416304
 20
189.206662
 30
0.0
 11
393.416304
 21
165.385317
 31
0.0
  0
LINE
  5
5869
  8
14
 10
68.464547
 20
189.206662
 30
0.0
 11
68.464547
 21
165.188329
 31
0.0
  0
LINE
  5
586A
  8
11
 10
43.032858
 20
183.88271
 30
0.0
 11
43.35885
 21
165.206662
 31
0.0
  0
LINE
  5
586B
  8
11
 10
50.489656
 20
165.206662
 30
0.0
 11
43.35885
 21
165.206662
 31
0.0
  0
CIRCLE
  5
586C
  8
61
 10
408.140425
 20
265.822193
 30
0.0
 40
8.0
  0
ARC
  5
586D
  8
61
 10
408.140425
 20
265.822193
 30
0.0
 40
10.0
 50
97.519679
 51
172.493404
  0
LINE
  5
586E
  8
61
 10
412.498794
 20
273.06147
 30
0.0
 11
408.408925
 21
275.422756
 31
0.0
  0
LINE
  5
586F
  8
61
 10
400.862672
 20
261.528383
 30
0.0
 11
398.539638
 21
265.551996
 31
0.0
  0
ARC
  5
5870
  8
61
 10
408.140425
 20
265.822193
 30
0.0
 40
8.45
 50
209.459771
 51
58.950175
  0
LINE
  5
5871
  8
61
 10
412.266692
 20
272.675946
 30
0.0
 11
408.3187
 21
274.95532
 31
0.0
  0
LINE
  5
5872
  8
61
 10
401.254487
 20
261.749699
 30
0.0
 11
399.007059
 21
265.642359
 31
0.0
  0
ARC
  5
5873
  8
61
 10
408.140425
 20
265.822193
 30
0.0
 40
9.55
 50
98.743877
 51
171.268945
  0
ARC
  5
5874
  8
61
 10
407.0687
 20
272.790256
 30
0.0
 40
2.5
 50
60.0
 51
98.743877
  0
ARC
  5
5875
  8
61
 10
401.172122
 20
266.892359
 30
0.0
 40
2.5
 50
171.268945
 51
210.0
  0
ARC
  5
5876
  8
61
 10
407.158925
 20
273.257693
 30
0.0
 40
2.5
 50
60.0
 51
97.519679
  0
ARC
  5
5877
  8
61
 10
400.704702
 20
266.801996
 30
0.0
 40
2.5
 50
172.493404
 51
210.0
  0
ARC
  5
5878
  8
61
 10
400.704702
 20
519.242391
 30
0.0
 40
2.5
 50
150.0
 51
187.506596
  0
ARC
  5
5879
  8
61
 10
407.158925
 20
512.786693
 30
0.0
 40
2.5
 50
262.480321
 51
300.0
  0
ARC
  5
587A
  8
61
 10
401.172122
 20
519.152027
 30
0.0
 40
2.5
 50
150.0
 51
188.731055
  0
ARC
  5
587B
  8
61
 10
407.0687
 20
513.25413
 30
0.0
 40
2.5
 50
261.256123
 51
300.0
  0
ARC
  5
587C
  8
61
 10
408.140425
 20
520.222193
 30
0.0
 40
9.55
 50
188.731055
 51
261.256123
  0
LINE
  5
587D
  8
61
 10
401.254487
 20
524.294688
 30
0.0
 11
399.007059
 21
520.402027
 31
0.0
  0
LINE
  5
587E
  8
61
 10
412.266692
 20
513.36844
 30
0.0
 11
408.3187
 21
511.089066
 31
0.0
  0
ARC
  5
587F
  8
61
 10
408.140425
 20
520.222193
 30
0.0
 40
8.45
 50
301.049825
 51
150.540229
  0
LINE
  5
5880
  8
61
 10
400.862672
 20
524.516003
 30
0.0
 11
398.539638
 21
520.492391
 31
0.0
  0
LINE
  5
5881
  8
61
 10
412.498794
 20
512.982917
 30
0.0
 11
408.408925
 21
510.62163
 31
0.0
  0
ARC
  5
5882
  8
61
 10
408.140425
 20
520.222193
 30
0.0
 40
10.0
 50
187.506596
 51
262.480321
  0
CIRCLE
  5
5883
  8
61
 10
408.140425
 20
520.222193
 30
0.0
 40
8.0
  0
LINE
  5
5884
  8
61
 10
411.307879
 20
508.511624
 30
0.0
 11
411.307879
 21
506.735295
 31
0.0
  0
ARC
  5
5885
  8
61
 10
408.140425
 20
520.222193
 30
0.0
 40
12.0
 50
174.892469
 51
274.783425
  0
ARC
  5
5886
  8
61
 10
408.140425
 20
520.222193
 30
0.0
 40
10.8
 50
293.810147
 51
155.803248
  0
LINE
  5
5887
  8
61
 10
407.448074
 20
528.192177
 30
0.0
 11
416.11041
 21
519.529842
 31
0.0
  0
LINE
  5
5888
  8
61
 10
400.211547
 20
521.286568
 30
0.0
 11
409.2048
 21
512.293315
 31
0.0
  0
ARC
  5
5889
  8
61
 10
409.307879
 20
506.270955
 30
0.0
 40
2.0
 50
0.0
 51
94.783425
  0
ARC
  5
588A
  8
61
 10
394.196014
 20
521.468546
 30
0.0
 40
2.0
 50
354.892469
 51
90.0
  0
ARC
  5
588B
  8
61
 10
396.46499
 20
525.468546
 30
0.0
 40
2.0
 50
270.0
 51
335.803248
  0
ARC
  5
588C
  8
61
 10
413.307879
 20
508.511624
 30
0.0
 40
2.0
 50
113.810147
 51
180.0
  0
ARC
  5
588D
  8
61
 10
48.572971
 20
508.511624
 30
0.0
 40
2.0
 50
0.0
 51
66.189853
  0
ARC
  5
588E
  8
61
 10
65.41586
 20
525.468546
 30
0.0
 40
2.0
 50
204.196752
 51
270.0
  0
ARC
  5
588F
  8
61
 10
67.684837
 20
521.468546
 30
0.0
 40
2.0
 50
90.0
 51
185.107531
  0
ARC
  5
5890
  8
61
 10
52.572971
 20
506.270955
 30
0.0
 40
2.0
 50
85.216575
 51
180.0
  0
LINE
  5
5891
  8
61
 10
61.669303
 20
521.286568
 30
0.0
 11
52.67605
 21
512.293315
 31
0.0
  0
LINE
  5
5892
  8
61
 10
54.432777
 20
528.192177
 30
0.0
 11
45.770441
 21
519.529842
 31
0.0
  0
ARC
  5
5893
  8
61
 10
53.740425
 20
520.222193
 30
0.0
 40
10.8
 50
24.196752
 51
246.189853
  0
ARC
  5
5894
  8
61
 10
53.740425
 20
520.222193
 30
0.0
 40
12.0
 50
265.216575
 51
5.107531
  0
LINE
  5
5895
  8
61
 10
50.572971
 20
508.511624
 30
0.0
 11
50.572971
 21
506.735295
 31
0.0
  0
CIRCLE
  5
5896
  8
61
 10
53.740425
 20
520.222193
 30
0.0
 40
8.0
  0
ARC
  5
5897
  8
61
 10
53.740425
 20
520.222193
 30
0.0
 40
10.0
 50
277.519679
 51
352.493404
  0
LINE
  5
5898
  8
61
 10
49.382057
 20
512.982917
 30
0.0
 11
53.471926
 21
510.62163
 31
0.0
  0
LINE
  5
5899
  8
61
 10
61.018179
 20
524.516003
 30
0.0
 11
63.341213
 21
520.492391
 31
0.0
  0
ARC
  5
589A
  8
61
 10
53.740425
 20
520.222193
 30
0.0
 40
8.45
 50
29.459771
 51
238.950175
  0
LINE
  5
589B
  8
61
 10
49.614159
 20
513.36844
 30
0.0
 11
53.562151
 21
511.089066
 31
0.0
  0
LINE
  5
589C
  8
61
 10
60.626363
 20
524.294688
 30
0.0
 11
62.873792
 21
520.402027
 31
0.0
  0
ARC
  5
589D
  8
61
 10
53.740425
 20
520.222193
 30
0.0
 40
9.55
 50
278.743877
 51
351.268945
  0
ARC
  5
589E
  8
61
 10
54.812151
 20
513.25413
 30
0.0
 40
2.5
 50
240.0
 51
278.743877
  0
ARC
  5
589F
  8
61
 10
60.708728
 20
519.152027
 30
0.0
 40
2.5
 50
351.268945
 51
30.0
  0
ARC
  5
58A0
  8
61
 10
54.721926
 20
512.786693
 30
0.0
 40
2.5
 50
240.0
 51
277.519679
  0
ARC
  5
58A1
  8
61
 10
61.176149
 20
519.242391
 30
0.0
 40
2.5
 50
352.493404
 51
30.0
  0
ARC
  5
58A2
  8
61
 10
61.176149
 20
266.801996
 30
0.0
 40
2.5
 50
330.0
 51
7.506596
  0
ARC
  5
58A3
  8
61
 10
54.721926
 20
273.257693
 30
0.0
 40
2.5
 50
82.480321
 51
120.0
  0
ARC
  5
58A4
  8
61
 10
60.708728
 20
266.892359
 30
0.0
 40
2.5
 50
330.0
 51
8.731055
  0
ARC
  5
58A5
  8
61
 10
54.812151
 20
272.790256
 30
0.0
 40
2.5
 50
81.256123
 51
120.0
  0
ARC
  5
58A6
  8
61
 10
53.740425
 20
265.822193
 30
0.0
 40
9.55
 50
8.731055
 51
81.256123
  0
LINE
  5
58A7
  8
61
 10
60.626363
 20
261.749699
 30
0.0
 11
62.873792
 21
265.642359
 31
0.0
  0
LINE
  5
58A8
  8
61
 10
49.614159
 20
272.675946
 30
0.0
 11
53.562151
 21
274.95532
 31
0.0
  0
ARC
  5
58A9
  8
61
 10
53.740425
 20
265.822193
 30
0.0
 40
8.45
 50
121.049825
 51
330.540229
  0
LINE
  5
58AA
  8
61
 10
61.018179
 20
261.528383
 30
0.0
 11
63.341213
 21
265.551996
 31
0.0
  0
LINE
  5
58AB
  8
61
 10
49.382057
 20
273.06147
 30
0.0
 11
53.471926
 21
275.422756
 31
0.0
  0
ARC
  5
58AC
  8
61
 10
53.740425
 20
265.822193
 30
0.0
 40
10.0
 50
7.506596
 51
82.480321
  0
CIRCLE
  5
58AD
  8
61
 10
53.740425
 20
265.822193
 30
0.0
 40
8.0
  0
LINE
  5
58AE
  8
61
 10
50.572971
 20
277.532762
 30
0.0
 11
50.572971
 21
279.309091
 31
0.0
  0
ARC
  5
58AF
  8
61
 10
53.740425
 20
265.822193
 30
0.0
 40
12.0
 50
354.892469
 51
94.783425
  0
ARC
  5
58B0
  8
61
 10
53.740425
 20
265.822193
 30
0.0
 40
10.8
 50
113.810147
 51
335.803248
  0
LINE
  5
58B1
  8
61
 10
54.432777
 20
257.852209
 30
0.0
 11
45.770441
 21
266.514545
 31
0.0
  0
LINE
  5
58B2
  8
61
 10
61.669303
 20
264.757818
 30
0.0
 11
52.67605
 21
273.751071
 31
0.0
  0
ARC
  5
58B3
  8
61
 10
52.572971
 20
279.773432
 30
0.0
 40
2.0
 50
180.0
 51
274.783425
  0
ARC
  5
58B4
  8
61
 10
67.684837
 20
264.57584
 30
0.0
 40
2.0
 50
174.892469
 51
270.0
  0
ARC
  5
58B5
  8
61
 10
65.41586
 20
260.57584
 30
0.0
 40
2.0
 50
90.0
 51
155.803248
  0
ARC
  5
58B6
  8
61
 10
48.572971
 20
277.532762
 30
0.0
 40
2.0
 50
293.810147
 51
360.0
  0
LINE
  5
58B7
  8
11
 10
406.06202
 20
159.706662
 30
0.0
 11
230.940425
 21
159.706662
 31
0.0
  0
ARC
  5
58BA
  8
51
 10
-976.314355
 20
465.586648
 30
0.0
 40
507.032791
 50
5.059524
 51
5.059524
  0
LINE
  5
58BB
  8
51
 10
-469.587078
 20
350.522193
 30
0.0
 11
-469.587078
 21
283.122193
 31
0.0
  0
LINE
  5
58BC
  8
11
 10
230.940425
 20
159.706662
 30
0.0
 11
55.818831
 21
159.706662
 31
0.0
  0
LINE
  5
58BD
  8
14
 10
230.940425
 20
162.109756
 30
0.0
 11
71.460891
 21
162.188332
 31
0.0
  0
LINE
  5
58BE
  8
11
 10
42.939928
 20
189.206662
 30
0.0
 11
43.032858
 21
183.882715
 31
0.0
  0
LINE
  5
58BF
  8
63
  6
DASHDOT
 10
35.270643
 20
393.022193
 30
0.0
 11
433.369166
 21
393.022193
 31
0.0
  0
ARC
  5
58C0
  8
51
 10
-2147.867397
 20
416.823518
 30
0.0
 40
1679.589442
 50
357.737677
 51
358.335008
  0
LINE
  5
58C1
  8
51
 10
-468.987078
 20
393.022193
 30
0.0
 11
-468.987078
 21
368.022193
 31
0.0
  0
LINE
  5
58C2
  8
51
 10
-468.987078
 20
393.022193
 30
0.0
 11
-468.987078
 21
418.022193
 31
0.0
  0
ARC
  5
58C3
  8
51
 10
-2100.629373
 20
370.840457
 30
0.0
 40
1632.324323
 50
1.656344
 51
2.270971
  0
LINE
  5
58C4
  8
53
  6
DASHDOT
 10
-154.038997
 20
393.022193
 30
0.0
 11
-495.961003
 21
393.022193
 31
0.0
  0
ARC
  5
58C5
  8
31
 10
489.799086
 20
516.881186
 30
0.0
 40
6.16611
 50
7.51126
 51
84.078475
  0
LINE
  5
58C6
  8
34
 10
493.412286
 20
393.022193
 30
0.0
 11
493.412286
 21
501.816979
 31
0.0
  0
LINE
  5
58C7
  8
31
 10
495.912286
 20
509.293203
 30
0.0
 11
495.912286
 21
517.687226
 31
0.0
  0
LINE
  5
58C8
  8
31
 10
466.412286
 20
531.022193
 30
0.0
 11
471.738525
 21
530.929223
 31
0.0
  0
LINE
  5
58C9
  8
31
 10
466.412286
 20
523.022193
 30
0.0
 11
466.412286
 21
510.191427
 31
0.0
  0
LINE
  5
58CA
  8
31
 10
466.412286
 20
528.928095
 30
0.0
 11
466.412286
 21
531.022193
 31
0.0
  0
LINE
  5
58CB
  8
31
 10
466.412286
 20
523.022193
 30
0.0
 11
466.412286
 21
524.53905
 31
0.0
  0
LINE
  5
58CC
  8
31
 10
466.412286
 20
524.53905
 30
0.0
 11
466.412286
 21
528.928095
 31
0.0
  0
LINE
  5
58CD
  8
31
 10
471.736238
 20
530.929263
 30
0.0
 11
472.979621
 21
530.90756
 31
0.0
  0
LINE
  5
58CE
  8
31
 10
465.912286
 20
510.191427
 30
0.0
 11
466.412286
 21
510.191427
 31
0.0
  0
LINE
  5
58CF
  8
31
 10
465.912286
 20
531.030921
 30
0.0
 11
466.412286
 21
531.022193
 31
0.0
  0
LINE
  5
58D0
  8
31
 10
465.912286
 20
510.191427
 30
0.0
 11
465.912286
 21
531.030921
 31
0.0
  0
LINE
  5
58D1
  8
31
 10
466.412286
 20
510.191427
 30
0.0
 11
466.412286
 21
509.293203
 31
0.0
  0
LINE
  5
58D2
  8
31
 10
472.979621
 20
530.90756
 30
0.0
 11
490.412286
 21
530.603272
 31
0.0
  0
TEXT
  5
58D3
  8
0
  6
CONTINUOUS
 10
330.76571
 20
977.068835
 30
0.0
 40
2.5
  1
  
 50
21.66214
  0
ARC
  5
58D4
  8
14
 10
71.464547
 20
165.188329
 30
0.0
 40
3.0
 50
180.0
 51
269.930179
  0
LINE
  5
58D5
  8
11
 10
42.931201
 20
189.706662
 30
0.0
 11
63.770694
 21
189.706662
 31
0.0
  0
LINE
  5
58D6
  8
11
 10
43.35885
 20
165.206662
 30
0.0
 11
65.774442
 21
165.206662
 31
0.0
  0
LINE
  5
58D7
  8
11
 10
42.931201
 20
189.706662
 30
0.0
 11
43.35885
 21
165.206662
 31
0.0
  0
LINE
  5
58D8
  8
11
 10
49.839656
 20
165.206662
 30
0.0
 11
49.841662
 21
165.183728
 31
0.0
  0
ARC
  5
58D9
  8
11
 10
55.818831
 20
165.706662
 30
0.0
 40
6.0
 50
185.0
 51
270.0
  0
LINE
  5
58DA
  8
11
 10
63.770694
 20
189.706662
 30
0.0
 11
63.770694
 21
189.206662
 31
0.0
  0
LINE
  5
58DB
  8
11
 10
65.774442
 20
165.206662
 30
0.0
 11
65.776449
 21
165.183728
 31
0.0
  0
ARC
  5
58DC
  8
11
 10
71.753617
 20
165.706662
 30
0.0
 40
6.0
 50
185.0
 51
270.0
  0
LINE
  5
58DD
  8
11
 10
65.774442
 20
165.206662
 30
0.0
 11
65.900584
 21
179.661053
 31
0.0
  0
ARC
  5
58DE
  8
11
 10
54.631989
 20
160.46789
 30
0.0
 40
22.256656
 50
59.582163
 51
87.702934
  0
LINE
  5
58DF
  8
12
 10
65.900584
 20
179.661053
 30
0.0
 11
230.940425
 21
179.661053
 31
0.0
  0
LINE
  5
58E0
  8
12
 10
230.940425
 20
165.685379
 30
0.0
 11
65.77862
 21
165.685379
 31
0.0
  0
LINE
  5
58E1
  8
11
 10
43.047015
 20
182.706662
 30
0.0
 11
43.053386
 21
182.706662
 31
0.0
  0
ARC
  5
58E2
  8
11
 10
407.232767
 20
161.575824
 30
0.0
 40
21.148987
 50
92.3738
 51
121.225396
  0
LINE
  5
58E3
  8
11
 10
396.106408
 20
165.206662
 30
0.0
 11
396.269003
 21
179.661053
 31
0.0
  0
LINE
  5
58E4
  8
11
 10
396.106408
 20
165.206662
 30
0.0
 11
396.104402
 21
165.183728
 31
0.0
  0
LINE
  5
58E5
  8
11
 10
398.110156
 20
189.706662
 30
0.0
 11
398.110156
 21
189.206662
 31
0.0
  0
ARC
  5
58E6
  8
11
 10
406.06202
 20
165.706662
 30
0.0
 40
6.0
 50
270.0
 51
355.0
  0
LINE
  5
58E7
  8
11
 10
412.041195
 20
165.206662
 30
0.0
 11
412.039188
 21
165.183728
 31
0.0
  0
LINE
  5
58E8
  8
11
 10
418.94965
 20
189.706662
 30
0.0
 11
418.522001
 21
165.206662
 31
0.0
  0
LINE
  5
58E9
  8
11
 10
418.522001
 20
165.206662
 30
0.0
 11
396.106408
 21
165.206662
 31
0.0
  0
LINE
  5
58EA
  8
11
 10
418.94965
 20
189.706662
 30
0.0
 11
398.110156
 21
189.706662
 31
0.0
  0
LINE
  5
58EB
  8
11
 10
418.940923
 20
189.206662
 30
0.0
 11
418.847993
 21
183.882715
 31
0.0
  0
LINE
  5
58EC
  8
11
 10
411.391195
 20
165.206662
 30
0.0
 11
418.522001
 21
165.206662
 31
0.0
  0
LINE
  5
58ED
  8
11
 10
418.847993
 20
183.88271
 30
0.0
 11
418.522001
 21
165.206662
 31
0.0
  0
ARC
  5
58EE
  8
11
 10
390.127234
 20
165.706662
 30
0.0
 40
6.0
 50
270.0
 51
355.0
  0
LINE
  5
58EF
  8
12
 10
396.269003
 20
179.661053
 30
0.0
 11
230.940425
 21
179.661053
 31
0.0
  0
LINE
  5
58F0
  8
11
 10
418.833835
 20
182.706662
 30
0.0
 11
418.827465
 21
182.706662
 31
0.0
  0
LINE
  5
58F1
  8
12
 10
230.940425
 20
165.685379
 30
0.0
 11
396.102231
 21
165.685379
 31
0.0
  0
LINE
  5
58F2
  8
34
 10
466.412286
 20
505.522193
 30
0.0
 11
489.942829
 21
505.316845
 31
0.0
  0
LINE
  5
58F3
  8
33
  6
DASHDOT
 10
461.412286
 20
393.022193
 30
0.0
 11
503.066475
 21
393.022193
 31
0.0
  0
ARC
  5
58F4
  8
34
 10
489.912286
 20
501.816979
 30
0.0
 40
3.5
 50
0.0
 51
89.5
  0
LINE
  5
58F5
  8
34
 10
466.412286
 20
280.522193
 30
0.0
 11
489.942829
 21
280.727541
 31
0.0
  0
ARC
  5
58F6
  8
34
 10
489.912286
 20
284.227408
 30
0.0
 40
3.5
 50
270.5
 51
0.0
  0
LINE
  5
58F7
  8
34
 10
493.412286
 20
393.022193
 30
0.0
 11
493.412286
 21
284.227408
 31
0.0
  0
LINE
  5
58F8
  8
31
 10
490.412286
 20
508.179176
 30
0.0
 11
475.957895
 21
508.053035
 31
0.0
  0
ARC
  5
58F9
  8
31
 10
495.151058
 20
519.32163
 30
0.0
 40
22.256656
 50
182.297066
 51
210.417837
  0
ARC
  5
58FA
  8
31
 10
489.912286
 20
502.200002
 30
0.0
 40
6.0
 50
0.0
 51
85.0
  0
LINE
  5
58FB
  8
31
 10
490.412286
 20
530.594769
 30
0.0
 11
490.412286
 21
508.179176
 31
0.0
  0
LINE
  5
58FC
  8
41
 10
-28.531435
 20
530.594769
 30
0.0
 11
-28.531435
 21
508.179176
 31
0.0
  0
ARC
  5
58FD
  8
41
 10
-28.031435
 20
502.200002
 30
0.0
 40
6.0
 50
95.0
 51
180.0
  0
ARC
  5
58FE
  8
41
 10
-33.270208
 20
519.32163
 30
0.0
 40
22.256656
 50
329.582163
 51
357.702934
  0
LINE
  5
58FF
  8
41
 10
-28.531435
 20
508.179176
 30
0.0
 11
-14.077044
 21
508.053035
 31
0.0
  0
LINE
  5
5900
  8
44
 10
-31.531435
 20
393.022193
 30
0.0
 11
-31.531435
 21
284.227408
 31
0.0
  0
ARC
  5
5901
  8
44
 10
-28.031435
 20
284.227408
 30
0.0
 40
3.5
 50
180.0
 51
269.5
  0
LINE
  5
5902
  8
44
 10
-4.531435
 20
280.522193
 30
0.0
 11
-28.061978
 21
280.727541
 31
0.0
  0
ARC
  5
5903
  8
44
 10
-28.031435
 20
501.816979
 30
0.0
 40
3.5
 50
90.5
 51
180.0
  0
LINE
  5
5905
  8
44
 10
-4.531435
 20
505.522193
 30
0.0
 11
-28.061978
 21
505.316845
 31
0.0
  0
LINE
  5
5906
  8
41
 10
-11.09877
 20
530.90756
 30
0.0
 11
-28.531435
 21
530.603272
 31
0.0
  0
LINE
  5
5907
  8
41
 10
-4.531435
 20
510.191427
 30
0.0
 11
-4.531435
 21
509.293203
 31
0.0
  0
LINE
  5
5908
  8
41
 10
-4.031435
 20
510.191427
 30
0.0
 11
-4.031435
 21
531.030921
 31
0.0
  0
LINE
  5
5909
  8
41
 10
-4.031435
 20
531.030921
 30
0.0
 11
-4.531435
 21
531.022193
 31
0.0
  0
LINE
  5
590A
  8
41
 10
-4.031435
 20
510.191427
 30
0.0
 11
-4.531435
 21
510.191427
 31
0.0
  0
LINE
  5
590B
  8
41
 10
-9.855388
 20
530.929263
 30
0.0
 11
-11.09877
 21
530.90756
 31
0.0
  0
LINE
  5
590C
  8
41
 10
-4.531435
 20
524.53905
 30
0.0
 11
-4.531435
 21
528.928095
 31
0.0
  0
LINE
  5
590D
  8
41
 10
-4.531435
 20
523.022193
 30
0.0
 11
-4.531435
 21
524.53905
 31
0.0
  0
LINE
  5
590E
  8
41
 10
-4.531435
 20
528.928095
 30
0.0
 11
-4.531435
 21
531.022193
 31
0.0
  0
LINE
  5
590F
  8
41
 10
-4.531435
 20
523.022193
 30
0.0
 11
-4.531435
 21
510.191427
 31
0.0
  0
LINE
  5
5910
  8
41
 10
-4.531435
 20
531.022193
 30
0.0
 11
-9.857674
 21
530.929223
 31
0.0
  0
LINE
  5
5911
  8
41
 10
-34.031435
 20
509.293203
 30
0.0
 11
-34.031435
 21
517.687226
 31
0.0
  0
LINE
  5
5912
  8
44
 10
-31.531435
 20
393.022193
 30
0.0
 11
-31.531435
 21
501.816979
 31
0.0
  0
ARC
  5
5913
  8
41
 10
-27.918236
 20
516.881186
 30
0.0
 40
6.16611
 50
95.921525
 51
172.48874
  0
LINE
  5
5916
  8
41
 10
-4.031435
 20
255.021968
 30
0.0
 11
-4.031435
 21
275.861462
 31
0.0
  0
LINE
  5
5917
  8
41
 10
-28.531435
 20
255.449617
 30
0.0
 11
-28.531435
 21
277.86521
 31
0.0
  0
LINE
  5
5918
  8
41
 10
-4.031435
 20
255.021968
 30
0.0
 11
-28.531435
 21
255.449617
 31
0.0
  0
LINE
  5
591A
  8
41
 10
-28.531435
 20
261.930424
 30
0.0
 11
-28.55437
 21
261.93243
 31
0.0
  0
ARC
  5
591B
  8
41
 10
-28.031435
 20
267.909599
 30
0.0
 40
6.0
 50
180.0
 51
265.0
  0
LINE
  5
591C
  8
41
 10
-4.031435
 20
275.861462
 30
0.0
 11
-4.531435
 21
275.861462
 31
0.0
  0
LINE
  5
591D
  8
41
 10
-28.531435
 20
277.86521
 30
0.0
 11
-28.55437
 21
277.867217
 31
0.0
  0
ARC
  5
591E
  8
41
 10
-28.031435
 20
283.844385
 30
0.0
 40
6.0
 50
180.0
 51
265.0
  0
LINE
  5
591F
  8
41
 10
-28.531435
 20
277.86521
 30
0.0
 11
-14.077044
 21
277.991352
 31
0.0
  0
ARC
  5
5920
  8
41
 10
-33.270208
 20
266.722756
 30
0.0
 40
22.256656
 50
2.297066
 51
30.417837
  0
LINE
  5
5921
  8
42
 10
-28.052719
 20
508.174999
 30
0.0
 11
-28.052719
 21
277.869388
 31
0.0
  0
LINE
  5
5922
  8
42
 10
-14.077044
 20
277.991352
 30
0.0
 11
-14.077044
 21
508.053035
 31
0.0
  0
LINE
  5
5923
  8
41
 10
-11.031435
 20
518.429569
 30
0.0
 11
-11.031435
 21
267.614817
 31
0.0
  0
LINE
  5
5924
  8
41
 10
-4.531435
 20
509.293203
 30
0.0
 11
-4.531435
 21
255.030696
 31
0.0
  0
LINE
  5
5925
  8
41
 10
-34.031435
 20
509.293203
 30
0.0
 11
-34.031435
 21
267.909599
 31
0.0
  0
LINE
  5
5926
  8
22
 10
230.940425
 20
620.359008
 30
0.0
 11
396.102231
 21
620.359008
 31
0.0
  0
LINE
  5
5927
  8
21
 10
418.833835
 20
603.337724
 30
0.0
 11
418.827465
 21
603.337724
 31
0.0
  0
LINE
  5
5928
  8
22
 10
396.269003
 20
606.383333
 30
0.0
 11
230.940425
 21
606.383333
 31
0.0
  0
ARC
  5
5929
  8
21
 10
390.127234
 20
620.337724
 30
0.0
 40
6.0
 50
5.0
 51
90.0
  0
LINE
  5
592A
  8
21
 10
418.847993
 20
602.161677
 30
0.0
 11
418.522001
 21
620.837724
 31
0.0
  0
LINE
  5
592B
  8
21
 10
411.391195
 20
620.837724
 30
0.0
 11
418.522001
 21
620.837724
 31
0.0
  0
LINE
  5
592C
  8
21
 10
418.940923
 20
596.837724
 30
0.0
 11
418.847993
 21
602.161671
 31
0.0
  0
LINE
  5
592D
  8
21
 10
418.94965
 20
596.337724
 30
0.0
 11
398.110156
 21
596.337724
 31
0.0
  0
LINE
  5
592E
  8
21
 10
418.522001
 20
620.837724
 30
0.0
 11
396.106408
 21
620.837724
 31
0.0
  0
LINE
  5
592F
  8
21
 10
418.94965
 20
596.337724
 30
0.0
 11
418.522001
 21
620.837724
 31
0.0
  0
LINE
  5
5930
  8
21
 10
412.041195
 20
620.837724
 30
0.0
 11
412.039188
 21
620.860659
 31
0.0
  0
ARC
  5
5931
  8
21
 10
406.06202
 20
620.337724
 30
0.0
 40
6.0
 50
5.0
 51
90.0
  0
LINE
  5
5932
  8
21
 10
398.110156
 20
596.337724
 30
0.0
 11
398.110156
 21
596.837724
 31
0.0
  0
LINE
  5
5933
  8
21
 10
396.106408
 20
620.837724
 30
0.0
 11
396.104402
 21
620.860659
 31
0.0
  0
LINE
  5
5934
  8
21
 10
396.106408
 20
620.837724
 30
0.0
 11
396.269003
 21
606.383333
 31
0.0
  0
ARC
  5
5935
  8
21
 10
407.232767
 20
624.468563
 30
0.0
 40
21.148987
 50
238.774604
 51
267.6262
  0
LINE
  5
5936
  8
21
 10
43.047015
 20
603.337724
 30
0.0
 11
43.053386
 21
603.337724
 31
0.0
  0
LINE
  5
5937
  8
22
 10
230.940425
 20
620.359008
 30
0.0
 11
65.77862
 21
620.359008
 31
0.0
  0
LINE
  5
5938
  8
22
 10
65.900584
 20
606.383333
 30
0.0
 11
230.940425
 21
606.383333
 31
0.0
  0
ARC
  5
5939
  8
21
 10
54.631989
 20
625.576496
 30
0.0
 40
22.256656
 50
272.297066
 51
300.417837
  0
LINE
  5
593A
  8
21
 10
65.774442
 20
620.837724
 30
0.0
 11
65.900584
 21
606.383333
 31
0.0
  0
ARC
  5
593B
  8
21
 10
71.753617
 20
620.337724
 30
0.0
 40
6.0
 50
90.0
 51
175.0
  0
LINE
  5
593C
  8
21
 10
65.774442
 20
620.837724
 30
0.0
 11
65.776449
 21
620.860659
 31
0.0
  0
LINE
  5
593D
  8
21
 10
63.770694
 20
596.337724
 30
0.0
 11
63.770694
 21
596.837724
 31
0.0
  0
ARC
  5
593E
  8
21
 10
55.818831
 20
620.337724
 30
0.0
 40
6.0
 50
90.0
 51
175.0
  0
LINE
  5
593F
  8
21
 10
49.839656
 20
620.837724
 30
0.0
 11
49.841662
 21
620.860659
 31
0.0
  0
LINE
  5
5940
  8
21
 10
42.931201
 20
596.337724
 30
0.0
 11
43.35885
 21
620.837724
 31
0.0
  0
LINE
  5
5941
  8
21
 10
43.35885
 20
620.837724
 30
0.0
 11
65.774442
 21
620.837724
 31
0.0
  0
LINE
  5
5942
  8
21
 10
42.931201
 20
596.337724
 30
0.0
 11
63.770694
 21
596.337724
 31
0.0
  0
ARC
  5
5943
  8
24
 10
71.464547
 20
620.856057
 30
0.0
 40
3.0
 50
90.069821
 51
180.0
  0
LINE
  5
5944
  8
21
 10
42.939928
 20
596.837724
 30
0.0
 11
43.032858
 21
602.161671
 31
0.0
  0
LINE
  5
5945
  8
24
 10
230.940425
 20
623.93463
 30
0.0
 11
71.460891
 21
623.856055
 31
0.0
  0
LINE
  5
5946
  8
21
 10
230.940425
 20
626.337724
 30
0.0
 11
55.818831
 21
626.337724
 31
0.0
  0
LINE
  5
5947
  8
21
 10
406.06202
 20
626.337724
 30
0.0
 11
230.940425
 21
626.337724
 31
0.0
  0
LINE
  5
5948
  8
21
 10
50.489656
 20
620.837724
 30
0.0
 11
43.35885
 21
620.837724
 31
0.0
  0
LINE
  5
5949
  8
21
 10
43.032858
 20
602.161677
 30
0.0
 11
43.35885
 21
620.837724
 31
0.0
  0
LINE
  5
594A
  8
24
 10
68.464547
 20
596.837724
 30
0.0
 11
68.464547
 21
620.856057
 31
0.0
  0
LINE
  5
594B
  8
24
 10
393.416304
 20
596.837724
 30
0.0
 11
393.416304
 21
620.659069
 31
0.0
  0
ARC
  5
594C
  8
24
 10
390.41487
 20
621.016493
 30
0.0
 40
3.0
 50
359.932998
 51
92.773515
  0
LINE
  5
594D
  8
24
 10
390.551754
 20
624.013369
 30
0.0
 11
230.940425
 21
623.93463
 31
0.0
  0
LINE
  5
594E
  8
21
 10
42.939928
 20
596.837724
 30
0.0
 11
418.940923
 21
596.837724
 31
0.0
  0
LINE
  5
594F
  8
23
  6
DASHDOT
 10
230.940425
 20
647.450159
 30
0.0
 11
230.940425
 21
578.226665
 31
0.0
  0
TEXT
  5
5950
  8
L20
 10
-339.0
 20
601.0
 30
0.0
 40
19.79899
  1
FIBOX EK-P 30 COVER
  0
LINE
  5
5951
  8
43
  6
DASHDOT
 10
3.918232
 20
393.022193
 30
0.0
 11
-41.081768
 21
393.022193
 31
0.0
  0
LINE
  5
5952
  8
21
 10
55.524049
 20
603.337724
 30
0.0
 11
230.918232
 21
603.337724
 31
0.0
  0
LINE
  5
5953
  8
11
 10
55.524049
 20
182.706662
 30
0.0
 11
230.918232
 21
182.706662
 31
0.0
  0
LINE
  5
5954
  8
11
 10
406.356801
 20
182.706662
 30
0.0
 11
230.962618
 21
182.706662
 31
0.0
  0
LINE
  5
5955
  8
21
 10
406.356801
 20
603.337724
 30
0.0
 11
230.962618
 21
603.337724
 31
0.0
  0
VIEWPORT
  5
1
 67
     1
  8
0
 10
210.0
 20
152.094241
 30
0.0
 40
420.0
 41
304.188482
 68
    -1
 69
     1
1001
ACAD
1000
MVIEW
1002
{
1070
    16
1010
0.0
1020
0.0
1030
0.0
1010
0.0
1020
0.0
1030
1.0
1040
0.0
1040
304.188482
1040
210.0
1040
152.094241
1040
50.0
1040
0.0
1040
0.0
1070
     0
1070
   100
1070
     1
1070
     1
1070
     1
1070
     0
1070
     0
1070
     0
1040
0.0
1040
0.0
1040
0.0
1040
1.0
1040
1.0
1040
0.0
1040
0.0
1070
     0
1002
{
1002
}
1002
}
  0
ENDSEC
  0
EOF
