  0
SECTION
  2
HEADER
  9
$ACADVER
  1
AC1009
  9
$INSBASE
 10
0.0
 20
0.0
 30
0.0
  9
$EXTMIN
 10
-625.123181
 20
39.325362
 30
-0.001526
  9
$EXTMAX
 10
679.610972
 20
1076.358679
 30
0.0
  9
$LIMMIN
 10
0.0
 20
0.0
  9
$LIMMAX
 10
1187.928
 20
840.0348
  9
$ORTHOMODE
 70
     1
  9
$REGENMODE
 70
     1
  9
$FILLMODE
 70
     1
  9
$QTEXTMODE
 70
     0
  9
$MIRRTEXT
 70
     0
  9
$DRAGMODE
 70
     2
  9
$LTSCALE
 40
7.0
  9
$OSMODE
 70
   167
  9
$ATTMODE
 70
     1
  9
$TEXTSIZE
 40
3.5
  9
$TRACEWID
 40
0.05
  9
$TEXTSTYLE
  7
CAEISO
  9
$CLAYER
  8
L32
  9
$CELTYPE
  6
BYLAYER
  9
$CECOLOR
 62
   256
  9
$DIMSCALE
 40
1.0
  9
$DIMASZ
 40
3.5
  9
$DIMEXO
 40
0.0
  9
$DIMDLI
 40
10.0
  9
$DIMRND
 40
0.1
  9
$DIMDLE
 40
0.0
  9
$DIMEXE
 40
2.0
  9
$DIMTP
 40
0.2
  9
$DIMTM
 40
0.0
  9
$DIMTXT
 40
3.5
  9
$DIMCEN
 40
2.5
  9
$DIMTSZ
 40
0.0
  9
$DIMTOL
 70
     0
  9
$DIMLIM
 70
     0
  9
$DIMTIH
 70
     0
  9
$DIMTOH
 70
     0
  9
$DIMSE1
 70
     0
  9
$DIMSE2
 70
     0
  9
$DIMTAD
 70
     1
  9
$DIMZIN
 70
    11
  9
$DIMBLK
  1

  9
$DIMASO
 70
     1
  9
$DIMSHO
 70
     1
  9
$DIMPOST
  1

  9
$DIMAPOST
  1

  9
$DIMALT
 70
     0
  9
$DIMALTD
 70
     2
  9
$DIMALTF
 40
25.4
  9
$DIMLFAC
 40
1.0
  9
$DIMTOFL
 70
     1
  9
$DIMTVP
 40
0.0
  9
$DIMTIX
 70
     0
  9
$DIMSOXD
 70
     0
  9
$DIMSAH
 70
     0
  9
$DIMBLK1
  1

  9
$DIMBLK2
  1

  9
$DIMSTYLE
  2
DIMMM
  9
$DIMCLRD
 70
   256
  9
$DIMCLRE
 70
   256
  9
$DIMCLRT
 70
     3
  9
$DIMTFAC
 40
0.714286
  9
$DIMGAP
 40
0.5
  9
$LUNITS
 70
     2
  9
$LUPREC
 70
     3
  9
$SKETCHINC
 40
1.0
  9
$FILLETRAD
 40
0.0
  9
$AUNITS
 70
     0
  9
$AUPREC
 70
     2
  9
$MENU
  1
CAESAR
  9
$ELEVATION
 40
0.0
  9
$PELEVATION
 40
0.0
  9
$THICKNESS
 40
0.0
  9
$LIMCHECK
 70
     0
  9
$BLIPMODE
 70
     1
  9
$CHAMFERA
 40
5.0
  9
$CHAMFERB
 40
5.0
  9
$SKPOLY
 70
     0
  9
$TDCREATE
 40
2450365.765413
  9
$TDUPDATE
 40
2453063.588236
  9
$TDINDWG
 40
0.153854
  9
$TDUSRTIMER
 40
0.153854
  9
$USRTIMER
 70
     1
  9
$ANGBASE
 50
0.0
  9
$ANGDIR
 70
     0
  9
$PDMODE
 70
     0
  9
$PDSIZE
 40
0.0
  9
$PLINEWID
 40
0.0
  9
$COORDS
 70
     2
  9
$SPLFRAME
 70
     0
  9
$SPLINETYPE
 70
     6
  9
$SPLINESEGS
 70
     8
  9
$ATTDIA
 70
     0
  9
$ATTREQ
 70
     0
  9
$HANDLING
 70
     1
  9
$HANDSEED
  5
F5059
  9
$SURFTAB1
 70
     6
  9
$SURFTAB2
 70
     6
  9
$SURFTYPE
 70
     6
  9
$SURFU
 70
     6
  9
$SURFV
 70
     6
  9
$UCSNAME
  2

  9
$UCSORG
 10
0.0
 20
0.0
 30
0.0
  9
$UCSXDIR
 10
1.0
 20
0.0
 30
0.0
  9
$UCSYDIR
 10
0.0
 20
1.0
 30
0.0
  9
$PUCSNAME
  2

  9
$PUCSORG
 10
0.0
 20
0.0
 30
0.0
  9
$PUCSXDIR
 10
1.0
 20
0.0
 30
0.0
  9
$PUCSYDIR
 10
0.0
 20
1.0
 30
0.0
  9
$USERI1
 70
   100
  9
$USERI2
 70
     0
  9
$USERI3
 70
     0
  9
$USERI4
 70
     0
  9
$USERI5
 70
     0
  9
$USERR1
 40
0.0
  9
$USERR2
 40
0.0
  9
$USERR3
 40
3.5
  9
$USERR4
 40
0.0
  9
$USERR5
 40
0.0
  9
$WORLDVIEW
 70
     1
  9
$SHADEDGE
 70
     3
  9
$SHADEDIF
 70
    70
  9
$TILEMODE
 70
     1
  9
$MAXACTVP
 70
    16
  9
$PLIMCHECK
 70
     0
  9
$PEXTMIN
 10
1.000000E+020
 20
1.000000E+020
 30
1.000000E+020
  9
$PEXTMAX
 10
-1.000000E+020
 20
-1.000000E+020
 30
-1.000000E+020
  9
$PLIMMIN
 10
0.0
 20
0.0
  9
$PLIMMAX
 10
420.0
 20
297.0
  9
$UNITMODE
 70
     0
  9
$VISRETAIN
 70
     0
  9
$PLINEGEN
 70
     0
  9
$PSLTSCALE
 70
     0
  0
ENDSEC
  0
SECTION
  2
TABLES
  0
TABLE
  2
VPORT
 70
    11
  0
VPORT
  2
*ACTIVE
 70
     0
 10
0.0
 20
0.0
 11
1.0
 21
1.0
 12
27.243895
 22
557.84202
 13
0.0
 23
0.0
 14
1.0
 24
1.0
 15
10.0
 25
10.0
 16
0.0
 26
0.0
 36
1.0
 17
0.0
 27
0.0
 37
0.0
 40
1047.706045
 41
1.616838
 42
50.0
 43
0.0
 44
0.0
 50
0.0
 51
0.0
 71
     0
 72
   100
 73
     1
 74
     0
 75
     0
 76
     0
 77
     0
 78
     0
  0
ENDTAB
  0
TABLE
  2
LTYPE
 70
    10
  0
LTYPE
  2
CONTINUOUS
 70
     0
  3
Solid line
 72
    65
 73
     0
 40
0.0
  0
LTYPE
  2
CENTER
 70
     0
  3
____ _ ____ _ ____ _ ____ _ ____ _ ____ _ ____ 
 72
    65
 73
     4
 40
2.0
 49
1.25
 49
-0.25
 49
0.25
 49
-0.25
  0
ENDTAB
  0
TABLE
  2
LAYER
 70
    27
  0
LAYER
  2
0
 70
     0
 62
     6
  6
CONTINUOUS
  0
LAYER
  2
L1
 70
     0
 62
     7
  6
CONTINUOUS
  0
LAYER
  2
L2
 70
     0
 62
     1
  6
CONTINUOUS
  0
LAYER
  2
L6
 70
     0
 62
     1
  6
CENTER
  0
LAYER
  2
L8
 70
     0
 62
     1
  6
CONTINUOUS
  0
LAYER
  2
L22
 70
     0
 62
     1
  6
CONTINUOUS
  0
LAYER
  2
L32
 70
     0
 62
     3
  6
CONTINUOUS
  0
LAYER
  2
DEFPOINTS
 70
     0
 62
     7
  6
CONTINUOUS
  0
LAYER
  2
L20
 70
     0
 62
     3
  6
CONTINUOUS
  0
LAYER
  2
1
 70
     0
 62
     7
  6
CONTINUOUS
  0
ENDTAB
  0
TABLE
  2
STYLE
 70
     9
  0
STYLE
  2
STANDARD
 70
     0
 40
0.0
 41
1.0
 50
0.0
 71
     0
 42
3.5
  3
CAEISO.SHX
  4

  0
STYLE
  2
SIMPLEX
 70
     0
 40
0.0
 41
0.8
 50
0.0
 71
     0
 42
2.5
  3
SIMPLEX.SHX
  4

  0
STYLE
  2
CAEISO
 70
     0
 40
0.0
 41
1.0
 50
0.0
 71
     0
 42
3.5
  3
CAEISO.SHX
  4

  0
ENDTAB
  0
TABLE
  2
VIEW
 70
     0
  0
ENDTAB
  0
TABLE
  2
UCS
 70
     0
  0
ENDTAB
  0
TABLE
  2
APPID
 70
     1
  0
APPID
  2
ACAD
 70
     0
  0
ENDTAB
  0
TABLE
  2
DIMSTYLE
 70
     2
  0
DIMSTYLE
  2
DIMMM
 70
     0
  3

  4

  5

  6

  7

 40
0.0
 41
3.5
 42
0.0
 43
10.0
 44
2.0
 45
0.1
 46
0.0
 47
0.2
 48
0.0
140
3.5
141
2.5
142
0.0
143
25.4
144
1.0
145
0.0
146
0.714286
147
0.5
 71
     0
 72
     0
 73
     0
 74
     0
 75
     0
 76
     0
 77
     1
 78
    11
170
     0
171
     2
172
     1
173
     0
174
     0
175
     0
176
   256
177
   256
178
     3
  0
DIMSTYLE
  2
ACADUS
 70
     0
  3

  4

  5

  6

  7

 40
1.0
 41
0.18
 42
0.0625
 43
0.38
 44
0.18
 45
0.0
 46
0.0
 47
0.0
 48
0.0
140
0.18
141
0.09
142
0.0
143
25.4
144
1.0
145
0.0
146
1.0
147
0.09
 71
     0
 72
     0
 73
     1
 74
     1
 75
     0
 76
     0
 77
     0
 78
     0
170
     0
171
     2
172
     0
173
     0
174
     0
175
     0
176
     0
177
     0
178
     0
  0
ENDTAB
  0
ENDSEC
  0
SECTION
  2
BLOCKS
  0
BLOCK
  8
0
  2
$MODEL_SPACE
 70
     0
 10
0.0
 20
0.0
 30
0.0
  3
$MODEL_SPACE
  1

  0
ENDBLK
  5
F4EDE
  8
0
  0
BLOCK
 67
     1
  8
0
  2
$PAPER_SPACE
 70
     0
 10
0.0
 20
0.0
 30
0.0
  3
$PAPER_SPACE
  1

  0
ENDBLK
  5
F4EDC
 67
     1
  8
0
  0
BLOCK
  8
0
  2
TKKTOLER
 70
     0
 10
0.0
 20
0.0
 30
0.0
  3
TKKTOLER
  1

  0
ENDBLK
  5
5393
  8
0
  0
BLOCK
  8
0
  2
GEOTOL
 70
     0
 10
0.0
 20
0.0
 30
0.0
  3
GEOTOL
  1

  0
ENDBLK
  5
157F5
  8
0
  0
BLOCK
  8
0
  2
*D163
 70
     1
 10
0.0
 20
0.0
 30
0.0
  3
*D163
  1

  0
LINE
  5
F4FCD
  8
0
  6
BYBLOCK
 10
-181.289993
 20
746.82981
 30
0.0
 11
-181.289993
 21
771.384072
 31
0.0
  0
LINE
  5
F4FCE
  8
0
  6
BYBLOCK
 10
-32.289993
 20
746.82981
 30
0.0
 11
-32.289993
 21
771.384072
 31
0.0
  0
LINE
  5
F4FCF
  8
0
  6
BYBLOCK
 10
-177.789993
 20
769.384072
 30
0.0
 11
-35.789993
 21
769.384072
 31
0.0
  0
SOLID
  5
F4FD0
  8
0
  6
BYBLOCK
 10
-177.789993
 20
769.967405
 30
0.0
 11
-177.789993
 21
768.800738
 31
0.0
 12
-181.289993
 22
769.384072
 32
0.0
 13
-181.289993
 23
769.384072
 33
0.0
  0
SOLID
  5
F4FD1
  8
0
  6
BYBLOCK
 10
-35.789993
 20
769.967405
 30
0.0
 11
-35.789993
 21
768.800738
 31
0.0
 12
-32.289993
 22
769.384072
 32
0.0
 13
-32.289993
 23
769.384072
 33
0.0
  0
TEXT
  8
0
  40
3.5
  5
F5058
  62
3
  72
0
  71
0
 10
-113.790
 20
765.439
 30
0.000000
  1
149
  7
CAEISO
  0
POINT
  5
F4FD4
  8
DEFPOINTS
  6
BYBLOCK
 62
     0
 10
-181.289993
 20
746.82981
 30
0.0
  0
POINT
  5
F4FD5
  8
DEFPOINTS
  6
BYBLOCK
 62
     0
 10
-32.289993
 20
746.82981
 30
0.0
  0
POINT
  5
F4FD6
  8
DEFPOINTS
  6
BYBLOCK
 62
     0
 10
-32.289993
 20
769.384072
 30
0.0
  0
ENDBLK
  5
F4FD7
  8
0
  0
BLOCK
  8
0
  2
A$C0E121CD3
 70
     0
 10
0.0
 20
0.0
 30
0.0
  3
A$C0E121CD3
  1

  0
TEXT
  5
F5017
  8
L20
 10
0.0
 20
0.0
 30
0.0
 40
14.849242
  1
FIBOX EK-P 278x378x100 BASE
  0
ENDBLK
  5
F5019
  8
0
  0
ENDSEC
  0
SECTION
  2
ENTITIES
  0
ARC
  5
9096
  8
L1
 10
169.840729
 20
395.32981
 30
0.0
 40
5.0
 50
8.626927
 51
171.373073
  0
CIRCLE
  5
9097
  8
L1
 10
169.840729
 20
395.32981
 30
0.0
 40
2.4
  0
ARC
  5
9098
  8
L1
 10
169.840729
 20
395.32981
 30
0.0
 40
5.0
 50
188.626927
 51
351.373073
  0
ARC
  5
9099
  8
L1
 10
144.840729
 20
395.32981
 30
0.0
 40
5.0
 50
180.0
 51
351.373073
  0
CIRCLE
  5
909A
  8
L1
 10
144.840729
 20
395.32981
 30
0.0
 40
2.4
  0
LINE
  5
909B
  8
L1
 10
149.784159
 20
396.07981
 30
0.0
 11
164.897299
 21
396.07981
 31
0.0
  0
LINE
  5
909C
  8
L1
 10
149.784159
 20
394.57981
 30
0.0
 11
164.897299
 21
394.57981
 31
0.0
  0
ARC
  5
909D
  8
L1
 10
144.840729
 20
395.32981
 30
0.0
 40
5.0
 50
8.626927
 51
180.0
  0
ARC
  5
90C6
  8
L1
 10
144.840729
 20
720.32981
 30
0.0
 40
5.0
 50
180.0
 51
351.373073
  0
LINE
  5
90C7
  8
L1
 10
149.784159
 20
721.07981
 30
0.0
 11
164.897299
 21
721.07981
 31
0.0
  0
LINE
  5
90C8
  8
L1
 10
149.784159
 20
719.57981
 30
0.0
 11
164.897299
 21
719.57981
 31
0.0
  0
CIRCLE
  5
90C9
  8
L1
 10
144.840729
 20
720.32981
 30
0.0
 40
2.4
  0
ARC
  5
90CA
  8
L1
 10
144.840729
 20
720.32981
 30
0.0
 40
5.0
 50
8.626927
 51
180.0
  0
ARC
  5
90CB
  8
L1
 10
169.840729
 20
720.32981
 30
0.0
 40
5.0
 50
8.626927
 51
171.373073
  0
CIRCLE
  5
90CC
  8
L1
 10
169.840729
 20
720.32981
 30
0.0
 40
2.4
  0
ARC
  5
90CD
  8
L1
 10
169.840729
 20
720.32981
 30
0.0
 40
5.0
 50
188.626927
 51
351.373073
  0
ARC
  5
90F9
  8
L1
 10
294.840729
 20
720.32981
 30
0.0
 40
5.0
 50
188.626927
 51
351.373073
  0
LINE
  5
90FA
  8
L1
 10
289.897299
 20
721.07981
 30
0.0
 11
274.784159
 21
721.07981
 31
0.0
  0
LINE
  5
90FB
  8
L1
 10
289.897299
 20
719.57981
 30
0.0
 11
274.784159
 21
719.57981
 31
0.0
  0
CIRCLE
  5
90FC
  8
L1
 10
294.840729
 20
720.32981
 30
0.0
 40
2.4
  0
ARC
  5
90FD
  8
L1
 10
294.840729
 20
720.32981
 30
0.0
 40
5.0
 50
8.626927
 51
171.373073
  0
ARC
  5
90FE
  8
L1
 10
319.840729
 20
720.32981
 30
0.0
 40
5.0
 50
0.0
 51
171.373073
  0
CIRCLE
  5
90FF
  8
L1
 10
319.840729
 20
720.32981
 30
0.0
 40
2.4
  0
LINE
  5
9100
  8
L1
 10
314.897299
 20
719.57981
 30
0.0
 11
299.784159
 21
719.57981
 31
0.0
  0
LINE
  5
9101
  8
L1
 10
314.897299
 20
721.07981
 30
0.0
 11
299.784159
 21
721.07981
 31
0.0
  0
ARC
  5
9102
  8
L1
 10
319.840729
 20
720.32981
 30
0.0
 40
5.0
 50
188.626927
 51
0.0
  0
ARC
  5
912B
  8
L1
 10
319.840729
 20
395.32981
 30
0.0
 40
5.0
 50
360.0
 51
171.373073
  0
LINE
  5
912C
  8
L1
 10
314.897299
 20
394.57981
 30
0.0
 11
299.784159
 21
394.57981
 31
0.0
  0
LINE
  5
912D
  8
L1
 10
314.897299
 20
396.07981
 30
0.0
 11
299.784159
 21
396.07981
 31
0.0
  0
CIRCLE
  5
912E
  8
L1
 10
319.840729
 20
395.32981
 30
0.0
 40
2.4
  0
ARC
  5
912F
  8
L1
 10
319.840729
 20
395.32981
 30
0.0
 40
5.0
 50
188.626927
 51
360.0
  0
ARC
  5
9130
  8
L1
 10
294.840729
 20
395.32981
 30
0.0
 40
5.0
 50
188.626927
 51
351.373073
  0
CIRCLE
  5
9131
  8
L1
 10
294.840729
 20
395.32981
 30
0.0
 40
2.4
  0
ARC
  5
9134
  8
L1
 10
294.840729
 20
395.32981
 30
0.0
 40
5.0
 50
8.626927
 51
171.373073
  0
LINE
  5
913B
  8
L1
 10
347.340729
 20
380.82981
 30
0.0
 11
347.340729
 21
380.72981
 31
0.0
  0
LINE
  5
913D
  8
L1
 10
359.340729
 20
392.82981
 30
0.0
 11
359.440729
 21
392.82981
 31
0.0
  0
LINE
  5
913E
  8
L1
 10
364.840729
 20
398.32981
 30
0.0
 11
364.840729
 21
557.82981
 31
0.0
  0
LINE
  5
913F
  8
L1
 10
366.840729
 20
398.32981
 30
0.0
 11
366.840729
 21
557.82981
 31
0.0
  0
ARC
  5
9142
  8
L1
 10
359.340729
 20
380.82981
 30
0.0
 40
12.0
 50
90.0
 51
180.0
  0
CIRCLE
  5
9145
  8
L1
 10
359.340729
 20
380.82981
 30
0.0
 40
10.0
  0
LINE
  5
9147
  8
L6
 10
359.340729
 20
365.161259
 30
0.0
 11
359.340729
 21
396.49836
 31
0.0
  0
ARC
  5
9148
  8
L1
 10
359.340729
 20
380.82981
 30
0.0
 40
12.0
 50
270.0
 51
0.0
  0
LINE
  5
9149
  8
L1
 10
371.340729
 20
380.82981
 30
0.0
 11
371.340729
 21
557.82981
 31
0.0
  0
INSERT
  5
93AF
  8
L32
  2
TKKTOLER
 10
0.0
 20
0.0
 30
0.0
  0
CIRCLE
  5
9422
  8
L1
 10
337.340729
 20
712.82981
 30
0.0
 40
3.0
  0
CIRCLE
  5
9423
  8
L1
 10
337.340729
 20
712.82981
 30
0.0
 40
6.0
  0
CIRCLE
  5
9424
  8
L1
 10
337.340729
 20
402.82981
 30
0.0
 40
3.0
  0
CIRCLE
  5
9425
  8
L1
 10
337.340729
 20
402.82981
 30
0.0
 40
6.0
  0
CIRCLE
  5
9426
  8
L1
 10
127.340729
 20
712.82981
 30
0.0
 40
6.0
  0
CIRCLE
  5
9427
  8
L1
 10
127.340729
 20
712.82981
 30
0.0
 40
3.0
  0
CIRCLE
  5
9428
  8
L1
 10
127.407297
 20
402.82981
 30
0.0
 40
6.0
  0
CIRCLE
  5
9429
  8
L1
 10
127.407297
 20
402.82981
 30
0.0
 40
3.0
  0
LINE
  5
963C
  8
L1
 10
-607.261443
 20
746.82981
 30
0.0
 11
-480.261443
 21
746.82981
 31
0.0
  0
ARC
  5
963E
  8
L1
 10
-607.261443
 20
734.82981
 30
0.0
 40
12.0
 50
26.210269
 51
243.789731
  0
ARC
  5
9640
  8
L1
 10
-607.261443
 20
380.82981
 30
0.0
 40
12.0
 50
116.210269
 51
333.789731
  0
LINE
  5
9643
  8
L1
 10
-607.261443
 20
368.82981
 30
0.0
 11
-480.261443
 21
368.82981
 31
0.0
  0
CIRCLE
  5
9660
  8
L1
 10
-607.261443
 20
380.82981
 30
0.0
 40
8.0
  0
CIRCLE
  5
9664
  8
L1
 10
-592.761443
 20
420.32981
 30
0.0
 40
4.25
  0
CIRCLE
  5
9668
  8
L1
 10
-567.761443
 20
395.32981
 30
0.0
 40
4.25
  0
CIRCLE
  5
966B
  8
L1
 10
-542.761443
 20
395.32981
 30
0.0
 40
4.25
  0
LINE
  5
9682
  8
L6
 10
-607.261443
 20
367.014412
 30
0.0
 11
-607.261443
 21
394.645207
 31
0.0
  0
CIRCLE
  5
9695
  8
L1
 10
-542.761443
 20
720.32981
 30
0.0
 40
4.25
  0
CIRCLE
  5
9698
  8
L1
 10
-567.761443
 20
720.32981
 30
0.0
 40
4.25
  0
CIRCLE
  5
969C
  8
L1
 10
-592.761443
 20
595.32981
 30
0.0
 40
4.25
  0
ARC
  5
989C
  8
L1
 10
194.840729
 20
720.32981
 30
0.0
 40
5.0
 50
8.626927
 51
171.373073
  0
CIRCLE
  5
989D
  8
L1
 10
194.840729
 20
720.32981
 30
0.0
 40
2.4
  0
ARC
  5
989E
  8
L1
 10
194.840729
 20
720.32981
 30
0.0
 40
5.0
 50
188.626927
 51
351.373073
  0
ARC
  5
98A1
  8
L1
 10
219.840729
 20
720.32981
 30
0.0
 40
5.0
 50
8.626927
 51
171.373073
  0
CIRCLE
  5
98A2
  8
L1
 10
219.840729
 20
720.32981
 30
0.0
 40
2.4
  0
ARC
  5
98A3
  8
L1
 10
219.840729
 20
720.32981
 30
0.0
 40
5.0
 50
188.626927
 51
351.373073
  0
ARC
  5
98B2
  8
L1
 10
244.840729
 20
720.32981
 30
0.0
 40
5.0
 50
8.626927
 51
171.373073
  0
CIRCLE
  5
98B3
  8
L1
 10
244.840729
 20
720.32981
 30
0.0
 40
2.4
  0
ARC
  5
98B4
  8
L1
 10
244.840729
 20
720.32981
 30
0.0
 40
5.0
 50
188.626927
 51
351.373073
  0
ARC
  5
98B7
  8
L1
 10
269.840729
 20
720.32981
 30
0.0
 40
5.0
 50
188.626927
 51
351.373073
  0
CIRCLE
  5
98B8
  8
L1
 10
269.840729
 20
720.32981
 30
0.0
 40
2.4
  0
ARC
  5
98B9
  8
L1
 10
269.840729
 20
720.32981
 30
0.0
 40
5.0
 50
8.626927
 51
171.373073
  0
LINE
  5
990F
  8
L1
 10
189.897299
 20
721.07981
 30
0.0
 11
174.784159
 21
721.07981
 31
0.0
  0
LINE
  5
9910
  8
L1
 10
189.897299
 20
719.57981
 30
0.0
 11
174.784159
 21
719.57981
 31
0.0
  0
LINE
  5
9911
  8
L1
 10
214.897299
 20
719.57981
 30
0.0
 11
199.784159
 21
719.57981
 31
0.0
  0
LINE
  5
9912
  8
L1
 10
214.897299
 20
721.07981
 30
0.0
 11
199.784159
 21
721.07981
 31
0.0
  0
LINE
  5
9915
  8
L1
 10
264.897299
 20
719.57981
 30
0.0
 11
249.784159
 21
719.57981
 31
0.0
  0
LINE
  5
9916
  8
L1
 10
264.897299
 20
721.07981
 30
0.0
 11
249.784159
 21
721.07981
 31
0.0
  0
LINE
  5
9A05
  8
L1
 10
214.897299
 20
396.07981
 30
0.0
 11
199.784159
 21
396.07981
 31
0.0
  0
LINE
  5
9A06
  8
L1
 10
214.897299
 20
394.57981
 30
0.0
 11
199.784159
 21
394.57981
 31
0.0
  0
LINE
  5
9A07
  8
L1
 10
189.897299
 20
394.57981
 30
0.0
 11
174.784159
 21
394.57981
 31
0.0
  0
LINE
  5
9A08
  8
L1
 10
189.897299
 20
396.07981
 30
0.0
 11
174.784159
 21
396.07981
 31
0.0
  0
ARC
  5
9A0C
  8
L1
 10
219.840729
 20
395.32981
 30
0.0
 40
5.0
 50
188.626927
 51
351.373073
  0
CIRCLE
  5
9A0D
  8
L1
 10
219.840729
 20
395.32981
 30
0.0
 40
2.4
  0
ARC
  5
9A0E
  8
L1
 10
219.840729
 20
395.32981
 30
0.0
 40
5.0
 50
8.626927
 51
171.373073
  0
ARC
  5
9A11
  8
L1
 10
194.840729
 20
395.32981
 30
0.0
 40
5.0
 50
188.626927
 51
351.373073
  0
CIRCLE
  5
9A12
  8
L1
 10
194.840729
 20
395.32981
 30
0.0
 40
2.4
  0
ARC
  5
9A13
  8
L1
 10
194.840729
 20
395.32981
 30
0.0
 40
5.0
 50
8.626927
 51
171.373073
  0
LINE
  5
9A14
  8
L1
 10
264.897299
 20
396.07981
 30
0.0
 11
249.784159
 21
396.07981
 31
0.0
  0
LINE
  5
9A15
  8
L1
 10
264.897299
 20
394.57981
 30
0.0
 11
249.784159
 21
394.57981
 31
0.0
  0
ARC
  5
9A16
  8
L1
 10
269.840729
 20
395.32981
 30
0.0
 40
5.0
 50
8.626927
 51
171.373073
  0
CIRCLE
  5
9A17
  8
L1
 10
269.840729
 20
395.32981
 30
0.0
 40
2.4
  0
ARC
  5
9A18
  8
L1
 10
269.840729
 20
395.32981
 30
0.0
 40
5.0
 50
188.626927
 51
351.373073
  0
ARC
  5
9A1B
  8
L1
 10
244.840729
 20
395.32981
 30
0.0
 40
5.0
 50
188.626927
 51
351.373073
  0
CIRCLE
  5
9A1C
  8
L1
 10
244.840729
 20
395.32981
 30
0.0
 40
2.4
  0
ARC
  5
9A1D
  8
L1
 10
244.840729
 20
395.32981
 30
0.0
 40
5.0
 50
8.626927
 51
171.373073
  0
LINE
  5
9A20
  8
L1
 10
289.897299
 20
394.57981
 30
0.0
 11
274.784159
 21
394.57981
 31
0.0
  0
LINE
  5
9A21
  8
L1
 10
289.897299
 20
396.07981
 30
0.0
 11
274.784159
 21
396.07981
 31
0.0
  0
CIRCLE
  5
9A22
  8
L1
 10
-517.761443
 20
720.32981
 30
0.0
 40
4.25
  0
CIRCLE
  5
9A25
  8
L1
 10
-492.761443
 20
720.32981
 30
0.0
 40
4.25
  0
CIRCLE
  5
9A2E
  8
L1
 10
-492.761443
 20
395.32981
 30
0.0
 40
4.25
  0
CIRCLE
  5
9A31
  8
L1
 10
-517.761443
 20
395.32981
 30
0.0
 40
4.25
  0
INSERT
  5
13D1A
  8
L32
  2
TKKTOLER
 10
-5.0
 20
617.0
 30
0.0
  0
LINE
  5
13F80
  8
L6
 10
489.911009
 20
557.82981
 30
0.0
 11
679.552994
 21
557.82981
 31
0.0
  0
LINE
  5
140AD
  8
L1
 10
232.340729
 20
201.331086
 30
0.0
 11
94.641033
 21
201.331086
 31
0.0
  0
LINE
  5
140B0
  8
L1
 10
232.340729
 20
49.331086
 30
0.0
 11
116.544242
 21
49.331086
 31
0.0
  0
TEXT
  5
140B8
  8
L22
 62
     3
 10
192.635425
 20
166.68
 30
0.0
 40
3.5
  1

 41
0.8
  7
SIMPLEX
 72
     2
 11
192.635425
 21
166.68
 31
0.0
  0
INSERT
  5
14173
  8
L32
  2
TKKTOLER
 10
-9.014832
 20
1235.243098
 30
0.0
  0
INSERT
  5
157F6
  8
L32
  2
GEOTOL
 10
72.0
 20
87.419708
 30
0.0
  0
LINE
  5
15EA1
  8
L1
 10
239.897299
 20
719.57981
 30
0.0
 11
224.784159
 21
719.57981
 31
0.0
  0
LINE
  5
15EA2
  8
L1
 10
239.897299
 20
721.07981
 30
0.0
 11
224.784159
 21
721.07981
 31
0.0
  0
LINE
  5
15EA3
  8
L1
 10
239.897299
 20
394.57981
 30
0.0
 11
224.784159
 21
394.57981
 31
0.0
  0
LINE
  5
15EA4
  8
L1
 10
239.897299
 20
396.07981
 30
0.0
 11
224.784159
 21
396.07981
 31
0.0
  0
LINE
  5
15FD8
  8
L1
 10
232.340729
 20
201.331086
 30
0.0
 11
370.040426
 21
201.331086
 31
0.0
  0
LINE
  5
15FD9
  8
L1
 10
232.340729
 20
49.331086
 30
0.0
 11
345.316973
 21
49.331086
 31
0.0
  0
LINE
  5
15FDA
  8
L1
 10
93.340729
 20
52.331086
 30
0.0
 11
366.893095
 21
52.331086
 31
0.0
  0
LINE
  5
15FE2
  8
L1
 10
370.040426
 20
201.331086
 30
0.0
 11
371.340729
 21
52.331086
 31
0.0
  0
LINE
  5
15FE5
  8
L1
 10
345.316973
 20
49.331086
 30
0.0
 11
365.858037
 21
49.331086
 31
0.0
  0
ARC
  5
15FE6
  8
L1
 10
365.858032
 20
50.331086
 30
0.0
 40
1.0
 50
270.0
 51
359.0
  0
LINE
  5
15FE7
  8
L1
 10
366.893095
 20
52.331086
 30
0.0
 11
366.85788
 21
50.313634
 31
0.0
  0
LINE
  5
15FE8
  8
L1
 10
366.893095
 20
52.331086
 30
0.0
 11
366.85788
 21
50.313634
 31
0.0
  0
ARC
  5
15FE9
  8
L1
 10
365.858032
 20
50.331086
 30
0.0
 40
1.0
 50
270.0
 51
359.0
  0
LINE
  5
15FEA
  8
L1
 10
365.858032
 20
49.331086
 30
0.0
 11
365.858032
 21
49.331086
 31
0.0
  0
LINE
  5
15FEB
  8
L1
 10
371.340729
 20
52.331086
 30
0.0
 11
366.893095
 21
52.331086
 31
0.0
  0
LINE
  5
15FEC
  8
L1
 10
366.893095
 20
52.331086
 30
0.0
 11
371.340729
 21
52.331086
 31
0.0
  0
CIRCLE
  5
1A7D8
  8
L1
 10
-607.261443
 20
380.82981
 30
0.0
 40
3.5
  0
CIRCLE
  5
1A7DB
  8
L1
 10
359.340729
 20
380.82981
 30
0.0
 40
3.5
  0
CIRCLE
  5
1A800
  8
L1
 10
359.340729
 20
380.82981
 30
0.0
 40
8.25
  0
LINE
  5
1A801
  8
L1
 10
363.586132
 20
387.903639
 30
0.0
 11
364.854719
 21
389.172227
 31
0.0
  0
LINE
  5
1A802
  8
L1
 10
366.414559
 20
385.075212
 30
0.0
 11
367.683146
 21
386.3438
 31
0.0
  0
LINE
  5
1A803
  8
L1
 10
366.414559
 20
376.584408
 30
0.0
 11
367.683146
 21
375.31582
 31
0.0
  0
LINE
  5
1A804
  8
L1
 10
363.586132
 20
373.755981
 30
0.0
 11
364.854719
 21
372.487393
 31
0.0
  0
ARC
  5
1A805
  8
L2
 10
359.340729
 20
380.82981
 30
0.0
 40
8.0
 50
100.0
 51
10.0
  0
LINE
  5
1A806
  8
L1
 10
355.095327
 20
373.755981
 30
0.0
 11
353.82674
 21
372.487393
 31
0.0
  0
LINE
  5
1A807
  8
L1
 10
352.2669
 20
376.584408
 30
0.0
 11
350.998313
 21
375.31582
 31
0.0
  0
CIRCLE
  5
1A808
  8
L1
 10
359.340729
 20
380.82981
 30
0.0
 40
6.9
  0
CIRCLE
  5
1A809
  8
L2
 10
359.340729
 20
380.82981
 30
0.0
 40
5.5
  0
LINE
  5
1A80A
  8
L1
 10
355.095327
 20
387.903639
 30
0.0
 11
353.82674
 21
389.172227
 31
0.0
  0
LINE
  5
1A80B
  8
L1
 10
352.2669
 20
385.075212
 30
0.0
 11
350.998313
 21
386.3438
 31
0.0
  0
LINE
  5
26CC3
  8
L1
 10
105.340729
 20
368.82981
 30
0.0
 11
232.340729
 21
368.82981
 31
0.0
  0
LINE
  5
28BCE
  8
L6
 10
-335.350943
 20
557.82981
 30
0.0
 11
-625.060083
 21
557.82981
 31
0.0
  0
LINE
  5
29E68
  8
L1
 10
371.840729
 20
403.32981
 30
0.0
 11
371.840729
 21
420.32981
 31
0.0
  0
LINE
  5
29E6A
  8
L1
 10
371.840729
 20
420.32981
 30
0.0
 11
371.340729
 21
420.32981
 31
0.0
  0
LINE
  5
29E6B
  8
L1
 10
371.840729
 20
403.32981
 30
0.0
 11
371.340729
 21
403.32981
 31
0.0
  0
LINE
  5
29E70
  8
L1
 10
322.340729
 20
368.32981
 30
0.0
 11
335.340729
 21
368.32981
 31
0.0
  0
LINE
  5
29E71
  8
L1
 10
322.340729
 20
368.32981
 30
0.0
 11
322.340729
 21
368.82981
 31
0.0
  0
LINE
  5
514E3
  8
L1
 10
98.823427
 20
49.331086
 30
0.0
 11
116.544242
 21
49.331086
 31
0.0
  0
LINE
  5
51BF0
  8
L1
 10
95.790729
 20
52.331086
 30
0.0
 11
97.788364
 21
52.331086
 31
0.0
  0
LINE
  5
51BF2
  8
L1
 10
97.788364
 20
52.331086
 30
0.0
 11
97.823579
 21
50.313634
 31
0.0
  0
ARC
  5
51BF3
  8
L1
 10
98.823427
 20
50.331086
 30
0.0
 40
1.0
 50
181.0
 51
270.0
  0
ARC
  5
51D45
  8
L1
 10
119.840729
 20
420.32981
 30
0.0
 40
5.0
 50
270.0
 51
81.373073
  0
CIRCLE
  5
51D46
  8
L1
 10
119.840729
 20
420.32981
 30
0.0
 40
2.4
  0
ARC
  5
51D47
  8
L1
 10
119.840729
 20
420.32981
 30
0.0
 40
5.0
 50
98.626927
 51
270.0
  0
LINE
  5
51D48
  8
L1
 10
119.090729
 20
425.27324
 30
0.0
 11
119.090729
 21
440.38638
 31
0.0
  0
LINE
  5
51D49
  8
L1
 10
120.590729
 20
425.27324
 30
0.0
 11
120.590729
 21
440.38638
 31
0.0
  0
LINE
  5
51D4C
  8
L1
 10
120.590729
 20
515.38638
 30
0.0
 11
120.590729
 21
500.27324
 31
0.0
  0
LINE
  5
51D4D
  8
L1
 10
119.090729
 20
515.38638
 30
0.0
 11
119.090729
 21
500.27324
 31
0.0
  0
ARC
  5
51D4E
  8
L1
 10
119.840729
 20
445.32981
 30
0.0
 40
5.0
 50
278.626927
 51
81.373073
  0
ARC
  5
51D4F
  8
L1
 10
119.840729
 20
445.32981
 30
0.0
 40
5.0
 50
98.626927
 51
261.373073
  0
CIRCLE
  5
51D50
  8
L1
 10
119.840729
 20
445.32981
 30
0.0
 40
2.4
  0
ARC
  5
51D51
  8
L1
 10
119.840729
 20
520.32981
 30
0.0
 40
5.0
 50
278.626927
 51
90.0
  0
ARC
  5
51D55
  8
L1
 10
119.840729
 20
520.32981
 30
0.0
 40
5.0
 50
90.0
 51
261.373073
  0
CIRCLE
  5
51D56
  8
L1
 10
119.840729
 20
520.32981
 30
0.0
 40
2.4
  0
CIRCLE
  5
51D5C
  8
L1
 10
119.840729
 20
670.32981
 30
0.0
 40
2.4
  0
ARC
  5
51D5D
  8
L1
 10
119.840729
 20
670.32981
 30
0.0
 40
5.0
 50
98.626927
 51
261.373073
  0
ARC
  5
51D5E
  8
L1
 10
119.840729
 20
595.32981
 30
0.0
 40
5.0
 50
98.626927
 51
270.0
  0
LINE
  5
51D5F
  8
L1
 10
120.590729
 20
665.38638
 30
0.0
 11
120.590729
 21
650.27324
 31
0.0
  0
LINE
  5
51D60
  8
L1
 10
119.090729
 20
665.38638
 30
0.0
 11
119.090729
 21
650.27324
 31
0.0
  0
CIRCLE
  5
51D61
  8
L1
 10
119.840729
 20
595.32981
 30
0.0
 40
2.4
  0
ARC
  5
51D63
  8
L1
 10
119.840729
 20
695.32981
 30
0.0
 40
5.0
 50
90.0
 51
261.373073
  0
LINE
  5
51D64
  8
L1
 10
120.590729
 20
690.38638
 30
0.0
 11
120.590729
 21
675.27324
 31
0.0
  0
LINE
  5
51D65
  8
L1
 10
119.090729
 20
690.38638
 30
0.0
 11
119.090729
 21
675.27324
 31
0.0
  0
CIRCLE
  5
51D66
  8
L1
 10
119.840729
 20
695.32981
 30
0.0
 40
2.4
  0
ARC
  5
51D67
  8
L1
 10
119.840729
 20
695.32981
 30
0.0
 40
5.0
 50
278.626927
 51
90.0
  0
ARC
  5
51D68
  8
L1
 10
119.840729
 20
670.32981
 30
0.0
 40
5.0
 50
278.626927
 51
81.373073
  0
ARC
  5
51D69
  8
L1
 10
119.840729
 20
595.32981
 30
0.0
 40
5.0
 50
270.0
 51
81.373073
  0
ARC
  5
51E20
  8
L1
 10
344.840729
 20
670.32981
 30
0.0
 40
5.0
 50
98.626927
 51
261.373073
  0
ARC
  5
51E21
  8
L1
 10
344.840729
 20
670.32981
 30
0.0
 40
5.0
 50
278.626927
 51
81.373073
  0
CIRCLE
  5
51E22
  8
L1
 10
344.840729
 20
670.32981
 30
0.0
 40
2.4
  0
ARC
  5
51E23
  8
L1
 10
344.840729
 20
595.32981
 30
0.0
 40
5.0
 50
98.626927
 51
270.0
  0
ARC
  5
51E24
  8
L1
 10
344.840729
 20
595.32981
 30
0.0
 40
5.0
 50
270.0
 51
81.373073
  0
CIRCLE
  5
51E25
  8
L1
 10
344.840729
 20
595.32981
 30
0.0
 40
2.4
  0
LINE
  5
51E26
  8
L1
 10
344.090729
 20
665.38638
 30
0.0
 11
344.090729
 21
650.27324
 31
0.0
  0
LINE
  5
51E27
  8
L1
 10
345.590729
 20
665.38638
 30
0.0
 11
345.590729
 21
650.27324
 31
0.0
  0
ARC
  5
51E28
  8
L1
 10
344.840729
 20
695.32981
 30
0.0
 40
5.0
 50
90.0
 51
261.373073
  0
LINE
  5
51E29
  8
L1
 10
345.590729
 20
690.38638
 30
0.0
 11
345.590729
 21
675.27324
 31
0.0
  0
LINE
  5
51E2A
  8
L1
 10
344.090729
 20
690.38638
 30
0.0
 11
344.090729
 21
675.27324
 31
0.0
  0
ARC
  5
51E2C
  8
L1
 10
344.840729
 20
695.32981
 30
0.0
 40
5.0
 50
278.626927
 51
90.0
  0
CIRCLE
  5
51E2D
  8
L1
 10
344.840729
 20
695.32981
 30
0.0
 40
2.4
  0
ARC
  5
51E35
  8
L1
 10
344.840729
 20
445.32981
 30
0.0
 40
5.0
 50
98.626927
 51
261.373073
  0
ARC
  5
51E36
  8
L1
 10
344.840729
 20
420.32981
 30
0.0
 40
5.0
 50
98.626927
 51
270.0
  0
ARC
  5
51E37
  8
L1
 10
344.840729
 20
520.32981
 30
0.0
 40
5.0
 50
90.0
 51
261.373073
  0
ARC
  5
51E38
  8
L1
 10
344.840729
 20
420.32981
 30
0.0
 40
5.0
 50
270.0
 51
81.373073
  0
CIRCLE
  5
51E39
  8
L1
 10
344.840729
 20
420.32981
 30
0.0
 40
2.4
  0
LINE
  5
51E3B
  8
L1
 10
344.090729
 20
515.38638
 30
0.0
 11
344.090729
 21
500.27324
 31
0.0
  0
LINE
  5
51E3C
  8
L1
 10
345.590729
 20
515.38638
 30
0.0
 11
345.590729
 21
500.27324
 31
0.0
  0
LINE
  5
51E3E
  8
L1
 10
344.090729
 20
425.27324
 30
0.0
 11
344.090729
 21
440.38638
 31
0.0
  0
LINE
  5
51E3F
  8
L1
 10
345.590729
 20
425.27324
 30
0.0
 11
345.590729
 21
440.38638
 31
0.0
  0
ARC
  5
51E40
  8
L1
 10
344.840729
 20
445.32981
 30
0.0
 40
5.0
 50
278.626927
 51
81.373073
  0
CIRCLE
  5
51E41
  8
L1
 10
344.840729
 20
445.32981
 30
0.0
 40
2.4
  0
CIRCLE
  5
51E43
  8
L1
 10
344.840729
 20
520.32981
 30
0.0
 40
2.4
  0
ARC
  5
51E44
  8
L1
 10
344.840729
 20
520.32981
 30
0.0
 40
5.0
 50
278.626927
 51
90.0
  0
LINE
  5
52CB7
  8
L1
 10
-619.261443
 20
734.82981
 30
0.0
 11
-619.261443
 21
557.82981
 31
0.0
  0
LINE
  5
52CC2
  8
L1
 10
-619.261443
 20
380.82981
 30
0.0
 11
-619.261443
 21
557.82981
 31
0.0
  0
CIRCLE
  5
52CC5
  8
L1
 10
-592.761443
 20
420.32981
 30
0.0
 40
4.25
  0
CIRCLE
  5
52CC8
  8
L1
 10
-592.761443
 20
520.32981
 30
0.0
 40
4.25
  0
CIRCLE
  5
52CCC
  8
L1
 10
-592.761443
 20
495.32981
 30
0.0
 40
4.25
  0
CIRCLE
  5
52CD3
  8
L1
 10
-592.761443
 20
620.32981
 30
0.0
 40
4.25
  0
LINE
  5
54873
  8
L8
 10
232.340729
 20
379.189368
 30
0.0
 11
232.340729
 21
378.189368
 31
0.0
  0
LINE
  5
55BFA
  8
L1
 10
359.340729
 20
368.82981
 30
0.0
 11
232.340729
 21
368.82981
 31
0.0
  0
LINE
  5
566B5
  8
L1
 10
92.840729
 20
163.831086
 30
0.0
 11
92.840729
 21
180.831086
 31
0.0
  0
LINE
  5
566B9
  8
L1
 10
92.840729
 20
180.831086
 30
0.0
 11
93.340729
 21
180.831086
 31
0.0
  0
LINE
  5
566BA
  8
L1
 10
92.840729
 20
163.831086
 30
0.0
 11
93.340729
 21
163.831086
 31
0.0
  0
LINE
  5
566BC
  8
L1
 10
93.340729
 20
52.331086
 30
0.0
 11
93.340729
 21
195.831086
 31
0.0
  0
LINE
  5
566D4
  8
L6
 10
232.340729
 20
206.761806
 30
0.0
 11
232.340729
 21
82.905104
 31
0.0
  0
CIRCLE
  5
56EBD
  8
L1
 10
-417.761443
 20
720.32981
 30
0.0
 40
4.25
  0
LINE
  5
56EBE
  8
L1
 10
-353.261443
 20
746.82981
 30
0.0
 11
-480.261443
 21
746.82981
 31
0.0
  0
CIRCLE
  5
56EC6
  8
L1
 10
-417.761443
 20
395.32981
 30
0.0
 40
4.25
  0
LINE
  5
56EC7
  8
L1
 10
-353.261443
 20
368.82981
 30
0.0
 11
-480.261443
 21
368.82981
 31
0.0
  0
LINE
  5
56ED1
  8
L1
 10
-341.261443
 20
734.82981
 30
0.0
 11
-341.261443
 21
557.82981
 31
0.0
  0
LINE
  5
56ED6
  8
L1
 10
-341.261443
 20
380.82981
 30
0.0
 11
-341.261443
 21
557.82981
 31
0.0
  0
CIRCLE
  5
56ED8
  8
L1
 10
-367.761443
 20
420.32981
 30
0.0
 40
4.25
  0
CIRCLE
  5
56ED9
  8
L1
 10
-367.761443
 20
420.32981
 30
0.0
 40
4.25
  0
ARC
  5
56EE0
  8
L1
 10
-353.261443
 20
380.82981
 30
0.0
 40
12.0
 50
206.210269
 51
63.789731
  0
CIRCLE
  5
56EEE
  8
L1
 10
-392.761443
 20
395.32981
 30
0.0
 40
4.25
  0
CIRCLE
  5
56EFD
  8
L1
 10
-367.761443
 20
520.32981
 30
0.0
 40
4.25
  0
CIRCLE
  5
56F00
  8
L1
 10
-367.761443
 20
495.32981
 30
0.0
 40
4.25
  0
CIRCLE
  5
56F15
  8
L1
 10
-367.761443
 20
695.32981
 30
0.0
 40
4.25
  0
CIRCLE
  5
56F16
  8
L1
 10
-367.761443
 20
695.32981
 30
0.0
 40
4.25
  0
CIRCLE
  5
56F1A
  8
L1
 10
-367.761443
 20
595.32981
 30
0.0
 40
4.25
  0
CIRCLE
  5
56F1C
  8
L1
 10
-367.761443
 20
620.32981
 30
0.0
 40
4.25
  0
CIRCLE
  5
56F25
  8
L1
 10
-392.761443
 20
720.32981
 30
0.0
 40
4.25
  0
ARC
  5
56F2D
  8
L1
 10
-353.261443
 20
734.82981
 30
0.0
 40
12.0
 50
296.210269
 51
153.789731
  0
CIRCLE
  5
56F41
  8
L1
 10
-442.761443
 20
395.32981
 30
0.0
 40
4.25
  0
CIRCLE
  5
56F46
  8
L1
 10
-467.761443
 20
395.32981
 30
0.0
 40
4.25
  0
CIRCLE
  5
56F4B
  8
L1
 10
-442.761443
 20
720.32981
 30
0.0
 40
4.25
  0
CIRCLE
  5
56F50
  8
L1
 10
-467.761443
 20
720.32981
 30
0.0
 40
4.25
  0
CIRCLE
  5
57A00
  8
L1
 10
119.840729
 20
470.32981
 30
0.0
 40
2.4
  0
ARC
  5
57A01
  8
L1
 10
119.840729
 20
470.32981
 30
0.0
 40
5.0
 50
98.626927
 51
261.373073
  0
ARC
  5
57A02
  8
L1
 10
119.840729
 20
470.32981
 30
0.0
 40
5.0
 50
278.626927
 51
81.373073
  0
ARC
  5
57A04
  8
L1
 10
344.840729
 20
470.32981
 30
0.0
 40
5.0
 50
98.626927
 51
261.373073
  0
CIRCLE
  5
57A05
  8
L1
 10
344.840729
 20
470.32981
 30
0.0
 40
2.4
  0
ARC
  5
57A06
  8
L1
 10
344.840729
 20
470.32981
 30
0.0
 40
5.0
 50
278.626927
 51
81.373073
  0
CIRCLE
  5
57A08
  8
L1
 10
119.840729
 20
495.32981
 30
0.0
 40
2.4
  0
ARC
  5
57A09
  8
L1
 10
119.840729
 20
495.32981
 30
0.0
 40
5.0
 50
98.626927
 51
261.373073
  0
ARC
  5
57A0A
  8
L1
 10
119.840729
 20
495.32981
 30
0.0
 40
5.0
 50
278.626927
 51
81.373073
  0
ARC
  5
57A0C
  8
L1
 10
344.840729
 20
495.32981
 30
0.0
 40
5.0
 50
98.626927
 51
261.373073
  0
CIRCLE
  5
57A0D
  8
L1
 10
344.840729
 20
495.32981
 30
0.0
 40
2.4
  0
ARC
  5
57A0E
  8
L1
 10
344.840729
 20
495.32981
 30
0.0
 40
5.0
 50
278.626927
 51
81.373073
  0
LINE
  5
57A0F
  8
L1
 10
345.590729
 20
465.38638
 30
0.0
 11
345.590729
 21
450.27324
 31
0.0
  0
LINE
  5
57A10
  8
L1
 10
344.090729
 20
465.38638
 30
0.0
 11
344.090729
 21
450.27324
 31
0.0
  0
LINE
  5
57A11
  8
L1
 10
344.090729
 20
490.38638
 30
0.0
 11
344.090729
 21
475.27324
 31
0.0
  0
LINE
  5
57A12
  8
L1
 10
345.590729
 20
490.38638
 30
0.0
 11
345.590729
 21
475.27324
 31
0.0
  0
LINE
  5
57A13
  8
L1
 10
119.090729
 20
465.38638
 30
0.0
 11
119.090729
 21
450.27324
 31
0.0
  0
LINE
  5
57A14
  8
L1
 10
120.590729
 20
465.38638
 30
0.0
 11
120.590729
 21
450.27324
 31
0.0
  0
LINE
  5
57A15
  8
L1
 10
120.590729
 20
490.38638
 30
0.0
 11
120.590729
 21
475.27324
 31
0.0
  0
LINE
  5
57A16
  8
L1
 10
119.090729
 20
490.38638
 30
0.0
 11
119.090729
 21
475.27324
 31
0.0
  0
ARC
  5
57A17
  8
L1
 10
119.840729
 20
620.32981
 30
0.0
 40
5.0
 50
98.626927
 51
261.373073
  0
CIRCLE
  5
57A18
  8
L1
 10
119.840729
 20
620.32981
 30
0.0
 40
2.4
  0
ARC
  5
57A1A
  8
L1
 10
119.840729
 20
620.32981
 30
0.0
 40
5.0
 50
278.626927
 51
81.373073
  0
ARC
  5
57A1B
  8
L1
 10
119.840729
 20
645.32981
 30
0.0
 40
5.0
 50
98.626927
 51
261.373073
  0
CIRCLE
  5
57A1C
  8
L1
 10
119.840729
 20
645.32981
 30
0.0
 40
2.4
  0
ARC
  5
57A1E
  8
L1
 10
119.840729
 20
645.32981
 30
0.0
 40
5.0
 50
278.626927
 51
81.373073
  0
CIRCLE
  5
57A20
  8
L1
 10
344.840729
 20
645.32981
 30
0.0
 40
2.4
  0
ARC
  5
57A21
  8
L1
 10
344.840729
 20
645.32981
 30
0.0
 40
5.0
 50
98.626927
 51
261.373073
  0
ARC
  5
57A22
  8
L1
 10
344.840729
 20
645.32981
 30
0.0
 40
5.0
 50
278.626927
 51
81.373073
  0
ARC
  5
57A24
  8
L1
 10
344.840729
 20
620.32981
 30
0.0
 40
5.0
 50
98.626927
 51
261.373073
  0
ARC
  5
57A25
  8
L1
 10
344.840729
 20
620.32981
 30
0.0
 40
5.0
 50
278.626927
 51
81.373073
  0
CIRCLE
  5
57A26
  8
L1
 10
344.840729
 20
620.32981
 30
0.0
 40
2.4
  0
LINE
  5
57A27
  8
L1
 10
120.590729
 20
615.38638
 30
0.0
 11
120.590729
 21
600.27324
 31
0.0
  0
LINE
  5
57A28
  8
L1
 10
119.090729
 20
615.38638
 30
0.0
 11
119.090729
 21
600.27324
 31
0.0
  0
LINE
  5
57A29
  8
L1
 10
119.090729
 20
640.38638
 30
0.0
 11
119.090729
 21
625.27324
 31
0.0
  0
LINE
  5
57A2A
  8
L1
 10
120.590729
 20
640.38638
 30
0.0
 11
120.590729
 21
625.27324
 31
0.0
  0
LINE
  5
57A2B
  8
L1
 10
345.590729
 20
615.38638
 30
0.0
 11
345.590729
 21
600.27324
 31
0.0
  0
LINE
  5
57A2C
  8
L1
 10
344.090729
 20
615.38638
 30
0.0
 11
344.090729
 21
600.27324
 31
0.0
  0
LINE
  5
57A2D
  8
L1
 10
344.090729
 20
640.38638
 30
0.0
 11
344.090729
 21
625.27324
 31
0.0
  0
LINE
  5
57A2E
  8
L1
 10
345.590729
 20
640.38638
 30
0.0
 11
345.590729
 21
625.27324
 31
0.0
  0
CIRCLE
  5
57EF2
  8
L1
 10
-592.761443
 20
645.32981
 30
0.0
 40
4.25
  0
CIRCLE
  5
57EF4
  8
L1
 10
-367.761443
 20
645.32981
 30
0.0
 40
4.25
  0
CIRCLE
  5
57EF8
  8
L1
 10
-592.761443
 20
670.32981
 30
0.0
 40
4.25
  0
CIRCLE
  5
57EFC
  8
L1
 10
-367.761443
 20
670.32981
 30
0.0
 40
4.25
  0
CIRCLE
  5
57EFE
  8
L1
 10
-592.761443
 20
470.32981
 30
0.0
 40
4.25
  0
CIRCLE
  5
57F01
  8
L1
 10
-367.761443
 20
470.32981
 30
0.0
 40
4.25
  0
CIRCLE
  5
57F04
  8
L1
 10
-592.761443
 20
445.32981
 30
0.0
 40
4.25
  0
CIRCLE
  5
57F06
  8
L1
 10
-367.761443
 20
445.32981
 30
0.0
 40
4.25
  0
LINE
  5
6C0A0
  8
L6
 10
-480.261443
 20
360.431086
 30
0.0
 11
-480.261443
 21
756.569632
 31
0.0
  0
LINE
  5
89605
  8
L1
 10
341.840729
 20
375.32981
 30
0.0
 11
122.840729
 21
375.32981
 31
0.0
  0
LINE
  5
89606
  8
L1
 10
341.840729
 20
373.32981
 30
0.0
 11
122.840729
 21
373.32981
 31
0.0
  0
ARC
  5
89608
  8
L1
 10
341.840729
 20
380.82981
 30
0.0
 40
5.5
 50
270.0
 51
0.0
  0
ARC
  5
8960E
  8
L1
 10
341.840729
 20
380.82981
 30
0.0
 40
7.5
 50
270.0
 51
0.0
  0
ARC
  5
89610
  8
L1
 10
359.340729
 20
398.32981
 30
0.0
 40
7.5
 50
270.0
 51
0.0
  0
ARC
  5
89611
  8
L1
 10
359.340729
 20
398.32981
 30
0.0
 40
5.5
 50
270.0
 51
0.0
  0
LINE
  5
89614
  8
L1
 10
345.340729
 20
378.82981
 30
0.0
 11
119.340729
 21
378.82981
 31
0.0
  0
ARC
  5
89615
  8
L1
 10
345.340729
 20
380.82981
 30
0.0
 40
2.0
 50
270.0
 51
0.0
  0
LINE
  5
89617
  8
L1
 10
361.340729
 20
394.82981
 30
0.0
 11
361.340729
 21
557.82981
 31
0.0
  0
ARC
  5
89618
  8
L1
 10
359.340729
 20
394.82981
 30
0.0
 40
2.0
 50
270.0
 51
0.0
  0
LINE
  5
89619
  8
L6
 10
375.00928
 20
380.82981
 30
0.0
 11
343.672179
 21
380.82981
 31
0.0
  0
LINE
  5
89722
  8
L1
 10
335.340729
 20
368.32981
 30
0.0
 11
335.340729
 21
368.82981
 31
0.0
  0
LINE
  5
89A52
  8
L1
 10
142.340729
 20
368.32981
 30
0.0
 11
129.340729
 21
368.32981
 31
0.0
  0
LINE
  5
89A53
  8
L1
 10
142.340729
 20
368.32981
 30
0.0
 11
142.340729
 21
368.82981
 31
0.0
  0
LINE
  5
89A54
  8
L1
 10
129.340729
 20
368.32981
 30
0.0
 11
129.340729
 21
368.82981
 31
0.0
  0
LINE
  5
89A55
  8
L1
 10
103.340729
 20
394.82981
 30
0.0
 11
103.340729
 21
557.82981
 31
0.0
  0
LINE
  5
89A57
  8
L1
 10
99.840729
 20
398.32981
 30
0.0
 11
99.840729
 21
557.82981
 31
0.0
  0
LINE
  5
89A58
  8
L1
 10
97.840729
 20
398.32981
 30
0.0
 11
97.840729
 21
557.82981
 31
0.0
  0
LINE
  5
89A59
  8
L1
 10
93.340729
 20
380.82981
 30
0.0
 11
93.340729
 21
557.82981
 31
0.0
  0
LINE
  5
89A5B
  8
L1
 10
92.840729
 20
403.32981
 30
0.0
 11
92.840729
 21
420.32981
 31
0.0
  0
LINE
  5
89A5C
  8
L1
 10
92.840729
 20
403.32981
 30
0.0
 11
93.340729
 21
403.32981
 31
0.0
  0
LINE
  5
89A5D
  8
L1
 10
92.840729
 20
420.32981
 30
0.0
 11
93.340729
 21
420.32981
 31
0.0
  0
LINE
  5
89A5E
  8
L6
 10
105.340729
 20
365.161259
 30
0.0
 11
105.340729
 21
396.49836
 31
0.0
  0
CIRCLE
  5
89A5F
  8
L1
 10
105.340729
 20
380.82981
 30
0.0
 40
10.0
  0
ARC
  5
89A60
  8
L1
 10
105.340729
 20
380.82981
 30
0.0
 40
12.0
 50
0.0
 51
90.0
  0
ARC
  5
89A61
  8
L6
 10
105.340729
 20
380.82981
 30
0.0
 40
11.0
 50
0.0
 51
90.0
  0
LINE
  5
89A62
  8
L1
 10
109.586132
 20
387.903639
 30
0.0
 11
110.854719
 21
389.172227
 31
0.0
  0
ARC
  5
89A63
  8
L2
 10
105.340729
 20
380.82981
 30
0.0
 40
8.0
 50
170.0
 51
80.0
  0
LINE
  5
89A64
  8
L1
 10
101.095327
 20
387.903639
 30
0.0
 11
99.82674
 21
389.172227
 31
0.0
  0
CIRCLE
  5
89A65
  8
L1
 10
105.340729
 20
380.82981
 30
0.0
 40
8.25
  0
CIRCLE
  5
89A66
  8
L1
 10
105.340729
 20
380.82981
 30
0.0
 40
6.9
  0
LINE
  5
89A67
  8
L1
 10
112.414559
 20
385.075212
 30
0.0
 11
113.683146
 21
386.3438
 31
0.0
  0
CIRCLE
  5
89A68
  8
L2
 10
105.340729
 20
380.82981
 30
0.0
 40
5.5
  0
LINE
  5
89A69
  8
L1
 10
98.2669
 20
385.075212
 30
0.0
 11
96.998313
 21
386.3438
 31
0.0
  0
CIRCLE
  5
89A6A
  8
L1
 10
105.340729
 20
380.82981
 30
0.0
 40
3.5
  0
ARC
  5
89A6B
  8
L1
 10
105.340729
 20
394.82981
 30
0.0
 40
2.0
 50
180.0
 51
270.0
  0
ARC
  5
89A6C
  8
L6
 10
105.340729
 20
398.32981
 30
0.0
 40
6.5
 50
180.0
 51
270.0
  0
ARC
  5
89A6D
  8
L1
 10
105.340729
 20
398.32981
 30
0.0
 40
5.5
 50
180.0
 51
270.0
  0
ARC
  5
89A6E
  8
L1
 10
105.340729
 20
398.32981
 30
0.0
 40
7.5
 50
180.0
 51
270.0
  0
LINE
  5
89A6F
  8
L1
 10
105.340729
 20
392.82981
 30
0.0
 11
105.240729
 21
392.82981
 31
0.0
  0
ARC
  5
89A70
  8
L1
 10
105.340729
 20
380.82981
 30
0.0
 40
12.0
 50
180.0
 51
270.0
  0
LINE
  5
89A71
  8
L6
 10
89.672179
 20
380.82981
 30
0.0
 11
121.00928
 21
380.82981
 31
0.0
  0
ARC
  5
89A72
  8
L1
 10
119.340729
 20
380.82981
 30
0.0
 40
2.0
 50
180.0
 51
270.0
  0
ARC
  5
89A73
  8
L6
 10
122.840729
 20
380.82981
 30
0.0
 40
6.5
 50
180.0
 51
270.0
  0
ARC
  5
89A74
  8
L1
 10
122.840729
 20
380.82981
 30
0.0
 40
7.5
 50
180.0
 51
270.0
  0
ARC
  5
89A75
  8
L1
 10
122.840729
 20
380.82981
 30
0.0
 40
5.5
 50
180.0
 51
270.0
  0
LINE
  5
89A76
  8
L1
 10
112.414559
 20
376.584408
 30
0.0
 11
113.683146
 21
375.31582
 31
0.0
  0
LINE
  5
89A77
  8
L1
 10
117.340729
 20
380.82981
 30
0.0
 11
117.340729
 21
380.72981
 31
0.0
  0
LINE
  5
89A78
  8
L1
 10
109.586132
 20
373.755981
 30
0.0
 11
110.854719
 21
372.487393
 31
0.0
  0
LINE
  5
89A79
  8
L1
 10
101.095327
 20
373.755981
 30
0.0
 11
99.82674
 21
372.487393
 31
0.0
  0
LINE
  5
89A7A
  8
L1
 10
98.2669
 20
376.584408
 30
0.0
 11
96.998313
 21
375.31582
 31
0.0
  0
ARC
  5
89A7B
  8
L1
 10
359.340729
 20
734.82981
 30
0.0
 40
12.0
 50
0.0
 51
90.0
  0
LINE
  5
89A7C
  8
L6
 10
375.00928
 20
734.82981
 30
0.0
 11
343.672179
 21
734.82981
 31
0.0
  0
CIRCLE
  5
89A7D
  8
L1
 10
359.340729
 20
734.82981
 30
0.0
 40
10.0
  0
ARC
  5
89A7E
  8
L1
 10
359.340729
 20
734.82981
 30
0.0
 40
12.0
 50
180.0
 51
270.0
  0
LINE
  5
89A80
  8
L1
 10
355.095327
 20
727.755981
 30
0.0
 11
353.82674
 21
726.487393
 31
0.0
  0
LINE
  5
89A82
  8
L1
 10
363.586132
 20
727.755981
 30
0.0
 11
364.854719
 21
726.487393
 31
0.0
  0
CIRCLE
  5
89A83
  8
L1
 10
359.340729
 20
734.82981
 30
0.0
 40
8.25
  0
CIRCLE
  5
89A84
  8
L1
 10
359.340729
 20
734.82981
 30
0.0
 40
6.9
  0
ARC
  5
89A85
  8
L1
 10
345.340729
 20
734.82981
 30
0.0
 40
2.0
 50
0.0
 51
90.0
  0
ARC
  5
89A87
  8
L1
 10
341.840729
 20
734.82981
 30
0.0
 40
7.5
 50
0.0
 51
90.0
  0
ARC
  5
89A88
  8
L1
 10
341.840729
 20
734.82981
 30
0.0
 40
5.5
 50
0.0
 51
90.0
  0
LINE
  5
89A89
  8
L1
 10
352.2669
 20
730.584408
 30
0.0
 11
350.998313
 21
729.31582
 31
0.0
  0
LINE
  5
89A8A
  8
L1
 10
352.2669
 20
739.075212
 30
0.0
 11
350.998313
 21
740.3438
 31
0.0
  0
LINE
  5
89A8B
  8
L1
 10
347.340729
 20
734.82981
 30
0.0
 11
347.340729
 21
734.92981
 31
0.0
  0
LINE
  5
89A8D
  8
L1
 10
355.095327
 20
741.903639
 30
0.0
 11
353.82674
 21
743.172227
 31
0.0
  0
LINE
  5
89A8E
  8
L1
 10
363.586132
 20
741.903639
 30
0.0
 11
364.854719
 21
743.172227
 31
0.0
  0
LINE
  5
89A8F
  8
L1
 10
366.414559
 20
739.075212
 30
0.0
 11
367.683146
 21
740.3438
 31
0.0
  0
LINE
  5
89A90
  8
L1
 10
366.414559
 20
730.584408
 30
0.0
 11
367.683146
 21
729.31582
 31
0.0
  0
CIRCLE
  5
89A91
  8
L1
 10
359.340729
 20
734.82981
 30
0.0
 40
3.5
  0
ARC
  5
89A92
  8
L1
 10
359.340729
 20
720.82981
 30
0.0
 40
2.0
 50
0.0
 51
90.0
  0
LINE
  5
89A93
  8
L1
 10
359.340729
 20
722.82981
 30
0.0
 11
359.440729
 21
722.82981
 31
0.0
  0
LINE
  5
89A94
  8
L1
 10
361.340729
 20
720.82981
 30
0.0
 11
361.340729
 21
557.82981
 31
0.0
  0
LINE
  5
89A96
  8
L1
 10
364.840729
 20
717.32981
 30
0.0
 11
364.840729
 21
557.82981
 31
0.0
  0
LINE
  5
89A97
  8
L1
 10
366.840729
 20
717.32981
 30
0.0
 11
366.840729
 21
557.82981
 31
0.0
  0
LINE
  5
89A98
  8
L1
 10
371.340729
 20
734.82981
 30
0.0
 11
371.340729
 21
557.82981
 31
0.0
  0
LINE
  5
89A99
  8
L6
 10
359.340729
 20
750.49836
 30
0.0
 11
359.340729
 21
719.161259
 31
0.0
  0
ARC
  5
89A9C
  8
L1
 10
359.340729
 20
717.32981
 30
0.0
 40
5.5
 50
0.0
 51
90.0
  0
ARC
  5
89A9D
  8
L1
 10
359.340729
 20
717.32981
 30
0.0
 40
7.5
 50
0.0
 51
90.0
  0
LINE
  5
89A9E
  8
L1
 10
371.840729
 20
712.32981
 30
0.0
 11
371.840729
 21
695.32981
 31
0.0
  0
LINE
  5
89A9F
  8
L1
 10
371.840729
 20
712.32981
 30
0.0
 11
371.340729
 21
712.32981
 31
0.0
  0
LINE
  5
89AA0
  8
L1
 10
371.840729
 20
695.32981
 30
0.0
 11
371.340729
 21
695.32981
 31
0.0
  0
LINE
  5
89AA2
  8
L1
 10
322.340729
 20
747.32981
 30
0.0
 11
335.340729
 21
747.32981
 31
0.0
  0
LINE
  5
89AA3
  8
L1
 10
322.340729
 20
747.32981
 30
0.0
 11
322.340729
 21
746.82981
 31
0.0
  0
LINE
  5
89AA4
  8
L1
 10
335.340729
 20
747.32981
 30
0.0
 11
335.340729
 21
746.82981
 31
0.0
  0
LINE
  5
89AA5
  8
L1
 10
341.840729
 20
742.32981
 30
0.0
 11
122.840729
 21
742.32981
 31
0.0
  0
LINE
  5
89AA7
  8
L1
 10
341.840729
 20
740.32981
 30
0.0
 11
122.840729
 21
740.32981
 31
0.0
  0
LINE
  5
89AA8
  8
L1
 10
345.340729
 20
736.82981
 30
0.0
 11
119.340729
 21
736.82981
 31
0.0
  0
LINE
  5
89AA9
  8
L1
 10
359.340729
 20
746.82981
 30
0.0
 11
232.340729
 21
746.82981
 31
0.0
  0
LINE
  5
89AAA
  8
L1
 10
105.340729
 20
746.82981
 30
0.0
 11
232.340729
 21
746.82981
 31
0.0
  0
LINE
  5
89AAC
  8
L1
 10
142.340729
 20
747.32981
 30
0.0
 11
129.340729
 21
747.32981
 31
0.0
  0
LINE
  5
89AAD
  8
L1
 10
129.340729
 20
747.32981
 30
0.0
 11
129.340729
 21
746.82981
 31
0.0
  0
LINE
  5
89AAE
  8
L1
 10
142.340729
 20
747.32981
 30
0.0
 11
142.340729
 21
746.82981
 31
0.0
  0
ARC
  5
89AAF
  8
L1
 10
105.340729
 20
734.82981
 30
0.0
 40
12.0
 50
90.0
 51
180.0
  0
ARC
  5
89AB0
  8
L1
 10
122.840729
 20
734.82981
 30
0.0
 40
5.5
 50
90.0
 51
180.0
  0
ARC
  5
89AB1
  8
L1
 10
122.840729
 20
734.82981
 30
0.0
 40
7.5
 50
90.0
 51
180.0
  0
LINE
  5
89AB3
  8
L6
 10
89.672179
 20
734.82981
 30
0.0
 11
121.00928
 21
734.82981
 31
0.0
  0
CIRCLE
  5
89AB4
  8
L1
 10
105.340729
 20
734.82981
 30
0.0
 40
8.25
  0
LINE
  5
89AB5
  8
L1
 10
101.095327
 20
727.755981
 30
0.0
 11
99.82674
 21
726.487393
 31
0.0
  0
LINE
  5
89AB7
  8
L1
 10
109.586132
 20
727.755981
 30
0.0
 11
110.854719
 21
726.487393
 31
0.0
  0
ARC
  5
89AB9
  8
L1
 10
105.340729
 20
734.82981
 30
0.0
 40
12.0
 50
270.0
 51
0.0
  0
CIRCLE
  5
89ABA
  8
L1
 10
105.340729
 20
734.82981
 30
0.0
 40
10.0
  0
CIRCLE
  5
89ABB
  8
L1
 10
105.340729
 20
734.82981
 30
0.0
 40
3.5
  0
CIRCLE
  5
89ABD
  8
L1
 10
105.340729
 20
734.82981
 30
0.0
 40
6.9
  0
LINE
  5
89ABE
  8
L1
 10
98.2669
 20
739.075212
 30
0.0
 11
96.998313
 21
740.3438
 31
0.0
  0
LINE
  5
89ABF
  8
L1
 10
101.095327
 20
741.903639
 30
0.0
 11
99.82674
 21
743.172227
 31
0.0
  0
LINE
  5
89AC0
  8
L1
 10
98.2669
 20
730.584408
 30
0.0
 11
96.998313
 21
729.31582
 31
0.0
  0
LINE
  5
89AC1
  8
L1
 10
109.586132
 20
741.903639
 30
0.0
 11
110.854719
 21
743.172227
 31
0.0
  0
LINE
  5
89AC2
  8
L1
 10
117.340729
 20
734.82981
 30
0.0
 11
117.340729
 21
734.92981
 31
0.0
  0
LINE
  5
89AC3
  8
L1
 10
112.414559
 20
739.075212
 30
0.0
 11
113.683146
 21
740.3438
 31
0.0
  0
ARC
  5
89AC4
  8
L1
 10
119.340729
 20
734.82981
 30
0.0
 40
2.0
 50
90.0
 51
180.0
  0
LINE
  5
89AC5
  8
L1
 10
112.414559
 20
730.584408
 30
0.0
 11
113.683146
 21
729.31582
 31
0.0
  0
LINE
  5
89AC6
  8
L1
 10
105.340729
 20
722.82981
 30
0.0
 11
105.240729
 21
722.82981
 31
0.0
  0
ARC
  5
89AC7
  8
L1
 10
105.340729
 20
720.82981
 30
0.0
 40
2.0
 50
90.0
 51
180.0
  0
LINE
  5
89AC8
  8
L1
 10
93.340729
 20
734.82981
 30
0.0
 11
93.340729
 21
557.82981
 31
0.0
  0
LINE
  5
89AC9
  8
L1
 10
97.840729
 20
717.32981
 30
0.0
 11
97.840729
 21
557.82981
 31
0.0
  0
LINE
  5
89ACA
  8
L1
 10
99.840729
 20
717.32981
 30
0.0
 11
99.840729
 21
557.82981
 31
0.0
  0
LINE
  5
89ACC
  8
L1
 10
103.340729
 20
720.82981
 30
0.0
 11
103.340729
 21
557.82981
 31
0.0
  0
LINE
  5
89ACD
  8
L6
 10
105.340729
 20
750.49836
 30
0.0
 11
105.340729
 21
719.161259
 31
0.0
  0
ARC
  5
89ACE
  8
L1
 10
105.340729
 20
717.32981
 30
0.0
 40
7.5
 50
90.0
 51
180.0
  0
ARC
  5
89ACF
  8
L1
 10
105.340729
 20
717.32981
 30
0.0
 40
5.5
 50
90.0
 51
180.0
  0
LINE
  5
89AD1
  8
L1
 10
92.840729
 20
712.32981
 30
0.0
 11
92.840729
 21
695.32981
 31
0.0
  0
LINE
  5
89AD2
  8
L1
 10
92.840729
 20
712.32981
 30
0.0
 11
93.340729
 21
712.32981
 31
0.0
  0
LINE
  5
89AD4
  8
L1
 10
92.840729
 20
695.32981
 30
0.0
 11
93.340729
 21
695.32981
 31
0.0
  0
TEXT
  5
A3A96
  8
L22
 62
     3
 10
541.685931
 20
169.871995
 30
0.0
 40
3.5
  1
    
  7
CAEISO
 11
541.685931
 21
171.621995
 31
0.0
 73
     2
  0
LINE
  5
A5A98
  8
L1
 10
361.340729
 20
577.82981
 30
0.0
 11
103.340729
 21
577.82981
 31
0.0
  0
LINE
  5
A5A99
  8
L1
 10
361.340729
 20
537.82981
 30
0.0
 11
103.340729
 21
537.82981
 31
0.0
  0
LINE
  5
A5A9A
  8
L1
 10
361.340729
 20
576.82981
 30
0.0
 11
103.340729
 21
576.82981
 31
0.0
  0
LINE
  5
A5A9B
  8
L1
 10
361.340729
 20
538.82981
 30
0.0
 11
103.340729
 21
538.82981
 31
0.0
  0
LINE
  5
A8BCF
  8
L1
 10
335.251684
 20
408.454389
 30
0.0
 11
234.840729
 21
508.865344
 31
0.0
  0
LINE
  5
A8BD0
  8
L1
 10
331.71615
 20
404.918855
 30
0.0
 11
234.840729
 21
501.794276
 31
0.0
  0
LINE
  5
A8BD1
  8
L1
 10
234.090729
 20
485.82981
 30
0.0
 11
234.840729
 21
501.794276
 31
0.0
  0
LINE
  5
A8BD2
  8
L1
 10
229.840729
 20
508.865344
 30
0.0
 11
229.840729
 21
537.82981
 31
0.0
  0
LINE
  5
A8BD3
  8
L1
 10
334.519996
 20
408.125418
 30
0.0
 11
234.090729
 21
508.554684
 31
0.0
  0
LINE
  5
A8BD4
  8
L1
 10
332.045122
 20
405.650544
 30
0.0
 11
234.090729
 21
503.604936
 31
0.0
  0
LINE
  5
A8BD5
  8
L1
 10
234.090729
 20
485.82981
 30
0.0
 11
234.090729
 21
503.604936
 31
0.0
  0
LINE
  5
A8BD6
  8
L1
 10
230.590729
 20
508.554684
 30
0.0
 11
230.590729
 21
537.82981
 31
0.0
  0
LINE
  5
A8BD7
  8
L1
 10
234.840729
 20
508.865344
 30
0.0
 11
234.840729
 21
537.82981
 31
0.0
  0
LINE
  5
A8BD8
  8
L1
 10
234.090729
 20
508.554684
 30
0.0
 11
234.090729
 21
537.82981
 31
0.0
  0
LINE
  5
A8BD9
  8
L1
 10
234.090729
 20
485.82981
 30
0.0
 11
230.590729
 21
485.82981
 31
0.0
  0
LINE
  5
A8BDA
  8
L1
 10
130.161463
 20
408.125418
 30
0.0
 11
230.590729
 21
508.554684
 31
0.0
  0
LINE
  5
A8BDB
  8
L1
 10
129.429775
 20
408.454389
 30
0.0
 11
229.840729
 21
508.865344
 31
0.0
  0
LINE
  5
A8BDC
  8
L1
 10
132.636337
 20
405.650544
 30
0.0
 11
230.590729
 21
503.604936
 31
0.0
  0
LINE
  5
A8BDD
  8
L1
 10
132.965309
 20
404.918855
 30
0.0
 11
229.840729
 21
501.794276
 31
0.0
  0
LINE
  5
A8BDF
  8
L1
 10
230.590729
 20
485.82981
 30
0.0
 11
229.840729
 21
501.794276
 31
0.0
  0
LINE
  5
A8BE0
  8
L1
 10
230.590729
 20
485.82981
 30
0.0
 11
230.590729
 21
503.604936
 31
0.0
  0
LINE
  5
A9B62
  8
L1
 10
334.519996
 20
707.534202
 30
0.0
 11
234.090729
 21
607.104936
 31
0.0
  0
LINE
  5
A9B63
  8
L1
 10
335.251684
 20
707.205231
 30
0.0
 11
234.840729
 21
606.794276
 31
0.0
  0
LINE
  5
A9B64
  8
L1
 10
332.045122
 20
710.009076
 30
0.0
 11
234.090729
 21
612.054684
 31
0.0
  0
LINE
  5
A9B65
  8
L1
 10
331.71615
 20
710.740765
 30
0.0
 11
234.840729
 21
613.865344
 31
0.0
  0
LINE
  5
A9B67
  8
L1
 10
130.161463
 20
707.534202
 30
0.0
 11
230.590729
 21
607.104936
 31
0.0
  0
LINE
  5
A9B68
  8
L1
 10
129.429775
 20
707.205231
 30
0.0
 11
229.840729
 21
606.794276
 31
0.0
  0
LINE
  5
A9B6A
  8
L1
 10
132.965309
 20
710.740765
 30
0.0
 11
229.840729
 21
613.865344
 31
0.0
  0
LINE
  5
A9B6B
  8
L1
 10
132.636337
 20
710.009076
 30
0.0
 11
230.590729
 21
612.054684
 31
0.0
  0
LINE
  5
A9B6C
  8
L1
 10
230.590729
 20
629.82981
 30
0.0
 11
230.590729
 21
612.054684
 31
0.0
  0
LINE
  5
A9B6D
  8
L1
 10
230.590729
 20
629.82981
 30
0.0
 11
229.840729
 21
613.865344
 31
0.0
  0
LINE
  5
A9B6E
  8
L1
 10
234.090729
 20
629.82981
 30
0.0
 11
234.840729
 21
613.865344
 31
0.0
  0
LINE
  5
A9B6F
  8
L1
 10
234.090729
 20
629.82981
 30
0.0
 11
234.090729
 21
612.054684
 31
0.0
  0
LINE
  5
A9B70
  8
L1
 10
234.090729
 20
629.82981
 30
0.0
 11
230.590729
 21
629.82981
 31
0.0
  0
LINE
  5
A9B71
  8
L1
 10
234.840729
 20
577.82981
 30
0.0
 11
234.840729
 21
606.794276
 31
0.0
  0
LINE
  5
A9B72
  8
L1
 10
234.090729
 20
577.82981
 30
0.0
 11
234.090729
 21
607.104936
 31
0.0
  0
LINE
  5
A9B73
  8
L1
 10
230.590729
 20
577.82981
 30
0.0
 11
230.590729
 21
607.104936
 31
0.0
  0
LINE
  5
A9B74
  8
L1
 10
229.840729
 20
577.82981
 30
0.0
 11
229.840729
 21
606.794276
 31
0.0
  0
CIRCLE
  5
B14A0
  8
L1
 10
-480.261443
 20
557.82981
 30
0.0
 40
12.5
  0
LINE
  5
B14A1
  8
L1
 10
-611.261443
 20
390.754023
 30
0.0
 11
-611.261443
 21
557.82981
 31
0.0
  0
LINE
  5
B14A2
  8
L1
 10
-349.261443
 20
390.754023
 30
0.0
 11
-349.261443
 21
557.82981
 31
0.0
  0
LINE
  5
B14A3
  8
L1
 10
-349.261443
 20
724.905597
 30
0.0
 11
-349.261443
 21
557.82981
 31
0.0
  0
LINE
  5
B14A4
  8
L1
 10
-611.261443
 20
724.905597
 30
0.0
 11
-611.261443
 21
557.82981
 31
0.0
  0
LINE
  5
B14A5
  8
L1
 10
-352.761443
 20
575.82981
 30
0.0
 11
-607.761443
 21
575.82981
 31
0.0
  0
LINE
  5
B14A6
  8
L1
 10
-352.761443
 20
539.82981
 30
0.0
 11
-607.761443
 21
539.82981
 31
0.0
  0
LINE
  5
B14AB
  8
L1
 10
-607.761443
 20
575.82981
 30
0.0
 11
-607.761443
 21
539.82981
 31
0.0
  0
LINE
  5
B14AC
  8
L1
 10
-352.761443
 20
575.82981
 30
0.0
 11
-352.761443
 21
539.82981
 31
0.0
  0
LINE
  5
B14AD
  8
L1
 10
-353.761443
 20
573.82981
 30
0.0
 11
-353.761443
 21
567.32981
 31
0.0
  0
LINE
  5
B14AE
  8
L1
 10
-606.761443
 20
573.82981
 30
0.0
 11
-606.761443
 21
567.32981
 31
0.0
  0
LINE
  5
B14AF
  8
L1
 10
-353.761443
 20
573.82981
 30
0.0
 11
-477.761443
 21
573.82981
 31
0.0
  0
LINE
  5
B14B0
  8
L1
 10
-353.761443
 20
541.82981
 30
0.0
 11
-477.761443
 21
541.82981
 31
0.0
  0
LINE
  5
B14B1
  8
L1
 10
-352.761443
 20
548.32981
 30
0.0
 11
-472.137405
 21
548.32981
 31
0.0
  0
LINE
  5
B14B2
  8
L1
 10
-352.761443
 20
567.32981
 30
0.0
 11
-472.137405
 21
567.32981
 31
0.0
  0
LINE
  5
B14B3
  8
L1
 10
-352.761443
 20
565.32981
 30
0.0
 11
-470.261443
 21
565.32981
 31
0.0
  0
LINE
  5
B14B4
  8
L1
 10
-352.761443
 20
550.32981
 30
0.0
 11
-470.261443
 21
550.32981
 31
0.0
  0
LINE
  5
B14B5
  8
L1
 10
-352.761443
 20
556.82981
 30
0.0
 11
-467.801507
 21
556.82981
 31
0.0
  0
LINE
  5
B14B6
  8
L1
 10
-352.761443
 20
558.82981
 30
0.0
 11
-467.801507
 21
558.82981
 31
0.0
  0
LINE
  5
B14B7
  8
L1
 10
-606.761443
 20
565.32981
 30
0.0
 11
-606.761443
 21
558.82981
 31
0.0
  0
LINE
  5
B14B8
  8
L1
 10
-606.761443
 20
556.82981
 30
0.0
 11
-606.761443
 21
550.32981
 31
0.0
  0
LINE
  5
B14B9
  8
L1
 10
-606.761443
 20
548.32981
 30
0.0
 11
-606.761443
 21
541.82981
 31
0.0
  0
LINE
  5
B14BA
  8
L1
 10
-353.761443
 20
548.32981
 30
0.0
 11
-353.761443
 21
541.82981
 31
0.0
  0
LINE
  5
B14BB
  8
L1
 10
-353.761443
 20
556.82981
 30
0.0
 11
-353.761443
 21
550.32981
 31
0.0
  0
LINE
  5
B14BC
  8
L1
 10
-353.761443
 20
565.32981
 30
0.0
 11
-353.761443
 21
558.82981
 31
0.0
  0
LINE
  5
B14BD
  8
L1
 10
-477.761443
 20
541.82981
 30
0.0
 11
-477.761443
 21
545.582361
 31
0.0
  0
LINE
  5
B14BE
  8
L1
 10
-482.761443
 20
541.82981
 30
0.0
 11
-482.761443
 21
545.582361
 31
0.0
  0
LINE
  5
B14BF
  8
L1
 10
-477.761443
 20
570.077259
 30
0.0
 11
-477.761443
 21
573.82981
 31
0.0
  0
LINE
  5
B14C0
  8
L1
 10
-482.761443
 20
570.077259
 30
0.0
 11
-482.761443
 21
573.82981
 31
0.0
  0
LINE
  5
B14C1
  8
L1
 10
-478.511443
 20
570.077259
 30
0.0
 11
-478.511443
 21
574.82981
 31
0.0
  0
LINE
  5
B14C2
  8
L1
 10
-482.011443
 20
570.077259
 30
0.0
 11
-482.011443
 21
574.82981
 31
0.0
  0
LINE
  5
B14C3
  8
L1
 10
-482.011443
 20
540.82981
 30
0.0
 11
-482.011443
 21
545.582361
 31
0.0
  0
LINE
  5
B14C4
  8
L1
 10
-478.511443
 20
540.82981
 30
0.0
 11
-478.511443
 21
545.582361
 31
0.0
  0
LINE
  5
B14C5
  8
L1
 10
-478.511443
 20
540.82981
 30
0.0
 11
-482.011443
 21
540.82981
 31
0.0
  0
LINE
  5
B14C6
  8
L1
 10
-478.511443
 20
574.82981
 30
0.0
 11
-482.011443
 21
574.82981
 31
0.0
  0
LINE
  5
B14C7
  8
L1
 10
-482.761443
 20
573.82981
 30
0.0
 11
-482.011443
 21
574.82981
 31
0.0
  0
LINE
  5
B14C8
  8
L1
 10
-477.761443
 20
573.82981
 30
0.0
 11
-478.511443
 21
574.82981
 31
0.0
  0
LINE
  5
B14C9
  8
L1
 10
-482.761443
 20
541.82981
 30
0.0
 11
-482.011443
 21
540.82981
 31
0.0
  0
LINE
  5
B14CA
  8
L1
 10
-477.761443
 20
541.82981
 30
0.0
 11
-478.511443
 21
540.82981
 31
0.0
  0
LINE
  5
B14CB
  8
L1
 10
-482.761443
 20
573.82981
 30
0.0
 11
-606.761443
 21
573.82981
 31
0.0
  0
LINE
  5
B14CC
  8
L1
 10
-482.761443
 20
541.82981
 30
0.0
 11
-606.761443
 21
541.82981
 31
0.0
  0
LINE
  5
B14CD
  8
L1
 10
-488.385482
 20
567.32981
 30
0.0
 11
-607.761443
 21
567.32981
 31
0.0
  0
LINE
  5
B14CE
  8
L1
 10
-490.261443
 20
565.32981
 30
0.0
 11
-607.761443
 21
565.32981
 31
0.0
  0
LINE
  5
B14CF
  8
L1
 10
-492.721379
 20
558.82981
 30
0.0
 11
-607.761443
 21
558.82981
 31
0.0
  0
LINE
  5
B14D0
  8
L1
 10
-492.721379
 20
556.82981
 30
0.0
 11
-607.761443
 21
556.82981
 31
0.0
  0
LINE
  5
B14D1
  8
L1
 10
-490.261443
 20
550.32981
 30
0.0
 11
-607.761443
 21
550.32981
 31
0.0
  0
LINE
  5
B14D2
  8
L1
 10
-488.385482
 20
548.32981
 30
0.0
 11
-607.761443
 21
548.32981
 31
0.0
  0
CIRCLE
  5
B14D3
  8
L2
 10
-480.261443
 20
557.82981
 30
0.0
 40
5.0
  0
LINE
  5
B3B35
  8
L1
 10
-570.261443
 20
747.32981
 30
0.0
 11
-583.261443
 21
747.32981
 31
0.0
  0
LINE
  5
B3B36
  8
L1
 10
-583.261443
 20
747.32981
 30
0.0
 11
-583.261443
 21
746.82981
 31
0.0
  0
LINE
  5
B3B37
  8
L1
 10
-570.261443
 20
747.32981
 30
0.0
 11
-570.261443
 21
746.82981
 31
0.0
  0
LINE
  5
B3B38
  8
L1
 10
-390.261443
 20
747.32981
 30
0.0
 11
-377.261443
 21
747.32981
 31
0.0
  0
LINE
  5
B3B39
  8
L1
 10
-390.261443
 20
747.32981
 30
0.0
 11
-390.261443
 21
746.82981
 31
0.0
  0
LINE
  5
B3B3A
  8
L1
 10
-377.261443
 20
747.32981
 30
0.0
 11
-377.261443
 21
746.82981
 31
0.0
  0
LINE
  5
B3B3D
  8
L1
 10
-619.761443
 20
712.32981
 30
0.0
 11
-619.761443
 21
695.32981
 31
0.0
  0
LINE
  5
B3B3E
  8
L1
 10
-619.761443
 20
695.32981
 30
0.0
 11
-619.261443
 21
695.32981
 31
0.0
  0
LINE
  5
B3B3F
  8
L1
 10
-619.761443
 20
712.32981
 30
0.0
 11
-619.261443
 21
712.32981
 31
0.0
  0
LINE
  5
B3B41
  8
L1
 10
-340.761443
 20
712.32981
 30
0.0
 11
-340.761443
 21
695.32981
 31
0.0
  0
LINE
  5
B3B42
  8
L1
 10
-340.761443
 20
695.32981
 30
0.0
 11
-341.261443
 21
695.32981
 31
0.0
  0
LINE
  5
B3B43
  8
L1
 10
-340.761443
 20
712.32981
 30
0.0
 11
-341.261443
 21
712.32981
 31
0.0
  0
LINE
  5
B3B45
  8
L1
 10
-340.761443
 20
403.32981
 30
0.0
 11
-340.761443
 21
420.32981
 31
0.0
  0
LINE
  5
B3B46
  8
L1
 10
-340.761443
 20
403.32981
 30
0.0
 11
-341.261443
 21
403.32981
 31
0.0
  0
LINE
  5
B3B47
  8
L1
 10
-340.761443
 20
420.32981
 30
0.0
 11
-341.261443
 21
420.32981
 31
0.0
  0
LINE
  5
B3B49
  8
L1
 10
-390.261443
 20
368.32981
 30
0.0
 11
-377.261443
 21
368.32981
 31
0.0
  0
LINE
  5
B3B4A
  8
L1
 10
-390.261443
 20
368.32981
 30
0.0
 11
-390.261443
 21
368.82981
 31
0.0
  0
LINE
  5
B3B4B
  8
L1
 10
-377.261443
 20
368.32981
 30
0.0
 11
-377.261443
 21
368.82981
 31
0.0
  0
LINE
  5
B3B4D
  8
L1
 10
-570.261443
 20
368.32981
 30
0.0
 11
-583.261443
 21
368.32981
 31
0.0
  0
LINE
  5
B3B4E
  8
L1
 10
-583.261443
 20
368.32981
 30
0.0
 11
-583.261443
 21
368.82981
 31
0.0
  0
LINE
  5
B3B4F
  8
L1
 10
-570.261443
 20
368.32981
 30
0.0
 11
-570.261443
 21
368.82981
 31
0.0
  0
LINE
  5
B3B51
  8
L1
 10
-619.761443
 20
403.32981
 30
0.0
 11
-619.761443
 21
420.32981
 31
0.0
  0
LINE
  5
B3B52
  8
L1
 10
-619.761443
 20
403.32981
 30
0.0
 11
-619.261443
 21
403.32981
 31
0.0
  0
LINE
  5
B3B53
  8
L1
 10
-619.761443
 20
420.32981
 30
0.0
 11
-619.261443
 21
420.32981
 31
0.0
  0
LINE
  5
BCEFB
  8
L1
 10
496.971452
 20
370.130113
 30
0.0
 11
645.971452
 21
368.82981
 31
0.0
  0
LINE
  5
BCEFC
  8
L1
 10
645.971909
 20
373.277453
 30
0.0
 11
647.988904
 21
373.312659
 31
0.0
  0
LINE
  5
BCEFD
  8
L1
 10
648.971452
 20
374.312507
 30
0.0
 11
648.971452
 21
557.82981
 31
0.0
  0
ARC
  5
BCEFE
  8
L1
 10
647.971452
 20
374.312507
 30
0.0
 40
1.0
 50
271.0
 51
0.0
  0
LINE
  5
BCEFF
  8
L1
 10
645.971909
 20
373.277453
 30
0.0
 11
647.988904
 21
373.312659
 31
0.0
  0
ARC
  5
BCF00
  8
L1
 10
647.971452
 20
374.312507
 30
0.0
 40
1.0
 50
271.0
 51
0.0
  0
LINE
  5
BCF01
  8
L1
 10
589.971452
 20
368.82981
 30
0.0
 11
503.971452
 21
368.82981
 31
0.0
  0
POLYLINE
  5
BCF04
  8
L1
 66
     1
 10
0.0
 20
0.0
 30
0.0
  0
VERTEX
  5
F502F
  8
L1
 10
571.471452
 20
368.82981
 30
0.0
  0
VERTEX
  5
F5030
  8
L1
 10
571.471452
 20
368.32981
 30
0.0
  0
VERTEX
  5
F5031
  8
L1
 10
584.471452
 20
368.32981
 30
0.0
  0
VERTEX
  5
F5032
  8
L1
 10
584.471452
 20
368.82981
 30
0.0
  0
SEQEND
  5
F5033
  8
L1
  0
LINE
  5
BCF0A
  8
L1
 10
589.971452
 20
368.82981
 30
0.0
 11
589.971452
 21
369.318514
 31
0.0
  0
POLYLINE
  5
BCF0C
  8
L1
 66
     1
 10
0.0
 20
0.0
 30
0.0
  0
VERTEX
  5
F5034
  8
L1
 10
509.471452
 20
368.82981
 30
0.0
  0
VERTEX
  5
F5035
  8
L1
 10
509.471452
 20
368.32981
 30
0.0
  0
VERTEX
  5
F5036
  8
L1
 10
522.471452
 20
368.32981
 30
0.0
  0
VERTEX
  5
F5037
  8
L1
 10
522.471452
 20
368.82981
 30
0.0
  0
SEQEND
  5
F5038
  8
L1
  0
LINE
  5
BCF12
  8
L1
 10
645.971452
 20
368.82981
 30
0.0
 11
645.971452
 21
557.82981
 31
0.0
  0
LINE
  5
BCF1A
  8
L1
 10
495.471452
 20
397.195835
 30
0.0
 11
495.471452
 21
391.945835
 31
0.0
  0
LINE
  5
BCF1B
  8
L1
 10
496.721452
 20
396.474147
 30
0.0
 11
495.471452
 21
397.195835
 31
0.0
  0
ARC
  5
BCF1C
  8
L1
 10
496.471452
 20
396.041135
 30
0.0
 40
0.5
 50
0.0
 51
60.0
  0
LINE
  5
BCF1D
  8
L1
 10
496.721452
 20
409.185472
 30
0.0
 11
495.471452
 21
408.463784
 31
0.0
  0
ARC
  5
BCF1E
  8
L1
 10
496.471452
 20
409.618485
 30
0.0
 40
0.5
 50
300.0
 51
0.0
  0
LINE
  5
BCF1F
  8
L1
 10
495.471452
 20
408.463784
 30
0.0
 11
495.471452
 21
397.195835
 31
0.0
  0
LINE
  5
BCF20
  8
L1
 10
496.971452
 20
391.07981
 30
0.0
 11
495.471452
 21
391.945835
 31
0.0
  0
LINE
  5
BCF21
  8
L1
 10
496.971452
 20
466.07981
 30
0.0
 11
495.471452
 21
466.945835
 31
0.0
  0
LINE
  5
BCF22
  8
L1
 10
496.971452
 20
449.57981
 30
0.0
 11
495.471452
 21
448.713784
 31
0.0
  0
LINE
  5
BCF23
  8
L1
 10
496.971452
 20
441.07981
 30
0.0
 11
495.471452
 21
441.945835
 31
0.0
  0
LINE
  5
BCF24
  8
L1
 10
495.471452
 20
448.713784
 30
0.0
 11
495.471452
 21
441.945835
 31
0.0
  0
LINE
  5
BCF25
  8
L1
 10
495.471452
 20
423.713784
 30
0.0
 11
495.471452
 21
416.945835
 31
0.0
  0
LINE
  5
BCF26
  8
L1
 10
496.971452
 20
416.07981
 30
0.0
 11
495.471452
 21
416.945835
 31
0.0
  0
LINE
  5
BCF27
  8
L1
 10
496.971452
 20
424.57981
 30
0.0
 11
495.471452
 21
423.713784
 31
0.0
  0
LINE
  5
BCF28
  8
L1
 10
495.471452
 20
498.713784
 30
0.0
 11
495.471452
 21
491.945835
 31
0.0
  0
LINE
  5
BCF29
  8
L1
 10
495.471452
 20
523.713784
 30
0.0
 11
495.471452
 21
516.945835
 31
0.0
  0
LINE
  5
BCF2A
  8
L1
 10
496.971452
 20
524.57981
 30
0.0
 11
495.471452
 21
523.713784
 31
0.0
  0
LINE
  5
BCF2B
  8
L1
 10
496.971452
 20
516.07981
 30
0.0
 11
495.471452
 21
516.945835
 31
0.0
  0
LINE
  5
BCF2C
  8
L1
 10
496.971452
 20
499.57981
 30
0.0
 11
495.471452
 21
498.713784
 31
0.0
  0
LINE
  5
BCF2D
  8
L1
 10
496.971452
 20
491.07981
 30
0.0
 11
495.471452
 21
491.945835
 31
0.0
  0
LINE
  5
BCF2E
  8
L1
 10
496.971452
 20
474.57981
 30
0.0
 11
495.471452
 21
473.713784
 31
0.0
  0
LINE
  5
BCF2F
  8
L1
 10
495.471452
 20
473.713784
 30
0.0
 11
495.471452
 21
466.945835
 31
0.0
  0
LINE
  5
BCF30
  8
L1
 10
496.971452
 20
370.130113
 30
0.0
 11
496.971452
 21
557.82981
 31
0.0
  0
LINE
  5
BCF32
  8
L1
 10
503.971452
 20
368.82981
 30
0.0
 11
503.971452
 21
370.069025
 31
0.0
  0
LINE
  5
BCF33
  8
L1
 10
637.971452
 20
380.82981
 30
0.0
 11
637.971452
 21
557.82981
 31
0.0
  0
LINE
  5
BCF34
  8
L1
 10
496.971452
 20
389.320438
 30
0.0
 11
637.971452
 21
390.550926
 31
0.0
  0
ARC
  5
BCF61
  8
L1
 10
637.971452
 20
485.82981
 30
0.0
 40
6.0
 50
90.0
 51
270.0
  0
CIRCLE
  5
C975F
  8
L1
 10
-592.761443
 20
695.32981
 30
0.0
 40
4.25
  0
CIRCLE
  5
C976B
  8
L1
 10
-592.761443
 20
695.32981
 30
0.0
 40
3.383975
  0
CIRCLE
  5
C976D
  8
L1
 10
-567.761443
 20
720.32981
 30
0.0
 40
3.383975
  0
CIRCLE
  5
C9770
  8
L1
 10
-542.761443
 20
720.32981
 30
0.0
 40
3.383975
  0
CIRCLE
  5
C9773
  8
L1
 10
-517.761443
 20
720.32981
 30
0.0
 40
3.383975
  0
CIRCLE
  5
C9776
  8
L1
 10
-492.761443
 20
720.32981
 30
0.0
 40
3.383975
  0
CIRCLE
  5
C977C
  8
L1
 10
-592.761443
 20
670.32981
 30
0.0
 40
3.383975
  0
CIRCLE
  5
C978B
  8
L1
 10
-467.761443
 20
720.32981
 30
0.0
 40
3.383975
  0
CIRCLE
  5
C978E
  8
L1
 10
-442.761443
 20
720.32981
 30
0.0
 40
3.383975
  0
CIRCLE
  5
C9791
  8
L1
 10
-592.761443
 20
645.32981
 30
0.0
 40
3.383975
  0
CIRCLE
  5
C9794
  8
L1
 10
-592.761443
 20
620.32981
 30
0.0
 40
3.383975
  0
CIRCLE
  5
C9797
  8
L1
 10
-592.761443
 20
595.32981
 30
0.0
 40
3.383975
  0
CIRCLE
  5
C979A
  8
L1
 10
-592.761443
 20
520.32981
 30
0.0
 40
3.383975
  0
CIRCLE
  5
C979D
  8
L1
 10
-592.761443
 20
495.32981
 30
0.0
 40
3.383975
  0
CIRCLE
  5
C97A0
  8
L1
 10
-592.761443
 20
470.32981
 30
0.0
 40
3.383975
  0
CIRCLE
  5
C97A3
  8
L1
 10
-592.761443
 20
445.32981
 30
0.0
 40
3.383975
  0
CIRCLE
  5
C97A6
  8
L1
 10
-592.761443
 20
420.32981
 30
0.0
 40
3.383975
  0
CIRCLE
  5
C97A9
  8
L1
 10
-567.761443
 20
395.32981
 30
0.0
 40
3.383975
  0
CIRCLE
  5
C97AC
  8
L1
 10
-542.761443
 20
395.32981
 30
0.0
 40
3.383975
  0
CIRCLE
  5
C97AF
  8
L1
 10
-517.761443
 20
395.32981
 30
0.0
 40
3.383975
  0
CIRCLE
  5
C97B2
  8
L1
 10
-492.761443
 20
395.32981
 30
0.0
 40
3.383975
  0
CIRCLE
  5
C97B8
  8
L1
 10
-467.761443
 20
395.32981
 30
0.0
 40
3.383975
  0
CIRCLE
  5
C97BB
  8
L1
 10
-442.761443
 20
395.32981
 30
0.0
 40
3.383975
  0
CIRCLE
  5
C97BE
  8
L1
 10
-417.761443
 20
395.32981
 30
0.0
 40
3.383975
  0
CIRCLE
  5
C97C1
  8
L1
 10
-392.761443
 20
395.32981
 30
0.0
 40
3.383975
  0
CIRCLE
  5
C97C4
  8
L1
 10
-367.761443
 20
420.32981
 30
0.0
 40
3.383975
  0
CIRCLE
  5
C97C7
  8
L1
 10
-367.761443
 20
445.32981
 30
0.0
 40
3.383975
  0
CIRCLE
  5
C97CA
  8
L1
 10
-367.761443
 20
470.32981
 30
0.0
 40
3.383975
  0
CIRCLE
  5
C97CD
  8
L1
 10
-367.761443
 20
495.32981
 30
0.0
 40
3.383975
  0
CIRCLE
  5
C97D0
  8
L1
 10
-367.761443
 20
520.32981
 30
0.0
 40
3.383975
  0
CIRCLE
  5
C97D3
  8
L1
 10
-367.761443
 20
595.32981
 30
0.0
 40
3.383975
  0
CIRCLE
  5
C97D6
  8
L1
 10
-367.761443
 20
620.32981
 30
0.0
 40
3.383975
  0
CIRCLE
  5
C97D9
  8
L1
 10
-367.761443
 20
645.32981
 30
0.0
 40
3.383975
  0
CIRCLE
  5
C97DC
  8
L1
 10
-367.761443
 20
670.32981
 30
0.0
 40
3.383975
  0
CIRCLE
  5
C97DF
  8
L1
 10
-367.761443
 20
695.32981
 30
0.0
 40
3.383975
  0
CIRCLE
  5
C97E2
  8
L1
 10
-392.761443
 20
720.32981
 30
0.0
 40
3.383975
  0
CIRCLE
  5
C97E5
  8
L1
 10
-417.761443
 20
720.32981
 30
0.0
 40
3.383975
  0
CIRCLE
  5
C97F4
  8
L1
 10
-585.261443
 20
712.82981
 30
0.0
 40
6.5
  0
CIRCLE
  5
C9800
  8
L1
 10
-585.261443
 20
712.82981
 30
0.0
 40
5.380365
  0
CIRCLE
  5
C9802
  8
L1
 10
-375.261443
 20
712.82981
 30
0.0
 40
6.5
  0
CIRCLE
  5
C9803
  8
L1
 10
-375.261443
 20
712.82981
 30
0.0
 40
5.380365
  0
CIRCLE
  5
C9806
  8
L1
 10
-375.261443
 20
402.82981
 30
0.0
 40
6.5
  0
CIRCLE
  5
C9807
  8
L1
 10
-375.261443
 20
402.82981
 30
0.0
 40
5.380365
  0
CIRCLE
  5
C980A
  8
L1
 10
-585.261443
 20
402.82981
 30
0.0
 40
6.5
  0
CIRCLE
  5
C980B
  8
L1
 10
-585.261443
 20
402.82981
 30
0.0
 40
5.380365
  0
LINE
  5
C980E
  8
L6
 10
-593.446046
 20
380.82981
 30
0.0
 11
-621.076841
 21
380.82981
 31
0.0
  0
LINE
  5
C980F
  8
L6
 10
-339.446046
 20
380.82981
 30
0.0
 11
-367.076841
 21
380.82981
 31
0.0
  0
LINE
  5
C9810
  8
L6
 10
-353.261443
 20
367.014412
 30
0.0
 11
-353.261443
 21
394.645207
 31
0.0
  0
CIRCLE
  5
C9811
  8
L1
 10
-353.261443
 20
380.82981
 30
0.0
 40
8.0
  0
CIRCLE
  5
C9812
  8
L1
 10
-353.261443
 20
380.82981
 30
0.0
 40
3.5
  0
LINE
  5
C9813
  8
L6
 10
-593.446046
 20
734.82981
 30
0.0
 11
-621.076841
 21
734.82981
 31
0.0
  0
LINE
  5
C9814
  8
L6
 10
-607.261443
 20
721.014412
 30
0.0
 11
-607.261443
 21
748.645207
 31
0.0
  0
CIRCLE
  5
C9815
  8
L1
 10
-607.261443
 20
734.82981
 30
0.0
 40
8.0
  0
CIRCLE
  5
C9816
  8
L1
 10
-607.261443
 20
734.82981
 30
0.0
 40
3.5
  0
LINE
  5
C9817
  8
L6
 10
-339.446046
 20
734.82981
 30
0.0
 11
-367.076841
 21
734.82981
 31
0.0
  0
LINE
  5
C9818
  8
L6
 10
-353.261443
 20
721.014412
 30
0.0
 11
-353.261443
 21
748.645207
 31
0.0
  0
CIRCLE
  5
C9819
  8
L1
 10
-353.261443
 20
734.82981
 30
0.0
 40
8.0
  0
CIRCLE
  5
C981A
  8
L1
 10
-353.261443
 20
734.82981
 30
0.0
 40
3.5
  0
ARC
  5
C981C
  8
L1
 10
-607.261443
 20
380.82981
 30
0.0
 40
10.7
 50
111.952128
 51
338.047872
  0
LINE
  5
C981D
  8
L1
 10
-612.561443
 20
391.595961
 30
0.0
 11
-612.561443
 21
391.82981
 31
0.0
  0
LINE
  5
C981E
  8
L1
 10
-597.33723
 20
376.82981
 30
0.0
 11
-480.261443
 21
376.82981
 31
0.0
  0
LINE
  5
C981F
  8
L1
 10
-363.185656
 20
738.82981
 30
0.0
 11
-480.261443
 21
738.82981
 31
0.0
  0
LINE
  5
C9820
  8
L1
 10
-597.33723
 20
738.82981
 30
0.0
 11
-480.261443
 21
738.82981
 31
0.0
  0
LINE
  5
C9821
  8
L1
 10
-363.185656
 20
376.82981
 30
0.0
 11
-480.261443
 21
376.82981
 31
0.0
  0
LINE
  5
C9822
  8
L1
 10
-596.495293
 20
375.52981
 30
0.0
 11
-588.761443
 21
375.52981
 31
0.0
  0
ARC
  5
C9823
  8
L1
 10
-353.261443
 20
380.82981
 30
0.0
 40
10.7
 50
201.952128
 51
68.047872
  0
LINE
  5
C9824
  8
L1
 10
-347.961443
 20
391.595961
 30
0.0
 11
-347.961443
 21
391.82981
 31
0.0
  0
ARC
  5
C9825
  8
L1
 10
-353.261443
 20
734.82981
 30
0.0
 40
10.7
 50
291.952128
 51
158.047872
  0
LINE
  5
C9826
  8
L1
 10
-347.961443
 20
724.063659
 30
0.0
 11
-347.961443
 21
723.82981
 31
0.0
  0
LINE
  5
C9827
  8
L1
 10
-364.027594
 20
740.12981
 30
0.0
 11
-371.761443
 21
740.12981
 31
0.0
  0
ARC
  5
C9828
  8
L1
 10
-607.261443
 20
734.82981
 30
0.0
 40
10.7
 50
21.952128
 51
248.047872
  0
LINE
  5
C9829
  8
L1
 10
-596.495293
 20
740.12981
 30
0.0
 11
-588.761443
 21
740.12981
 31
0.0
  0
LINE
  5
C982A
  8
L1
 10
-612.561443
 20
724.063659
 30
0.0
 11
-612.561443
 21
723.82981
 31
0.0
  0
LINE
  5
C982B
  8
L1
 10
-371.761443
 20
368.82981
 30
0.0
 11
-371.761443
 21
376.82981
 31
0.0
  0
LINE
  5
C982C
  8
L1
 10
-588.761443
 20
368.82981
 30
0.0
 11
-588.761443
 21
376.82981
 31
0.0
  0
LINE
  5
C982D
  8
L1
 10
-341.261443
 20
391.82981
 30
0.0
 11
-349.261443
 21
391.82981
 31
0.0
  0
LINE
  5
C982E
  8
L1
 10
-341.261443
 20
723.82981
 30
0.0
 11
-349.261443
 21
723.82981
 31
0.0
  0
LINE
  5
C982F
  8
L1
 10
-371.761443
 20
738.82981
 30
0.0
 11
-371.761443
 21
746.82981
 31
0.0
  0
LINE
  5
C9830
  8
L1
 10
-588.761443
 20
738.82981
 30
0.0
 11
-588.761443
 21
746.82981
 31
0.0
  0
LINE
  5
C9831
  8
L1
 10
-611.261443
 20
723.82981
 30
0.0
 11
-619.261443
 21
723.82981
 31
0.0
  0
LINE
  5
C9832
  8
L1
 10
-611.261443
 20
391.82981
 30
0.0
 11
-619.261443
 21
391.82981
 31
0.0
  0
LINE
  5
C9833
  8
L1
 10
-371.761443
 20
375.52981
 30
0.0
 11
-364.027594
 21
375.52981
 31
0.0
  0
LINE
  5
C9F2F
  8
L1
 10
105.340729
 20
60.331086
 30
0.0
 11
359.340729
 21
60.331086
 31
0.0
  0
LINE
  5
CC69F
  8
L1
 10
174.090729
 20
201.331086
 30
0.0
 11
173.224704
 21
202.831086
 31
0.0
  0
LINE
  5
CC6A0
  8
L1
 10
165.590729
 20
201.331086
 30
0.0
 11
166.456755
 21
202.831086
 31
0.0
  0
LINE
  5
CC6A1
  8
L1
 10
173.224704
 20
202.831086
 30
0.0
 11
166.456755
 21
202.831086
 31
0.0
  0
LINE
  5
CC6A2
  8
L1
 10
148.224704
 20
202.831086
 30
0.0
 11
141.456755
 21
202.831086
 31
0.0
  0
LINE
  5
CC6A3
  8
L1
 10
140.590729
 20
201.331086
 30
0.0
 11
141.456755
 21
202.831086
 31
0.0
  0
LINE
  5
CC6A4
  8
L1
 10
149.090729
 20
201.331086
 30
0.0
 11
148.224704
 21
202.831086
 31
0.0
  0
LINE
  5
CC6A5
  8
L1
 10
198.224704
 20
202.831086
 30
0.0
 11
191.456755
 21
202.831086
 31
0.0
  0
LINE
  5
CC6A6
  8
L1
 10
190.590729
 20
201.331086
 30
0.0
 11
191.456755
 21
202.831086
 31
0.0
  0
LINE
  5
CC6A7
  8
L1
 10
199.090729
 20
201.331086
 30
0.0
 11
198.224704
 21
202.831086
 31
0.0
  0
LINE
  5
CC6A8
  8
L1
 10
223.224704
 20
202.831086
 30
0.0
 11
216.456755
 21
202.831086
 31
0.0
  0
LINE
  5
CC6A9
  8
L1
 10
215.590729
 20
201.331086
 30
0.0
 11
216.456755
 21
202.831086
 31
0.0
  0
LINE
  5
CC6AA
  8
L1
 10
224.090729
 20
201.331086
 30
0.0
 11
223.224704
 21
202.831086
 31
0.0
  0
LINE
  5
CC6AE
  8
L1
 10
273.224704
 20
202.831086
 30
0.0
 11
266.456755
 21
202.831086
 31
0.0
  0
LINE
  5
CC6AF
  8
L1
 10
265.590729
 20
201.331086
 30
0.0
 11
266.456755
 21
202.831086
 31
0.0
  0
LINE
  5
CC6B0
  8
L1
 10
274.090729
 20
201.331086
 30
0.0
 11
273.224704
 21
202.831086
 31
0.0
  0
LINE
  5
CC6B1
  8
L1
 10
248.224704
 20
202.831086
 30
0.0
 11
241.456755
 21
202.831086
 31
0.0
  0
LINE
  5
CC6B2
  8
L1
 10
240.590729
 20
201.331086
 30
0.0
 11
241.456755
 21
202.831086
 31
0.0
  0
LINE
  5
CC6B3
  8
L1
 10
249.090729
 20
201.331086
 30
0.0
 11
248.224704
 21
202.831086
 31
0.0
  0
LINE
  5
CC6B7
  8
L1
 10
323.224704
 20
202.831086
 30
0.0
 11
316.456755
 21
202.831086
 31
0.0
  0
LINE
  5
CC6B8
  8
L1
 10
315.590729
 20
201.331086
 30
0.0
 11
316.456755
 21
202.831086
 31
0.0
  0
LINE
  5
CC6B9
  8
L1
 10
324.090729
 20
201.331086
 30
0.0
 11
323.224704
 21
202.831086
 31
0.0
  0
LINE
  5
CC6BA
  8
L1
 10
298.224704
 20
202.831086
 30
0.0
 11
291.456755
 21
202.831086
 31
0.0
  0
LINE
  5
CC6BB
  8
L1
 10
290.590729
 20
201.331086
 30
0.0
 11
291.456755
 21
202.831086
 31
0.0
  0
LINE
  5
CC6BC
  8
L1
 10
299.090729
 20
201.331086
 30
0.0
 11
298.224704
 21
202.831086
 31
0.0
  0
LINE
  5
CC6BD
  8
L1
 10
348.224704
 20
202.831086
 30
0.0
 11
342.974704
 21
202.831086
 31
0.0
  0
LINE
  5
CC6BF
  8
L1
 10
349.090729
 20
201.331086
 30
0.0
 11
348.224704
 21
202.831086
 31
0.0
  0
LINE
  5
CC6C0
  8
L1
 10
121.706755
 20
202.831086
 30
0.0
 11
116.456755
 21
202.831086
 31
0.0
  0
LINE
  5
CC6C1
  8
L1
 10
115.590729
 20
201.331086
 30
0.0
 11
116.456755
 21
202.831086
 31
0.0
  0
ARC
  5
CC6C3
  8
L1
 10
330.552054
 20
201.831086
 30
0.0
 40
0.5
 50
270.0
 51
330.0
  0
LINE
  5
CC6C4
  8
L1
 10
330.985067
 20
201.581086
 30
0.0
 11
331.706755
 21
202.831086
 31
0.0
  0
ARC
  5
CC6C5
  8
L1
 10
344.129405
 20
201.831086
 30
0.0
 40
0.5
 50
210.0
 51
270.0
  0
LINE
  5
CC6C6
  8
L1
 10
343.696392
 20
201.581086
 30
0.0
 11
342.974704
 21
202.831086
 31
0.0
  0
LINE
  5
CC6C7
  8
L1
 10
342.974704
 20
202.831086
 30
0.0
 11
331.706755
 21
202.831086
 31
0.0
  0
ARC
  5
CC6C8
  8
L1
 10
134.129405
 20
201.831086
 30
0.0
 40
0.5
 50
210.0
 51
270.0
  0
LINE
  5
CC6C9
  8
L1
 10
133.696392
 20
201.581086
 30
0.0
 11
132.974704
 21
202.831086
 31
0.0
  0
LINE
  5
CC6CA
  8
L1
 10
120.985067
 20
201.581086
 30
0.0
 11
121.706755
 21
202.831086
 31
0.0
  0
LINE
  5
CC6CB
  8
L1
 10
132.974704
 20
202.831086
 30
0.0
 11
121.706755
 21
202.831086
 31
0.0
  0
ARC
  5
CC6CC
  8
L1
 10
120.552054
 20
201.831086
 30
0.0
 40
0.5
 50
270.0
 51
330.0
  0
LINE
  5
CCF81
  8
L1
 10
94.641033
 20
201.331086
 30
0.0
 11
93.340729
 21
52.331086
 31
0.0
  0
LINE
  5
CCF82
  8
L1
 10
94.593035
 20
195.831086
 30
0.0
 11
93.340729
 21
195.831086
 31
0.0
  0
LINE
  5
CCF85
  8
L1
 10
92.840729
 20
83.831086
 30
0.0
 11
92.840729
 21
100.831086
 31
0.0
  0
LINE
  5
CCF86
  8
L1
 10
92.840729
 20
83.831086
 30
0.0
 11
93.340729
 21
83.831086
 31
0.0
  0
LINE
  5
CCF87
  8
L1
 10
92.840729
 20
100.831086
 30
0.0
 11
93.340729
 21
100.831086
 31
0.0
  0
LINE
  5
CCF88
  8
L1
 10
116.040426
 20
201.331086
 30
0.0
 11
117.270915
 21
60.331086
 31
0.0
  0
LINE
  5
CCF89
  8
L1
 10
348.641033
 20
201.331086
 30
0.0
 11
347.410544
 21
60.331086
 31
0.0
  0
LINE
  5
D00CC
  8
L1
 10
371.340729
 20
52.331086
 30
0.0
 11
371.340729
 21
195.831086
 31
0.0
  0
LINE
  5
D00CE
  8
L1
 10
371.840729
 20
83.831086
 30
0.0
 11
371.840729
 21
100.831086
 31
0.0
  0
LINE
  5
D00CF
  8
L1
 10
371.840729
 20
83.831086
 30
0.0
 11
371.340729
 21
83.831086
 31
0.0
  0
LINE
  5
D00D0
  8
L1
 10
371.840729
 20
100.831086
 30
0.0
 11
371.340729
 21
100.831086
 31
0.0
  0
LINE
  5
D00D2
  8
L1
 10
371.840729
 20
163.831086
 30
0.0
 11
371.840729
 21
180.831086
 31
0.0
  0
LINE
  5
D00D3
  8
L1
 10
371.840729
 20
163.831086
 30
0.0
 11
371.340729
 21
163.831086
 31
0.0
  0
LINE
  5
D00D4
  8
L1
 10
371.840729
 20
180.831086
 30
0.0
 11
371.340729
 21
180.831086
 31
0.0
  0
LINE
  5
D00D5
  8
L1
 10
370.088424
 20
195.831086
 30
0.0
 11
371.340729
 21
195.831086
 31
0.0
  0
ARC
  5
D16D1
  8
L1
 10
207.840729
 20
60.331086
 30
0.0
 40
6.0
 50
0.0
 51
180.0
  0
ARC
  5
D16D2
  8
L1
 10
256.840729
 20
60.331086
 30
0.0
 40
6.0
 50
0.0
 51
180.0
  0
LINE
  5
D2492
  8
L6
 10
232.340729
 20
74.472692
 30
0.0
 11
232.340729
 21
39.331086
 31
0.0
  0
LINE
  5
F3664
  8
L1
 10
494.971452
 20
372.82981
 30
0.0
 11
496.971452
 21
372.812356
 31
0.0
  0
LINE
  5
F3665
  8
L1
 10
494.971452
 20
372.82981
 30
0.0
 11
494.971452
 21
388.82981
 31
0.0
  0
LINE
  5
F3666
  8
L1
 10
494.971452
 20
388.82981
 30
0.0
 11
496.971452
 21
388.847264
 31
0.0
  0
LINE
  5
F37BA
  8
L1
 10
97.340729
 20
203.331086
 30
0.0
 11
113.340729
 21
203.331086
 31
0.0
  0
LINE
  5
F37BB
  8
L1
 10
97.340729
 20
203.331086
 30
0.0
 11
97.323276
 21
201.331086
 31
0.0
  0
LINE
  5
F37BC
  8
L1
 10
113.340729
 20
203.331086
 30
0.0
 11
113.358183
 21
201.331086
 31
0.0
  0
LINE
  5
F4799
  8
L1
 10
351.340729
 20
203.331086
 30
0.0
 11
367.340729
 21
203.331086
 31
0.0
  0
LINE
  5
F479A
  8
L1
 10
351.340729
 20
203.331086
 30
0.0
 11
351.323276
 21
201.331086
 31
0.0
  0
LINE
  5
F479B
  8
L1
 10
367.340729
 20
203.331086
 30
0.0
 11
367.358183
 21
201.331086
 31
0.0
  0
LINE
  5
F4EF5
  8
L1
 10
496.971452
 20
726.339182
 30
0.0
 11
637.971452
 21
725.108693
 31
0.0
  0
LINE
  5
F4EF6
  8
L1
 10
496.971452
 20
745.529507
 30
0.0
 11
645.971452
 21
746.82981
 31
0.0
  0
LINE
  5
F4EF7
  8
L6
 10
489.911009
 20
557.82981
 30
0.0
 11
679.552994
 21
557.82981
 31
0.0
  0
LINE
  5
F4EF8
  8
L1
 10
496.971452
 20
745.529507
 30
0.0
 11
496.971452
 21
557.82981
 31
0.0
  0
LINE
  5
F4EF9
  8
L1
 10
495.471452
 20
691.945835
 30
0.0
 11
495.471452
 21
698.713784
 31
0.0
  0
LINE
  5
F4EFA
  8
L1
 10
494.971452
 20
742.82981
 30
0.0
 11
494.971452
 21
726.82981
 31
0.0
  0
LINE
  5
F4EFB
  8
L1
 10
494.971452
 20
742.82981
 30
0.0
 11
496.971452
 21
742.847264
 31
0.0
  0
LINE
  5
F4EFC
  8
L1
 10
495.471452
 20
707.195835
 30
0.0
 11
495.471452
 21
718.463784
 31
0.0
  0
LINE
  5
F4EFD
  8
L1
 10
494.971452
 20
726.82981
 30
0.0
 11
496.971452
 21
726.812356
 31
0.0
  0
LINE
  5
F4EFE
  8
L1
 10
496.971452
 20
724.57981
 30
0.0
 11
495.471452
 21
723.713784
 31
0.0
  0
ARC
  5
F4EFF
  8
L1
 10
496.471452
 20
719.618485
 30
0.0
 40
0.5
 50
300.0
 51
0.0
  0
LINE
  5
F4F00
  8
L1
 10
496.721452
 20
719.185472
 30
0.0
 11
495.471452
 21
718.463784
 31
0.0
  0
LINE
  5
F4F01
  8
L1
 10
495.471452
 20
718.463784
 30
0.0
 11
495.471452
 21
723.713784
 31
0.0
  0
LINE
  5
F4F02
  8
L1
 10
496.971452
 20
699.57981
 30
0.0
 11
495.471452
 21
698.713784
 31
0.0
  0
ARC
  5
F4F03
  8
L1
 10
496.471452
 20
706.041135
 30
0.0
 40
0.5
 50
0.0
 51
60.0
  0
LINE
  5
F4F04
  8
L1
 10
496.721452
 20
706.474147
 30
0.0
 11
495.471452
 21
707.195835
 31
0.0
  0
LINE
  5
F4F05
  8
L1
 10
589.971452
 20
746.82981
 30
0.0
 11
503.971452
 21
746.82981
 31
0.0
  0
POLYLINE
  5
F4F06
  8
L1
 66
     1
 10
0.0
 20
0.0
 30
0.0
  0
VERTEX
  5
F5039
  8
L1
 10
509.471452
 20
746.82981
 30
0.0
  0
VERTEX
  5
F503A
  8
L1
 10
509.471452
 20
747.32981
 30
0.0
  0
VERTEX
  5
F503B
  8
L1
 10
522.471452
 20
747.32981
 30
0.0
  0
VERTEX
  5
F503C
  8
L1
 10
522.471452
 20
746.82981
 30
0.0
  0
SEQEND
  5
F503D
  8
L1
  0
LINE
  5
F4F07
  8
L1
 10
503.971452
 20
746.82981
 30
0.0
 11
503.971452
 21
745.590595
 31
0.0
  0
POLYLINE
  5
F4F08
  8
L1
 66
     1
 10
0.0
 20
0.0
 30
0.0
  0
VERTEX
  5
F503E
  8
L1
 10
571.471452
 20
746.82981
 30
0.0
  0
VERTEX
  5
F503F
  8
L1
 10
571.471452
 20
747.32981
 30
0.0
  0
VERTEX
  5
F5040
  8
L1
 10
584.471452
 20
747.32981
 30
0.0
  0
VERTEX
  5
F5041
  8
L1
 10
584.471452
 20
746.82981
 30
0.0
  0
SEQEND
  5
F5042
  8
L1
  0
LINE
  5
F4F09
  8
L1
 10
589.971452
 20
746.82981
 30
0.0
 11
589.971452
 21
746.341105
 31
0.0
  0
LINE
  5
F4F0A
  8
L1
 10
496.971452
 20
691.07981
 30
0.0
 11
495.471452
 21
691.945835
 31
0.0
  0
LINE
  5
F4F0B
  8
L1
 10
495.471452
 20
666.945835
 30
0.0
 11
495.471452
 21
673.713784
 31
0.0
  0
LINE
  5
F4F0C
  8
L1
 10
496.971452
 20
674.57981
 30
0.0
 11
495.471452
 21
673.713784
 31
0.0
  0
LINE
  5
F4F0D
  8
L1
 10
496.971452
 20
666.07981
 30
0.0
 11
495.471452
 21
666.945835
 31
0.0
  0
LINE
  5
F4F0E
  8
L1
 10
495.471452
 20
641.945835
 30
0.0
 11
495.471452
 21
648.713784
 31
0.0
  0
LINE
  5
F4F0F
  8
L1
 10
496.971452
 20
649.57981
 30
0.0
 11
495.471452
 21
648.713784
 31
0.0
  0
LINE
  5
F4F10
  8
L1
 10
496.971452
 20
641.07981
 30
0.0
 11
495.471452
 21
641.945835
 31
0.0
  0
LINE
  5
F4F11
  8
L1
 10
495.471452
 20
591.945835
 30
0.0
 11
495.471452
 21
598.713784
 31
0.0
  0
LINE
  5
F4F12
  8
L1
 10
496.971452
 20
624.57981
 30
0.0
 11
495.471452
 21
623.713784
 31
0.0
  0
LINE
  5
F4F13
  8
L1
 10
496.971452
 20
616.07981
 30
0.0
 11
495.471452
 21
616.945835
 31
0.0
  0
LINE
  5
F4F14
  8
L1
 10
495.471452
 20
616.945835
 30
0.0
 11
495.471452
 21
623.713784
 31
0.0
  0
LINE
  5
F4F15
  8
L1
 10
496.971452
 20
599.57981
 30
0.0
 11
495.471452
 21
598.713784
 31
0.0
  0
LINE
  5
F4F16
  8
L1
 10
496.971452
 20
591.07981
 30
0.0
 11
495.471452
 21
591.945835
 31
0.0
  0
LINE
  5
F4F17
  8
L1
 10
645.971452
 20
746.82981
 30
0.0
 11
645.971452
 21
557.82981
 31
0.0
  0
LINE
  5
F4F18
  8
L1
 10
637.971452
 20
734.82981
 30
0.0
 11
637.971452
 21
557.82981
 31
0.0
  0
LINE
  5
F4F19
  8
L1
 10
648.971452
 20
741.347113
 30
0.0
 11
648.971452
 21
557.82981
 31
0.0
  0
ARC
  5
F4F1A
  8
L1
 10
647.971452
 20
741.347113
 30
0.0
 40
1.0
 50
0.0
 51
89.0
  0
LINE
  5
F4F1B
  8
L1
 10
645.971909
 20
742.382167
 30
0.0
 11
647.988904
 21
742.34696
 31
0.0
  0
ARC
  5
F4F1C
  8
L1
 10
647.971452
 20
741.347113
 30
0.0
 40
1.0
 50
0.0
 51
89.0
  0
LINE
  5
F4F1D
  8
L1
 10
645.971909
 20
742.382167
 30
0.0
 11
647.988904
 21
742.34696
 31
0.0
  0
ARC
  5
F4F1E
  8
L1
 10
637.971452
 20
629.82981
 30
0.0
 40
6.0
 50
90.0
 51
270.0
  0
LINE
  5
F4F20
  8
L6
 10
-25.22955
 20
557.82981
 30
0.0
 11
-214.871535
 21
557.82981
 31
0.0
  0
LINE
  5
F4F21
  8
L1
 10
-32.289993
 20
745.529507
 30
0.0
 11
-181.289993
 21
746.82981
 31
0.0
  0
LINE
  5
F4F22
  8
L1
 10
-32.289993
 20
726.339182
 30
0.0
 11
-173.289993
 21
725.108693
 31
0.0
  0
LINE
  5
F4F23
  8
L1
 10
-32.289993
 20
389.320438
 30
0.0
 11
-173.289993
 21
390.550926
 31
0.0
  0
LINE
  5
F4F24
  8
L1
 10
-32.289993
 20
370.130113
 30
0.0
 11
-181.289993
 21
368.82981
 31
0.0
  0
LINE
  5
F4F25
  8
L6
 10
-25.22955
 20
557.82981
 30
0.0
 11
-214.871535
 21
557.82981
 31
0.0
  0
LINE
  5
F4F26
  8
L1
 10
-32.289993
 20
370.130113
 30
0.0
 11
-32.289993
 21
557.82981
 31
0.0
  0
LINE
  5
F4F27
  8
L1
 10
-30.789993
 20
423.713784
 30
0.0
 11
-30.789993
 21
416.945835
 31
0.0
  0
LINE
  5
F4F28
  8
L1
 10
-30.289993
 20
372.82981
 30
0.0
 11
-30.289993
 21
388.82981
 31
0.0
  0
LINE
  5
F4F29
  8
L1
 10
-30.289993
 20
372.82981
 30
0.0
 11
-32.289993
 21
372.812356
 31
0.0
  0
LINE
  5
F4F2A
  8
L1
 10
-30.789993
 20
408.463784
 30
0.0
 11
-30.789993
 21
397.195835
 31
0.0
  0
LINE
  5
F4F2B
  8
L1
 10
-30.289993
 20
388.82981
 30
0.0
 11
-32.289993
 21
388.847264
 31
0.0
  0
LINE
  5
F4F2C
  8
L1
 10
-32.289993
 20
391.07981
 30
0.0
 11
-30.789993
 21
391.945835
 31
0.0
  0
ARC
  5
F4F2D
  8
L1
 10
-31.789993
 20
396.041135
 30
0.0
 40
0.5
 50
120.0
 51
180.0
  0
LINE
  5
F4F2E
  8
L1
 10
-32.039993
 20
396.474147
 30
0.0
 11
-30.789993
 21
397.195835
 31
0.0
  0
LINE
  5
F4F2F
  8
L1
 10
-30.789993
 20
397.195835
 30
0.0
 11
-30.789993
 21
391.945835
 31
0.0
  0
LINE
  5
F4F30
  8
L1
 10
-32.289993
 20
416.07981
 30
0.0
 11
-30.789993
 21
416.945835
 31
0.0
  0
ARC
  5
F4F31
  8
L1
 10
-31.789993
 20
409.618485
 30
0.0
 40
0.5
 50
180.0
 51
240.0
  0
LINE
  5
F4F32
  8
L1
 10
-32.039993
 20
409.185472
 30
0.0
 11
-30.789993
 21
408.463784
 31
0.0
  0
LINE
  5
F4F33
  8
L1
 10
-125.289993
 20
368.82981
 30
0.0
 11
-39.289993
 21
368.82981
 31
0.0
  0
POLYLINE
  5
F4F34
  8
L1
 66
     1
 10
0.0
 20
0.0
 30
0.0
  0
VERTEX
  5
F5043
  8
L1
 10
-44.789993
 20
368.82981
 30
0.0
  0
VERTEX
  5
F5044
  8
L1
 10
-44.789993
 20
368.32981
 30
0.0
  0
VERTEX
  5
F5045
  8
L1
 10
-57.789993
 20
368.32981
 30
0.0
  0
VERTEX
  5
F5046
  8
L1
 10
-57.789993
 20
368.82981
 30
0.0
  0
SEQEND
  5
F5047
  8
L1
  0
LINE
  5
F4F35
  8
L1
 10
-39.289993
 20
368.82981
 30
0.0
 11
-39.289993
 21
370.069025
 31
0.0
  0
POLYLINE
  5
F4F36
  8
L1
 66
     1
 10
0.0
 20
0.0
 30
0.0
  0
VERTEX
  5
F5048
  8
L1
 10
-106.789993
 20
368.82981
 30
0.0
  0
VERTEX
  5
F5049
  8
L1
 10
-106.789993
 20
368.32981
 30
0.0
  0
VERTEX
  5
F504A
  8
L1
 10
-119.789993
 20
368.32981
 30
0.0
  0
VERTEX
  5
F504B
  8
L1
 10
-119.789993
 20
368.82981
 30
0.0
  0
SEQEND
  5
F504C
  8
L1
  0
LINE
  5
F4F37
  8
L1
 10
-125.289993
 20
368.82981
 30
0.0
 11
-125.289993
 21
369.318514
 31
0.0
  0
LINE
  5
F4F38
  8
L1
 10
-32.289993
 20
745.529507
 30
0.0
 11
-32.289993
 21
557.82981
 31
0.0
  0
LINE
  5
F4F39
  8
L1
 10
-32.289993
 20
424.57981
 30
0.0
 11
-30.789993
 21
423.713784
 31
0.0
  0
LINE
  5
F4F3A
  8
L1
 10
-30.789993
 20
448.713784
 30
0.0
 11
-30.789993
 21
441.945835
 31
0.0
  0
LINE
  5
F4F3B
  8
L1
 10
-32.289993
 20
441.07981
 30
0.0
 11
-30.789993
 21
441.945835
 31
0.0
  0
LINE
  5
F4F3C
  8
L1
 10
-32.289993
 20
449.57981
 30
0.0
 11
-30.789993
 21
448.713784
 31
0.0
  0
LINE
  5
F4F3D
  8
L1
 10
-30.789993
 20
473.713784
 30
0.0
 11
-30.789993
 21
466.945835
 31
0.0
  0
LINE
  5
F4F3E
  8
L1
 10
-32.289993
 20
466.07981
 30
0.0
 11
-30.789993
 21
466.945835
 31
0.0
  0
LINE
  5
F4F3F
  8
L1
 10
-32.289993
 20
474.57981
 30
0.0
 11
-30.789993
 21
473.713784
 31
0.0
  0
LINE
  5
F4F40
  8
L1
 10
-30.789993
 20
523.713784
 30
0.0
 11
-30.789993
 21
516.945835
 31
0.0
  0
LINE
  5
F4F41
  8
L1
 10
-32.289993
 20
491.07981
 30
0.0
 11
-30.789993
 21
491.945835
 31
0.0
  0
LINE
  5
F4F42
  8
L1
 10
-32.289993
 20
499.57981
 30
0.0
 11
-30.789993
 21
498.713784
 31
0.0
  0
LINE
  5
F4F43
  8
L1
 10
-30.789993
 20
498.713784
 30
0.0
 11
-30.789993
 21
491.945835
 31
0.0
  0
LINE
  5
F4F44
  8
L1
 10
-32.289993
 20
516.07981
 30
0.0
 11
-30.789993
 21
516.945835
 31
0.0
  0
LINE
  5
F4F45
  8
L1
 10
-32.289993
 20
524.57981
 30
0.0
 11
-30.789993
 21
523.713784
 31
0.0
  0
LINE
  5
F4F46
  8
L1
 10
-32.289993
 20
616.07981
 30
0.0
 11
-30.789993
 21
616.945835
 31
0.0
  0
LINE
  5
F4F47
  8
L1
 10
-32.289993
 20
591.07981
 30
0.0
 11
-30.789993
 21
591.945835
 31
0.0
  0
LINE
  5
F4F48
  8
L1
 10
-32.289993
 20
599.57981
 30
0.0
 11
-30.789993
 21
598.713784
 31
0.0
  0
LINE
  5
F4F49
  8
L1
 10
-30.789993
 20
591.945835
 30
0.0
 11
-30.789993
 21
598.713784
 31
0.0
  0
LINE
  5
F4F4A
  8
L1
 10
-30.789993
 20
616.945835
 30
0.0
 11
-30.789993
 21
623.713784
 31
0.0
  0
LINE
  5
F4F4B
  8
L1
 10
-32.289993
 20
624.57981
 30
0.0
 11
-30.789993
 21
623.713784
 31
0.0
  0
LINE
  5
F4F4C
  8
L1
 10
-32.289993
 20
641.07981
 30
0.0
 11
-30.789993
 21
641.945835
 31
0.0
  0
LINE
  5
F4F4D
  8
L1
 10
-32.289993
 20
649.57981
 30
0.0
 11
-30.789993
 21
648.713784
 31
0.0
  0
LINE
  5
F4F4E
  8
L1
 10
-30.789993
 20
641.945835
 30
0.0
 11
-30.789993
 21
648.713784
 31
0.0
  0
LINE
  5
F4F4F
  8
L1
 10
-32.289993
 20
666.07981
 30
0.0
 11
-30.789993
 21
666.945835
 31
0.0
  0
LINE
  5
F4F50
  8
L1
 10
-32.289993
 20
674.57981
 30
0.0
 11
-30.789993
 21
673.713784
 31
0.0
  0
LINE
  5
F4F51
  8
L1
 10
-30.789993
 20
666.945835
 30
0.0
 11
-30.789993
 21
673.713784
 31
0.0
  0
LINE
  5
F4F52
  8
L1
 10
-30.789993
 20
707.195835
 30
0.0
 11
-30.789993
 21
718.463784
 31
0.0
  0
LINE
  5
F4F53
  8
L1
 10
-32.289993
 20
699.57981
 30
0.0
 11
-30.789993
 21
698.713784
 31
0.0
  0
LINE
  5
F4F54
  8
L1
 10
-32.289993
 20
691.07981
 30
0.0
 11
-30.789993
 21
691.945835
 31
0.0
  0
LINE
  5
F4F55
  8
L1
 10
-30.789993
 20
691.945835
 30
0.0
 11
-30.789993
 21
698.713784
 31
0.0
  0
LINE
  5
F4F56
  8
L1
 10
-32.039993
 20
706.474147
 30
0.0
 11
-30.789993
 21
707.195835
 31
0.0
  0
ARC
  5
F4F57
  8
L1
 10
-31.789993
 20
706.041135
 30
0.0
 40
0.5
 50
120.0
 51
180.0
  0
LINE
  5
F4F58
  8
L1
 10
-30.289993
 20
742.82981
 30
0.0
 11
-30.289993
 21
726.82981
 31
0.0
  0
LINE
  5
F4F59
  8
L1
 10
-30.789993
 20
718.463784
 30
0.0
 11
-30.789993
 21
723.713784
 31
0.0
  0
LINE
  5
F4F5A
  8
L1
 10
-32.039993
 20
719.185472
 30
0.0
 11
-30.789993
 21
718.463784
 31
0.0
  0
ARC
  5
F4F5B
  8
L1
 10
-31.789993
 20
719.618485
 30
0.0
 40
0.5
 50
180.0
 51
240.0
  0
LINE
  5
F4F5C
  8
L1
 10
-32.289993
 20
724.57981
 30
0.0
 11
-30.789993
 21
723.713784
 31
0.0
  0
LINE
  5
F4F5D
  8
L1
 10
-30.289993
 20
726.82981
 30
0.0
 11
-32.289993
 21
726.812356
 31
0.0
  0
LINE
  5
F4F5E
  8
L1
 10
-30.289993
 20
742.82981
 30
0.0
 11
-32.289993
 21
742.847264
 31
0.0
  0
LINE
  5
F4F5F
  8
L1
 10
-125.289993
 20
746.82981
 30
0.0
 11
-39.289993
 21
746.82981
 31
0.0
  0
POLYLINE
  5
F4F60
  8
L1
 66
     1
 10
0.0
 20
0.0
 30
0.0
  0
VERTEX
  5
F504D
  8
L1
 10
-44.789993
 20
746.82981
 30
0.0
  0
VERTEX
  5
F504E
  8
L1
 10
-44.789993
 20
747.32981
 30
0.0
  0
VERTEX
  5
F504F
  8
L1
 10
-57.789993
 20
747.32981
 30
0.0
  0
VERTEX
  5
F5050
  8
L1
 10
-57.789993
 20
746.82981
 30
0.0
  0
SEQEND
  5
F5051
  8
L1
  0
LINE
  5
F4F61
  8
L1
 10
-39.289993
 20
746.82981
 30
0.0
 11
-39.289993
 21
745.590595
 31
0.0
  0
POLYLINE
  5
F4F62
  8
L1
 66
     1
 10
0.0
 20
0.0
 30
0.0
  0
VERTEX
  5
F5052
  8
L1
 10
-106.789993
 20
746.82981
 30
0.0
  0
VERTEX
  5
F5053
  8
L1
 10
-106.789993
 20
747.32981
 30
0.0
  0
VERTEX
  5
F5054
  8
L1
 10
-119.789993
 20
747.32981
 30
0.0
  0
VERTEX
  5
F5055
  8
L1
 10
-119.789993
 20
746.82981
 30
0.0
  0
SEQEND
  5
F5056
  8
L1
  0
LINE
  5
F4F63
  8
L1
 10
-125.289993
 20
746.82981
 30
0.0
 11
-125.289993
 21
746.341105
 31
0.0
  0
LINE
  5
F4F64
  8
L1
 10
-181.289993
 20
368.82981
 30
0.0
 11
-181.289993
 21
557.82981
 31
0.0
  0
LINE
  5
F4F65
  8
L1
 10
-173.289993
 20
380.82981
 30
0.0
 11
-173.289993
 21
557.82981
 31
0.0
  0
LINE
  5
F4F66
  8
L1
 10
-184.289993
 20
374.312507
 30
0.0
 11
-184.289993
 21
557.82981
 31
0.0
  0
ARC
  5
F4F67
  8
L1
 10
-183.289993
 20
374.312507
 30
0.0
 40
1.0
 50
180.0
 51
269.0
  0
LINE
  5
F4F68
  8
L1
 10
-181.29045
 20
373.277453
 30
0.0
 11
-183.307445
 21
373.312659
 31
0.0
  0
ARC
  5
F4F69
  8
L1
 10
-183.289993
 20
374.312507
 30
0.0
 40
1.0
 50
180.0
 51
269.0
  0
LINE
  5
F4F6A
  8
L1
 10
-181.29045
 20
373.277453
 30
0.0
 11
-183.307445
 21
373.312659
 31
0.0
  0
LINE
  5
F4F6B
  8
L1
 10
-184.289993
 20
741.347113
 30
0.0
 11
-184.289993
 21
557.82981
 31
0.0
  0
LINE
  5
F4F6C
  8
L1
 10
-173.289993
 20
734.82981
 30
0.0
 11
-173.289993
 21
557.82981
 31
0.0
  0
LINE
  5
F4F6D
  8
L1
 10
-181.289993
 20
746.82981
 30
0.0
 11
-181.289993
 21
557.82981
 31
0.0
  0
ARC
  5
F4F6E
  8
L1
 10
-173.289993
 20
485.82981
 30
0.0
 40
6.0
 50
270.0
 51
90.0
  0
ARC
  5
F4F6F
  8
L1
 10
-173.289993
 20
629.82981
 30
0.0
 40
6.0
 50
270.0
 51
90.0
  0
LINE
  5
F4F70
  8
L1
 10
-181.29045
 20
742.382167
 30
0.0
 11
-183.307445
 21
742.34696
 31
0.0
  0
ARC
  5
F4F71
  8
L1
 10
-183.289993
 20
741.347113
 30
0.0
 40
1.0
 50
91.0
 51
180.0
  0
LINE
  5
F4F72
  8
L1
 10
-181.29045
 20
742.382167
 30
0.0
 11
-183.307445
 21
742.34696
 31
0.0
  0
ARC
  5
F4F73
  8
L1
 10
-183.289993
 20
741.347113
 30
0.0
 40
1.0
 50
91.0
 51
180.0
  0
LINE
  5
F4F74
  8
L1
 10
223.224704
 20
912.828534
 30
0.0
 11
216.456755
 21
912.828534
 31
0.0
  0
LINE
  5
F4F75
  8
L1
 10
105.340729
 20
1055.328534
 30
0.0
 11
359.340729
 21
1055.328534
 31
0.0
  0
LINE
  5
F4F76
  8
L1
 10
93.340729
 20
1063.328534
 30
0.0
 11
366.893095
 21
1063.328534
 31
0.0
  0
LINE
  5
F4F77
  8
L1
 10
232.340729
 20
1066.328534
 30
0.0
 11
116.544242
 21
1066.328534
 31
0.0
  0
LINE
  5
F4F78
  8
L1
 10
232.340729
 20
914.328534
 30
0.0
 11
94.641033
 21
914.328534
 31
0.0
  0
LINE
  5
F4F79
  8
L1
 10
116.040426
 20
914.328534
 30
0.0
 11
117.270915
 21
1055.328534
 31
0.0
  0
LINE
  5
F4F7A
  8
L1
 10
94.641033
 20
914.328534
 30
0.0
 11
93.340729
 21
1063.328534
 31
0.0
  0
LINE
  5
F4F7B
  8
L1
 10
93.340729
 20
1063.328534
 30
0.0
 11
93.340729
 21
919.828534
 31
0.0
  0
LINE
  5
F4F7C
  8
L1
 10
92.840729
 20
1031.828534
 30
0.0
 11
92.840729
 21
1014.828534
 31
0.0
  0
LINE
  5
F4F7D
  8
L1
 10
98.823427
 20
1066.328534
 30
0.0
 11
116.544242
 21
1066.328534
 31
0.0
  0
ARC
  5
F4F7E
  8
L1
 10
98.823427
 20
1065.328534
 30
0.0
 40
1.0
 50
90.0
 51
179.0
  0
LINE
  5
F4F7F
  8
L1
 10
97.788364
 20
1063.328534
 30
0.0
 11
97.823579
 21
1065.345986
 31
0.0
  0
LINE
  5
F4F80
  8
L1
 10
95.790729
 20
1063.328534
 30
0.0
 11
97.788364
 21
1063.328534
 31
0.0
  0
LINE
  5
F4F81
  8
L1
 10
92.840729
 20
1031.828534
 30
0.0
 11
93.340729
 21
1031.828534
 31
0.0
  0
LINE
  5
F4F82
  8
L1
 10
92.840729
 20
1014.828534
 30
0.0
 11
93.340729
 21
1014.828534
 31
0.0
  0
ARC
  5
F4F83
  8
L1
 10
207.840729
 20
1055.328534
 30
0.0
 40
6.0
 50
180.0
 51
0.0
  0
LINE
  5
F4F84
  8
L1
 10
132.974704
 20
912.828534
 30
0.0
 11
121.706755
 21
912.828534
 31
0.0
  0
LINE
  5
F4F85
  8
L1
 10
92.840729
 20
951.828534
 30
0.0
 11
92.840729
 21
934.828534
 31
0.0
  0
LINE
  5
F4F86
  8
L1
 10
92.840729
 20
951.828534
 30
0.0
 11
93.340729
 21
951.828534
 31
0.0
  0
LINE
  5
F4F87
  8
L1
 10
92.840729
 20
934.828534
 30
0.0
 11
93.340729
 21
934.828534
 31
0.0
  0
LINE
  5
F4F88
  8
L1
 10
97.340729
 20
912.328534
 30
0.0
 11
113.340729
 21
912.328534
 31
0.0
  0
LINE
  5
F4F89
  8
L1
 10
94.593035
 20
919.828534
 30
0.0
 11
93.340729
 21
919.828534
 31
0.0
  0
LINE
  5
F4F8A
  8
L1
 10
97.340729
 20
912.328534
 30
0.0
 11
97.323276
 21
914.328534
 31
0.0
  0
LINE
  5
F4F8B
  8
L1
 10
121.706755
 20
912.828534
 30
0.0
 11
116.456755
 21
912.828534
 31
0.0
  0
LINE
  5
F4F8C
  8
L1
 10
113.340729
 20
912.328534
 30
0.0
 11
113.358183
 21
914.328534
 31
0.0
  0
LINE
  5
F4F8D
  8
L1
 10
115.590729
 20
914.328534
 30
0.0
 11
116.456755
 21
912.828534
 31
0.0
  0
ARC
  5
F4F8E
  8
L1
 10
120.552054
 20
913.828534
 30
0.0
 40
0.5
 50
30.0
 51
90.0
  0
LINE
  5
F4F8F
  8
L1
 10
120.985067
 20
914.078534
 30
0.0
 11
121.706755
 21
912.828534
 31
0.0
  0
LINE
  5
F4F90
  8
L1
 10
148.224704
 20
912.828534
 30
0.0
 11
141.456755
 21
912.828534
 31
0.0
  0
LINE
  5
F4F91
  8
L1
 10
133.696392
 20
914.078534
 30
0.0
 11
132.974704
 21
912.828534
 31
0.0
  0
ARC
  5
F4F92
  8
L1
 10
134.129405
 20
913.828534
 30
0.0
 40
0.5
 50
90.0
 51
150.0
  0
LINE
  5
F4F93
  8
L1
 10
140.590729
 20
914.328534
 30
0.0
 11
141.456755
 21
912.828534
 31
0.0
  0
LINE
  5
F4F94
  8
L1
 10
149.090729
 20
914.328534
 30
0.0
 11
148.224704
 21
912.828534
 31
0.0
  0
LINE
  5
F4F95
  8
L1
 10
173.224704
 20
912.828534
 30
0.0
 11
166.456755
 21
912.828534
 31
0.0
  0
LINE
  5
F4F96
  8
L1
 10
165.590729
 20
914.328534
 30
0.0
 11
166.456755
 21
912.828534
 31
0.0
  0
LINE
  5
F4F97
  8
L1
 10
174.090729
 20
914.328534
 30
0.0
 11
173.224704
 21
912.828534
 31
0.0
  0
LINE
  5
F4F98
  8
L1
 10
199.090729
 20
914.328534
 30
0.0
 11
198.224704
 21
912.828534
 31
0.0
  0
LINE
  5
F4F99
  8
L1
 10
190.590729
 20
914.328534
 30
0.0
 11
191.456755
 21
912.828534
 31
0.0
  0
LINE
  5
F4F9A
  8
L1
 10
198.224704
 20
912.828534
 30
0.0
 11
191.456755
 21
912.828534
 31
0.0
  0
LINE
  5
F4F9B
  8
L1
 10
215.590729
 20
914.328534
 30
0.0
 11
216.456755
 21
912.828534
 31
0.0
  0
LINE
  5
F4F9C
  8
L6
 10
232.340729
 20
908.897814
 30
0.0
 11
232.340729
 21
1032.754516
 31
0.0
  0
LINE
  5
F4F9D
  8
L1
 10
371.340729
 20
1063.328534
 30
0.0
 11
371.340729
 21
919.828534
 31
0.0
  0
LINE
  5
F4F9E
  8
L1
 10
348.641033
 20
914.328534
 30
0.0
 11
347.410544
 21
1055.328534
 31
0.0
  0
LINE
  5
F4F9F
  8
L1
 10
370.040426
 20
914.328534
 30
0.0
 11
371.340729
 21
1063.328534
 31
0.0
  0
LINE
  5
F4FA0
  8
L1
 10
232.340729
 20
1066.328534
 30
0.0
 11
345.316973
 21
1066.328534
 31
0.0
  0
LINE
  5
F4FA1
  8
L6
 10
232.340729
 20
1041.186928
 30
0.0
 11
232.340729
 21
1076.328534
 31
0.0
  0
ARC
  5
F4FA2
  8
L1
 10
256.840729
 20
1055.328534
 30
0.0
 40
6.0
 50
180.0
 51
0.0
  0
LINE
  5
F4FA3
  8
L1
 10
371.840729
 20
1031.828534
 30
0.0
 11
371.840729
 21
1014.828534
 31
0.0
  0
LINE
  5
F4FA4
  8
L1
 10
345.316973
 20
1066.328534
 30
0.0
 11
365.858037
 21
1066.328534
 31
0.0
  0
LINE
  5
F4FA5
  8
L1
 10
366.893095
 20
1063.328534
 30
0.0
 11
371.340729
 21
1063.328534
 31
0.0
  0
LINE
  5
F4FA6
  8
L1
 10
371.340729
 20
1063.328534
 30
0.0
 11
366.893095
 21
1063.328534
 31
0.0
  0
LINE
  5
F4FA7
  8
L1
 10
365.858032
 20
1066.328534
 30
0.0
 11
365.858032
 21
1066.328534
 31
0.0
  0
ARC
  5
F4FA8
  8
L1
 10
365.858032
 20
1065.328534
 30
0.0
 40
1.0
 50
1.0
 51
90.0
  0
LINE
  5
F4FA9
  8
L1
 10
366.893095
 20
1063.328534
 30
0.0
 11
366.85788
 21
1065.345986
 31
0.0
  0
LINE
  5
F4FAA
  8
L1
 10
366.893095
 20
1063.328534
 30
0.0
 11
366.85788
 21
1065.345986
 31
0.0
  0
ARC
  5
F4FAB
  8
L1
 10
365.858032
 20
1065.328534
 30
0.0
 40
1.0
 50
1.0
 51
90.0
  0
LINE
  5
F4FAC
  8
L1
 10
371.840729
 20
1031.828534
 30
0.0
 11
371.340729
 21
1031.828534
 31
0.0
  0
LINE
  5
F4FAD
  8
L1
 10
371.840729
 20
1014.828534
 30
0.0
 11
371.340729
 21
1014.828534
 31
0.0
  0
LINE
  5
F4FAE
  8
L1
 10
232.340729
 20
914.328534
 30
0.0
 11
370.040426
 21
914.328534
 31
0.0
  0
LINE
  5
F4FAF
  8
L1
 10
273.224704
 20
912.828534
 30
0.0
 11
266.456755
 21
912.828534
 31
0.0
  0
LINE
  5
F4FB0
  8
L1
 10
248.224704
 20
912.828534
 30
0.0
 11
241.456755
 21
912.828534
 31
0.0
  0
LINE
  5
F4FB1
  8
L1
 10
224.090729
 20
914.328534
 30
0.0
 11
223.224704
 21
912.828534
 31
0.0
  0
LINE
  5
F4FB2
  8
L1
 10
240.590729
 20
914.328534
 30
0.0
 11
241.456755
 21
912.828534
 31
0.0
  0
LINE
  5
F4FB3
  8
L1
 10
249.090729
 20
914.328534
 30
0.0
 11
248.224704
 21
912.828534
 31
0.0
  0
LINE
  5
F4FB4
  8
L1
 10
265.590729
 20
914.328534
 30
0.0
 11
266.456755
 21
912.828534
 31
0.0
  0
LINE
  5
F4FB5
  8
L1
 10
298.224704
 20
912.828534
 30
0.0
 11
291.456755
 21
912.828534
 31
0.0
  0
LINE
  5
F4FB6
  8
L1
 10
274.090729
 20
914.328534
 30
0.0
 11
273.224704
 21
912.828534
 31
0.0
  0
LINE
  5
F4FB7
  8
L1
 10
290.590729
 20
914.328534
 30
0.0
 11
291.456755
 21
912.828534
 31
0.0
  0
LINE
  5
F4FB8
  8
L1
 10
299.090729
 20
914.328534
 30
0.0
 11
298.224704
 21
912.828534
 31
0.0
  0
LINE
  5
F4FB9
  8
L1
 10
351.340729
 20
912.328534
 30
0.0
 11
367.340729
 21
912.328534
 31
0.0
  0
LINE
  5
F4FBA
  8
L1
 10
342.974704
 20
912.828534
 30
0.0
 11
331.706755
 21
912.828534
 31
0.0
  0
LINE
  5
F4FBB
  8
L1
 10
324.090729
 20
914.328534
 30
0.0
 11
323.224704
 21
912.828534
 31
0.0
  0
LINE
  5
F4FBC
  8
L1
 10
315.590729
 20
914.328534
 30
0.0
 11
316.456755
 21
912.828534
 31
0.0
  0
LINE
  5
F4FBD
  8
L1
 10
323.224704
 20
912.828534
 30
0.0
 11
316.456755
 21
912.828534
 31
0.0
  0
LINE
  5
F4FBE
  8
L1
 10
330.985067
 20
914.078534
 30
0.0
 11
331.706755
 21
912.828534
 31
0.0
  0
ARC
  5
F4FBF
  8
L1
 10
330.552054
 20
913.828534
 30
0.0
 40
0.5
 50
30.0
 51
90.0
  0
LINE
  5
F4FC0
  8
L1
 10
343.696392
 20
914.078534
 30
0.0
 11
342.974704
 21
912.828534
 31
0.0
  0
ARC
  5
F4FC1
  8
L1
 10
344.129405
 20
913.828534
 30
0.0
 40
0.5
 50
90.0
 51
150.0
  0
LINE
  5
F4FC2
  8
L1
 10
349.090729
 20
914.328534
 30
0.0
 11
348.224704
 21
912.828534
 31
0.0
  0
LINE
  5
F4FC3
  8
L1
 10
348.224704
 20
912.828534
 30
0.0
 11
342.974704
 21
912.828534
 31
0.0
  0
LINE
  5
F4FC4
  8
L1
 10
351.340729
 20
912.328534
 30
0.0
 11
351.323276
 21
914.328534
 31
0.0
  0
LINE
  5
F4FC5
  8
L1
 10
371.840729
 20
951.828534
 30
0.0
 11
371.840729
 21
934.828534
 31
0.0
  0
LINE
  5
F4FC6
  8
L1
 10
371.840729
 20
951.828534
 30
0.0
 11
371.340729
 21
951.828534
 31
0.0
  0
LINE
  5
F4FC7
  8
L1
 10
371.840729
 20
934.828534
 30
0.0
 11
371.340729
 21
934.828534
 31
0.0
  0
LINE
  5
F4FC8
  8
L1
 10
367.340729
 20
912.328534
 30
0.0
 11
367.358183
 21
914.328534
 31
0.0
  0
LINE
  5
F4FC9
  8
L1
 10
370.088424
 20
919.828534
 30
0.0
 11
371.340729
 21
919.828534
 31
0.0
  0
TEXT
  5
F501B
  8
L20
 10
-466.381546
 20
852.565506
 30
0.0
 40
14.849242
  1
FIBOX EK-P 278x378x150 BASE
  0
VIEWPORT
  5
1
 67
     1
  8
0
 10
210.0
 20
152.094241
 30
0.0
 40
420.0
 41
304.188482
 68
    -1
 69
     1
1001
ACAD
1000
MVIEW
1002
{
1070
    16
1010
0.0
1020
0.0
1030
0.0
1010
0.0
1020
0.0
1030
1.0
1040
0.0
1040
304.188482
1040
210.0
1040
152.094241
1040
50.0
1040
0.0
1040
0.0
1070
     0
1070
   100
1070
     1
1070
     1
1070
     1
1070
     0
1070
     0
1070
     0
1040
0.0
1040
0.0
1040
0.0
1040
1.0
1040
1.0
1040
0.0
1040
0.0
1070
     0
1002
{
1002
}
1002
}
  0
ENDSEC
  0
EOF
