  0
SECTION
  2
HEADER
  9
$ACADVER
  1
AC1009
  9
$INSBASE
 10
0.0
 20
0.0
 30
0.0
  9
$EXTMIN
 10
86.0
 20
85.577797
 30
0.0
  9
$EXTMAX
 10
1043.422203
 20
674.466589
 30
0.0
  9
$LIMMIN
 10
0.0
 20
0.0
  9
$LIMMAX
 10
420.0
 20
297.0
  9
$ORTHOMODE
 70
     0
  9
$REGENMODE
 70
     1
  9
$FILLMODE
 70
     1
  9
$QTEXTMODE
 70
     0
  9
$MIRRTEXT
 70
     1
  9
$DRAGMODE
 70
     2
  9
$LTSCALE
 40
7.0
  9
$OSMODE
 70
     0
  9
$ATTMODE
 70
     1
  9
$TEXTSIZE
 40
3.5
  9
$TRACEWID
 40
0.05
  9
$TEXTSTYLE
  7
STANDARD
  9
$CLAYER
  8
1
  9
$CELTYPE
  6
BYLAYER
  9
$CECOLOR
 62
   256
  9
$DIMSCALE
 40
1.0
  9
$DIMASZ
 40
3.5
  9
$DIMEXO
 40
0.0
  9
$DIMDLI
 40
10.0
  9
$DIMRND
 40
0.0
  9
$DIMDLE
 40
0.0
  9
$DIMEXE
 40
2.0
  9
$DIMTP
 40
0.0
  9
$DIMTM
 40
0.0
  9
$DIMTXT
 40
3.5
  9
$DIMCEN
 40
2.5
  9
$DIMTSZ
 40
0.0
  9
$DIMTOL
 70
     0
  9
$DIMLIM
 70
     0
  9
$DIMTIH
 70
     0
  9
$DIMTOH
 70
     0
  9
$DIMSE1
 70
     0
  9
$DIMSE2
 70
     0
  9
$DIMTAD
 70
     1
  9
$DIMZIN
 70
     8
  9
$DIMBLK
  1

  9
$DIMASO
 70
     1
  9
$DIMSHO
 70
     1
  9
$DIMPOST
  1

  9
$DIMAPOST
  1

  9
$DIMALT
 70
     0
  9
$DIMALTD
 70
     2
  9
$DIMALTF
 40
25.4
  9
$DIMLFAC
 40
1.0
  9
$DIMTOFL
 70
     1
  9
$DIMTVP
 40
0.0
  9
$DIMTIX
 70
     0
  9
$DIMSOXD
 70
     0
  9
$DIMSAH
 70
     0
  9
$DIMBLK1
  1

  9
$DIMBLK2
  1

  9
$DIMSTYLE
  2
ACADUS
  9
$DIMCLRD
 70
   256
  9
$DIMCLRE
 70
   256
  9
$DIMCLRT
 70
     3
  9
$DIMTFAC
 40
1.0
  9
$DIMGAP
 40
2.0
  9
$LUNITS
 70
     2
  9
$LUPREC
 70
     1
  9
$SKETCHINC
 40
1.0
  9
$FILLETRAD
 40
0.0
  9
$AUNITS
 70
     0
  9
$AUPREC
 70
     2
  9
$MENU
  1
CAESAR
  9
$ELEVATION
 40
0.0
  9
$PELEVATION
 40
0.0
  9
$THICKNESS
 40
0.0
  9
$LIMCHECK
 70
     0
  9
$BLIPMODE
 70
     1
  9
$CHAMFERA
 40
5.0
  9
$CHAMFERB
 40
5.0
  9
$SKPOLY
 70
     0
  9
$TDCREATE
 40
2449496.456046
  9
$TDUPDATE
 40
2453059.652845
  9
$TDINDWG
 40
0.000042
  9
$TDUSRTIMER
 40
0.000042
  9
$USRTIMER
 70
     1
  9
$ANGBASE
 50
0.0
  9
$ANGDIR
 70
     0
  9
$PDMODE
 70
     0
  9
$PDSIZE
 40
0.0
  9
$PLINEWID
 40
0.0
  9
$COORDS
 70
     2
  9
$SPLFRAME
 70
     0
  9
$SPLINETYPE
 70
     6
  9
$SPLINESEGS
 70
     8
  9
$ATTDIA
 70
     0
  9
$ATTREQ
 70
     1
  9
$HANDLING
 70
     1
  9
$HANDSEED
  5
7EF50
  9
$SURFTAB1
 70
     6
  9
$SURFTAB2
 70
     6
  9
$SURFTYPE
 70
     6
  9
$SURFU
 70
     6
  9
$SURFV
 70
     6
  9
$UCSNAME
  2

  9
$UCSORG
 10
0.0
 20
0.0
 30
0.0
  9
$UCSXDIR
 10
1.0
 20
0.0
 30
0.0
  9
$UCSYDIR
 10
0.0
 20
1.0
 30
0.0
  9
$PUCSNAME
  2

  9
$PUCSORG
 10
0.0
 20
0.0
 30
0.0
  9
$PUCSXDIR
 10
1.0
 20
0.0
 30
0.0
  9
$PUCSYDIR
 10
0.0
 20
1.0
 30
0.0
  9
$USERI1
 70
     0
  9
$USERI2
 70
     0
  9
$USERI3
 70
     0
  9
$USERI4
 70
     0
  9
$USERI5
 70
     0
  9
$USERR1
 40
1.0
  9
$USERR2
 40
0.0
  9
$USERR3
 40
3.5
  9
$USERR4
 40
0.0
  9
$USERR5
 40
0.0
  9
$WORLDVIEW
 70
     1
  9
$SHADEDGE
 70
     3
  9
$SHADEDIF
 70
    70
  9
$TILEMODE
 70
     1
  9
$MAXACTVP
 70
    16
  9
$PLIMCHECK
 70
     0
  9
$PEXTMIN
 10
1.000000E+020
 20
1.000000E+020
 30
1.000000E+020
  9
$PEXTMAX
 10
-1.000000E+020
 20
-1.000000E+020
 30
-1.000000E+020
  9
$PLIMMIN
 10
0.0
 20
0.0
  9
$PLIMMAX
 10
420.0
 20
297.0
  9
$UNITMODE
 70
     0
  9
$VISRETAIN
 70
     0
  9
$PLINEGEN
 70
     0
  9
$PSLTSCALE
 70
     0
  0
ENDSEC
  0
SECTION
  2
TABLES
  0
TABLE
  2
VPORT
 70
     2
  0
VPORT
  2
*ACTIVE
 70
     0
 10
0.0
 20
0.0
 11
1.0
 21
1.0
 12
564.698774
 22
380.020388
 13
0.0
 23
0.0
 14
1.0
 24
1.0
 15
10.0
 25
10.0
 16
0.0
 26
0.0
 36
1.0
 17
0.0
 27
0.0
 37
0.0
 40
595.981205
 41
1.616838
 42
50.0
 43
0.0
 44
0.0
 50
0.0
 51
0.0
 71
     0
 72
   100
 73
     1
 74
     1
 75
     0
 76
     0
 77
     0
 78
     0
  0
ENDTAB
  0
TABLE
  2
LTYPE
 70
    10
  0
LTYPE
  2
CONTINUOUS
 70
     0
  3
Solid line
 72
    65
 73
     0
 40
0.0
  0
LTYPE
  2
BORDER
 70
     0
  3
__ __ . __ __ . __ __ . __ __ . __ __ . __ __ .
 72
    65
 73
     6
 40
1.75
 49
0.5
 49
-0.25
 49
0.5
 49
-0.25
 49
0.0
 49
-0.25
  0
LTYPE
  2
CENTER
 70
     0
  3
____ _ ____ _ ____ _ ____ _ ____ _ ____ _ ____ 
 72
    65
 73
     4
 40
2.0
 49
1.25
 49
-0.25
 49
0.25
 49
-0.25
  0
LTYPE
  2
DASHDOT
 70
     0
  3
__ . __ . __ . __ . __ . __ . __ . __ . __ . __
 72
    65
 73
     4
 40
1.0
 49
0.5
 49
-0.25
 49
0.0
 49
-0.25
  0
LTYPE
  2
DASHED
 70
     0
  3
__ __ __ __ __ __ __ __ __ __ __ __ __ __ __ __
 72
    65
 73
     2
 40
0.75
 49
0.5
 49
-0.25
  0
LTYPE
  2
DIVIDE
 70
     0
  3
____ . . ____ . . ____ . . ____ . . ____ . . __
 72
    65
 73
     6
 40
1.25
 49
0.5
 49
-0.25
 49
0.0
 49
-0.25
 49
0.0
 49
-0.25
  0
LTYPE
  2
DOT
 70
     0
  3
. . . . . . . . . . . . . . . . . . . . . . . .
 72
    65
 73
     2
 40
0.25
 49
0.0
 49
-0.25
  0
LTYPE
  2
HIDDEN
 70
     0
  3
__ __ __ __ __ __ __ __ __ __ __ __ __ __ __ __
 72
    65
 73
     2
 40
0.375
 49
0.25
 49
-0.125
  0
LTYPE
  2
PHANTOM
 70
     0
  3
______  __  __  ______  __  __  ______  __  __ 
 72
    65
 73
     6
 40
2.5
 49
1.25
 49
-0.25
 49
0.25
 49
-0.25
 49
0.25
 49
-0.25
  0
LTYPE
  2
DOTX2
 70
     0
  3
.  .  .  .  .  .  .  .  .  .  .  .  .  .  .  . 
 72
    65
 73
     2
 40
0.5
 49
0.0
 49
-0.5
  0
ENDTAB
  0
TABLE
  2
LAYER
 70
   124
  0
LAYER
  2
0
 70
     0
 62
     7
  6
CONTINUOUS
  0
LAYER
  2
L1
 70
     0
 62
     7
  6
CONTINUOUS
  0
LAYER
  2
L2
 70
     0
 62
     1
  6
CONTINUOUS
  0
LAYER
  2
L3
 70
     0
 62
     7
  6
DASHED
  0
LAYER
  2
L4
 70
     0
 62
     1
  6
DASHED
  0
LAYER
  2
L5
 70
     0
 62
     7
  6
CENTER
  0
LAYER
  2
L6
 70
     0
 62
     1
  6
CENTER
  0
LAYER
  2
L7
 70
     0
 62
     1
  6
PHANTOM
  0
LAYER
  2
VPORT
 70
     0
 62
     7
  6
CONTINUOUS
  0
LAYER
  2
L8
 70
     0
 62
     1
  6
CONTINUOUS
  0
LAYER
  2
L20
 70
     0
 62
     3
  6
CONTINUOUS
  0
LAYER
  2
L21
 70
     0
 62
     1
  6
CONTINUOUS
  0
LAYER
  2
L22
 70
     0
 62
     1
  6
CONTINUOUS
  0
LAYER
  2
L23
 70
     0
 62
     1
  6
CONTINUOUS
  0
LAYER
  2
L30
 70
     0
 62
     3
  6
CONTINUOUS
  0
LAYER
  2
L31
 70
     0
 62
     1
  6
CONTINUOUS
  0
LAYER
  2
L32
 70
     0
 62
     3
  6
CONTINUOUS
  0
LAYER
  2
L33
 70
     0
 62
     1
  6
CONTINUOUS
  0
LAYER
  2
L34
 70
     0
 62
     1
  6
DASHED
  0
LAYER
  2
L35
 70
     0
 62
     1
  6
CONTINUOUS
  0
LAYER
  2
L40
 70
     0
 62
     7
  6
CONTINUOUS
  0
LAYER
  2
L41
 70
     0
 62
     1
  6
CONTINUOUS
  0
LAYER
  2
L42
 70
     0
 62
     1
  6
CONTINUOUS
  0
LAYER
  2
L43
 70
     0
 62
     7
  6
CONTINUOUS
  0
LAYER
  2
L44
 70
     0
 62
     1
  6
DASHED
  0
LAYER
  2
L45
 70
     0
 62
     1
  6
CONTINUOUS
  0
LAYER
  2
L46
 70
     0
 62
     3
  6
CONTINUOUS
  0
LAYER
  2
L50
 70
     0
 62
     7
  6
CONTINUOUS
  0
LAYER
  2
L51
 70
     0
 62
     1
  6
CONTINUOUS
  0
LAYER
  2
L52
 70
     0
 62
     7
  6
CONTINUOUS
  0
LAYER
  2
L53
 70
     0
 62
     1
  6
CONTINUOUS
  0
LAYER
  2
L54
 70
     0
 62
     1
  6
DASHED
  0
LAYER
  2
L55
 70
     0
 62
     3
  6
CONTINUOUS
  0
LAYER
  2
L56
 70
     0
 62
     3
  6
CONTINUOUS
  0
LAYER
  2
L57
 70
     0
 62
     1
  6
CONTINUOUS
  0
LAYER
  2
L9
 70
     0
 62
     7
  6
HIDDEN
  0
LAYER
  2
L15
 70
     0
 62
     2
  6
CONTINUOUS
  0
LAYER
  2
L16
 70
     0
 62
     5
  6
DOTX2
  0
LAYER
  2
L24
 70
     0
 62
     1
  6
DASHED
  0
LAYER
  2
1
 70
     0
 62
     7
  6
CONTINUOUS
  0
LAYER
  2
2
 70
     0
 62
     7
  6
CONTINUOUS
  0
LAYER
  2
8
 70
     0
 62
     7
  6
CONTINUOUS
  0
LAYER
  2
11
 70
     0
 62
     7
  6
CONTINUOUS
  0
LAYER
  2
60
 70
     0
 62
     7
  6
CONTINUOUS
  0
LAYER
  2
63
 70
     0
 62
     1
  6
CENTER
  0
LAYER
  2
66
 70
     0
 62
     7
  6
CONTINUOUS
  0
LAYER
  2
69
 70
     0
 62
     7
  6
CONTINUOUS
  0
LAYER
  2
72
 70
     0
 62
     7
  6
CONTINUOUS
  0
LAYER
  2
75
 70
     0
 62
     7
  6
CONTINUOUS
  0
LAYER
  2
86
 70
     0
 62
     7
  6
CONTINUOUS
  0
LAYER
  2
89
 70
     0
 62
     7
  6
CONTINUOUS
  0
LAYER
  2
98
 70
     0
 62
     7
  6
CONTINUOUS
  0
LAYER
  2
DEFPOINTS
 70
     0
 62
     7
  6
CONTINUOUS
  0
LAYER
  2
MUOTOV
 70
     0
 62
     7
  6
CONTINUOUS
  0
LAYER
  2
KATKOV
 70
     0
 62
     1
  6
HIDDEN
  0
LAYER
  2
PIKATKOV
 70
     0
 62
     5
  6
DASHDOT
  0
LAYER
  2
MITAT
 70
     0
 62
     5
  6
CONTINUOUS
  0
LAYER
  2
LEIKV
 70
     0
 62
     5
  6
CONTINUOUS
  0
LAYER
  2
A1
 70
     0
 62
     7
  6
CONTINUOUS
  0
LAYER
  2
RA1
 70
     0
 62
     5
  6
CONTINUOUS
  0
LAYER
  2
TITEL
 70
     0
 62
     7
  6
CONTINUOUS
  0
LAYER
  2
TITEL1
 70
     0
 62
     5
  6
CONTINUOUS
  0
LAYER
  2
MUUTOS
 70
     0
 62
     7
  6
CONTINUOUS
  0
LAYER
  2
MUUTOS1
 70
     0
 62
     1
  6
CONTINUOUS
  0
LAYER
  2
MUUTOSTEXT
 70
     0
 62
     5
  6
CONTINUOUS
  0
LAYER
  2
MUUTOS2
 70
     0
 62
     5
  6
CONTINUOUS
  0
LAYER
  2
A2
 70
     0
 62
     7
  6
CONTINUOUS
  0
LAYER
  2
RA2
 70
     0
 62
     5
  6
CONTINUOUS
  0
LAYER
  2
RA4
 70
     0
 62
     1
  6
DASHED
  0
LAYER
  2
L36
 70
     0
 62
     7
  6
CONTINUOUS
  0
LAYER
  2
L37
 70
     0
 62
     1
  6
CONTINUOUS
  0
LAYER
  2
L38
 70
     0
 62
     1
  6
DASHDOT
  0
LAYER
  2
L58
 70
     0
 62
     1
  6
CONTINUOUS
  0
LAYER
  2
A3
 70
     0
 62
     4
  6
CONTINUOUS
  0
LAYER
  2
A4
 70
     0
 62
     1
  6
DASHED
  0
LAYER
  2
A5
 70
     0
 62
     2
  6
CONTINUOUS
  0
LAYER
  2
A6
 70
     0
 62
     8
  6
CONTINUOUS
  0
LAYER
  2
CAM-A1
 70
     0
 62
     7
  6
CONTINUOUS
  0
LAYER
  2
CAM-A2
 70
     0
 62
     1
  6
CONTINUOUS
  0
LAYER
  2
CAM-A3
 70
     0
 62
     1
  6
DASHED
  0
LAYER
  2
CAM-B1
 70
     0
 62
     7
  6
CONTINUOUS
  0
LAYER
  2
CAM-B2
 70
     0
 62
     1
  6
CONTINUOUS
  0
LAYER
  2
CAM-B3
 70
     0
 62
     1
  6
DASHED
  0
LAYER
  2
CAM-C1
 70
     0
 62
     7
  6
CONTINUOUS
  0
LAYER
  2
CAM-C2
 70
     0
 62
     1
  6
CONTINUOUS
  0
LAYER
  2
CAM-C3
 70
     0
 62
     1
  6
DASHED
  0
LAYER
  2
CAM-D1
 70
     0
 62
     7
  6
CONTINUOUS
  0
LAYER
  2
CAM-D2
 70
     0
 62
     1
  6
CONTINUOUS
  0
LAYER
  2
CAM-D3
 70
     0
 62
     1
  6
DASHED
  0
LAYER
  2
CAM-E1
 70
     0
 62
     7
  6
CONTINUOUS
  0
LAYER
  2
CAM-E2
 70
     0
 62
     1
  6
CONTINUOUS
  0
LAYER
  2
CAM-E3
 70
     0
 62
     1
  6
DASHED
  0
LAYER
  2
CAM-F1
 70
     0
 62
     7
  6
CONTINUOUS
  0
LAYER
  2
CAM-F2
 70
     0
 62
     1
  6
CONTINUOUS
  0
LAYER
  2
CAM-F3
 70
     0
 62
     1
  6
DASHED
  0
LAYER
  2
CAM-2
 70
     0
 62
     7
  6
CONTINUOUS
  0
LAYER
  2
12
 70
     0
 62
     1
  6
CONTINUOUS
  0
LAYER
  2
13
 70
     0
 62
     1
  6
CENTER
  0
LAYER
  2
14
 70
     0
 62
     1
  6
DASHED
  0
LAYER
  2
15
 70
     0
 62
     2
  6
DASHED
  0
LAYER
  2
21
 70
     0
 62
     7
  6
CONTINUOUS
  0
LAYER
  2
22
 70
     0
 62
     1
  6
CONTINUOUS
  0
LAYER
  2
23
 70
     0
 62
     1
  6
CENTER
  0
LAYER
  2
24
 70
     0
 62
     1
  6
DASHED
  0
LAYER
  2
25
 70
     0
 62
     2
  6
DASHED
  0
LAYER
  2
31
 70
     0
 62
     7
  6
CONTINUOUS
  0
LAYER
  2
32
 70
     0
 62
     1
  6
CONTINUOUS
  0
LAYER
  2
33
 70
     0
 62
     1
  6
CENTER
  0
LAYER
  2
34
 70
     0
 62
     1
  6
DASHED
  0
LAYER
  2
35
 70
     0
 62
     2
  6
DASHED
  0
LAYER
  2
41
 70
     0
 62
     7
  6
CONTINUOUS
  0
LAYER
  2
42
 70
     0
 62
     1
  6
CONTINUOUS
  0
LAYER
  2
43
 70
     0
 62
     1
  6
CENTER
  0
LAYER
  2
44
 70
     0
 62
     1
  6
DASHED
  0
LAYER
  2
45
 70
     0
 62
     2
  6
DASHED
  0
LAYER
  2
51
 70
     0
 62
     7
  6
CONTINUOUS
  0
LAYER
  2
52
 70
     0
 62
     1
  6
CONTINUOUS
  0
LAYER
  2
53
 70
     0
 62
     1
  6
CENTER
  0
LAYER
  2
54
 70
     0
 62
     1
  6
DASHED
  0
LAYER
  2
55
 70
     0
 62
     2
  6
DASHED
  0
LAYER
  2
61
 70
     0
 62
     7
  6
CONTINUOUS
  0
LAYER
  2
62
 70
     0
 62
     1
  6
CONTINUOUS
  0
LAYER
  2
64
 70
     0
 62
     1
  6
DASHED
  0
LAYER
  2
65
 70
     0
 62
     2
  6
DASHED
  0
ENDTAB
  0
TABLE
  2
STYLE
 70
     8
  0
STYLE
  2
STANDARD
 70
     0
 40
0.0
 41
1.0
 50
0.0
 71
     0
 42
3.5
  3
CAEISO
  4

  0
STYLE
  2
COMPLEX
 70
     0
 40
5.0
 41
1.0
 50
0.0
 71
     0
 42
5.0
  3
ROMANS.SHX
  4

  0
STYLE
  2
SIMPLEX
 70
     0
 40
2.5
 41
0.8
 50
0.0
 71
     0
 42
5.0
  3
SIMPLEX
  4

  0
STYLE
  2
CAEISO
 70
     0
 40
0.0
 41
1.0
 50
0.0
 71
     0
 42
1.0
  3
CAEISO
  4

  0
STYLE
  2
TXT
 70
     0
 40
0.0
 41
1.0
 50
0.0
 71
     0
 42
0.2
  3
TXT
  4

  0
STYLE
  2
USER
 70
     0
 40
0.0
 41
1.0
 50
0.0
 71
     0
 42
0.2
  3
KIRJAIN
  4

  0
STYLE
  2
ITALIC
 70
     0
 40
0.0
 41
1.0
 50
0.0
 71
     0
 42
0.2
  3
ITALIC
  4

  0
STYLE
  2
MONO
 70
     0
 40
0.0
 41
1.0
 50
0.0
 71
     0
 42
9.5
  3
MONOTXT
  4

  0
ENDTAB
  0
TABLE
  2
VIEW
 70
     0
  0
ENDTAB
  0
TABLE
  2
UCS
 70
     0
  0
ENDTAB
  0
TABLE
  2
APPID
 70
     1
  0
APPID
  2
ACAD
 70
     0
  0
ENDTAB
  0
TABLE
  2
DIMSTYLE
 70
     5
  0
DIMSTYLE
  2
ACADUS
 70
     0
  3

  4

  5

  6

  7

 40
1.0
 41
0.18
 42
0.0625
 43
0.38
 44
0.18
 45
0.0
 46
0.0
 47
0.0
 48
0.0
140
0.18
141
0.09
142
0.0
143
25.4
144
1.0
145
0.0
146
1.0
147
0.09
 71
     0
 72
     0
 73
     1
 74
     1
 75
     0
 76
     0
 77
     0
 78
     0
170
     0
171
     2
172
     0
173
     0
174
     0
175
     0
176
     0
177
     0
178
     0
  0
DIMSTYLE
  2
NORDIC
 70
     0
  3

  4

  5

  6

  7

 40
1.0
 41
3.5
 42
1.0
 43
10.0
 44
2.0
 45
0.0
 46
0.0
 47
0.0
 48
0.0
140
3.5
141
2.5
142
0.0
143
25.4
144
1.0
145
0.0
146
1.0
147
2.0
 71
     0
 72
     0
 73
     0
 74
     0
 75
     0
 76
     0
 77
     1
 78
     8
170
     0
171
     2
172
     1
173
     0
174
     0
175
     0
176
     0
177
     0
178
     0
  0
DIMSTYLE
  2
RADIAL
 70
     0
  3

  4

  5

  6

  7

 40
1.0
 41
3.5
 42
1.0
 43
10.0
 44
2.0
 45
0.0
 46
0.0
 47
0.0
 48
0.0
140
3.5
141
2.5
142
0.0
143
25.4
144
1.0
145
0.0
146
1.0
147
2.0
 71
     0
 72
     0
 73
     0
 74
     1
 75
     0
 76
     0
 77
     1
 78
     8
170
     0
171
     2
172
     0
173
     0
174
     0
175
     0
176
     0
177
     0
178
     0
  0
DIMSTYLE
  2
NORTOL
 70
     0
  3

  4

  5

  6

  7

 40
1.0
 41
3.5
 42
1.0
 43
10.0
 44
2.0
 45
0.0
 46
0.0
 47
0.2
 48
0.1
140
3.5
141
2.5
142
0.0
143
25.4
144
1.0
145
0.7
146
0.71
147
2.0
 71
     1
 72
     0
 73
     0
 74
     0
 75
     0
 76
     0
 77
     0
 78
     8
170
     0
171
     2
172
     1
173
     0
174
     0
175
     0
176
     0
177
     0
178
     0
  0
DIMSTYLE
  2
RADTOL
 70
     0
  3

  4

  5

  6

  7

 40
1.0
 41
3.5
 42
1.0
 43
10.0
 44
2.0
 45
0.0
 46
0.0
 47
0.2
 48
0.1
140
3.5
141
2.5
142
0.0
143
25.4
144
1.0
145
0.7
146
0.7
147
2.0
 71
     1
 72
     0
 73
     0
 74
     1
 75
     0
 76
     0
 77
     0
 78
     8
170
     0
171
     2
172
     0
173
     0
174
     0
175
     0
176
     0
177
     0
178
     0
  0
ENDTAB
  0
ENDSEC
  0
SECTION
  2
BLOCKS
  0
BLOCK
  8
0
  2
$MODEL_SPACE
 70
     0
 10
0.0
 20
0.0
 30
0.0
  3
$MODEL_SPACE
  1

  0
ENDBLK
  5
7EF40
  8
0
  0
BLOCK
 67
     1
  8
0
  2
$PAPER_SPACE
 70
     0
 10
0.0
 20
0.0
 30
0.0
  3
$PAPER_SPACE
  1

  0
ENDBLK
  5
7EF3E
 67
     1
  8
0
  0
BLOCK
  8
0
  2
GEOTOL
 70
     0
 10
0.0
 20
0.0
 30
0.0
  3
GEOTOL
  1

  0
ENDBLK
  5
95ED
  8
0
  0
ENDSEC
  0
SECTION
  2
ENTITIES
  0
TEXT
  5
7ED30
  8
0
  6
CONTINUOUS
 10
330.035074
 20
372.358918
 30
0.0
 40
2.5
  1
  
 50
21.66214
  0
LINE
  5
7ED31
  8
61
 10
608.44588
 20
517.822193
 30
0.0
 11
862.445885
 21
517.822193
 31
0.0
  0
LINE
  5
7ED32
  8
61
 10
597.64588
 20
507.022193
 30
0.0
 11
597.64588
 21
253.022193
 31
0.0
  0
LINE
  5
7ED33
  8
61
 10
620.156449
 20
510.189647
 30
0.0
 11
848.496979
 21
510.189647
 31
0.0
  0
LINE
  5
7ED34
  8
61
 10
605.199527
 20
495.346758
 30
0.0
 11
605.199527
 21
264.697628
 31
0.0
  0
LINE
  5
7ED35
  8
53
  6
DASHDOT
 10
246.44588
 20
507.022193
 30
0.0
 11
246.44588
 21
229.850037
 31
0.0
  0
LINE
  5
7ED36
  8
52
 10
111.475896
 20
506.329842
 30
0.0
 11
120.138232
 21
514.992177
 31
0.0
  0
ARC
  5
7ED37
  8
52
 10
119.44588
 20
507.022193
 30
0.0
 40
8.0
 50
7.645696
 51
85.035187
  0
ARC
  5
7ED38
  8
52
 10
119.44588
 20
507.022193
 30
0.0
 40
8.0
 50
184.964813
 51
262.354304
  0
LINE
  5
7ED39
  8
52
 10
118.381505
 20
499.093315
 30
0.0
 11
127.374758
 21
508.086568
 31
0.0
  0
LINE
  5
7ED3A
  8
51
 10
108.64588
 20
507.022193
 30
0.0
 11
108.64588
 21
253.022199
 31
0.0
  0
LINE
  5
7ED3B
  8
51
 10
119.44588
 20
517.822193
 30
0.0
 11
246.44588
 21
517.822193
 31
0.0
  0
ARC
  5
7ED3C
  8
51
 10
119.44588
 20
507.022193
 30
0.0
 40
10.8
 50
23.289549
 51
246.710451
  0
ARC
  5
7ED3D
  8
51
 10
119.44588
 20
253.022193
 30
0.0
 40
10.8
 50
113.289549
 51
336.710451
  0
LINE
  5
7ED3E
  8
52
 10
120.138232
 20
245.052209
 30
0.0
 11
111.475896
 21
253.714545
 31
0.0
  0
LINE
  5
7ED3F
  8
52
 10
127.374758
 20
251.957818
 30
0.0
 11
118.381505
 21
260.951071
 31
0.0
  0
ARC
  5
7ED40
  8
52
 10
119.44588
 20
253.022193
 30
0.0
 40
8.0
 50
97.645696
 51
175.035187
  0
ARC
  5
7ED41
  8
52
 10
119.44588
 20
253.022193
 30
0.0
 40
8.0
 50
274.964813
 51
352.354304
  0
LINE
  5
7ED42
  8
51
 10
136.74588
 20
509.822193
 30
0.0
 11
246.44588
 21
509.822193
 31
0.0
  0
LINE
  5
7ED43
  8
51
 10
116.64588
 20
489.722193
 30
0.0
 11
116.64588
 21
270.322184
 31
0.0
  0
LINE
  5
7ED44
  8
52
 10
115.14588
 20
489.522193
 30
0.0
 11
115.14588
 21
270.522193
 31
0.0
  0
LINE
  5
7ED45
  8
52
 10
136.94588
 20
511.322193
 30
0.0
 11
246.44588
 21
511.322193
 31
0.0
  0
LINE
  5
7ED46
  8
52
 10
110.74588
 20
489.522193
 30
0.0
 11
110.74588
 21
270.322193
 31
0.0
  0
LINE
  5
7ED47
  8
52
 10
136.94588
 20
515.722193
 30
0.0
 11
246.44588
 21
515.722193
 31
0.0
  0
ARC
  5
7ED48
  8
51
 10
119.44588
 20
507.022193
 30
0.0
 40
14.5
 50
270.0
 51
0.0
  0
ARC
  5
7ED49
  8
52
 10
119.44588
 20
507.022193
 30
0.0
 40
13.2
 50
270.0
 51
0.0
  0
ARC
  5
7ED4A
  8
52
 10
119.44588
 20
507.022193
 30
0.0
 40
8.8
 50
270.0
 51
0.0
  0
ARC
  5
7ED4B
  8
51
 10
119.44588
 20
489.722193
 30
0.0
 40
2.8
 50
90.0
 51
180.0
  0
ARC
  5
7ED4C
  8
51
 10
136.74588
 20
507.022193
 30
0.0
 40
2.8
 50
90.0
 51
180.0
  0
ARC
  5
7ED4D
  8
52
 10
136.94588
 20
507.022193
 30
0.0
 40
4.3
 50
90.0
 51
180.0
  0
ARC
  5
7ED4E
  8
52
 10
119.44588
 20
489.522193
 30
0.0
 40
4.3
 50
90.0
 51
180.0
  0
ARC
  5
7ED4F
  8
52
 10
136.94588
 20
507.022193
 30
0.0
 40
8.7
 50
90.0
 51
180.0
  0
ARC
  5
7ED50
  8
52
 10
119.44588
 20
489.522193
 30
0.0
 40
8.7
 50
90.0
 51
180.0
  0
ARC
  5
7ED51
  8
52
 10
136.94588
 20
253.022193
 30
0.0
 40
8.7
 50
180.0
 51
270.0
  0
ARC
  5
7ED52
  8
52
 10
119.44588
 20
253.022193
 30
0.0
 40
8.8
 50
360.0
 51
90.0
  0
ARC
  5
7ED53
  8
52
 10
119.44588
 20
270.522193
 30
0.0
 40
8.7
 50
180.0
 51
270.0
  0
ARC
  5
7ED54
  8
52
 10
119.44588
 20
270.522193
 30
0.0
 40
4.3
 50
180.0
 51
270.0
  0
ARC
  5
7ED55
  8
51
 10
119.44588
 20
253.022193
 30
0.0
 40
14.5
 50
360.0
 51
90.0
  0
ARC
  5
7ED56
  8
52
 10
119.44588
 20
253.022193
 30
0.0
 40
13.2
 50
360.0
 51
90.0
  0
ARC
  5
7ED57
  8
52
 10
136.94588
 20
253.022193
 30
0.0
 40
4.3
 50
180.0
 51
270.0
  0
ARC
  5
7ED58
  8
51
 10
136.74588
 20
253.022193
 30
0.0
 40
2.8
 50
180.0
 51
270.0
  0
ARC
  5
7ED59
  8
51
 10
119.44588
 20
270.322193
 30
0.0
 40
2.8
 50
180.0
 51
270.0
  0
LINE
  5
7ED5A
  8
63
  6
DASHDOT
 10
881.476186
 20
380.022193
 30
0.0
 11
587.116728
 21
380.022193
 31
0.0
  0
LINE
  5
7ED5B
  8
61
 10
608.44588
 20
242.222193
 30
0.0
 11
862.44588
 21
242.222193
 31
0.0
  0
LINE
  5
7ED5C
  8
61
 10
620.156449
 20
249.854739
 30
0.0
 11
850.735315
 21
249.854739
 31
0.0
  0
ARC
  5
7ED5D
  8
61
 10
850.735311
 20
512.189647
 30
0.0
 40
2.0
 50
270.0
 51
336.189853
  0
ARC
  5
7ED5E
  8
61
 10
867.692233
 20
495.346758
 30
0.0
 40
2.0
 50
114.196752
 51
180.0
  0
ARC
  5
7ED5F
  8
61
 10
863.692233
 20
493.077782
 30
0.0
 40
2.0
 50
0.0
 51
95.107531
  0
ARC
  5
7ED60
  8
61
 10
848.494642
 20
508.189647
 30
0.0
 40
2.0
 50
355.216575
 51
90.0
  0
LINE
  5
7ED61
  8
61
 10
865.692233
 20
495.346758
 30
0.0
 11
865.692233
 21
264.697628
 31
0.0
  0
LINE
  5
7ED62
  8
61
 10
863.510255
 20
499.093315
 30
0.0
 11
854.517002
 21
508.086568
 31
0.0
  0
LINE
  5
7ED63
  8
61
 10
870.415864
 20
506.329842
 30
0.0
 11
861.753528
 21
514.992177
 31
0.0
  0
LINE
  5
7ED64
  8
61
 10
873.24588
 20
507.022193
 30
0.0
 11
873.24588
 21
253.022193
 31
0.0
  0
ARC
  5
7ED65
  8
61
 10
862.44588
 20
507.022193
 30
0.0
 40
10.8
 50
294.196752
 51
156.189853
  0
ARC
  5
7ED66
  8
61
 10
862.44588
 20
507.022193
 30
0.0
 40
12.0
 50
175.216575
 51
275.107531
  0
LINE
  5
7ED67
  8
61
 10
850.735311
 20
510.189647
 30
0.0
 11
848.958982
 21
510.189647
 31
0.0
  0
LINE
  5
7ED68
  8
53
  6
DASHDOT
 10
391.496603
 20
380.022193
 30
0.0
 11
86.0
 21
380.022193
 31
0.0
  0
LINE
  5
7ED69
  8
53
 10
246.44588
 20
507.022193
 30
0.0
 11
246.44588
 21
536.025826
 31
0.0
  0
LINE
  5
7ED6A
  8
53
 10
246.44588
 20
507.022193
 30
0.0
 11
246.44588
 21
536.025826
 31
0.0
  0
LINE
  5
7ED6B
  8
52
 10
381.415864
 20
253.714545
 30
0.0
 11
372.753528
 21
245.052209
 31
0.0
  0
ARC
  5
7ED6C
  8
52
 10
373.44588
 20
253.022193
 30
0.0
 40
8.0
 50
187.645696
 51
265.035187
  0
ARC
  5
7ED6D
  8
52
 10
373.44588
 20
253.022193
 30
0.0
 40
8.0
 50
4.964813
 51
82.354304
  0
LINE
  5
7ED6E
  8
52
 10
374.510255
 20
260.951071
 30
0.0
 11
365.517002
 21
251.957818
 31
0.0
  0
ARC
  5
7ED6F
  8
51
 10
373.44588
 20
253.022193
 30
0.0
 40
10.8
 50
203.289549
 51
66.710451
  0
ARC
  5
7ED70
  8
51
 10
373.44588
 20
253.022193
 30
0.0
 40
14.5
 50
90.0
 51
180.0
  0
ARC
  5
7ED71
  8
52
 10
373.44588
 20
253.022193
 30
0.0
 40
13.2
 50
90.0
 51
180.0
  0
ARC
  5
7ED72
  8
52
 10
373.44588
 20
253.022193
 30
0.0
 40
8.8
 50
90.0
 51
180.0
  0
ARC
  5
7ED73
  8
51
 10
373.44588
 20
270.322193
 30
0.0
 40
2.8
 50
270.0
 51
0.0
  0
ARC
  5
7ED74
  8
51
 10
356.14588
 20
253.022193
 30
0.0
 40
2.8
 50
270.0
 51
0.0
  0
ARC
  5
7ED75
  8
52
 10
355.94588
 20
253.022193
 30
0.0
 40
4.3
 50
270.0
 51
0.0
  0
ARC
  5
7ED76
  8
52
 10
373.44588
 20
270.522193
 30
0.0
 40
4.3
 50
270.0
 51
0.0
  0
ARC
  5
7ED77
  8
52
 10
355.94588
 20
253.022193
 30
0.0
 40
8.7
 50
270.0
 51
0.0
  0
ARC
  5
7ED78
  8
52
 10
373.44588
 20
270.522193
 30
0.0
 40
8.7
 50
270.0
 51
0.0
  0
ARC
  5
7ED79
  8
52
 10
373.44588
 20
489.522193
 30
0.0
 40
8.7
 50
360.0
 51
90.0
  0
ARC
  5
7ED7A
  8
52
 10
355.94588
 20
507.022193
 30
0.0
 40
8.7
 50
360.0
 51
90.0
  0
ARC
  5
7ED7B
  8
52
 10
373.44588
 20
489.522193
 30
0.0
 40
4.3
 50
0.0
 51
90.0
  0
ARC
  5
7ED7C
  8
52
 10
355.94588
 20
507.022193
 30
0.0
 40
4.3
 50
360.0
 51
90.0
  0
ARC
  5
7ED7D
  8
51
 10
356.14588
 20
507.022193
 30
0.0
 40
2.8
 50
360.0
 51
90.0
  0
ARC
  5
7ED7E
  8
51
 10
373.44588
 20
489.722193
 30
0.0
 40
2.8
 50
0.0
 51
90.0
  0
ARC
  5
7ED7F
  8
52
 10
373.44588
 20
507.022193
 30
0.0
 40
8.8
 50
180.0
 51
270.0
  0
ARC
  5
7ED80
  8
52
 10
373.44588
 20
507.022193
 30
0.0
 40
13.2
 50
180.0
 51
270.0
  0
ARC
  5
7ED81
  8
51
 10
373.44588
 20
507.022193
 30
0.0
 40
14.5
 50
180.0
 51
270.0
  0
LINE
  5
7ED82
  8
52
 10
355.94588
 20
515.722193
 30
0.0
 11
246.44588
 21
515.722193
 31
0.0
  0
LINE
  5
7ED83
  8
52
 10
382.14588
 20
489.522193
 30
0.0
 11
382.14588
 21
270.322193
 31
0.0
  0
LINE
  5
7ED84
  8
52
 10
355.94588
 20
511.322193
 30
0.0
 11
246.44588
 21
511.322193
 31
0.0
  0
LINE
  5
7ED85
  8
52
 10
377.74588
 20
489.522193
 30
0.0
 11
377.74588
 21
270.522193
 31
0.0
  0
LINE
  5
7ED86
  8
51
 10
376.24588
 20
489.722193
 30
0.0
 11
376.24588
 21
270.322184
 31
0.0
  0
LINE
  5
7ED87
  8
51
 10
356.14588
 20
509.822193
 30
0.0
 11
246.44588
 21
509.822193
 31
0.0
  0
ARC
  5
7ED88
  8
51
 10
373.44588
 20
507.022193
 30
0.0
 40
10.8
 50
293.289549
 51
156.710451
  0
LINE
  5
7ED89
  8
51
 10
373.44588
 20
517.822193
 30
0.0
 11
246.44588
 21
517.822193
 31
0.0
  0
LINE
  5
7ED8A
  8
51
 10
384.24588
 20
507.022193
 30
0.0
 11
384.24588
 21
253.022199
 31
0.0
  0
LINE
  5
7ED8B
  8
52
 10
374.510255
 20
499.093315
 30
0.0
 11
365.517002
 21
508.086568
 31
0.0
  0
ARC
  5
7ED8C
  8
52
 10
373.44588
 20
507.022193
 30
0.0
 40
8.0
 50
277.645696
 51
355.035187
  0
ARC
  5
7ED8D
  8
52
 10
373.44588
 20
507.022193
 30
0.0
 40
8.0
 50
94.964813
 51
172.354304
  0
LINE
  5
7ED8E
  8
52
 10
381.415864
 20
506.329842
 30
0.0
 11
372.753528
 21
514.992177
 31
0.0
  0
LINE
  5
7ED8F
  8
51
 10
136.74588
 20
250.222193
 30
0.0
 11
246.44588
 21
250.222193
 31
0.0
  0
LINE
  5
7ED90
  8
52
 10
136.74588
 20
248.726847
 30
0.0
 11
356.14588
 21
248.726847
 31
0.0
  0
LINE
  5
7ED91
  8
52
 10
136.74588
 20
244.324492
 30
0.0
 11
356.14588
 21
244.324492
 31
0.0
  0
LINE
  5
7ED92
  8
51
 10
119.44588
 20
242.222193
 30
0.0
 11
373.44588
 21
242.222193
 31
0.0
  0
CIRCLE
  5
7ED93
  8
61
 10
862.44588
 20
507.022193
 30
0.0
 40
8.0
  0
ARC
  5
7ED94
  8
61
 10
862.44588
 20
507.022193
 30
0.0
 40
10.0
 50
187.519679
 51
262.493404
  0
LINE
  5
7ED95
  8
61
 10
855.206604
 20
511.380562
 30
0.0
 11
852.845317
 21
507.290693
 31
0.0
  0
LINE
  5
7ED96
  8
61
 10
866.73969
 20
499.74444
 30
0.0
 11
862.716078
 21
497.421406
 31
0.0
  0
ARC
  5
7ED97
  8
61
 10
862.44588
 20
507.022193
 30
0.0
 40
8.45
 50
299.459771
 51
148.950175
  0
LINE
  5
7ED98
  8
61
 10
855.592127
 20
511.148459
 30
0.0
 11
853.312753
 21
507.200468
 31
0.0
  0
LINE
  5
7ED99
  8
61
 10
866.518375
 20
500.136255
 30
0.0
 11
862.625714
 21
497.888827
 31
0.0
  0
ARC
  5
7ED9A
  8
61
 10
862.44588
 20
507.022193
 30
0.0
 40
9.55
 50
188.743877
 51
261.268945
  0
ARC
  5
7ED9B
  8
61
 10
855.477817
 20
505.950468
 30
0.0
 40
2.5
 50
150.0
 51
188.743877
  0
ARC
  5
7ED9C
  8
61
 10
861.375714
 20
500.05389
 30
0.0
 40
2.5
 50
261.268945
 51
300.0
  0
ARC
  5
7ED9D
  8
61
 10
855.01038
 20
506.040693
 30
0.0
 40
2.5
 50
150.0
 51
187.519679
  0
ARC
  5
7ED9E
  8
61
 10
861.466078
 20
499.586469
 30
0.0
 40
2.5
 50
262.493404
 51
300.0
  0
ARC
  5
7ED9F
  8
61
 10
609.425682
 20
499.586469
 30
0.0
 40
2.5
 50
240.0
 51
277.506596
  0
ARC
  5
7EDA0
  8
61
 10
615.88138
 20
506.040693
 30
0.0
 40
2.5
 50
352.480321
 51
30.0
  0
ARC
  5
7EDA1
  8
61
 10
609.516046
 20
500.05389
 30
0.0
 40
2.5
 50
240.0
 51
278.731055
  0
ARC
  5
7EDA2
  8
61
 10
615.413943
 20
505.950468
 30
0.0
 40
2.5
 50
351.256123
 51
30.0
  0
ARC
  5
7EDA3
  8
61
 10
608.44588
 20
507.022193
 30
0.0
 40
9.55
 50
278.731055
 51
351.256123
  0
LINE
  5
7EDA4
  8
61
 10
604.373385
 20
500.136255
 30
0.0
 11
608.266046
 21
497.888827
 31
0.0
  0
LINE
  5
7EDA5
  8
61
 10
615.299633
 20
511.148459
 30
0.0
 11
617.579007
 21
507.200468
 31
0.0
  0
ARC
  5
7EDA6
  8
61
 10
608.44588
 20
507.022193
 30
0.0
 40
8.45
 50
31.049825
 51
240.540229
  0
LINE
  5
7EDA7
  8
61
 10
604.15207
 20
499.74444
 30
0.0
 11
608.175682
 21
497.421406
 31
0.0
  0
LINE
  5
7EDA8
  8
61
 10
615.685156
 20
511.380562
 30
0.0
 11
618.046443
 21
507.290693
 31
0.0
  0
ARC
  5
7EDA9
  8
61
 10
608.44588
 20
507.022193
 30
0.0
 40
10.0
 50
277.506596
 51
352.480321
  0
CIRCLE
  5
7EDAA
  8
61
 10
608.44588
 20
507.022193
 30
0.0
 40
8.0
  0
LINE
  5
7EDAB
  8
61
 10
620.156449
 20
510.189647
 30
0.0
 11
621.932778
 21
510.189647
 31
0.0
  0
ARC
  5
7EDAC
  8
61
 10
608.44588
 20
507.022193
 30
0.0
 40
12.0
 50
264.892469
 51
4.783425
  0
ARC
  5
7EDAD
  8
61
 10
608.44588
 20
507.022193
 30
0.0
 40
10.8
 50
23.810147
 51
245.803248
  0
LINE
  5
7EDAE
  8
61
 10
600.475896
 20
506.329842
 30
0.0
 11
609.138232
 21
514.992177
 31
0.0
  0
LINE
  5
7EDAF
  8
61
 10
607.381505
 20
499.093315
 30
0.0
 11
616.374758
 21
508.086568
 31
0.0
  0
ARC
  5
7EDB0
  8
61
 10
622.397118
 20
508.189647
 30
0.0
 40
2.0
 50
90.0
 51
184.783425
  0
ARC
  5
7EDB1
  8
61
 10
607.199527
 20
493.077782
 30
0.0
 40
2.0
 50
84.892469
 51
180.0
  0
ARC
  5
7EDB2
  8
61
 10
603.199527
 20
495.346758
 30
0.0
 40
2.0
 50
0.0
 51
65.803248
  0
ARC
  5
7EDB3
  8
61
 10
620.156449
 20
512.189647
 30
0.0
 40
2.0
 50
203.810147
 51
270.0
  0
ARC
  5
7EDB4
  8
61
 10
620.156449
 20
247.854739
 30
0.0
 40
2.0
 50
90.0
 51
156.189853
  0
ARC
  5
7EDB5
  8
61
 10
603.199527
 20
264.697628
 30
0.0
 40
2.0
 50
294.196752
 51
0.0
  0
ARC
  5
7EDB6
  8
61
 10
607.199527
 20
266.966604
 30
0.0
 40
2.0
 50
180.0
 51
275.107531
  0
ARC
  5
7EDB7
  8
61
 10
622.397118
 20
251.854739
 30
0.0
 40
2.0
 50
175.216575
 51
270.0
  0
LINE
  5
7EDB8
  8
61
 10
607.381505
 20
260.951071
 30
0.0
 11
616.374758
 21
251.957818
 31
0.0
  0
LINE
  5
7EDB9
  8
61
 10
600.475896
 20
253.714545
 30
0.0
 11
609.138232
 21
245.052209
 31
0.0
  0
ARC
  5
7EDBA
  8
61
 10
608.44588
 20
253.022193
 30
0.0
 40
10.8
 50
114.196752
 51
336.189853
  0
ARC
  5
7EDBB
  8
61
 10
608.44588
 20
253.022193
 30
0.0
 40
12.0
 50
355.216575
 51
95.107531
  0
LINE
  5
7EDBC
  8
61
 10
620.156449
 20
249.854739
 30
0.0
 11
621.932778
 21
249.854739
 31
0.0
  0
CIRCLE
  5
7EDBD
  8
61
 10
608.44588
 20
253.022193
 30
0.0
 40
8.0
  0
ARC
  5
7EDBE
  8
61
 10
608.44588
 20
253.022193
 30
0.0
 40
10.0
 50
7.519679
 51
82.493404
  0
LINE
  5
7EDBF
  8
61
 10
615.685156
 20
248.663824
 30
0.0
 11
618.046443
 21
252.753693
 31
0.0
  0
LINE
  5
7EDC0
  8
61
 10
604.15207
 20
260.299947
 30
0.0
 11
608.175682
 21
262.62298
 31
0.0
  0
ARC
  5
7EDC1
  8
61
 10
608.44588
 20
253.022193
 30
0.0
 40
8.45
 50
119.459771
 51
328.950175
  0
LINE
  5
7EDC2
  8
61
 10
615.299633
 20
248.895927
 30
0.0
 11
617.579007
 21
252.843918
 31
0.0
  0
LINE
  5
7EDC3
  8
61
 10
604.373385
 20
259.908131
 30
0.0
 11
608.266046
 21
262.15556
 31
0.0
  0
ARC
  5
7EDC4
  8
61
 10
608.44588
 20
253.022193
 30
0.0
 40
9.55
 50
8.743877
 51
81.268945
  0
ARC
  5
7EDC5
  8
61
 10
615.413943
 20
254.093918
 30
0.0
 40
2.5
 50
330.0
 51
8.743877
  0
ARC
  5
7EDC6
  8
61
 10
609.516046
 20
259.990496
 30
0.0
 40
2.5
 50
81.268945
 51
120.0
  0
ARC
  5
7EDC7
  8
61
 10
615.88138
 20
254.003693
 30
0.0
 40
2.5
 50
330.0
 51
7.519679
  0
ARC
  5
7EDC8
  8
61
 10
609.425682
 20
260.457917
 30
0.0
 40
2.5
 50
82.493404
 51
120.0
  0
ARC
  5
7EDC9
  8
61
 10
861.466078
 20
260.457917
 30
0.0
 40
2.5
 50
60.0
 51
97.506596
  0
ARC
  5
7EDCA
  8
61
 10
855.01038
 20
254.003693
 30
0.0
 40
2.5
 50
172.480321
 51
210.0
  0
ARC
  5
7EDCB
  8
61
 10
861.375714
 20
259.990496
 30
0.0
 40
2.5
 50
60.0
 51
98.731055
  0
ARC
  5
7EDCC
  8
61
 10
855.477817
 20
254.093918
 30
0.0
 40
2.5
 50
171.256123
 51
210.0
  0
ARC
  5
7EDCD
  8
61
 10
862.44588
 20
253.022193
 30
0.0
 40
9.55
 50
98.731055
 51
171.256123
  0
LINE
  5
7EDCE
  8
61
 10
866.518375
 20
259.908131
 30
0.0
 11
862.625714
 21
262.15556
 31
0.0
  0
LINE
  5
7EDCF
  8
61
 10
855.592127
 20
248.895927
 30
0.0
 11
853.312753
 21
252.843918
 31
0.0
  0
ARC
  5
7EDD0
  8
61
 10
862.44588
 20
253.022193
 30
0.0
 40
8.45
 50
211.049825
 51
60.540229
  0
LINE
  5
7EDD1
  8
61
 10
866.73969
 20
260.299947
 30
0.0
 11
862.716078
 21
262.62298
 31
0.0
  0
LINE
  5
7EDD2
  8
61
 10
855.206604
 20
248.663824
 30
0.0
 11
852.845317
 21
252.753693
 31
0.0
  0
ARC
  5
7EDD3
  8
61
 10
862.44588
 20
253.022193
 30
0.0
 40
10.0
 50
97.506596
 51
172.480321
  0
CIRCLE
  5
7EDD4
  8
61
 10
862.44588
 20
253.022193
 30
0.0
 40
8.0
  0
LINE
  5
7EDD5
  8
61
 10
850.735311
 20
249.854739
 30
0.0
 11
848.958982
 21
249.854739
 31
0.0
  0
ARC
  5
7EDD6
  8
61
 10
862.44588
 20
253.022193
 30
0.0
 40
12.0
 50
84.892469
 51
184.783425
  0
ARC
  5
7EDD7
  8
61
 10
862.44588
 20
253.022193
 30
0.0
 40
10.8
 50
203.810147
 51
65.803248
  0
LINE
  5
7EDD8
  8
61
 10
870.415864
 20
253.714545
 30
0.0
 11
861.753528
 21
245.052209
 31
0.0
  0
LINE
  5
7EDD9
  8
61
 10
863.510255
 20
260.951071
 30
0.0
 11
854.517002
 21
251.957818
 31
0.0
  0
ARC
  5
7EDDA
  8
61
 10
848.494642
 20
251.854739
 30
0.0
 40
2.0
 50
270.0
 51
4.783425
  0
ARC
  5
7EDDB
  8
61
 10
863.692233
 20
266.966604
 30
0.0
 40
2.0
 50
264.892469
 51
0.0
  0
ARC
  5
7EDDC
  8
61
 10
867.692233
 20
264.697628
 30
0.0
 40
2.0
 50
180.0
 51
245.803248
  0
ARC
  5
7EDDD
  8
61
 10
850.735311
 20
247.854739
 30
0.0
 40
2.0
 50
23.810147
 51
90.0
  0
ARC
  5
7EDDE
  8
51
 10
174.081426
 20
-256.305084
 30
0.0
 40
507.032791
 50
95.059524
 51
95.059524
  0
LINE
  5
7EDDF
  8
51
 10
246.44588
 20
250.222193
 30
0.0
 11
356.14588
 21
250.222193
 31
0.0
  0
LINE
  5
7EDE0
  8
63
 10
735.44588
 20
234.552411
 30
0.0
 11
735.44588
 21
532.250934
 31
0.0
  0
TEXT
  5
7EDE1
  8
0
  6
CONTINUOUS
 10
351.035074
 20
974.358918
 30
0.0
 40
2.5
  1
  
 50
21.66214
  0
TEXT
  5
7EDE2
  8
0
  6
CONTINUOUS
 10
595.035074
 20
986.358918
 30
0.0
 40
2.5
  1
  
 50
21.66214
  0
TEXT
  5
7EDE4
  8
0
  6
CONTINUOUS
 10
412.035074
 20
959.358918
 30
0.0
 40
2.5
  1
  
 50
21.66214
  0
TEXT
  5
7EDE5
  8
0
  6
CONTINUOUS
 10
433.035074
 20
1561.358918
 30
0.0
 40
2.5
  1
  
 50
21.66214
  0
TEXT
  5
7EDE6
  8
0
  6
CONTINUOUS
 10
677.035074
 20
1573.358918
 30
0.0
 40
2.5
  1
  
 50
21.66214
  0
TEXT
  5
7EDE7
  8
0
  6
CONTINUOUS
 10
405.295817
 20
1570.470837
 30
0.0
 40
2.5
  1
  
 50
21.66214
  0
INSERT
  5
7EDE8
  8
L32
  2
GEOTOL
 10
544.289574
 20
1296.889725
 30
0.0
  0
INSERT
  5
7EDE9
  8
L32
  2
GEOTOL
 10
75.260742
 20
1198.111918
 30
0.0
  0
LINE
  5
7EDEA
  8
14
 10
622.991481
 20
174.495748
 30
0.0
 11
622.991481
 21
100.495748
 31
0.0
  0
LINE
  5
7EDEB
  8
14
 10
735.44588
 20
97.495748
 30
0.0
 11
625.991481
 21
97.495748
 31
0.0
  0
LINE
  5
7EDEC
  8
14
 10
735.44588
 20
97.495748
 30
0.0
 11
845.045445
 21
97.495748
 31
0.0
  0
ARC
  5
7EDED
  8
14
 10
844.900281
 20
100.492234
 30
0.0
 40
3.0
 50
267.226485
 51
0.067002
  0
LINE
  5
7EDEE
  8
14
 10
847.900279
 20
174.495748
 30
0.0
 11
847.900279
 21
100.495742
 31
0.0
  0
ARC
  5
7EDEF
  8
11
 10
608.032174
 20
145.756976
 30
0.0
 40
22.256656
 50
59.582163
 51
87.702934
  0
LINE
  5
7EDF0
  8
11
 10
619.174628
 20
99.69835
 30
0.0
 11
619.300769
 21
164.950139
 31
0.0
  0
ARC
  5
7EDF1
  8
11
 10
625.153802
 20
100.19835
 30
0.0
 40
6.0
 50
185.0
 51
270.0
  0
LINE
  5
7EDF2
  8
11
 10
619.174628
 20
99.69835
 30
0.0
 11
619.176634
 21
99.675415
 31
0.0
  0
LINE
  5
7EDF3
  8
11
 10
617.17088
 20
174.995748
 30
0.0
 11
617.17088
 21
174.495748
 31
0.0
  0
LINE
  5
7EDF4
  8
11
 10
603.239841
 20
99.69835
 30
0.0
 11
603.241848
 21
99.675415
 31
0.0
  0
LINE
  5
7EDF5
  8
11
 10
597.564448
 20
167.928413
 30
0.0
 11
597.868737
 21
99.69835
 31
0.0
  0
LINE
  5
7EDF6
  8
11
 10
618.280581
 20
174.495748
 30
0.0
 11
619.178805
 21
174.495748
 31
0.0
  0
LINE
  5
7EDF7
  8
11
 10
618.280581
 20
174.995748
 30
0.0
 11
597.441088
 21
174.995748
 31
0.0
  0
LINE
  5
7EDF8
  8
11
 10
597.441088
 20
174.995748
 30
0.0
 11
597.449815
 21
174.495748
 31
0.0
  0
LINE
  5
7EDF9
  8
11
 10
619.174628
 20
99.69835
 30
0.0
 11
597.868737
 21
99.69835
 31
0.0
  0
LINE
  5
7EDFA
  8
11
 10
618.280581
 20
174.995748
 30
0.0
 11
618.280581
 21
174.495748
 31
0.0
  0
LINE
  5
7EDFB
  8
11
 10
597.542745
 20
169.171795
 30
0.0
 11
597.564448
 21
167.928413
 31
0.0
  0
LINE
  5
7EDFC
  8
11
 10
608.250448
 20
174.495748
 30
0.0
 11
618.280581
 21
174.495748
 31
0.0
  0
LINE
  5
7EDFD
  8
11
 10
597.449815
 20
174.495748
 30
0.0
 11
597.542785
 21
169.169509
 31
0.0
  0
LINE
  5
7EDFE
  8
11
 10
619.178805
 20
94.19835
 30
0.0
 11
610.784782
 21
94.19835
 31
0.0
  0
ARC
  5
7EDFF
  8
11
 10
611.590822
 20
100.311549
 30
0.0
 40
6.16611
 50
185.921525
 51
262.48874
  0
LINE
  5
7EE00
  8
11
 10
873.45004
 20
174.995748
 30
0.0
 11
852.610546
 21
174.995748
 31
0.0
  0
LINE
  5
7EE01
  8
11
 10
873.022391
 20
99.69835
 30
0.0
 11
850.606798
 21
99.69835
 31
0.0
  0
LINE
  5
7EE02
  8
11
 10
873.45004
 20
174.995748
 30
0.0
 11
873.022391
 21
99.69835
 31
0.0
  0
LINE
  5
7EE03
  8
11
 10
866.541584
 20
99.69835
 30
0.0
 11
866.539578
 21
99.675415
 31
0.0
  0
ARC
  5
7EE04
  8
11
 10
860.56241
 20
100.19835
 30
0.0
 40
6.0
 50
270.0
 51
355.0
  0
LINE
  5
7EE05
  8
11
 10
852.610546
 20
174.995748
 30
0.0
 11
852.610546
 21
174.495748
 31
0.0
  0
LINE
  5
7EE06
  8
11
 10
850.606798
 20
99.69835
 30
0.0
 11
850.604792
 21
99.675415
 31
0.0
  0
ARC
  5
7EE07
  8
11
 10
844.627624
 20
100.19835
 30
0.0
 40
6.0
 50
270.0
 51
355.0
  0
LINE
  5
7EE08
  8
11
 10
850.606798
 20
99.69835
 30
0.0
 11
850.480657
 21
164.950139
 31
0.0
  0
ARC
  5
7EE09
  8
11
 10
861.749252
 20
145.756976
 30
0.0
 40
22.256656
 50
92.297066
 51
120.417837
  0
LINE
  5
7EE0A
  8
12
 10
619.178805
 20
100.177066
 30
0.0
 11
850.602621
 21
100.177066
 31
0.0
  0
LINE
  5
7EE0B
  8
12
 10
850.480657
 20
164.950139
 30
0.0
 11
619.178805
 21
164.950139
 31
0.0
  0
LINE
  5
7EE0C
  8
11
 10
608.250448
 20
167.995748
 30
0.0
 11
860.857191
 21
167.995748
 31
0.0
  0
LINE
  5
7EE0D
  8
11
 10
619.178805
 20
174.495748
 30
0.0
 11
862.641312
 21
174.495748
 31
0.0
  0
LINE
  5
7EE0E
  8
11
 10
619.178805
 20
94.19835
 30
0.0
 11
860.56241
 21
94.19835
 31
0.0
  0
LINE
  5
7EE0F
  8
13
  6
DASHDOT
 10
735.44588
 20
182.0
 30
0.0
 11
735.44588
 21
85.577797
 31
0.0
  0
LINE
  5
7EE10
  8
34
 10
954.504252
 20
492.476592
 30
0.0
 11
1028.504252
 21
492.476592
 31
0.0
  0
LINE
  5
7EE11
  8
34
 10
1031.504252
 20
380.022193
 30
0.0
 11
1031.504252
 21
489.476592
 31
0.0
  0
LINE
  5
7EE12
  8
34
 10
1031.504252
 20
380.022193
 30
0.0
 11
1031.504252
 21
270.422628
 31
0.0
  0
ARC
  5
7EE13
  8
34
 10
1028.507766
 20
270.567792
 30
0.0
 40
3.0
 50
269.932998
 51
2.773515
  0
LINE
  5
7EE14
  8
34
 10
954.504252
 20
267.567794
 30
0.0
 11
1028.504258
 21
267.567794
 31
0.0
  0
ARC
  5
7EE15
  8
31
 10
983.243024
 20
507.435899
 30
0.0
 40
22.256656
 50
182.297066
 51
210.417837
  0
LINE
  5
7EE16
  8
31
 10
1029.30165
 20
496.293445
 30
0.0
 11
964.049861
 21
496.167304
 31
0.0
  0
ARC
  5
7EE17
  8
31
 10
1028.80165
 20
490.314271
 30
0.0
 40
6.0
 50
0.0
 51
85.0
  0
LINE
  5
7EE18
  8
31
 10
1029.30165
 20
496.293445
 30
0.0
 11
1029.324585
 21
496.291439
 31
0.0
  0
LINE
  5
7EE19
  8
31
 10
954.004252
 20
498.297194
 30
0.0
 11
954.504252
 21
498.297194
 31
0.0
  0
LINE
  5
7EE1A
  8
31
 10
1029.30165
 20
512.228232
 30
0.0
 11
1029.324585
 21
512.226225
 31
0.0
  0
LINE
  5
7EE1B
  8
31
 10
961.071587
 20
517.903625
 30
0.0
 11
1029.30165
 21
517.599336
 31
0.0
  0
LINE
  5
7EE1C
  8
31
 10
954.504252
 20
497.187492
 30
0.0
 11
954.504252
 21
496.289268
 31
0.0
  0
LINE
  5
7EE1D
  8
31
 10
954.004252
 20
497.187492
 30
0.0
 11
954.004252
 21
518.026986
 31
0.0
  0
LINE
  5
7EE1E
  8
31
 10
954.004252
 20
518.026986
 30
0.0
 11
954.504252
 21
518.018258
 31
0.0
  0
LINE
  5
7EE1F
  8
31
 10
1029.30165
 20
496.293445
 30
0.0
 11
1029.30165
 21
517.599336
 31
0.0
  0
LINE
  5
7EE20
  8
31
 10
954.004252
 20
497.187492
 30
0.0
 11
954.504252
 21
497.187492
 31
0.0
  0
LINE
  5
7EE21
  8
31
 10
959.828205
 20
517.925328
 30
0.0
 11
961.071587
 21
517.903625
 31
0.0
  0
LINE
  5
7EE22
  8
31
 10
954.504252
 20
507.217626
 30
0.0
 11
954.504252
 21
497.187492
 31
0.0
  0
LINE
  5
7EE23
  8
31
 10
954.504252
 20
518.018258
 30
0.0
 11
959.830491
 21
517.925288
 31
0.0
  0
LINE
  5
7EE24
  8
31
 10
1034.80165
 20
496.289268
 30
0.0
 11
1034.80165
 21
504.683291
 31
0.0
  0
ARC
  5
7EE25
  8
31
 10
1028.688451
 20
503.877251
 30
0.0
 40
6.16611
 50
7.51126
 51
84.078475
  0
LINE
  5
7EE26
  8
31
 10
954.004252
 20
242.018033
 30
0.0
 11
954.004252
 21
262.857527
 31
0.0
  0
LINE
  5
7EE27
  8
31
 10
1029.30165
 20
242.445682
 30
0.0
 11
1029.30165
 21
264.861275
 31
0.0
  0
LINE
  5
7EE28
  8
31
 10
954.004252
 20
242.018033
 30
0.0
 11
1029.30165
 21
242.445682
 31
0.0
  0
LINE
  5
7EE29
  8
31
 10
1029.30165
 20
248.926489
 30
0.0
 11
1029.324585
 21
248.928495
 31
0.0
  0
ARC
  5
7EE2A
  8
31
 10
1028.80165
 20
254.905663
 30
0.0
 40
6.0
 50
275.0
 51
0.0
  0
LINE
  5
7EE2B
  8
31
 10
954.004252
 20
262.857527
 30
0.0
 11
954.504252
 21
262.857527
 31
0.0
  0
LINE
  5
7EE2C
  8
31
 10
1029.30165
 20
264.861275
 30
0.0
 11
1029.324585
 21
264.863281
 31
0.0
  0
ARC
  5
7EE2D
  8
31
 10
1028.80165
 20
270.84045
 30
0.0
 40
6.0
 50
275.0
 51
0.0
  0
LINE
  5
7EE2E
  8
31
 10
1029.30165
 20
264.861275
 30
0.0
 11
964.049861
 21
264.987416
 31
0.0
  0
ARC
  5
7EE2F
  8
31
 10
983.243024
 20
253.718821
 30
0.0
 40
22.256656
 50
149.582163
 51
177.702934
  0
LINE
  5
7EE30
  8
32
 10
1028.822934
 20
496.289268
 30
0.0
 11
1028.822934
 21
264.865453
 31
0.0
  0
LINE
  5
7EE31
  8
32
 10
964.049861
 20
264.987416
 30
0.0
 11
964.049861
 21
496.289268
 31
0.0
  0
LINE
  5
7EE32
  8
31
 10
961.004252
 20
507.217626
 30
0.0
 11
961.004252
 21
254.610882
 31
0.0
  0
LINE
  5
7EE33
  8
31
 10
954.504252
 20
496.289268
 30
0.0
 11
954.504252
 21
252.826761
 31
0.0
  0
LINE
  5
7EE34
  8
31
 10
1034.80165
 20
496.289268
 30
0.0
 11
1034.80165
 21
254.905663
 31
0.0
  0
LINE
  5
7EE35
  8
33
  6
DASHDOT
 10
947.0
 20
380.022193
 30
0.0
 11
1043.422203
 21
380.022193
 31
0.0
  0
LINE
  5
7EE36
  8
23
  6
DASHDOT
 10
735.44588
 20
578.044386
 30
0.0
 11
735.44588
 21
674.466589
 31
0.0
  0
LINE
  5
7EE37
  8
21
 10
619.178805
 20
665.846037
 30
0.0
 11
860.56241
 21
665.846037
 31
0.0
  0
LINE
  5
7EE38
  8
21
 10
619.178805
 20
585.548639
 30
0.0
 11
862.641312
 21
585.548639
 31
0.0
  0
LINE
  5
7EE39
  8
21
 10
608.250448
 20
592.048639
 30
0.0
 11
860.857191
 21
592.048639
 31
0.0
  0
LINE
  5
7EE3A
  8
22
 10
850.480657
 20
595.094247
 30
0.0
 11
619.178805
 21
595.094247
 31
0.0
  0
LINE
  5
7EE3B
  8
22
 10
619.178805
 20
659.86732
 30
0.0
 11
850.602621
 21
659.86732
 31
0.0
  0
ARC
  5
7EE3C
  8
21
 10
861.749252
 20
614.287411
 30
0.0
 40
22.256656
 50
239.582163
 51
267.702934
  0
LINE
  5
7EE3D
  8
21
 10
850.606798
 20
660.346037
 30
0.0
 11
850.480657
 21
595.094247
 31
0.0
  0
ARC
  5
7EE3E
  8
21
 10
844.627624
 20
659.846037
 30
0.0
 40
6.0
 50
5.0
 51
90.0
  0
LINE
  5
7EE3F
  8
21
 10
850.606798
 20
660.346037
 30
0.0
 11
850.604792
 21
660.368971
 31
0.0
  0
LINE
  5
7EE40
  8
21
 10
852.610546
 20
585.048639
 30
0.0
 11
852.610546
 21
585.548639
 31
0.0
  0
ARC
  5
7EE41
  8
21
 10
860.56241
 20
659.846037
 30
0.0
 40
6.0
 50
5.0
 51
90.0
  0
LINE
  5
7EE42
  8
21
 10
866.541584
 20
660.346037
 30
0.0
 11
866.539578
 21
660.368971
 31
0.0
  0
LINE
  5
7EE43
  8
21
 10
873.45004
 20
585.048639
 30
0.0
 11
873.022391
 21
660.346037
 31
0.0
  0
LINE
  5
7EE44
  8
21
 10
873.022391
 20
660.346037
 30
0.0
 11
850.606798
 21
660.346037
 31
0.0
  0
LINE
  5
7EE45
  8
21
 10
873.45004
 20
585.048639
 30
0.0
 11
852.610546
 21
585.048639
 31
0.0
  0
ARC
  5
7EE46
  8
21
 10
611.590822
 20
659.732837
 30
0.0
 40
6.16611
 50
97.51126
 51
174.078475
  0
LINE
  5
7EE47
  8
21
 10
619.178805
 20
665.846037
 30
0.0
 11
610.784782
 21
665.846037
 31
0.0
  0
LINE
  5
7EE48
  8
21
 10
597.449815
 20
585.548639
 30
0.0
 11
597.542785
 21
590.874877
 31
0.0
  0
LINE
  5
7EE49
  8
21
 10
608.250448
 20
585.548639
 30
0.0
 11
618.280581
 21
585.548639
 31
0.0
  0
LINE
  5
7EE4A
  8
21
 10
597.542745
 20
590.872591
 30
0.0
 11
597.564448
 21
592.115973
 31
0.0
  0
LINE
  5
7EE4B
  8
21
 10
618.280581
 20
585.048639
 30
0.0
 11
618.280581
 21
585.548639
 31
0.0
  0
LINE
  5
7EE4C
  8
21
 10
619.174628
 20
660.346037
 30
0.0
 11
597.868737
 21
660.346037
 31
0.0
  0
LINE
  5
7EE4D
  8
21
 10
597.441088
 20
585.048639
 30
0.0
 11
597.449815
 21
585.548639
 31
0.0
  0
LINE
  5
7EE4E
  8
21
 10
618.280581
 20
585.048639
 30
0.0
 11
597.441088
 21
585.048639
 31
0.0
  0
LINE
  5
7EE4F
  8
21
 10
618.280581
 20
585.548639
 30
0.0
 11
619.178805
 21
585.548639
 31
0.0
  0
LINE
  5
7EE50
  8
21
 10
597.564448
 20
592.115973
 30
0.0
 11
597.868737
 21
660.346037
 31
0.0
  0
LINE
  5
7EE51
  8
21
 10
603.239841
 20
660.346037
 30
0.0
 11
603.241848
 21
660.368971
 31
0.0
  0
LINE
  5
7EE52
  8
21
 10
617.17088
 20
585.048639
 30
0.0
 11
617.17088
 21
585.548639
 31
0.0
  0
LINE
  5
7EE53
  8
21
 10
619.174628
 20
660.346037
 30
0.0
 11
619.176634
 21
660.368971
 31
0.0
  0
ARC
  5
7EE54
  8
21
 10
625.153802
 20
659.846037
 30
0.0
 40
6.0
 50
90.0
 51
175.0
  0
LINE
  5
7EE55
  8
21
 10
619.174628
 20
660.346037
 30
0.0
 11
619.300769
 21
595.094247
 31
0.0
  0
ARC
  5
7EE56
  8
21
 10
608.032174
 20
614.287411
 30
0.0
 40
22.256656
 50
272.297066
 51
300.417837
  0
LINE
  5
7EE57
  8
24
 10
847.900279
 20
585.548639
 30
0.0
 11
847.900279
 21
659.548644
 31
0.0
  0
ARC
  5
7EE58
  8
24
 10
844.900281
 20
659.552153
 30
0.0
 40
3.0
 50
359.932998
 51
92.773515
  0
LINE
  5
7EE59
  8
24
 10
735.44588
 20
662.548639
 30
0.0
 11
845.045445
 21
662.548639
 31
0.0
  0
LINE
  5
7EE5A
  8
24
 10
735.44588
 20
662.548639
 30
0.0
 11
625.991481
 21
662.548639
 31
0.0
  0
LINE
  5
7EE5B
  8
24
 10
622.991481
 20
585.548639
 30
0.0
 11
622.991481
 21
659.548639
 31
0.0
  0
LINE
  5
7EE5C
  8
41
 10
516.387508
 20
496.289268
 30
0.0
 11
516.387508
 21
252.826761
 31
0.0
  0
LINE
  5
7EE5D
  8
41
 10
509.887508
 20
507.217626
 30
0.0
 11
509.887508
 21
254.610882
 31
0.0
  0
LINE
  5
7EE5E
  8
42
 10
506.841899
 20
264.987416
 30
0.0
 11
506.841899
 21
496.289268
 31
0.0
  0
LINE
  5
7EE5F
  8
42
 10
442.068826
 20
496.289268
 30
0.0
 11
442.068826
 21
264.865453
 31
0.0
  0
ARC
  5
7EE60
  8
41
 10
487.648736
 20
253.718821
 30
0.0
 40
22.256656
 50
2.297066
 51
30.417837
  0
LINE
  5
7EE61
  8
41
 10
441.59011
 20
264.861275
 30
0.0
 11
506.841899
 21
264.987416
 31
0.0
  0
LINE
  5
7EE62
  8
41
 10
441.59011
 20
264.861275
 30
0.0
 11
441.567175
 21
264.863281
 31
0.0
  0
LINE
  5
7EE63
  8
41
 10
516.887508
 20
262.857527
 30
0.0
 11
516.387508
 21
262.857527
 31
0.0
  0
LINE
  5
7EE64
  8
41
 10
441.59011
 20
248.926489
 30
0.0
 11
441.567175
 21
248.928495
 31
0.0
  0
LINE
  5
7EE65
  8
41
 10
516.887508
 20
242.018033
 30
0.0
 11
441.59011
 21
242.445682
 31
0.0
  0
LINE
  5
7EE66
  8
41
 10
441.59011
 20
242.445682
 30
0.0
 11
441.59011
 21
264.861275
 31
0.0
  0
LINE
  5
7EE67
  8
41
 10
516.887508
 20
242.018033
 30
0.0
 11
516.887508
 21
262.857527
 31
0.0
  0
LINE
  5
7EE68
  8
41
 10
516.387508
 20
518.018258
 30
0.0
 11
511.061269
 21
517.925288
 31
0.0
  0
LINE
  5
7EE69
  8
41
 10
516.387508
 20
507.217626
 30
0.0
 11
516.387508
 21
497.187492
 31
0.0
  0
LINE
  5
7EE6A
  8
41
 10
511.063555
 20
517.925328
 30
0.0
 11
509.820173
 21
517.903625
 31
0.0
  0
LINE
  5
7EE6B
  8
41
 10
516.887508
 20
497.187492
 30
0.0
 11
516.387508
 21
497.187492
 31
0.0
  0
LINE
  5
7EE6C
  8
41
 10
441.59011
 20
496.293445
 30
0.0
 11
441.59011
 21
517.599336
 31
0.0
  0
LINE
  5
7EE6D
  8
41
 10
516.887508
 20
518.026986
 30
0.0
 11
516.387508
 21
518.018258
 31
0.0
  0
LINE
  5
7EE6E
  8
41
 10
516.887508
 20
497.187492
 30
0.0
 11
516.887508
 21
518.026986
 31
0.0
  0
LINE
  5
7EE6F
  8
41
 10
516.387508
 20
497.187492
 30
0.0
 11
516.387508
 21
496.289268
 31
0.0
  0
LINE
  5
7EE70
  8
41
 10
509.820173
 20
517.903625
 30
0.0
 11
441.59011
 21
517.599336
 31
0.0
  0
LINE
  5
7EE71
  8
41
 10
441.59011
 20
512.228232
 30
0.0
 11
441.567175
 21
512.226225
 31
0.0
  0
LINE
  5
7EE72
  8
41
 10
516.887508
 20
498.297194
 30
0.0
 11
516.387508
 21
498.297194
 31
0.0
  0
LINE
  5
7EE73
  8
41
 10
441.59011
 20
496.293445
 30
0.0
 11
441.567175
 21
496.291439
 31
0.0
  0
LINE
  5
7EE74
  8
41
 10
441.59011
 20
496.293445
 30
0.0
 11
506.841899
 21
496.167304
 31
0.0
  0
ARC
  5
7EE75
  8
41
 10
487.648736
 20
507.435899
 30
0.0
 40
22.256656
 50
329.582163
 51
357.702934
  0
LINE
  5
7EE76
  8
44
 10
516.387508
 20
267.567794
 30
0.0
 11
442.387502
 21
267.567794
 31
0.0
  0
LINE
  5
7EE77
  8
44
 10
516.387508
 20
492.476592
 30
0.0
 11
442.387508
 21
492.476592
 31
0.0
  0
LINE
  5
7EE78
  8
43
  6
DASHDOT
 10
523.89176
 20
380.022193
 30
0.0
 11
427.469557
 21
380.022193
 31
0.0
  0
LINE
  5
7EE79
  8
41
 10
436.09011
 20
496.289268
 30
0.0
 11
436.09011
 21
254.905663
 31
0.0
  0
ARC
  5
7EE7A
  8
41
 10
442.09011
 20
270.84045
 30
0.0
 40
6.0
 50
180.0
 51
265.0
  0
ARC
  5
7EE7B
  8
41
 10
442.09011
 20
254.905663
 30
0.0
 40
6.0
 50
180.0
 51
265.0
  0
ARC
  5
7EE7C
  8
41
 10
442.203309
 20
503.877251
 30
0.0
 40
6.16611
 50
95.921525
 51
172.48874
  0
LINE
  5
7EE7D
  8
41
 10
436.09011
 20
496.289268
 30
0.0
 11
436.09011
 21
504.683291
 31
0.0
  0
ARC
  5
7EE7E
  8
41
 10
442.09011
 20
490.314271
 30
0.0
 40
6.0
 50
95.0
 51
180.0
  0
ARC
  5
7EE7F
  8
44
 10
442.383994
 20
270.567792
 30
0.0
 40
3.0
 50
177.226485
 51
270.067002
  0
LINE
  5
7EE80
  8
44
 10
439.387508
 20
380.022193
 30
0.0
 11
439.387508
 21
270.422628
 31
0.0
  0
LINE
  5
7EE81
  8
44
 10
439.387508
 20
380.022193
 30
0.0
 11
439.387508
 21
489.476592
 31
0.0
  0
TEXT
  5
7EE82
  8
L20
 10
221.701577
 20
568.612515
 30
0.0
 40
7.0
  1
FIBOX EK-O 80 COVER
  0
ARC
  5
7EE83
  8
24
 10
625.991481
 20
659.548639
 30
0.0
 40
3.0
 50
90.0
 51
180.0
  0
ARC
  5
7EE84
  8
44
 10
442.387508
 20
489.476592
 30
0.0
 40
3.0
 50
90.0
 51
180.0
  0
ARC
  5
7EE85
  8
34
 10
1028.504252
 20
489.476592
 30
0.0
 40
3.0
 50
0.0
 51
90.0
  0
ARC
  5
7EE86
  8
14
 10
625.991481
 20
100.495748
 30
0.0
 40
3.0
 50
180.0
 51
270.0
  0
VIEWPORT
  5
1
 67
     1
  8
0
 10
210.0
 20
152.094241
 30
0.0
 40
420.0
 41
304.188482
 68
    -1
 69
     1
1001
ACAD
1000
MVIEW
1002
{
1070
    16
1010
0.0
1020
0.0
1030
0.0
1010
0.0
1020
0.0
1030
1.0
1040
0.0
1040
304.188482
1040
210.0
1040
152.094241
1040
50.0
1040
0.0
1040
0.0
1070
     0
1070
   100
1070
     1
1070
     1
1070
     1
1070
     0
1070
     0
1070
     0
1040
0.0
1040
0.0
1040
0.0
1040
1.0
1040
1.0
1040
0.0
1040
0.0
1070
     0
1002
{
1002
}
1002
}
  0
ENDSEC
  0
EOF
