  0
SECTION
  2
HEADER
  9
$ACADVER
  1
AC1009
  9
$INSBASE
 10
0.0
 20
0.0
 30
0.0
  9
$EXTMIN
 10
-382.006772
 20
170.0
 30
0.0
  9
$EXTMAX
 10
485.368391
 20
615.148242
 30
0.0
  9
$LIMMIN
 10
0.0
 20
0.0
  9
$LIMMAX
 10
420.0
 20
297.0
  9
$ORTHOMODE
 70
     0
  9
$REGENMODE
 70
     1
  9
$FILLMODE
 70
     1
  9
$QTEXTMODE
 70
     0
  9
$MIRRTEXT
 70
     1
  9
$DRAGMODE
 70
     2
  9
$LTSCALE
 40
7.0
  9
$OSMODE
 70
     0
  9
$ATTMODE
 70
     1
  9
$TEXTSIZE
 40
3.5
  9
$TRACEWID
 40
0.05
  9
$TEXTSTYLE
  7
STANDARD
  9
$CLAYER
  8
0
  9
$CELTYPE
  6
BYLAYER
  9
$CECOLOR
 62
   256
  9
$DIMSCALE
 40
1.0
  9
$DIMASZ
 40
3.5
  9
$DIMEXO
 40
0.0
  9
$DIMDLI
 40
10.0
  9
$DIMRND
 40
0.0
  9
$DIMDLE
 40
0.0
  9
$DIMEXE
 40
2.0
  9
$DIMTP
 40
0.0
  9
$DIMTM
 40
0.0
  9
$DIMTXT
 40
3.5
  9
$DIMCEN
 40
2.5
  9
$DIMTSZ
 40
0.0
  9
$DIMTOL
 70
     0
  9
$DIMLIM
 70
     0
  9
$DIMTIH
 70
     0
  9
$DIMTOH
 70
     0
  9
$DIMSE1
 70
     0
  9
$DIMSE2
 70
     0
  9
$DIMTAD
 70
     1
  9
$DIMZIN
 70
     8
  9
$DIMBLK
  1

  9
$DIMASO
 70
     1
  9
$DIMSHO
 70
     1
  9
$DIMPOST
  1

  9
$DIMAPOST
  1

  9
$DIMALT
 70
     0
  9
$DIMALTD
 70
     2
  9
$DIMALTF
 40
25.4
  9
$DIMLFAC
 40
1.0
  9
$DIMTOFL
 70
     1
  9
$DIMTVP
 40
0.0
  9
$DIMTIX
 70
     0
  9
$DIMSOXD
 70
     0
  9
$DIMSAH
 70
     0
  9
$DIMBLK1
  1

  9
$DIMBLK2
  1

  9
$DIMSTYLE
  2
STANDARD
  9
$DIMCLRD
 70
   256
  9
$DIMCLRE
 70
   256
  9
$DIMCLRT
 70
     3
  9
$DIMTFAC
 40
1.0
  9
$DIMGAP
 40
2.0
  9
$LUNITS
 70
     2
  9
$LUPREC
 70
     1
  9
$SKETCHINC
 40
1.0
  9
$FILLETRAD
 40
0.0
  9
$AUNITS
 70
     0
  9
$AUPREC
 70
     2
  9
$MENU
  1
CAESAR
  9
$ELEVATION
 40
0.0
  9
$PELEVATION
 40
0.0
  9
$THICKNESS
 40
0.0
  9
$LIMCHECK
 70
     0
  9
$BLIPMODE
 70
     1
  9
$CHAMFERA
 40
5.0
  9
$CHAMFERB
 40
5.0
  9
$SKPOLY
 70
     0
  9
$TDCREATE
 40
2449496.439641
  9
$TDUPDATE
 40
2453059.652727
  9
$TDINDWG
 40
0.000045
  9
$TDUSRTIMER
 40
0.000045
  9
$USRTIMER
 70
     1
  9
$ANGBASE
 50
0.0
  9
$ANGDIR
 70
     0
  9
$PDMODE
 70
     0
  9
$PDSIZE
 40
0.0
  9
$PLINEWID
 40
0.0
  9
$COORDS
 70
     2
  9
$SPLFRAME
 70
     0
  9
$SPLINETYPE
 70
     6
  9
$SPLINESEGS
 70
     8
  9
$ATTDIA
 70
     0
  9
$ATTREQ
 70
     1
  9
$HANDLING
 70
     1
  9
$HANDSEED
  5
3979
  9
$SURFTAB1
 70
     6
  9
$SURFTAB2
 70
     6
  9
$SURFTYPE
 70
     6
  9
$SURFU
 70
     6
  9
$SURFV
 70
     6
  9
$UCSNAME
  2

  9
$UCSORG
 10
0.0
 20
0.0
 30
0.0
  9
$UCSXDIR
 10
1.0
 20
0.0
 30
0.0
  9
$UCSYDIR
 10
0.0
 20
1.0
 30
0.0
  9
$PUCSNAME
  2

  9
$PUCSORG
 10
0.0
 20
0.0
 30
0.0
  9
$PUCSXDIR
 10
1.0
 20
0.0
 30
0.0
  9
$PUCSYDIR
 10
0.0
 20
1.0
 30
0.0
  9
$USERI1
 70
     0
  9
$USERI2
 70
     0
  9
$USERI3
 70
     0
  9
$USERI4
 70
     0
  9
$USERI5
 70
     0
  9
$USERR1
 40
1.0
  9
$USERR2
 40
0.0
  9
$USERR3
 40
3.5
  9
$USERR4
 40
0.0
  9
$USERR5
 40
0.0
  9
$WORLDVIEW
 70
     1
  9
$SHADEDGE
 70
     3
  9
$SHADEDIF
 70
    70
  9
$TILEMODE
 70
     1
  9
$MAXACTVP
 70
    16
  9
$PLIMCHECK
 70
     0
  9
$PEXTMIN
 10
1.000000E+020
 20
1.000000E+020
 30
1.000000E+020
  9
$PEXTMAX
 10
-1.000000E+020
 20
-1.000000E+020
 30
-1.000000E+020
  9
$PLIMMIN
 10
0.0
 20
0.0
  9
$PLIMMAX
 10
420.0
 20
297.0
  9
$UNITMODE
 70
     0
  9
$VISRETAIN
 70
     0
  9
$PLINEGEN
 70
     0
  9
$PSLTSCALE
 70
     0
  0
ENDSEC
  0
SECTION
  2
TABLES
  0
TABLE
  2
VPORT
 70
     2
  0
VPORT
  2
*ACTIVE
 70
     0
 10
0.0
 20
0.0
 11
1.0
 21
1.0
 12
51.680812
 22
392.568131
 13
0.0
 23
0.0
 14
1.0
 24
1.0
 15
10.0
 25
10.0
 16
0.0
 26
0.0
 36
1.0
 17
0.0
 27
0.0
 37
0.0
 40
539.911385
 41
1.616838
 42
50.0
 43
0.0
 44
0.0
 50
0.0
 51
0.0
 71
     0
 72
   100
 73
     1
 74
     1
 75
     0
 76
     0
 77
     0
 78
     0
  0
ENDTAB
  0
TABLE
  2
LTYPE
 70
     7
  0
LTYPE
  2
CONTINUOUS
 70
     0
  3
Solid line
 72
    65
 73
     0
 40
0.0
  0
LTYPE
  2
CENTER
 70
     0
  3
____ _ ____ _ ____ _ ____ _ ____ _ ____ _ ____ 
 72
    65
 73
     4
 40
2.0
 49
1.25
 49
-0.25
 49
0.25
 49
-0.25
  0
LTYPE
  2
DASHDOT
 70
     0
  3
__ . __ . __ . __ . __ . __ . __ . __ . __ . __
 72
    65
 73
     4
 40
1.0
 49
0.5
 49
-0.25
 49
0.0
 49
-0.25
  0
LTYPE
  2
DASHED
 70
     0
  3
__ __ __ __ __ __ __ __ __ __ __ __ __ __ __ __
 72
    65
 73
     2
 40
0.75
 49
0.5
 49
-0.25
  0
LTYPE
  2
HIDDEN
 70
     0
  3
__ __ __ __ __ __ __ __ __ __ __ __ __ __ __ __
 72
    65
 73
     2
 40
0.375
 49
0.25
 49
-0.125
  0
LTYPE
  2
PHANTOM
 70
     0
  3
______  __  __  ______  __  __  ______  __  __ 
 72
    65
 73
     6
 40
2.5
 49
1.25
 49
-0.25
 49
0.25
 49
-0.25
 49
0.25
 49
-0.25
  0
LTYPE
  2
DOTX2
 70
     0
  3
.  .  .  .  .  .  .  .  .  .  .  .  .  .  .  . 
 72
    65
 73
     2
 40
0.5
 49
0.0
 49
-0.5
  0
ENDTAB
  0
TABLE
  2
LAYER
 70
    26
  0
LAYER
  2
0
 70
     0
 62
     7
  6
CONTINUOUS
  0
LAYER
  2
L20
 70
     0
 62
     3
  6
CONTINUOUS
  0
LAYER
  2
11
 70
     0
 62
     7
  6
CONTINUOUS
  0
LAYER
  2
63
 70
     0
 62
     1
  6
CENTER
  0
LAYER
  2
12
 70
     0
 62
     1
  6
CONTINUOUS
  0
LAYER
  2
13
 70
     0
 62
     1
  6
CENTER
  0
LAYER
  2
21
 70
     0
 62
     7
  6
CONTINUOUS
  0
LAYER
  2
22
 70
     0
 62
     1
  6
CONTINUOUS
  0
LAYER
  2
23
 70
     0
 62
     1
  6
CENTER
  0
LAYER
  2
31
 70
     0
 62
     7
  6
CONTINUOUS
  0
LAYER
  2
32
 70
     0
 62
     1
  6
CONTINUOUS
  0
LAYER
  2
33
 70
     0
 62
     1
  6
CENTER
  0
LAYER
  2
41
 70
     0
 62
     7
  6
CONTINUOUS
  0
LAYER
  2
42
 70
     0
 62
     1
  6
CONTINUOUS
  0
LAYER
  2
43
 70
     0
 62
     1
  6
CENTER
  0
LAYER
  2
51
 70
     0
 62
     7
  6
CONTINUOUS
  0
LAYER
  2
52
 70
     0
 62
     1
  6
CONTINUOUS
  0
LAYER
  2
53
 70
     0
 62
     1
  6
CENTER
  0
LAYER
  2
61
 70
     0
 62
     7
  6
CONTINUOUS
  0
LAYER
  2
62
 70
     0
 62
     1
  6
CONTINUOUS
  0
LAYER
  2
14
 70
     0
 62
     1
  6
DASHED
  0
LAYER
  2
24
 70
     0
 62
     1
  6
DASHED
  0
LAYER
  2
34
 70
     0
 62
     1
  6
DASHED
  0
LAYER
  2
44
 70
     0
 62
     1
  6
DASHED
  0
LAYER
  2
54
 70
     0
 62
     1
  6
DASHED
  0
LAYER
  2
64
 70
     0
 62
     1
  6
DASHED
  0
ENDTAB
  0
TABLE
  2
STYLE
 70
     5
  0
STYLE
  2
STANDARD
 70
     0
 40
0.0
 41
1.0
 50
0.0
 71
     0
 42
3.5
  3
CAEISO
  4

  0
STYLE
  2
COMPLEX
 70
     0
 40
5.0
 41
1.0
 50
0.0
 71
     0
 42
5.0
  3
COMPLEX.SHX
  4

  0
STYLE
  2
TXT
 70
     0
 40
0.0
 41
1.0
 50
0.0
 71
     0
 42
0.2
  3
TXT
  4

  0
STYLE
  2
ITALIC
 70
     0
 40
0.0
 41
1.0
 50
0.0
 71
     0
 42
0.2
  3
ITALIC
  4

  0
STYLE
  2
MONO
 70
     0
 40
0.0
 41
1.0
 50
0.0
 71
     0
 42
9.5
  3
MONOTXT
  4

  0
ENDTAB
  0
TABLE
  2
VIEW
 70
     0
  0
ENDTAB
  0
TABLE
  2
UCS
 70
     0
  0
ENDTAB
  0
TABLE
  2
APPID
 70
     1
  0
APPID
  2
ACAD
 70
     0
  0
ENDTAB
  0
TABLE
  2
DIMSTYLE
 70
     1
  0
DIMSTYLE
  2
STANDARD
 70
     0
  3

  4

  5

  6

  7

 40
1.0
 41
0.18
 42
0.0625
 43
0.38
 44
0.18
 45
0.0
 46
0.0
 47
0.0
 48
0.0
140
0.18
141
0.09
142
0.0
143
25.4
144
1.0
145
0.0
146
1.0
147
0.09
 71
     0
 72
     0
 73
     1
 74
     1
 75
     0
 76
     0
 77
     0
 78
     0
170
     0
171
     2
172
     0
173
     0
174
     0
175
     0
176
     0
177
     0
178
     0
  0
ENDTAB
  0
ENDSEC
  0
SECTION
  2
BLOCKS
  0
BLOCK
  8
0
  2
$MODEL_SPACE
 70
     0
 10
0.0
 20
0.0
 30
0.0
  3
$MODEL_SPACE
  1

  0
ENDBLK
  5
3968
  8
0
  0
BLOCK
 67
     1
  8
0
  2
$PAPER_SPACE
 70
     0
 10
0.0
 20
0.0
 30
0.0
  3
$PAPER_SPACE
  1

  0
ENDBLK
  5
3966
 67
     1
  8
0
  0
ENDSEC
  0
SECTION
  2
ENTITIES
  0
TEXT
  5
3214
  8
0
  6
CONTINUOUS
 10
330.035074
 20
372.358918
 30
0.0
 40
2.5
  1
  
 50
21.66214
  0
LINE
  5
3215
  8
61
 10
103.740425
 20
531.022193
 30
0.0
 11
358.140431
 21
531.022193
 31
0.0
  0
LINE
  5
3216
  8
61
 10
92.940425
 20
520.222193
 30
0.0
 11
92.940425
 21
265.822193
 31
0.0
  0
LINE
  5
3217
  8
62
 10
113.396438
 20
525.059695
 30
0.0
 11
348.484413
 21
525.059695
 31
0.0
  0
LINE
  5
3218
  8
62
 10
98.848046
 20
510.593869
 30
0.0
 11
98.848046
 21
275.450517
 31
0.0
  0
LINE
  5
3219
  8
61
 10
115.450994
 20
523.389647
 30
0.0
 11
344.191524
 21
523.389647
 31
0.0
  0
LINE
  5
321A
  8
61
 10
100.494072
 20
508.546758
 30
0.0
 11
100.494072
 21
277.497628
 31
0.0
  0
LINE
  5
321B
  8
53
  6
DASHDOT
 10
-233.351675
 20
540.345233
 30
0.0
 11
-233.351675
 21
386.651105
 31
0.0
  0
LINE
  5
321C
  8
52
 10
-368.521659
 20
519.529842
 30
0.0
 11
-359.859323
 21
528.192177
 31
0.0
  0
ARC
  5
321D
  8
52
 10
-360.551675
 20
520.222193
 30
0.0
 40
8.0
 50
7.645696
 51
85.035187
  0
ARC
  5
321E
  8
52
 10
-360.551675
 20
520.222193
 30
0.0
 40
8.0
 50
184.964813
 51
262.354304
  0
LINE
  5
321F
  8
52
 10
-361.61605
 20
512.293315
 30
0.0
 11
-352.622797
 21
521.286568
 31
0.0
  0
LINE
  5
3220
  8
51
 10
-371.351675
 20
520.222193
 30
0.0
 11
-371.351675
 21
265.822199
 31
0.0
  0
LINE
  5
3221
  8
51
 10
-360.551675
 20
531.022193
 30
0.0
 11
-188.351675
 21
531.022193
 31
0.0
  0
ARC
  5
3222
  8
51
 10
-360.551675
 20
520.222193
 30
0.0
 40
10.8
 50
23.289549
 51
246.710451
  0
ARC
  5
3223
  8
51
 10
-360.551675
 20
265.822193
 30
0.0
 40
10.8
 50
113.289549
 51
336.710451
  0
LINE
  5
3224
  8
52
 10
-359.859323
 20
257.852209
 30
0.0
 11
-368.521659
 21
266.514545
 31
0.0
  0
LINE
  5
3225
  8
52
 10
-352.622797
 20
264.757818
 30
0.0
 11
-361.61605
 21
273.751071
 31
0.0
  0
ARC
  5
3226
  8
52
 10
-360.551675
 20
265.822193
 30
0.0
 40
8.0
 50
97.645696
 51
175.035187
  0
ARC
  5
3227
  8
52
 10
-360.551675
 20
265.822193
 30
0.0
 40
8.0
 50
274.964813
 51
352.354304
  0
LINE
  5
3228
  8
51
 10
-343.251675
 20
523.022193
 30
0.0
 11
-188.351675
 21
523.022193
 31
0.0
  0
LINE
  5
3229
  8
51
 10
-363.351675
 20
502.922193
 30
0.0
 11
-363.351675
 21
283.122184
 31
0.0
  0
LINE
  5
322A
  8
52
 10
-364.851675
 20
502.722193
 30
0.0
 11
-364.851675
 21
283.322193
 31
0.0
  0
LINE
  5
322B
  8
52
 10
-343.051675
 20
524.522193
 30
0.0
 11
-188.351675
 21
524.522193
 31
0.0
  0
LINE
  5
322C
  8
52
 10
-369.251675
 20
502.722193
 30
0.0
 11
-369.251675
 21
283.122193
 31
0.0
  0
LINE
  5
322D
  8
52
 10
-343.051675
 20
528.922193
 30
0.0
 11
-188.351675
 21
528.922193
 31
0.0
  0
ARC
  5
322E
  8
51
 10
-360.551675
 20
520.222193
 30
0.0
 40
14.5
 50
270.0
 51
0.0
  0
ARC
  5
322F
  8
52
 10
-360.551675
 20
520.222193
 30
0.0
 40
13.2
 50
270.0
 51
0.0
  0
ARC
  5
3230
  8
52
 10
-360.551675
 20
520.222193
 30
0.0
 40
8.8
 50
270.0
 51
0.0
  0
ARC
  5
3231
  8
51
 10
-360.551675
 20
502.922193
 30
0.0
 40
2.8
 50
90.0
 51
180.0
  0
ARC
  5
3232
  8
51
 10
-343.251675
 20
520.222193
 30
0.0
 40
2.8
 50
90.0
 51
180.0
  0
ARC
  5
3233
  8
52
 10
-343.051675
 20
520.222193
 30
0.0
 40
4.3
 50
90.0
 51
180.0
  0
ARC
  5
3234
  8
52
 10
-360.551675
 20
502.722193
 30
0.0
 40
4.3
 50
90.0
 51
180.0
  0
ARC
  5
3235
  8
52
 10
-343.051675
 20
520.222193
 30
0.0
 40
8.7
 50
90.0
 51
180.0
  0
ARC
  5
3236
  8
52
 10
-360.551675
 20
502.722193
 30
0.0
 40
8.7
 50
90.0
 51
180.0
  0
ARC
  5
3237
  8
52
 10
-343.051675
 20
265.822193
 30
0.0
 40
8.7
 50
180.0
 51
270.0
  0
ARC
  5
3238
  8
52
 10
-360.551675
 20
265.822193
 30
0.0
 40
8.8
 50
360.0
 51
90.0
  0
ARC
  5
3239
  8
52
 10
-360.551675
 20
283.322193
 30
0.0
 40
8.7
 50
180.0
 51
270.0
  0
ARC
  5
323A
  8
52
 10
-360.551675
 20
283.322193
 30
0.0
 40
4.3
 50
180.0
 51
270.0
  0
ARC
  5
323B
  8
51
 10
-360.551675
 20
265.822193
 30
0.0
 40
14.5
 50
0.534442
 51
90.0
  0
ARC
  5
323C
  8
52
 10
-360.551675
 20
265.822193
 30
0.0
 40
13.2
 50
360.0
 51
90.0
  0
ARC
  5
323D
  8
52
 10
-343.051675
 20
265.822193
 30
0.0
 40
4.3
 50
180.0
 51
270.0
  0
ARC
  5
323E
  8
51
 10
-343.253054
 20
266.022174
 30
0.0
 40
2.8
 50
180.0
 51
270.0
  0
ARC
  5
323F
  8
51
 10
-360.551675
 20
283.122193
 30
0.0
 40
2.8
 50
180.0
 51
270.0
  0
LINE
  5
3240
  8
62
 10
121.938198
 20
517.39187
 30
0.0
 11
339.776826
 21
517.39187
 31
0.0
  0
ARC
  5
3241
  8
62
 10
103.740425
 20
520.222193
 30
0.0
 40
18.0
 50
280.020436
 51
349.629223
  0
LINE
  5
3242
  8
21
 10
114.669415
 20
607.994054
 30
0.0
 11
356.05302
 21
607.994054
 31
0.0
  0
LINE
  5
3243
  8
21
 10
114.669415
 20
578.494054
 30
0.0
 11
368.931923
 21
578.494054
 31
0.0
  0
LINE
  5
3244
  8
21
 10
105.533049
 20
584.994054
 30
0.0
 11
356.347801
 21
584.994054
 31
0.0
  0
LINE
  5
3245
  8
22
 10
345.971267
 20
588.039663
 30
0.0
 11
115.909584
 21
588.039663
 31
0.0
  0
LINE
  5
3246
  8
22
 10
115.78762
 20
602.015337
 30
0.0
 11
346.093231
 21
602.015337
 31
0.0
  0
LINE
  5
3247
  8
63
  6
DASHDOT
 10
377.170731
 20
393.022193
 30
0.0
 11
82.411273
 21
393.022193
 31
0.0
  0
ARC
  5
3248
  8
62
 10
103.740425
 20
265.822193
 30
0.0
 40
18.0
 50
10.370777
 51
79.979564
  0
LINE
  5
3249
  8
61
 10
103.740425
 20
255.022193
 30
0.0
 11
358.140425
 21
255.022193
 31
0.0
  0
LINE
  5
324A
  8
62
 10
113.396438
 20
260.984692
 30
0.0
 11
348.484413
 21
260.984692
 31
0.0
  0
LINE
  5
324B
  8
61
 10
115.450994
 20
262.654739
 30
0.0
 11
346.42986
 21
262.654739
 31
0.0
  0
LINE
  5
324C
  8
62
 10
121.938198
 20
268.652516
 30
0.0
 11
339.90516
 21
268.652516
 31
0.0
  0
LINE
  5
324D
  8
62
 10
106.459415
 20
283.99703
 30
0.0
 11
106.459415
 21
502.004397
 31
0.0
  0
LINE
  5
324E
  8
62
 10
355.421436
 20
283.99703
 30
0.0
 11
355.421436
 21
502.004397
 31
0.0
  0
ARC
  5
324F
  8
62
 10
358.140425
 20
265.822193
 30
0.0
 40
18.0
 50
100.020436
 51
169.629223
  0
ARC
  5
3250
  8
62
 10
358.140425
 20
520.222193
 30
0.0
 40
18.0
 50
190.370777
 51
259.979564
  0
ARC
  5
3251
  8
61
 10
346.429857
 20
525.389647
 30
0.0
 40
2.0
 50
270.0
 51
336.189853
  0
ARC
  5
3252
  8
61
 10
363.386778
 20
508.546758
 30
0.0
 40
2.0
 50
114.196752
 51
180.0
  0
ARC
  5
3253
  8
61
 10
359.386778
 20
506.277782
 30
0.0
 40
2.0
 50
0.0
 51
95.107531
  0
ARC
  5
3254
  8
61
 10
344.189187
 20
521.389647
 30
0.0
 40
2.0
 50
355.216575
 51
90.0
  0
LINE
  5
3255
  8
61
 10
361.386778
 20
508.546758
 30
0.0
 11
361.386778
 21
277.497628
 31
0.0
  0
LINE
  5
3256
  8
62
 10
363.032805
 20
510.593869
 30
0.0
 11
363.032805
 21
275.450517
 31
0.0
  0
LINE
  5
3257
  8
61
 10
359.2048
 20
512.293315
 30
0.0
 11
350.211547
 21
521.286568
 31
0.0
  0
LINE
  5
3258
  8
61
 10
366.11041
 20
519.529842
 30
0.0
 11
357.448074
 21
528.192177
 31
0.0
  0
LINE
  5
3259
  8
61
 10
368.940425
 20
520.222193
 30
0.0
 11
368.940425
 21
265.822193
 31
0.0
  0
ARC
  5
325A
  8
61
 10
358.140425
 20
520.222193
 30
0.0
 40
10.8
 50
294.196752
 51
156.189853
  0
ARC
  5
325B
  8
61
 10
358.140425
 20
520.222193
 30
0.0
 40
12.0
 50
175.216575
 51
275.107531
  0
LINE
  5
325C
  8
61
 10
346.429857
 20
523.389647
 30
0.0
 11
344.653527
 21
523.389647
 31
0.0
  0
LINE
  5
325D
  8
53
  6
DASHDOT
 10
-88.100951
 20
393.022193
 30
0.0
 11
-382.006772
 21
393.022193
 31
0.0
  0
ARC
  5
325E
  8
21
 10
357.239862
 20
607.232826
 30
0.0
 40
22.256656
 50
239.582163
 51
267.702934
  0
LINE
  5
325F
  8
21
 10
346.097408
 20
602.494054
 30
0.0
 11
345.971267
 21
588.039663
 31
0.0
  0
ARC
  5
3260
  8
21
 10
340.118234
 20
601.994054
 30
0.0
 40
6.0
 50
5.0
 51
90.0
  0
LINE
  5
3261
  8
21
 10
346.097408
 20
602.494054
 30
0.0
 11
346.095402
 21
602.516988
 31
0.0
  0
LINE
  5
3262
  8
21
 10
348.101156
 20
577.994054
 30
0.0
 11
348.101156
 21
578.494054
 31
0.0
  0
ARC
  5
3263
  8
21
 10
356.05302
 20
601.994054
 30
0.0
 40
6.0
 50
5.0
 51
90.0
  0
LINE
  5
3264
  8
21
 10
362.032195
 20
602.494054
 30
0.0
 11
362.030188
 21
602.516988
 31
0.0
  0
LINE
  5
3266
  8
21
 10
368.94065
 20
577.994054
 30
0.0
 11
368.513001
 21
602.494054
 31
0.0
  0
LINE
  5
3267
  8
21
 10
368.513001
 20
602.494054
 30
0.0
 11
346.097408
 21
602.494054
 31
0.0
  0
LINE
  5
3268
  8
21
 10
368.94065
 20
577.994054
 30
0.0
 11
348.101156
 21
577.994054
 31
0.0
  0
LINE
  5
3269
  8
52
 10
-98.18169
 20
266.514545
 30
0.0
 11
-106.844026
 21
257.852209
 31
0.0
  0
ARC
  5
326A
  8
52
 10
-106.151675
 20
265.822193
 30
0.0
 40
8.0
 50
187.645696
 51
265.035187
  0
ARC
  5
326B
  8
52
 10
-106.151675
 20
265.822193
 30
0.0
 40
8.0
 50
4.964813
 51
82.354304
  0
LINE
  5
326C
  8
52
 10
-105.0873
 20
273.751071
 30
0.0
 11
-114.080553
 21
264.757818
 31
0.0
  0
ARC
  5
326D
  8
51
 10
-106.151675
 20
265.822193
 30
0.0
 40
10.8
 50
203.289549
 51
66.710451
  0
ARC
  5
326E
  8
51
 10
-106.151675
 20
265.822193
 30
0.0
 40
14.5
 50
90.0
 51
179.465558
  0
ARC
  5
326F
  8
52
 10
-106.151675
 20
265.822193
 30
0.0
 40
13.2
 50
90.0
 51
180.0
  0
ARC
  5
3270
  8
52
 10
-106.151675
 20
265.822193
 30
0.0
 40
8.8
 50
90.0
 51
180.0
  0
ARC
  5
3271
  8
51
 10
-106.151675
 20
283.122193
 30
0.0
 40
2.8
 50
270.0
 51
0.0
  0
ARC
  5
3272
  8
51
 10
-123.450296
 20
266.022174
 30
0.0
 40
2.8
 50
270.0
 51
0.0
  0
ARC
  5
3273
  8
52
 10
-123.651675
 20
265.822193
 30
0.0
 40
4.3
 50
270.0
 51
0.0
  0
ARC
  5
3274
  8
52
 10
-106.151675
 20
283.322193
 30
0.0
 40
4.3
 50
270.0
 51
0.0
  0
ARC
  5
3275
  8
52
 10
-123.651675
 20
265.822193
 30
0.0
 40
8.7
 50
270.0
 51
0.0
  0
ARC
  5
3276
  8
52
 10
-106.151675
 20
283.322193
 30
0.0
 40
8.7
 50
270.0
 51
0.0
  0
ARC
  5
3277
  8
52
 10
-106.151675
 20
502.722193
 30
0.0
 40
8.7
 50
360.0
 51
90.0
  0
ARC
  5
3278
  8
52
 10
-123.651675
 20
520.222193
 30
0.0
 40
8.7
 50
360.0
 51
90.0
  0
ARC
  5
3279
  8
52
 10
-106.151675
 20
502.722193
 30
0.0
 40
4.3
 50
0.0
 51
90.0
  0
ARC
  5
327A
  8
52
 10
-123.651675
 20
520.222193
 30
0.0
 40
4.3
 50
360.0
 51
90.0
  0
ARC
  5
327B
  8
51
 10
-123.451675
 20
520.222193
 30
0.0
 40
2.8
 50
360.0
 51
90.0
  0
ARC
  5
327C
  8
51
 10
-106.151675
 20
502.922193
 30
0.0
 40
2.8
 50
0.0
 51
90.0
  0
ARC
  5
327D
  8
52
 10
-106.151675
 20
520.222193
 30
0.0
 40
8.8
 50
180.0
 51
270.0
  0
ARC
  5
327E
  8
52
 10
-106.151675
 20
520.222193
 30
0.0
 40
13.2
 50
180.0
 51
270.0
  0
ARC
  5
327F
  8
51
 10
-106.151675
 20
520.222193
 30
0.0
 40
14.5
 50
180.0
 51
270.0
  0
LINE
  5
3280
  8
52
 10
-123.651675
 20
528.922193
 30
0.0
 11
-188.351675
 21
528.922193
 31
0.0
  0
LINE
  5
3281
  8
52
 10
-97.451675
 20
502.722193
 30
0.0
 11
-97.451675
 21
283.122193
 31
0.0
  0
LINE
  5
3282
  8
52
 10
-123.651675
 20
524.522193
 30
0.0
 11
-188.351675
 21
524.522193
 31
0.0
  0
LINE
  5
3283
  8
52
 10
-101.851675
 20
502.722193
 30
0.0
 11
-101.851675
 21
283.322193
 31
0.0
  0
LINE
  5
3284
  8
51
 10
-103.351675
 20
502.922193
 30
0.0
 11
-103.351675
 21
283.122184
 31
0.0
  0
LINE
  5
3285
  8
51
 10
-123.451675
 20
523.022193
 30
0.0
 11
-188.351675
 21
523.022193
 31
0.0
  0
ARC
  5
3286
  8
51
 10
-106.151675
 20
520.222193
 30
0.0
 40
10.8
 50
293.289549
 51
156.710451
  0
LINE
  5
3287
  8
51
 10
-106.151675
 20
531.022193
 30
0.0
 11
-188.351675
 21
531.022193
 31
0.0
  0
LINE
  5
3288
  8
51
 10
-95.351675
 20
520.222193
 30
0.0
 11
-95.351675
 21
265.822199
 31
0.0
  0
LINE
  5
3289
  8
52
 10
-105.0873
 20
512.293315
 30
0.0
 11
-114.080553
 21
521.286568
 31
0.0
  0
ARC
  5
328A
  8
52
 10
-106.151675
 20
520.222193
 30
0.0
 40
8.0
 50
277.645696
 51
355.035187
  0
ARC
  5
328B
  8
52
 10
-106.151675
 20
520.222193
 30
0.0
 40
8.0
 50
94.964813
 51
172.354304
  0
LINE
  5
328C
  8
52
 10
-98.18169
 20
519.529842
 30
0.0
 11
-106.844026
 21
528.192177
 31
0.0
  0
LINE
  5
328D
  8
51
 10
-343.251675
 20
263.222193
 30
0.0
 11
-233.351675
 21
263.222193
 31
0.0
  0
LINE
  5
328E
  8
52
 10
-343.251675
 20
261.526847
 30
0.0
 11
-123.451675
 21
261.526847
 31
0.0
  0
LINE
  5
328F
  8
52
 10
-343.251675
 20
257.124492
 30
0.0
 11
-123.451675
 21
257.124492
 31
0.0
  0
LINE
  5
3290
  8
51
 10
-360.551675
 20
255.022193
 30
0.0
 11
-106.151675
 21
255.022193
 31
0.0
  0
LINE
  5
3291
  8
33
  6
DASHDOT
 10
485.368391
 20
393.022193
 30
0.0
 11
416.144898
 21
393.022193
 31
0.0
  0
LINE
  5
3292
  8
31
 10
434.755956
 20
255.021696
 30
0.0
 11
434.755956
 21
531.02269
 31
0.0
  0
LINE
  5
3293
  8
34
 10
461.931601
 20
502.633522
 30
0.0
 11
461.852862
 21
393.022193
 31
0.0
  0
ARC
  5
3294
  8
34
 10
458.934725
 20
502.496638
 30
0.0
 40
3.0
 50
357.226485
 51
90.067002
  0
LINE
  5
3295
  8
34
 10
434.755956
 20
505.498072
 30
0.0
 11
458.577302
 21
505.498072
 31
0.0
  0
LINE
  5
3296
  8
34
 10
434.755956
 20
280.546315
 30
0.0
 11
458.774289
 21
280.546315
 31
0.0
  0
LINE
  5
3297
  8
31
 10
440.079909
 20
255.114626
 30
0.0
 11
458.755956
 21
255.440617
 31
0.0
  0
LINE
  5
3298
  8
31
 10
458.755956
 20
262.571424
 30
0.0
 11
458.755956
 21
255.440617
 31
0.0
  0
CIRCLE
  5
3299
  8
61
 10
358.140425
 20
520.222193
 30
0.0
 40
8.0
  0
ARC
  5
329A
  8
61
 10
358.140425
 20
520.222193
 30
0.0
 40
10.0
 50
187.519679
 51
262.493404
  0
LINE
  5
329B
  8
61
 10
350.901149
 20
524.580562
 30
0.0
 11
348.539862
 21
520.490693
 31
0.0
  0
LINE
  5
329C
  8
61
 10
362.434235
 20
512.94444
 30
0.0
 11
358.410623
 21
510.621406
 31
0.0
  0
ARC
  5
329D
  8
61
 10
358.140425
 20
520.222193
 30
0.0
 40
8.45
 50
299.459771
 51
148.950175
  0
LINE
  5
329E
  8
61
 10
351.286673
 20
524.348459
 30
0.0
 11
349.007299
 21
520.400468
 31
0.0
  0
LINE
  5
329F
  8
61
 10
362.21292
 20
513.336255
 30
0.0
 11
358.320259
 21
511.088827
 31
0.0
  0
ARC
  5
32A0
  8
61
 10
358.140425
 20
520.222193
 30
0.0
 40
9.55
 50
188.743877
 51
261.268945
  0
ARC
  5
32A1
  8
61
 10
351.172362
 20
519.150468
 30
0.0
 40
2.5
 50
150.0
 51
188.743877
  0
ARC
  5
32A2
  8
61
 10
357.070259
 20
513.25389
 30
0.0
 40
2.5
 50
261.268945
 51
300.0
  0
ARC
  5
32A3
  8
61
 10
350.704925
 20
519.240693
 30
0.0
 40
2.5
 50
150.0
 51
187.519679
  0
ARC
  5
32A4
  8
61
 10
357.160623
 20
512.786469
 30
0.0
 40
2.5
 50
262.493404
 51
300.0
  0
ARC
  5
32A5
  8
61
 10
104.720228
 20
512.786469
 30
0.0
 40
2.5
 50
240.0
 51
277.506596
  0
ARC
  5
32A6
  8
61
 10
111.175925
 20
519.240693
 30
0.0
 40
2.5
 50
352.480321
 51
30.0
  0
ARC
  5
32A7
  8
61
 10
104.810591
 20
513.25389
 30
0.0
 40
2.5
 50
240.0
 51
278.731055
  0
ARC
  5
32A8
  8
61
 10
110.708489
 20
519.150468
 30
0.0
 40
2.5
 50
351.256123
 51
30.0
  0
ARC
  5
32A9
  8
61
 10
103.740425
 20
520.222193
 30
0.0
 40
9.55
 50
278.731055
 51
351.256123
  0
LINE
  5
32AA
  8
61
 10
99.667931
 20
513.336255
 30
0.0
 11
103.560591
 21
511.088827
 31
0.0
  0
LINE
  5
32AB
  8
61
 10
110.594178
 20
524.348459
 30
0.0
 11
112.873552
 21
520.400468
 31
0.0
  0
ARC
  5
32AC
  8
61
 10
103.740425
 20
520.222193
 30
0.0
 40
8.45
 50
31.049825
 51
240.540229
  0
LINE
  5
32AD
  8
61
 10
99.446615
 20
512.94444
 30
0.0
 11
103.470228
 21
510.621406
 31
0.0
  0
LINE
  5
32AE
  8
61
 10
110.979702
 20
524.580562
 30
0.0
 11
113.340989
 21
520.490693
 31
0.0
  0
ARC
  5
32AF
  8
61
 10
103.740425
 20
520.222193
 30
0.0
 40
10.0
 50
277.506596
 51
352.480321
  0
CIRCLE
  5
32B0
  8
61
 10
103.740425
 20
520.222193
 30
0.0
 40
8.0
  0
LINE
  5
32B1
  8
61
 10
115.450994
 20
523.389647
 30
0.0
 11
117.227323
 21
523.389647
 31
0.0
  0
ARC
  5
32B2
  8
61
 10
103.740425
 20
520.222193
 30
0.0
 40
12.0
 50
264.892469
 51
4.783425
  0
ARC
  5
32B3
  8
61
 10
103.740425
 20
520.222193
 30
0.0
 40
10.8
 50
23.810147
 51
245.803248
  0
LINE
  5
32B4
  8
61
 10
95.770441
 20
519.529842
 30
0.0
 11
104.432777
 21
528.192177
 31
0.0
  0
LINE
  5
32B5
  8
61
 10
102.67605
 20
512.293315
 30
0.0
 11
111.669303
 21
521.286568
 31
0.0
  0
ARC
  5
32B6
  8
61
 10
117.691664
 20
521.389647
 30
0.0
 40
2.0
 50
90.0
 51
184.783425
  0
ARC
  5
32B7
  8
61
 10
102.494072
 20
506.277782
 30
0.0
 40
2.0
 50
84.892469
 51
180.0
  0
ARC
  5
32B8
  8
61
 10
98.494072
 20
508.546758
 30
0.0
 40
2.0
 50
0.0
 51
65.803248
  0
ARC
  5
32B9
  8
61
 10
115.450994
 20
525.389647
 30
0.0
 40
2.0
 50
203.810147
 51
270.0
  0
ARC
  5
32BA
  8
61
 10
115.450994
 20
260.654739
 30
0.0
 40
2.0
 50
90.0
 51
156.189853
  0
ARC
  5
32BB
  8
61
 10
98.494072
 20
277.497628
 30
0.0
 40
2.0
 50
294.196752
 51
0.0
  0
ARC
  5
32BC
  8
61
 10
102.494072
 20
279.766604
 30
0.0
 40
2.0
 50
180.0
 51
275.107531
  0
ARC
  5
32BD
  8
61
 10
117.691664
 20
264.654739
 30
0.0
 40
2.0
 50
175.216575
 51
270.0
  0
LINE
  5
32BE
  8
61
 10
102.67605
 20
273.751071
 30
0.0
 11
111.669303
 21
264.757818
 31
0.0
  0
LINE
  5
32BF
  8
61
 10
95.770441
 20
266.514545
 30
0.0
 11
104.432777
 21
257.852209
 31
0.0
  0
ARC
  5
32C0
  8
61
 10
103.740425
 20
265.822193
 30
0.0
 40
10.8
 50
114.196752
 51
336.189853
  0
ARC
  5
32C1
  8
61
 10
103.740425
 20
265.822193
 30
0.0
 40
12.0
 50
355.216575
 51
95.107531
  0
LINE
  5
32C2
  8
61
 10
115.450994
 20
262.654739
 30
0.0
 11
117.227323
 21
262.654739
 31
0.0
  0
CIRCLE
  5
32C3
  8
61
 10
103.740425
 20
265.822193
 30
0.0
 40
8.0
  0
ARC
  5
32C4
  8
61
 10
103.740425
 20
265.822193
 30
0.0
 40
10.0
 50
7.519679
 51
82.493404
  0
LINE
  5
32C5
  8
61
 10
110.979702
 20
261.463824
 30
0.0
 11
113.340989
 21
265.553693
 31
0.0
  0
LINE
  5
32C6
  8
61
 10
99.446615
 20
273.099947
 30
0.0
 11
103.470228
 21
275.42298
 31
0.0
  0
ARC
  5
32C7
  8
61
 10
103.740425
 20
265.822193
 30
0.0
 40
8.45
 50
119.459771
 51
328.950175
  0
LINE
  5
32C8
  8
61
 10
110.594178
 20
261.695927
 30
0.0
 11
112.873552
 21
265.643918
 31
0.0
  0
LINE
  5
32C9
  8
61
 10
99.667931
 20
272.708131
 30
0.0
 11
103.560591
 21
274.95556
 31
0.0
  0
ARC
  5
32CA
  8
61
 10
103.740425
 20
265.822193
 30
0.0
 40
9.55
 50
8.743877
 51
81.268945
  0
ARC
  5
32CB
  8
61
 10
110.708489
 20
266.893918
 30
0.0
 40
2.5
 50
330.0
 51
8.743877
  0
ARC
  5
32CC
  8
61
 10
104.810591
 20
272.790496
 30
0.0
 40
2.5
 50
81.268945
 51
120.0
  0
ARC
  5
32CD
  8
61
 10
111.175925
 20
266.803693
 30
0.0
 40
2.5
 50
330.0
 51
7.519679
  0
ARC
  5
32CE
  8
61
 10
104.720228
 20
273.257917
 30
0.0
 40
2.5
 50
82.493404
 51
120.0
  0
ARC
  5
32CF
  8
61
 10
357.160623
 20
273.257917
 30
0.0
 40
2.5
 50
60.0
 51
97.506596
  0
ARC
  5
32D0
  8
61
 10
350.704925
 20
266.803693
 30
0.0
 40
2.5
 50
172.480321
 51
210.0
  0
ARC
  5
32D1
  8
61
 10
357.070259
 20
272.790496
 30
0.0
 40
2.5
 50
60.0
 51
98.731055
  0
ARC
  5
32D2
  8
61
 10
351.172362
 20
266.893918
 30
0.0
 40
2.5
 50
171.256123
 51
210.0
  0
ARC
  5
32D3
  8
61
 10
358.140425
 20
265.822193
 30
0.0
 40
9.55
 50
98.731055
 51
171.256123
  0
LINE
  5
32D4
  8
61
 10
362.21292
 20
272.708131
 30
0.0
 11
358.320259
 21
274.95556
 31
0.0
  0
LINE
  5
32D5
  8
61
 10
351.286673
 20
261.695927
 30
0.0
 11
349.007299
 21
265.643918
 31
0.0
  0
ARC
  5
32D6
  8
61
 10
358.140425
 20
265.822193
 30
0.0
 40
8.45
 50
211.049825
 51
60.540229
  0
LINE
  5
32D7
  8
61
 10
362.434235
 20
273.099947
 30
0.0
 11
358.410623
 21
275.42298
 31
0.0
  0
LINE
  5
32D8
  8
61
 10
350.901149
 20
261.463824
 30
0.0
 11
348.539862
 21
265.553693
 31
0.0
  0
ARC
  5
32D9
  8
61
 10
358.140425
 20
265.822193
 30
0.0
 40
10.0
 50
97.506596
 51
172.480321
  0
CIRCLE
  5
32DA
  8
61
 10
358.140425
 20
265.822193
 30
0.0
 40
8.0
  0
LINE
  5
32DB
  8
61
 10
346.429857
 20
262.654739
 30
0.0
 11
344.653527
 21
262.654739
 31
0.0
  0
ARC
  5
32DC
  8
61
 10
358.140425
 20
265.822193
 30
0.0
 40
12.0
 50
84.892469
 51
184.783425
  0
ARC
  5
32DD
  8
61
 10
358.140425
 20
265.822193
 30
0.0
 40
10.8
 50
203.810147
 51
65.803248
  0
LINE
  5
32DE
  8
61
 10
366.11041
 20
266.514545
 30
0.0
 11
357.448074
 21
257.852209
 31
0.0
  0
LINE
  5
32DF
  8
61
 10
359.2048
 20
273.751071
 30
0.0
 11
350.211547
 21
264.757818
 31
0.0
  0
ARC
  5
32E0
  8
61
 10
344.189187
 20
264.654739
 30
0.0
 40
2.0
 50
270.0
 51
4.783425
  0
ARC
  5
32E1
  8
61
 10
359.386778
 20
279.766604
 30
0.0
 40
2.0
 50
264.892469
 51
0.0
  0
ARC
  5
32E2
  8
61
 10
363.386778
 20
277.497628
 30
0.0
 40
2.0
 50
180.0
 51
245.803248
  0
ARC
  5
32E3
  8
61
 10
346.429857
 20
260.654739
 30
0.0
 40
2.0
 50
23.810147
 51
90.0
  0
LINE
  5
32E4
  8
31
 10
464.255956
 20
518.143788
 30
0.0
 11
464.255956
 21
393.022193
 31
0.0
  0
ARC
  5
32E7
  8
51
 10
-305.916129
 20
-243.505084
 30
0.0
 40
507.032791
 50
95.059524
 51
95.059524
  0
LINE
  5
32E8
  8
51
 10
-233.351675
 20
263.222193
 30
0.0
 11
-123.451675
 21
263.222193
 31
0.0
  0
LINE
  5
32E9
  8
31
 10
464.255956
 20
393.022193
 30
0.0
 11
464.255956
 21
267.900599
 31
0.0
  0
LINE
  5
32EA
  8
34
 10
461.852862
 20
393.022193
 30
0.0
 11
461.774287
 21
283.542659
 31
0.0
  0
LINE
  5
32EB
  8
31
 10
434.755956
 20
255.021696
 30
0.0
 11
440.079903
 21
255.114626
 31
0.0
  0
LINE
  5
32EC
  8
63
  6
DASHDOT
 10
230.940425
 20
247.352411
 30
0.0
 11
230.940425
 21
545.450934
 31
0.0
  0
LINE
  5
32F1
  8
53
  6
DASHDOT
 10
-233.351675
 20
478.770274
 30
0.0
 11
-233.351675
 21
236.848268
 31
0.0
  0
ARC
  5
32F2
  8
21
 10
107.081432
 20
601.880854
 30
0.0
 40
6.16611
 50
97.51126
 51
174.078475
  0
LINE
  5
32F3
  8
24
 10
230.940425
 20
605.494054
 30
0.0
 11
122.14564
 21
605.494054
 31
0.0
  0
LINE
  5
32F4
  8
21
 10
114.669415
 20
607.994054
 30
0.0
 11
106.275392
 21
607.994054
 31
0.0
  0
LINE
  5
32F5
  8
21
 10
92.940425
 20
578.494054
 30
0.0
 11
93.033395
 21
583.820293
 31
0.0
  0
LINE
  5
32F6
  8
21
 10
100.940425
 20
578.494054
 30
0.0
 11
113.771191
 21
578.494054
 31
0.0
  0
LINE
  5
32F7
  8
21
 10
95.034523
 20
578.494054
 30
0.0
 11
92.940425
 21
578.494054
 31
0.0
  0
LINE
  5
32F8
  8
21
 10
100.940425
 20
578.494054
 30
0.0
 11
99.423569
 21
578.494054
 31
0.0
  0
LINE
  5
32F9
  8
21
 10
99.423569
 20
578.494054
 30
0.0
 11
95.034523
 21
578.494054
 31
0.0
  0
LINE
  5
32FA
  8
21
 10
93.033355
 20
583.818006
 30
0.0
 11
93.055059
 21
585.061389
 31
0.0
  0
LINE
  5
32FB
  8
21
 10
113.771191
 20
577.994054
 30
0.0
 11
113.771191
 21
578.494054
 31
0.0
  0
LINE
  5
32FC
  8
21
 10
92.931698
 20
577.994054
 30
0.0
 11
92.940425
 21
578.494054
 31
0.0
  0
LINE
  5
32FD
  8
21
 10
113.771191
 20
577.994054
 30
0.0
 11
92.931698
 21
577.994054
 31
0.0
  0
LINE
  5
32FE
  8
21
 10
113.771191
 20
578.494054
 30
0.0
 11
114.669415
 21
578.494054
 31
0.0
  0
LINE
  5
32FF
  8
21
 10
93.055059
 20
585.061389
 30
0.0
 11
93.359347
 21
602.494054
 31
0.0
  0
TEXT
  5
3300
  8
0
  6
CONTINUOUS
 10
330.76571
 20
977.068835
 30
0.0
 40
2.5
  1
  
 50
21.66214
  0
ARC
  5
3301
  8
34
 10
458.774289
 20
283.546315
 30
0.0
 40
3.0
 50
270.0
 51
359.930179
  0
LINE
  5
3302
  8
31
 10
434.255956
 20
255.012968
 30
0.0
 11
434.255956
 21
275.852462
 31
0.0
  0
LINE
  5
3303
  8
31
 10
458.755956
 20
255.440617
 30
0.0
 11
458.755956
 21
277.85621
 31
0.0
  0
LINE
  5
3304
  8
31
 10
434.255956
 20
255.012968
 30
0.0
 11
458.755956
 21
255.440617
 31
0.0
  0
LINE
  5
3305
  8
31
 10
458.755956
 20
261.921424
 30
0.0
 11
458.778891
 21
261.92343
 31
0.0
  0
ARC
  5
3306
  8
31
 10
458.255956
 20
267.900599
 30
0.0
 40
6.0
 50
275.0
 51
0.0
  0
LINE
  5
3307
  8
31
 10
434.255956
 20
275.852462
 30
0.0
 11
434.755956
 21
275.852462
 31
0.0
  0
LINE
  5
3308
  8
31
 10
458.755956
 20
277.85621
 30
0.0
 11
458.778891
 21
277.858217
 31
0.0
  0
ARC
  5
3309
  8
31
 10
458.255956
 20
283.835385
 30
0.0
 40
6.0
 50
275.0
 51
0.0
  0
LINE
  5
330A
  8
31
 10
458.755956
 20
277.85621
 30
0.0
 11
444.301565
 21
277.982352
 31
0.0
  0
ARC
  5
330B
  8
31
 10
463.494729
 20
266.713756
 30
0.0
 40
22.256656
 50
149.582163
 51
177.702934
  0
LINE
  5
330C
  8
32
 10
444.301565
 20
277.982352
 30
0.0
 11
444.301565
 21
393.022193
 31
0.0
  0
LINE
  5
330D
  8
32
 10
458.27724
 20
393.022193
 30
0.0
 11
458.27724
 21
277.860388
 31
0.0
  0
LINE
  5
330E
  8
31
 10
441.255956
 20
267.605817
 30
0.0
 11
441.255956
 21
393.0
 31
0.0
  0
ARC
  5
330F
  8
31
 10
462.386795
 20
519.314535
 30
0.0
 40
21.148987
 50
182.3738
 51
211.225396
  0
LINE
  5
3310
  8
31
 10
458.755956
 20
508.188176
 30
0.0
 11
444.301565
 21
508.350771
 31
0.0
  0
LINE
  5
3311
  8
31
 10
458.755956
 20
508.188176
 30
0.0
 11
458.778891
 21
508.18617
 31
0.0
  0
LINE
  5
3312
  8
31
 10
434.255956
 20
510.191924
 30
0.0
 11
434.755956
 21
510.191924
 31
0.0
  0
ARC
  5
3313
  8
31
 10
458.255956
 20
518.143788
 30
0.0
 40
6.0
 50
0.0
 51
85.0
  0
LINE
  5
3314
  8
31
 10
458.755956
 20
524.122963
 30
0.0
 11
458.778891
 21
524.120956
 31
0.0
  0
LINE
  5
3315
  8
31
 10
434.255956
 20
531.031418
 30
0.0
 11
458.755956
 21
530.603769
 31
0.0
  0
LINE
  5
3316
  8
31
 10
458.755956
 20
530.603769
 30
0.0
 11
458.755956
 21
508.188176
 31
0.0
  0
LINE
  5
3317
  8
31
 10
434.255956
 20
531.031418
 30
0.0
 11
434.255956
 21
510.191924
 31
0.0
  0
LINE
  5
3318
  8
31
 10
434.755956
 20
531.02269
 30
0.0
 11
440.079903
 21
530.929761
 31
0.0
  0
LINE
  5
3319
  8
31
 10
458.755956
 20
523.472963
 30
0.0
 11
458.755956
 21
530.603769
 31
0.0
  0
LINE
  5
331A
  8
31
 10
440.079909
 20
530.92976
 30
0.0
 11
458.755956
 21
530.603769
 31
0.0
  0
ARC
  5
331B
  8
31
 10
458.255956
 20
502.209002
 30
0.0
 40
6.0
 50
0.0
 51
85.0
  0
LINE
  5
331C
  8
32
 10
444.301565
 20
508.350771
 30
0.0
 11
444.301565
 21
393.022193
 31
0.0
  0
LINE
  5
331D
  8
31
 10
441.255956
 20
518.438569
 30
0.0
 11
441.255956
 21
393.044386
 31
0.0
  0
LINE
  5
331E
  8
32
 10
458.27724
 20
393.022193
 30
0.0
 11
458.27724
 21
508.183999
 31
0.0
  0
LINE
  5
331F
  8
24
 10
118.440425
 20
578.494054
 30
0.0
 11
118.645773
 21
602.024597
 31
0.0
  0
LINE
  5
3320
  8
23
  6
DASHDOT
 10
230.940425
 20
573.494054
 30
0.0
 11
230.940425
 21
615.148242
 31
0.0
  0
ARC
  5
3321
  8
24
 10
122.14564
 20
601.994054
 30
0.0
 40
3.5
 50
90.0
 51
179.5
  0
LINE
  5
3322
  8
24
 10
343.440425
 20
578.494054
 30
0.0
 11
343.235077
 21
602.024597
 31
0.0
  0
ARC
  5
3323
  8
24
 10
339.735211
 20
601.994054
 30
0.0
 40
3.5
 50
0.5
 51
90.0
  0
LINE
  5
3324
  8
24
 10
230.940425
 20
605.494054
 30
0.0
 11
339.735211
 21
605.494054
 31
0.0
  0
LINE
  5
3325
  8
21
 10
115.783442
 20
602.494054
 30
0.0
 11
115.909584
 21
588.039663
 31
0.0
  0
ARC
  5
3326
  8
21
 10
104.640989
 20
607.232826
 30
0.0
 40
22.256656
 50
272.297066
 51
300.417837
  0
ARC
  5
3327
  8
21
 10
121.762617
 20
601.994054
 30
0.0
 40
6.0
 50
90.0
 51
175.0
  0
LINE
  5
3328
  8
21
 10
93.36785
 20
602.494054
 30
0.0
 11
115.783442
 21
602.494054
 31
0.0
  0
LINE
  5
3329
  8
11
 10
93.36785
 20
183.550332
 30
0.0
 11
115.783442
 21
183.550332
 31
0.0
  0
ARC
  5
332A
  8
11
 10
121.762617
 20
184.050332
 30
0.0
 40
6.0
 50
185.0
 51
270.0
  0
ARC
  5
332B
  8
11
 10
104.640989
 20
178.81156
 30
0.0
 40
22.256656
 50
59.582163
 51
87.702934
  0
LINE
  5
332C
  8
11
 10
115.783442
 20
183.550332
 30
0.0
 11
115.909584
 21
198.004724
 31
0.0
  0
LINE
  5
332D
  8
14
 10
230.940425
 20
180.550332
 30
0.0
 11
339.735211
 21
180.550332
 31
0.0
  0
ARC
  5
332E
  8
14
 10
339.735211
 20
184.050332
 30
0.0
 40
3.5
 50
270.0
 51
359.5
  0
LINE
  5
332F
  8
14
 10
343.440425
 20
207.550332
 30
0.0
 11
343.235077
 21
184.01979
 31
0.0
  0
ARC
  5
3330
  8
14
 10
122.14564
 20
184.050332
 30
0.0
 40
3.5
 50
180.5
 51
270.0
  0
LINE
  5
3332
  8
14
 10
118.440425
 20
207.550332
 30
0.0
 11
118.645773
 21
184.01979
 31
0.0
  0
LINE
  5
3333
  8
11
 10
92.940425
 20
207.550332
 30
0.0
 11
93.359347
 21
183.550332
 31
0.0
  0
LINE
  5
3334
  8
11
 10
113.771191
 20
207.550332
 30
0.0
 11
114.669415
 21
207.550332
 31
0.0
  0
LINE
  5
3335
  8
11
 10
113.771191
 20
208.050332
 30
0.0
 11
92.931698
 21
208.050332
 31
0.0
  0
LINE
  5
3336
  8
11
 10
92.931698
 20
208.050332
 30
0.0
 11
92.940425
 21
207.550332
 31
0.0
  0
LINE
  5
3337
  8
11
 10
113.771191
 20
208.050332
 30
0.0
 11
113.771191
 21
207.550332
 31
0.0
  0
LINE
  5
3339
  8
11
 10
99.423569
 20
207.550332
 30
0.0
 11
95.034523
 21
207.550332
 31
0.0
  0
LINE
  5
333A
  8
11
 10
100.940425
 20
207.550332
 30
0.0
 11
99.423569
 21
207.550332
 31
0.0
  0
LINE
  5
333B
  8
11
 10
95.034523
 20
207.550332
 30
0.0
 11
92.940425
 21
207.550332
 31
0.0
  0
LINE
  5
333C
  8
11
 10
100.940425
 20
207.550332
 30
0.0
 11
113.771191
 21
207.550332
 31
0.0
  0
LINE
  5
333E
  8
11
 10
114.669415
 20
178.050332
 30
0.0
 11
106.275392
 21
178.050332
 31
0.0
  0
LINE
  5
333F
  8
14
 10
230.940425
 20
180.550332
 30
0.0
 11
122.14564
 21
180.550332
 31
0.0
  0
ARC
  5
3340
  8
11
 10
107.081432
 20
184.163532
 30
0.0
 40
6.16611
 50
185.921525
 51
262.48874
  0
LINE
  5
3343
  8
11
 10
368.94065
 20
208.050332
 30
0.0
 11
348.101156
 21
208.050332
 31
0.0
  0
LINE
  5
3344
  8
11
 10
368.513001
 20
183.550332
 30
0.0
 11
346.097408
 21
183.550332
 31
0.0
  0
LINE
  5
3345
  8
11
 10
368.94065
 20
208.050332
 30
0.0
 11
368.513001
 21
183.550332
 31
0.0
  0
LINE
  5
3347
  8
11
 10
362.032195
 20
183.550332
 30
0.0
 11
362.030188
 21
183.527398
 31
0.0
  0
ARC
  5
3348
  8
11
 10
356.05302
 20
184.050332
 30
0.0
 40
6.0
 50
270.0
 51
355.0
  0
LINE
  5
3349
  8
11
 10
348.101156
 20
208.050332
 30
0.0
 11
348.101156
 21
207.550332
 31
0.0
  0
LINE
  5
334A
  8
11
 10
346.097408
 20
183.550332
 30
0.0
 11
346.095402
 21
183.527398
 31
0.0
  0
ARC
  5
334B
  8
11
 10
340.118234
 20
184.050332
 30
0.0
 40
6.0
 50
270.0
 51
355.0
  0
LINE
  5
334C
  8
11
 10
346.097408
 20
183.550332
 30
0.0
 11
345.971267
 21
198.004724
 31
0.0
  0
ARC
  5
334D
  8
11
 10
357.239862
 20
178.81156
 30
0.0
 40
22.256656
 50
92.297066
 51
120.417837
  0
LINE
  5
334E
  8
12
 10
115.78762
 20
184.029049
 30
0.0
 11
346.093231
 21
184.029049
 31
0.0
  0
LINE
  5
334F
  8
12
 10
345.971267
 20
198.004724
 30
0.0
 11
115.909584
 21
198.004724
 31
0.0
  0
LINE
  5
3350
  8
11
 10
105.533049
 20
201.050332
 30
0.0
 11
356.347801
 21
201.050332
 31
0.0
  0
LINE
  5
3351
  8
11
 10
114.669415
 20
207.550332
 30
0.0
 11
368.931923
 21
207.550332
 31
0.0
  0
LINE
  5
3352
  8
11
 10
114.669415
 20
178.050332
 30
0.0
 11
356.05302
 21
178.050332
 31
0.0
  0
LINE
  5
3353
  8
42
 10
3.603611
 20
393.022193
 30
0.0
 11
3.603611
 21
508.183999
 31
0.0
  0
LINE
  5
3354
  8
41
 10
20.624894
 20
530.915603
 30
0.0
 11
20.624894
 21
530.909233
 31
0.0
  0
LINE
  5
3355
  8
42
 10
17.579285
 20
508.350771
 30
0.0
 11
17.579285
 21
393.022193
 31
0.0
  0
ARC
  5
3356
  8
41
 10
3.624894
 20
502.209002
 30
0.0
 40
6.0
 50
95.0
 51
180.0
  0
LINE
  5
3357
  8
41
 10
21.800942
 20
530.92976
 30
0.0
 11
3.124894
 21
530.603769
 31
0.0
  0
LINE
  5
3358
  8
41
 10
3.124894
 20
523.472963
 30
0.0
 11
3.124894
 21
530.603769
 31
0.0
  0
LINE
  5
3359
  8
41
 10
27.124894
 20
531.02269
 30
0.0
 11
21.800947
 21
530.929761
 31
0.0
  0
LINE
  5
335A
  8
41
 10
27.624894
 20
531.031418
 30
0.0
 11
27.624894
 21
510.191924
 31
0.0
  0
LINE
  5
335B
  8
41
 10
3.124894
 20
530.603769
 30
0.0
 11
3.124894
 21
508.188176
 31
0.0
  0
LINE
  5
335C
  8
41
 10
27.624894
 20
531.031418
 30
0.0
 11
3.124894
 21
530.603769
 31
0.0
  0
LINE
  5
335D
  8
41
 10
3.124894
 20
524.122963
 30
0.0
 11
3.10196
 21
524.120956
 31
0.0
  0
ARC
  5
335E
  8
41
 10
3.624894
 20
518.143788
 30
0.0
 40
6.0
 50
95.0
 51
180.0
  0
LINE
  5
335F
  8
41
 10
27.624894
 20
510.191924
 30
0.0
 11
27.124894
 21
510.191924
 31
0.0
  0
LINE
  5
3360
  8
41
 10
3.124894
 20
508.188176
 30
0.0
 11
3.10196
 21
508.18617
 31
0.0
  0
LINE
  5
3361
  8
41
 10
3.124894
 20
508.188176
 30
0.0
 11
17.579285
 21
508.350771
 31
0.0
  0
ARC
  5
3362
  8
41
 10
-0.505944
 20
519.314535
 30
0.0
 40
21.148987
 50
328.774604
 51
357.6262
  0
LINE
  5
3363
  8
41
 10
20.624894
 20
255.128783
 30
0.0
 11
20.624894
 21
255.135154
 31
0.0
  0
LINE
  5
3364
  8
42
 10
3.603611
 20
393.022193
 30
0.0
 11
3.603611
 21
277.860388
 31
0.0
  0
LINE
  5
3365
  8
42
 10
17.579285
 20
277.982352
 30
0.0
 11
17.579285
 21
393.022193
 31
0.0
  0
ARC
  5
3366
  8
41
 10
-1.613878
 20
266.713756
 30
0.0
 40
22.256656
 50
2.297066
 51
30.417837
  0
LINE
  5
3367
  8
41
 10
3.124894
 20
277.85621
 30
0.0
 11
17.579285
 21
277.982352
 31
0.0
  0
ARC
  5
3368
  8
41
 10
3.624894
 20
283.835385
 30
0.0
 40
6.0
 50
180.0
 51
265.0
  0
LINE
  5
3369
  8
41
 10
3.124894
 20
277.85621
 30
0.0
 11
3.10196
 21
277.858217
 31
0.0
  0
LINE
  5
336A
  8
41
 10
27.624894
 20
275.852462
 30
0.0
 11
27.124894
 21
275.852462
 31
0.0
  0
ARC
  5
336B
  8
41
 10
3.624894
 20
267.900599
 30
0.0
 40
6.0
 50
180.0
 51
265.0
  0
LINE
  5
336C
  8
41
 10
3.124894
 20
261.921424
 30
0.0
 11
3.10196
 21
261.92343
 31
0.0
  0
LINE
  5
336D
  8
41
 10
27.624894
 20
255.012968
 30
0.0
 11
3.124894
 21
255.440617
 31
0.0
  0
LINE
  5
336E
  8
41
 10
3.124894
 20
255.440617
 30
0.0
 11
3.124894
 21
277.85621
 31
0.0
  0
LINE
  5
336F
  8
41
 10
27.624894
 20
255.012968
 30
0.0
 11
27.624894
 21
275.852462
 31
0.0
  0
ARC
  5
3370
  8
44
 10
3.106561
 20
283.546315
 30
0.0
 40
3.0
 50
180.069821
 51
270.0
  0
LINE
  5
3371
  8
41
 10
27.124894
 20
255.021696
 30
0.0
 11
21.800947
 21
255.114626
 31
0.0
  0
LINE
  5
3372
  8
44
 10
0.027988
 20
393.022193
 30
0.0
 11
0.106564
 21
283.542659
 31
0.0
  0
LINE
  5
3373
  8
41
 10
-2.375106
 20
393.022193
 30
0.0
 11
-2.375106
 21
267.900599
 31
0.0
  0
LINE
  5
3374
  8
41
 10
-2.375106
 20
518.143788
 30
0.0
 11
-2.375106
 21
393.022193
 31
0.0
  0
LINE
  5
3375
  8
41
 10
3.124894
 20
262.571424
 30
0.0
 11
3.124894
 21
255.440617
 31
0.0
  0
LINE
  5
3376
  8
41
 10
21.800942
 20
255.114626
 30
0.0
 11
3.124894
 21
255.440617
 31
0.0
  0
LINE
  5
3377
  8
44
 10
27.124894
 20
280.546315
 30
0.0
 11
3.106561
 21
280.546315
 31
0.0
  0
LINE
  5
3378
  8
44
 10
27.124894
 20
505.498072
 30
0.0
 11
3.303549
 21
505.498072
 31
0.0
  0
ARC
  5
3379
  8
44
 10
2.946125
 20
502.496638
 30
0.0
 40
3.0
 50
89.932998
 51
182.773515
  0
LINE
  5
337A
  8
44
 10
-0.05075
 20
502.633522
 30
0.0
 11
0.027988
 21
393.022193
 31
0.0
  0
LINE
  5
337B
  8
41
 10
27.124894
 20
255.021696
 30
0.0
 11
27.124894
 21
531.02269
 31
0.0
  0
LINE
  5
337C
  8
43
  6
DASHDOT
 10
-23.487541
 20
393.022193
 30
0.0
 11
45.735953
 21
393.022193
 31
0.0
  0
TEXT
  5
337D
  8
L20
 10
-205.421928
 20
589.966734
 30
0.0
 40
10.5
  1
FIBOX EK-O 30 COVER
  0
LINE
  5
337E
  8
13
  6
DASHDOT
 10
230.940425
 20
214.0
 30
0.0
 11
230.940425
 21
170.0
 31
0.0
  0
LINE
  5
3915
  8
41
 10
20.624894
 20
518.438569
 30
0.0
 11
20.624894
 21
393.044386
 31
0.0
  0
LINE
  5
3916
  8
41
 10
20.624894
 20
267.605817
 30
0.0
 11
20.624894
 21
393.0
 31
0.0
  0
VIEWPORT
  5
1
 67
     1
  8
0
 10
210.0
 20
152.094241
 30
0.0
 40
420.0
 41
304.188482
 68
    -1
 69
     1
1001
ACAD
1000
MVIEW
1002
{
1070
    16
1010
0.0
1020
0.0
1030
0.0
1010
0.0
1020
0.0
1030
1.0
1040
0.0
1040
304.188482
1040
210.0
1040
152.094241
1040
50.0
1040
0.0
1040
0.0
1070
     0
1070
   100
1070
     1
1070
     1
1070
     1
1070
     0
1070
     0
1070
     0
1040
0.0
1040
0.0
1040
0.0
1040
1.0
1040
1.0
1040
0.0
1040
0.0
1070
     0
1002
{
1002
}
1002
}
  0
ENDSEC
  0
EOF
