  0
SECTION
  2
HEADER
  9
$ACADVER
  1
AC1009
  9
$INSBASE
 10
0.0
 20
0.0
 30
0.0
  9
$EXTMIN
 10
-530.271496
 20
89.242145
 30
0.0
  9
$EXTMAX
 10
531.195811
 20
790.597271
 30
0.0
  9
$LIMMIN
 10
0.0
 20
0.0
  9
$LIMMAX
 10
420.0
 20
297.0
  9
$ORTHOMODE
 70
     0
  9
$REGENMODE
 70
     1
  9
$FILLMODE
 70
     1
  9
$QTEXTMODE
 70
     0
  9
$MIRRTEXT
 70
     1
  9
$DRAGMODE
 70
     2
  9
$LTSCALE
 40
7.0
  9
$OSMODE
 70
     0
  9
$ATTMODE
 70
     1
  9
$TEXTSIZE
 40
3.5
  9
$TRACEWID
 40
0.05
  9
$TEXTSTYLE
  7
STANDARD
  9
$CLAYER
  8
1
  9
$CELTYPE
  6
BYLAYER
  9
$CECOLOR
 62
   256
  9
$DIMSCALE
 40
1.0
  9
$DIMASZ
 40
3.5
  9
$DIMEXO
 40
0.0
  9
$DIMDLI
 40
10.0
  9
$DIMRND
 40
0.0
  9
$DIMDLE
 40
0.0
  9
$DIMEXE
 40
2.0
  9
$DIMTP
 40
0.0
  9
$DIMTM
 40
0.0
  9
$DIMTXT
 40
3.5
  9
$DIMCEN
 40
2.5
  9
$DIMTSZ
 40
0.0
  9
$DIMTOL
 70
     0
  9
$DIMLIM
 70
     0
  9
$DIMTIH
 70
     0
  9
$DIMTOH
 70
     0
  9
$DIMSE1
 70
     0
  9
$DIMSE2
 70
     0
  9
$DIMTAD
 70
     1
  9
$DIMZIN
 70
     8
  9
$DIMBLK
  1

  9
$DIMASO
 70
     1
  9
$DIMSHO
 70
     1
  9
$DIMPOST
  1

  9
$DIMAPOST
  1

  9
$DIMALT
 70
     0
  9
$DIMALTD
 70
     2
  9
$DIMALTF
 40
25.4
  9
$DIMLFAC
 40
1.0
  9
$DIMTOFL
 70
     1
  9
$DIMTVP
 40
0.0
  9
$DIMTIX
 70
     0
  9
$DIMSOXD
 70
     0
  9
$DIMSAH
 70
     0
  9
$DIMBLK1
  1

  9
$DIMBLK2
  1

  9
$DIMSTYLE
  2
ACADUS
  9
$DIMCLRD
 70
   256
  9
$DIMCLRE
 70
   256
  9
$DIMCLRT
 70
     3
  9
$DIMTFAC
 40
1.0
  9
$DIMGAP
 40
2.0
  9
$LUNITS
 70
     2
  9
$LUPREC
 70
     1
  9
$SKETCHINC
 40
1.0
  9
$FILLETRAD
 40
0.0
  9
$AUNITS
 70
     0
  9
$AUPREC
 70
     2
  9
$MENU
  1
CAESAR
  9
$ELEVATION
 40
0.0
  9
$PELEVATION
 40
0.0
  9
$THICKNESS
 40
0.0
  9
$LIMCHECK
 70
     0
  9
$BLIPMODE
 70
     1
  9
$CHAMFERA
 40
5.0
  9
$CHAMFERB
 40
5.0
  9
$SKPOLY
 70
     0
  9
$TDCREATE
 40
2449496.463647
  9
$TDUPDATE
 40
2453059.652954
  9
$TDINDWG
 40
0.000039
  9
$TDUSRTIMER
 40
0.000039
  9
$USRTIMER
 70
     1
  9
$ANGBASE
 50
0.0
  9
$ANGDIR
 70
     0
  9
$PDMODE
 70
     0
  9
$PDSIZE
 40
0.0
  9
$PLINEWID
 40
0.0
  9
$COORDS
 70
     2
  9
$SPLFRAME
 70
     0
  9
$SPLINETYPE
 70
     6
  9
$SPLINESEGS
 70
     8
  9
$ATTDIA
 70
     0
  9
$ATTREQ
 70
     1
  9
$HANDLING
 70
     1
  9
$HANDSEED
  5
2A4FE
  9
$SURFTAB1
 70
     6
  9
$SURFTAB2
 70
     6
  9
$SURFTYPE
 70
     6
  9
$SURFU
 70
     6
  9
$SURFV
 70
     6
  9
$UCSNAME
  2

  9
$UCSORG
 10
0.0
 20
0.0
 30
0.0
  9
$UCSXDIR
 10
1.0
 20
0.0
 30
0.0
  9
$UCSYDIR
 10
0.0
 20
1.0
 30
0.0
  9
$PUCSNAME
  2

  9
$PUCSORG
 10
0.0
 20
0.0
 30
0.0
  9
$PUCSXDIR
 10
1.0
 20
0.0
 30
0.0
  9
$PUCSYDIR
 10
0.0
 20
1.0
 30
0.0
  9
$USERI1
 70
     0
  9
$USERI2
 70
     0
  9
$USERI3
 70
     0
  9
$USERI4
 70
     0
  9
$USERI5
 70
     0
  9
$USERR1
 40
1.0
  9
$USERR2
 40
0.0
  9
$USERR3
 40
3.5
  9
$USERR4
 40
0.0
  9
$USERR5
 40
0.0
  9
$WORLDVIEW
 70
     1
  9
$SHADEDGE
 70
     3
  9
$SHADEDIF
 70
    70
  9
$TILEMODE
 70
     1
  9
$MAXACTVP
 70
    16
  9
$PLIMCHECK
 70
     0
  9
$PEXTMIN
 10
1.000000E+020
 20
1.000000E+020
 30
1.000000E+020
  9
$PEXTMAX
 10
-1.000000E+020
 20
-1.000000E+020
 30
-1.000000E+020
  9
$PLIMMIN
 10
0.0
 20
0.0
  9
$PLIMMAX
 10
420.0
 20
297.0
  9
$UNITMODE
 70
     0
  9
$VISRETAIN
 70
     0
  9
$PLINEGEN
 70
     0
  9
$PSLTSCALE
 70
     0
  0
ENDSEC
  0
SECTION
  2
TABLES
  0
TABLE
  2
VPORT
 70
     2
  0
VPORT
  2
*ACTIVE
 70
     0
 10
0.0
 20
0.0
 11
1.0
 21
1.0
 12
0.46216
 22
439.903639
 13
0.0
 23
0.0
 14
1.0
 24
1.0
 15
10.0
 25
10.0
 16
0.0
 26
0.0
 36
1.0
 17
0.0
 27
0.0
 37
0.0
 40
708.654411
 41
1.616838
 42
50.0
 43
0.0
 44
0.0
 50
0.0
 51
0.0
 71
     0
 72
   100
 73
     1
 74
     1
 75
     0
 76
     0
 77
     0
 78
     0
  0
ENDTAB
  0
TABLE
  2
LTYPE
 70
    10
  0
LTYPE
  2
CONTINUOUS
 70
     0
  3
Solid line
 72
    65
 73
     0
 40
0.0
  0
LTYPE
  2
BORDER
 70
     0
  3
__ __ . __ __ . __ __ . __ __ . __ __ . __ __ .
 72
    65
 73
     6
 40
1.75
 49
0.5
 49
-0.25
 49
0.5
 49
-0.25
 49
0.0
 49
-0.25
  0
LTYPE
  2
CENTER
 70
     0
  3
____ _ ____ _ ____ _ ____ _ ____ _ ____ _ ____ 
 72
    65
 73
     4
 40
2.0
 49
1.25
 49
-0.25
 49
0.25
 49
-0.25
  0
LTYPE
  2
DASHDOT
 70
     0
  3
__ . __ . __ . __ . __ . __ . __ . __ . __ . __
 72
    65
 73
     4
 40
1.0
 49
0.5
 49
-0.25
 49
0.0
 49
-0.25
  0
LTYPE
  2
DASHED
 70
     0
  3
__ __ __ __ __ __ __ __ __ __ __ __ __ __ __ __
 72
    65
 73
     2
 40
0.75
 49
0.5
 49
-0.25
  0
LTYPE
  2
DIVIDE
 70
     0
  3
____ . . ____ . . ____ . . ____ . . ____ . . __
 72
    65
 73
     6
 40
1.25
 49
0.5
 49
-0.25
 49
0.0
 49
-0.25
 49
0.0
 49
-0.25
  0
LTYPE
  2
DOT
 70
     0
  3
. . . . . . . . . . . . . . . . . . . . . . . .
 72
    65
 73
     2
 40
0.25
 49
0.0
 49
-0.25
  0
LTYPE
  2
HIDDEN
 70
     0
  3
__ __ __ __ __ __ __ __ __ __ __ __ __ __ __ __
 72
    65
 73
     2
 40
0.375
 49
0.25
 49
-0.125
  0
LTYPE
  2
PHANTOM
 70
     0
  3
______  __  __  ______  __  __  ______  __  __ 
 72
    65
 73
     6
 40
2.5
 49
1.25
 49
-0.25
 49
0.25
 49
-0.25
 49
0.25
 49
-0.25
  0
LTYPE
  2
DOTX2
 70
     0
  3
.  .  .  .  .  .  .  .  .  .  .  .  .  .  .  . 
 72
    65
 73
     2
 40
0.5
 49
0.0
 49
-0.5
  0
ENDTAB
  0
TABLE
  2
LAYER
 70
   109
  0
LAYER
  2
0
 70
     0
 62
     7
  6
CONTINUOUS
  0
LAYER
  2
L1
 70
     0
 62
     7
  6
CONTINUOUS
  0
LAYER
  2
L2
 70
     0
 62
     1
  6
CONTINUOUS
  0
LAYER
  2
L3
 70
     0
 62
     7
  6
DASHED
  0
LAYER
  2
L4
 70
     0
 62
     1
  6
DASHED
  0
LAYER
  2
L5
 70
     0
 62
     7
  6
CENTER
  0
LAYER
  2
L6
 70
     0
 62
     1
  6
CENTER
  0
LAYER
  2
L7
 70
     0
 62
     1
  6
PHANTOM
  0
LAYER
  2
VPORT
 70
     0
 62
     7
  6
CONTINUOUS
  0
LAYER
  2
L8
 70
     0
 62
     1
  6
CONTINUOUS
  0
LAYER
  2
L20
 70
     0
 62
     3
  6
CONTINUOUS
  0
LAYER
  2
L21
 70
     0
 62
     1
  6
CONTINUOUS
  0
LAYER
  2
L22
 70
     0
 62
     1
  6
CONTINUOUS
  0
LAYER
  2
L23
 70
     0
 62
     1
  6
CONTINUOUS
  0
LAYER
  2
L30
 70
     0
 62
     3
  6
CONTINUOUS
  0
LAYER
  2
L31
 70
     0
 62
     1
  6
CONTINUOUS
  0
LAYER
  2
L32
 70
     0
 62
     3
  6
CONTINUOUS
  0
LAYER
  2
L33
 70
     0
 62
     1
  6
CONTINUOUS
  0
LAYER
  2
L34
 70
     0
 62
     1
  6
DASHED
  0
LAYER
  2
L35
 70
     0
 62
     1
  6
CONTINUOUS
  0
LAYER
  2
L40
 70
     0
 62
     7
  6
CONTINUOUS
  0
LAYER
  2
L41
 70
     0
 62
     1
  6
CONTINUOUS
  0
LAYER
  2
L42
 70
     0
 62
     1
  6
CONTINUOUS
  0
LAYER
  2
L43
 70
     0
 62
     7
  6
CONTINUOUS
  0
LAYER
  2
L44
 70
     0
 62
     1
  6
DASHED
  0
LAYER
  2
L45
 70
     0
 62
     1
  6
CONTINUOUS
  0
LAYER
  2
L46
 70
     0
 62
     3
  6
CONTINUOUS
  0
LAYER
  2
L50
 70
     0
 62
     7
  6
CONTINUOUS
  0
LAYER
  2
L51
 70
     0
 62
     1
  6
CONTINUOUS
  0
LAYER
  2
L52
 70
     0
 62
     7
  6
CONTINUOUS
  0
LAYER
  2
L53
 70
     0
 62
     1
  6
CONTINUOUS
  0
LAYER
  2
L54
 70
     0
 62
     1
  6
DASHED
  0
LAYER
  2
L55
 70
     0
 62
     3
  6
CONTINUOUS
  0
LAYER
  2
L56
 70
     0
 62
     3
  6
CONTINUOUS
  0
LAYER
  2
L57
 70
     0
 62
     1
  6
CONTINUOUS
  0
LAYER
  2
L9
 70
     0
 62
     7
  6
HIDDEN
  0
LAYER
  2
L15
 70
     0
 62
     2
  6
CONTINUOUS
  0
LAYER
  2
L16
 70
     0
 62
     5
  6
DOTX2
  0
LAYER
  2
L24
 70
     0
 62
     1
  6
DASHED
  0
LAYER
  2
L36
 70
     0
 62
     7
  6
CONTINUOUS
  0
LAYER
  2
L37
 70
     0
 62
     1
  6
CONTINUOUS
  0
LAYER
  2
L38
 70
     0
 62
     1
  6
CENTER
  0
LAYER
  2
L58
 70
     0
 62
     1
  6
CONTINUOUS
  0
LAYER
  2
A1
 70
     0
 62
     6
  6
CONTINUOUS
  0
LAYER
  2
A2
 70
     0
 62
     5
  6
CONTINUOUS
  0
LAYER
  2
A3
 70
     0
 62
     4
  6
CONTINUOUS
  0
LAYER
  2
A4
 70
     0
 62
     1
  6
DASHED
  0
LAYER
  2
A5
 70
     0
 62
     2
  6
CONTINUOUS
  0
LAYER
  2
A6
 70
     0
 62
     8
  6
CONTINUOUS
  0
LAYER
  2
DEFPOINTS
 70
     0
 62
    -7
  6
CONTINUOUS
  0
LAYER
  2
RA1
 70
     0
 62
     1
  6
CONTINUOUS
  0
LAYER
  2
TITEL
 70
     0
 62
     7
  6
CONTINUOUS
  0
LAYER
  2
TITEL1
 70
     0
 62
     1
  6
CONTINUOUS
  0
LAYER
  2
RA4
 70
     0
 62
     1
  6
DASHED
  0
LAYER
  2
L54-1
 70
     0
 62
     3
  6
CONTINUOUS
  0
LAYER
  2
L54-2
 70
     0
 62
     3
  6
CONTINUOUS
  0
LAYER
  2
L54-3
 70
     0
 62
     3
  6
CONTINUOUS
  0
LAYER
  2
L54-4
 70
     0
 62
     1
  6
DASHED
  0
LAYER
  2
L54-5
 70
     0
 62
     3
  6
CONTINUOUS
  0
LAYER
  2
RA2
 70
     0
 62
     5
  6
CONTINUOUS
  0
LAYER
  2
CAM-A1
 70
     0
 62
     7
  6
CONTINUOUS
  0
LAYER
  2
CAM-A2
 70
     0
 62
     1
  6
CONTINUOUS
  0
LAYER
  2
CAM-A3
 70
     0
 62
     1
  6
DASHED
  0
LAYER
  2
CAM-B1
 70
     0
 62
     7
  6
CONTINUOUS
  0
LAYER
  2
CAM-B2
 70
     0
 62
     1
  6
CONTINUOUS
  0
LAYER
  2
CAM-B3
 70
     0
 62
     1
  6
DASHED
  0
LAYER
  2
CAM-C1
 70
     0
 62
     7
  6
CONTINUOUS
  0
LAYER
  2
CAM-C2
 70
     0
 62
     1
  6
CONTINUOUS
  0
LAYER
  2
CAM-C3
 70
     0
 62
     1
  6
DASHED
  0
LAYER
  2
CAM-D1
 70
     0
 62
     7
  6
CONTINUOUS
  0
LAYER
  2
CAM-D2
 70
     0
 62
     1
  6
CONTINUOUS
  0
LAYER
  2
CAM-D3
 70
     0
 62
     1
  6
DASHED
  0
LAYER
  2
CAM-E1
 70
     0
 62
     7
  6
CONTINUOUS
  0
LAYER
  2
CAM-E2
 70
     0
 62
     1
  6
CONTINUOUS
  0
LAYER
  2
CAM-E3
 70
     0
 62
     1
  6
DASHED
  0
LAYER
  2
CAM-F1
 70
     0
 62
     7
  6
CONTINUOUS
  0
LAYER
  2
CAM-F2
 70
     0
 62
     1
  6
CONTINUOUS
  0
LAYER
  2
CAM-F3
 70
     0
 62
     1
  6
DASHED
  0
LAYER
  2
1
 70
     0
 62
     7
  6
CONTINUOUS
  0
LAYER
  2
11
 70
     0
 62
     7
  6
CONTINUOUS
  0
LAYER
  2
12
 70
     0
 62
     1
  6
CONTINUOUS
  0
LAYER
  2
13
 70
     0
 62
     1
  6
CENTER
  0
LAYER
  2
14
 70
     0
 62
     1
  6
DASHED
  0
LAYER
  2
15
 70
     0
 62
     2
  6
DASHED
  0
LAYER
  2
21
 70
     0
 62
     7
  6
CONTINUOUS
  0
LAYER
  2
22
 70
     0
 62
     1
  6
CONTINUOUS
  0
LAYER
  2
23
 70
     0
 62
     1
  6
CENTER
  0
LAYER
  2
24
 70
     0
 62
     1
  6
DASHED
  0
LAYER
  2
25
 70
     0
 62
     2
  6
DASHED
  0
LAYER
  2
31
 70
     0
 62
     7
  6
CONTINUOUS
  0
LAYER
  2
32
 70
     0
 62
     1
  6
CONTINUOUS
  0
LAYER
  2
33
 70
     0
 62
     1
  6
CENTER
  0
LAYER
  2
34
 70
     0
 62
     1
  6
DASHED
  0
LAYER
  2
35
 70
     0
 62
     2
  6
DASHED
  0
LAYER
  2
41
 70
     0
 62
     7
  6
CONTINUOUS
  0
LAYER
  2
42
 70
     0
 62
     1
  6
CONTINUOUS
  0
LAYER
  2
43
 70
     0
 62
     1
  6
CENTER
  0
LAYER
  2
44
 70
     0
 62
     1
  6
DASHED
  0
LAYER
  2
45
 70
     0
 62
     2
  6
DASHED
  0
LAYER
  2
51
 70
     0
 62
     7
  6
CONTINUOUS
  0
LAYER
  2
52
 70
     0
 62
     1
  6
CONTINUOUS
  0
LAYER
  2
53
 70
     0
 62
     1
  6
CENTER
  0
LAYER
  2
54
 70
     0
 62
     1
  6
DASHED
  0
LAYER
  2
55
 70
     0
 62
     2
  6
DASHED
  0
LAYER
  2
61
 70
     0
 62
     7
  6
CONTINUOUS
  0
LAYER
  2
62
 70
     0
 62
     1
  6
CONTINUOUS
  0
LAYER
  2
63
 70
     0
 62
     1
  6
CENTER
  0
LAYER
  2
64
 70
     0
 62
     1
  6
DASHED
  0
LAYER
  2
65
 70
     0
 62
     2
  6
DASHED
  0
ENDTAB
  0
TABLE
  2
STYLE
 70
     9
  0
STYLE
  2
STANDARD
 70
     0
 40
0.0
 41
1.0
 50
0.0
 71
     0
 42
3.5
  3
CAEISO
  4

  0
STYLE
  2
TXT
 70
     0
 40
0.0
 41
1.0
 50
0.0
 71
     0
 42
0.2
  3
ROMANS.SHX
  4

  0
STYLE
  2
USER
 70
     0
 40
0.0
 41
1.0
 50
0.0
 71
     0
 42
0.2
  3
KIRJAIN
  4

  0
STYLE
  2
SIMPLEX
 70
     0
 40
0.0
 41
0.8
 50
0.0
 71
     0
 42
2.5
  3
KIRJAIN
  4

  0
STYLE
  2
COMPLEX
 70
     0
 40
0.0
 41
1.0
 50
0.0
 71
     0
 42
0.2
  3
COMPLEX
  4

  0
STYLE
  2
ITALIC
 70
     0
 40
0.0
 41
1.0
 50
0.0
 71
     0
 42
0.2
  3
ITALIC
  4

  0
STYLE
  2
MONO
 70
     0
 40
0.0
 41
1.0
 50
0.0
 71
     0
 42
9.5
  3
MONOTXT
  4

  0
STYLE
  2
TKKISO
 70
     0
 40
0.0
 41
1.0
 50
0.0
 71
     0
 42
2.5
  3
CAEISO
  4

  0
STYLE
  2
CAEISO
 70
     0
 40
0.0
 41
1.0
 50
0.0
 71
     0
 42
1.0
  3
CAEISO
  4

  0
ENDTAB
  0
TABLE
  2
VIEW
 70
     0
  0
ENDTAB
  0
TABLE
  2
UCS
 70
     0
  0
ENDTAB
  0
TABLE
  2
APPID
 70
     1
  0
APPID
  2
ACAD
 70
     0
  0
ENDTAB
  0
TABLE
  2
DIMSTYLE
 70
     5
  0
DIMSTYLE
  2
ACADUS
 70
     0
  3

  4

  5

  6

  7

 40
1.0
 41
0.18
 42
0.0625
 43
0.38
 44
0.18
 45
0.0
 46
0.0
 47
0.0
 48
0.0
140
0.18
141
0.09
142
0.0
143
25.4
144
1.0
145
0.0
146
1.0
147
0.09
 71
     0
 72
     0
 73
     1
 74
     1
 75
     0
 76
     0
 77
     0
 78
     0
170
     0
171
     2
172
     0
173
     0
174
     0
175
     0
176
     0
177
     0
178
     0
  0
DIMSTYLE
  2
NORDIC
 70
     0
  3

  4

  5

  6

  7

 40
1.0
 41
3.5
 42
1.0
 43
10.0
 44
2.0
 45
0.0
 46
0.0
 47
0.0
 48
0.0
140
3.5
141
2.5
142
0.0
143
25.4
144
1.0
145
0.0
146
1.0
147
2.0
 71
     0
 72
     0
 73
     0
 74
     0
 75
     0
 76
     0
 77
     1
 78
     8
170
     0
171
     2
172
     1
173
     0
174
     0
175
     0
176
     0
177
     0
178
     0
  0
DIMSTYLE
  2
RADIAL
 70
     0
  3

  4

  5

  6

  7

 40
1.0
 41
3.5
 42
1.0
 43
10.0
 44
2.0
 45
0.0
 46
0.0
 47
0.0
 48
0.0
140
3.5
141
2.5
142
0.0
143
25.4
144
1.0
145
0.0
146
1.0
147
2.0
 71
     0
 72
     0
 73
     0
 74
     1
 75
     0
 76
     0
 77
     1
 78
     8
170
     0
171
     2
172
     0
173
     0
174
     0
175
     0
176
     0
177
     0
178
     0
  0
DIMSTYLE
  2
NORTOL
 70
     0
  3

  4

  5

  6

  7

 40
1.0
 41
3.5
 42
1.0
 43
10.0
 44
2.0
 45
0.0
 46
0.0
 47
0.2
 48
0.1
140
3.5
141
2.5
142
0.0
143
25.4
144
1.0
145
0.7
146
0.71
147
2.0
 71
     1
 72
     0
 73
     0
 74
     0
 75
     0
 76
     0
 77
     0
 78
     8
170
     0
171
     2
172
     1
173
     0
174
     0
175
     0
176
     0
177
     0
178
     0
  0
DIMSTYLE
  2
RADTOL
 70
     0
  3

  4

  5

  6

  7

 40
1.0
 41
3.5
 42
1.0
 43
10.0
 44
2.0
 45
0.0
 46
0.0
 47
0.2
 48
0.1
140
3.5
141
2.5
142
0.0
143
25.4
144
1.0
145
0.7
146
0.7
147
2.0
 71
     1
 72
     0
 73
     0
 74
     1
 75
     0
 76
     0
 77
     0
 78
     8
170
     0
171
     2
172
     0
173
     0
174
     0
175
     0
176
     0
177
     0
178
     0
  0
ENDTAB
  0
ENDSEC
  0
SECTION
  2
BLOCKS
  0
BLOCK
  8
0
  2
$MODEL_SPACE
 70
     0
 10
0.0
 20
0.0
 30
0.0
  3
$MODEL_SPACE
  1

  0
ENDBLK
  5
2A4EE
  8
0
  0
BLOCK
 67
     1
  8
0
  2
$PAPER_SPACE
 70
     0
 10
0.0
 20
0.0
 30
0.0
  3
$PAPER_SPACE
  1

  0
ENDBLK
  5
2A4EC
 67
     1
  8
0
  0
ENDSEC
  0
SECTION
  2
ENTITIES
  0
LINE
  5
29A6B
  8
61
 10
53.518248
 20
300.919708
 30
0.0
 11
180.518248
 21
300.919708
 31
0.0
  0
LINE
  5
29A6C
  8
61
 10
41.518248
 20
312.919708
 30
0.0
 11
41.518248
 21
439.919708
 31
0.0
  0
ARC
  5
29A6D
  8
61
 10
53.518248
 20
312.919708
 30
0.0
 40
12.0
 50
180.0
 51
270.0
  0
CIRCLE
  5
29A6E
  8
61
 10
53.518248
 20
312.919708
 30
0.0
 40
10.125
  0
CIRCLE
  5
29A6F
  8
61
 10
53.518248
 20
312.919708
 30
0.0
 40
6.75
  0
CIRCLE
  5
29A70
  8
61
 10
53.518248
 20
312.919708
 30
0.0
 40
3.5
  0
ARC
  5
29A71
  8
61
 10
53.518248
 20
312.919708
 30
0.0
 40
12.0
 50
0.0
 51
90.0
  0
LINE
  5
29A72
  8
61
 10
71.018248
 20
307.419708
 30
0.0
 11
180.518248
 21
307.419708
 31
0.0
  0
LINE
  5
29A73
  8
61
 10
71.143248
 20
305.419708
 30
0.0
 11
180.518248
 21
305.419708
 31
0.0
  0
LINE
  5
29A74
  8
61
 10
46.018248
 20
330.444708
 30
0.0
 11
46.018248
 21
439.919708
 31
0.0
  0
LINE
  5
29A75
  8
61
 10
48.018248
 20
330.319708
 30
0.0
 11
48.018248
 21
439.919708
 31
0.0
  0
LINE
  5
29A76
  8
61
 10
53.518248
 20
324.919708
 30
0.0
 11
53.418248
 21
324.919708
 31
0.0
  0
LINE
  5
29A77
  8
61
 10
53.518248
 20
323.044708
 30
0.0
 11
53.418248
 21
323.044708
 31
0.0
  0
LINE
  5
29A78
  8
61
 10
65.518248
 20
312.919708
 30
0.0
 11
65.518248
 21
312.819708
 31
0.0
  0
LINE
  5
29A79
  8
61
 10
63.643077
 20
312.978632
 30
0.0
 11
63.643077
 21
312.819708
 31
0.0
  0
ARC
  5
29A7A
  8
61
 10
53.418248
 20
330.319708
 30
0.0
 40
5.4
 50
180.0
 51
270.0
  0
ARC
  5
29A7B
  8
61
 10
53.418248
 20
330.444708
 30
0.0
 40
7.4
 50
180.0
 51
270.0
  0
ARC
  5
29A7C
  8
61
 10
118.018248
 20
327.419708
 30
0.0
 40
5.0
 50
8.626927
 51
171.373073
  0
CIRCLE
  5
29A7D
  8
61
 10
118.018248
 20
327.419708
 30
0.0
 40
2.4
  0
ARC
  5
29A7E
  8
61
 10
118.018248
 20
327.419708
 30
0.0
 40
5.0
 50
188.626927
 51
351.373073
  0
ARC
  5
29A7F
  8
61
 10
93.018248
 20
327.419708
 30
0.0
 40
5.0
 50
180.0
 51
351.373073
  0
CIRCLE
  5
29A80
  8
61
 10
93.018248
 20
327.419708
 30
0.0
 40
2.4
  0
LINE
  5
29A81
  8
61
 10
97.961678
 20
328.169708
 30
0.0
 11
113.074818
 21
328.169708
 31
0.0
  0
LINE
  5
29A82
  8
61
 10
97.961678
 20
326.669708
 30
0.0
 11
113.074818
 21
326.669708
 31
0.0
  0
ARC
  5
29A83
  8
61
 10
93.018248
 20
327.419708
 30
0.0
 40
5.0
 50
8.626927
 51
180.0
  0
LINE
  5
29A84
  8
61
 10
67.268248
 20
407.363138
 30
0.0
 11
67.268248
 21
422.476278
 31
0.0
  0
LINE
  5
29A85
  8
61
 10
68.768248
 20
407.363138
 30
0.0
 11
68.768248
 21
422.476278
 31
0.0
  0
ARC
  5
29A86
  8
61
 10
68.018248
 20
427.419708
 30
0.0
 40
5.0
 50
98.626927
 51
261.373073
  0
LINE
  5
29A87
  8
61
 10
68.768248
 20
432.363138
 30
0.0
 11
68.768248
 21
439.919708
 31
0.0
  0
LINE
  5
29A88
  8
61
 10
67.268248
 20
432.363138
 30
0.0
 11
67.268248
 21
439.919708
 31
0.0
  0
CIRCLE
  5
29A89
  8
61
 10
68.018248
 20
427.419708
 30
0.0
 40
2.4
  0
ARC
  5
29A8A
  8
61
 10
68.018248
 20
427.419708
 30
0.0
 40
5.0
 50
278.626927
 51
81.373073
  0
ARC
  5
29A8B
  8
61
 10
68.018248
 20
402.419708
 30
0.0
 40
5.0
 50
278.626927
 51
81.373073
  0
CIRCLE
  5
29A8C
  8
61
 10
68.018248
 20
402.419708
 30
0.0
 40
2.4
  0
ARC
  5
29A8D
  8
61
 10
68.018248
 20
402.419708
 30
0.0
 40
5.0
 50
98.626927
 51
261.373073
  0
ARC
  5
29A8E
  8
61
 10
68.018248
 20
477.419708
 30
0.0
 40
5.0
 50
98.626927
 51
261.373073
  0
CIRCLE
  5
29A8F
  8
61
 10
68.018248
 20
477.419708
 30
0.0
 40
2.4
  0
ARC
  5
29A90
  8
61
 10
68.018248
 20
477.419708
 30
0.0
 40
5.0
 50
278.626927
 51
81.373073
  0
ARC
  5
29A91
  8
61
 10
68.018248
 20
452.419708
 30
0.0
 40
5.0
 50
278.626927
 51
81.373073
  0
CIRCLE
  5
29A92
  8
61
 10
68.018248
 20
452.419708
 30
0.0
 40
2.4
  0
LINE
  5
29A93
  8
61
 10
67.268248
 20
447.476278
 30
0.0
 11
67.268248
 21
439.919708
 31
0.0
  0
LINE
  5
29A94
  8
61
 10
68.768248
 20
447.476278
 30
0.0
 11
68.768248
 21
439.919708
 31
0.0
  0
ARC
  5
29A95
  8
61
 10
68.018248
 20
452.419708
 30
0.0
 40
5.0
 50
98.626927
 51
261.373073
  0
LINE
  5
29A96
  8
61
 10
68.768248
 20
472.476278
 30
0.0
 11
68.768248
 21
457.363138
 31
0.0
  0
LINE
  5
29A97
  8
61
 10
67.268248
 20
472.476278
 30
0.0
 11
67.268248
 21
457.363138
 31
0.0
  0
ARC
  5
29A98
  8
61
 10
93.018248
 20
552.419708
 30
0.0
 40
5.0
 50
180.0
 51
351.373073
  0
LINE
  5
29A99
  8
61
 10
97.961678
 20
553.169708
 30
0.0
 11
113.074818
 21
553.169708
 31
0.0
  0
LINE
  5
29A9A
  8
61
 10
97.961678
 20
551.669708
 30
0.0
 11
113.074818
 21
551.669708
 31
0.0
  0
CIRCLE
  5
29A9B
  8
61
 10
93.018248
 20
552.419708
 30
0.0
 40
2.4
  0
ARC
  5
29A9C
  8
61
 10
93.018248
 20
552.419708
 30
0.0
 40
5.0
 50
8.626927
 51
180.0
  0
ARC
  5
29A9D
  8
61
 10
118.018248
 20
552.419708
 30
0.0
 40
5.0
 50
8.626927
 51
171.373073
  0
CIRCLE
  5
29A9E
  8
61
 10
118.018248
 20
552.419708
 30
0.0
 40
2.4
  0
ARC
  5
29A9F
  8
61
 10
118.018248
 20
552.419708
 30
0.0
 40
5.0
 50
188.626927
 51
351.373073
  0
ARC
  5
29AA0
  8
61
 10
53.418248
 20
549.394708
 30
0.0
 40
7.4
 50
90.0
 51
180.0
  0
ARC
  5
29AA1
  8
61
 10
71.043077
 20
567.019708
 30
0.0
 40
7.4
 50
90.0
 51
180.0
  0
ARC
  5
29AA2
  8
61
 10
53.418248
 20
549.519708
 30
0.0
 40
5.4
 50
90.0
 51
180.0
  0
ARC
  5
29AA3
  8
61
 10
70.918248
 20
567.019708
 30
0.0
 40
5.4
 50
90.0
 51
180.0
  0
LINE
  5
29AA4
  8
61
 10
63.643077
 20
566.860784
 30
0.0
 11
63.643077
 21
567.019708
 31
0.0
  0
LINE
  5
29AA5
  8
61
 10
65.518248
 20
566.919708
 30
0.0
 11
65.518248
 21
567.019708
 31
0.0
  0
LINE
  5
29AA6
  8
61
 10
53.518248
 20
556.794708
 30
0.0
 11
53.418248
 21
556.794708
 31
0.0
  0
LINE
  5
29AA7
  8
61
 10
53.518248
 20
554.919708
 30
0.0
 11
53.418248
 21
554.919708
 31
0.0
  0
LINE
  5
29AA8
  8
61
 10
48.018248
 20
549.519708
 30
0.0
 11
48.018248
 21
439.919708
 31
0.0
  0
LINE
  5
29AA9
  8
61
 10
46.018248
 20
549.394708
 30
0.0
 11
46.018248
 21
439.919708
 31
0.0
  0
LINE
  5
29AAA
  8
61
 10
71.043077
 20
574.419708
 30
0.0
 11
180.518248
 21
574.419708
 31
0.0
  0
LINE
  5
29AAB
  8
61
 10
70.918248
 20
572.419708
 30
0.0
 11
180.518248
 21
572.419708
 31
0.0
  0
ARC
  5
29AAC
  8
61
 10
53.518248
 20
566.919708
 30
0.0
 40
12.0
 50
270.0
 51
360.0
  0
CIRCLE
  5
29AAD
  8
61
 10
53.518248
 20
566.919708
 30
0.0
 40
3.5
  0
CIRCLE
  5
29AAE
  8
61
 10
53.518248
 20
566.919708
 30
0.0
 40
6.75
  0
CIRCLE
  5
29AAF
  8
61
 10
53.518248
 20
566.919708
 30
0.0
 40
10.125
  0
ARC
  5
29AB0
  8
61
 10
53.518248
 20
566.919708
 30
0.0
 40
12.0
 50
90.0
 51
180.0
  0
LINE
  5
29AB1
  8
61
 10
41.518248
 20
566.919708
 30
0.0
 11
41.518248
 21
439.919708
 31
0.0
  0
LINE
  5
29AB2
  8
61
 10
53.518248
 20
578.919708
 30
0.0
 11
180.518248
 21
578.919708
 31
0.0
  0
LINE
  5
29AB3
  8
61
 10
307.518248
 20
578.919708
 30
0.0
 11
180.518248
 21
578.919708
 31
0.0
  0
LINE
  5
29AB4
  8
61
 10
319.518248
 20
566.919708
 30
0.0
 11
319.518248
 21
439.919708
 31
0.0
  0
ARC
  5
29AB5
  8
61
 10
307.518248
 20
566.919708
 30
0.0
 40
12.0
 50
0.0
 51
90.0
  0
CIRCLE
  5
29AB6
  8
61
 10
307.518248
 20
566.919708
 30
0.0
 40
10.125
  0
CIRCLE
  5
29AB7
  8
61
 10
307.518248
 20
566.919708
 30
0.0
 40
6.75
  0
CIRCLE
  5
29AB8
  8
61
 10
307.518248
 20
566.919708
 30
0.0
 40
3.5
  0
ARC
  5
29AB9
  8
61
 10
307.518248
 20
566.919708
 30
0.0
 40
12.0
 50
180.0
 51
270.0
  0
LINE
  5
29ABA
  8
61
 10
290.118248
 20
572.419708
 30
0.0
 11
180.518248
 21
572.419708
 31
0.0
  0
LINE
  5
29ABB
  8
61
 10
289.99342
 20
574.419708
 30
0.0
 11
180.518248
 21
574.419708
 31
0.0
  0
LINE
  5
29ABC
  8
61
 10
315.018248
 20
549.394708
 30
0.0
 11
315.018248
 21
439.919708
 31
0.0
  0
LINE
  5
29ABD
  8
61
 10
313.018248
 20
549.519708
 30
0.0
 11
313.018248
 21
439.919708
 31
0.0
  0
LINE
  5
29ABE
  8
61
 10
307.518248
 20
554.919708
 30
0.0
 11
307.618248
 21
554.919708
 31
0.0
  0
LINE
  5
29ABF
  8
61
 10
307.518248
 20
556.794708
 30
0.0
 11
307.618248
 21
556.794708
 31
0.0
  0
LINE
  5
29AC0
  8
61
 10
295.518248
 20
566.919708
 30
0.0
 11
295.518248
 21
567.019708
 31
0.0
  0
LINE
  5
29AC1
  8
61
 10
297.39342
 20
566.860784
 30
0.0
 11
297.39342
 21
567.019708
 31
0.0
  0
ARC
  5
29AC2
  8
61
 10
290.118248
 20
567.019708
 30
0.0
 40
5.4
 50
0.0
 51
90.0
  0
ARC
  5
29AC3
  8
61
 10
307.618248
 20
549.519708
 30
0.0
 40
5.4
 50
0.0
 51
90.0
  0
ARC
  5
29AC4
  8
61
 10
289.99342
 20
567.019708
 30
0.0
 40
7.4
 50
0.0
 51
90.0
  0
ARC
  5
29AC5
  8
61
 10
307.618248
 20
549.394708
 30
0.0
 40
7.4
 50
0.0
 51
90.0
  0
ARC
  5
29AC6
  8
61
 10
243.018248
 20
552.419708
 30
0.0
 40
5.0
 50
188.626927
 51
351.373073
  0
LINE
  5
29AC7
  8
61
 10
238.074818
 20
553.169708
 30
0.0
 11
222.961678
 21
553.169708
 31
0.0
  0
LINE
  5
29AC8
  8
61
 10
238.074818
 20
551.669708
 30
0.0
 11
222.961678
 21
551.669708
 31
0.0
  0
CIRCLE
  5
29AC9
  8
61
 10
243.018248
 20
552.419708
 30
0.0
 40
2.4
  0
ARC
  5
29ACA
  8
61
 10
243.018248
 20
552.419708
 30
0.0
 40
5.0
 50
8.626927
 51
171.373073
  0
ARC
  5
29ACB
  8
61
 10
268.018248
 20
552.419708
 30
0.0
 40
5.0
 50
0.0
 51
171.373073
  0
CIRCLE
  5
29ACC
  8
61
 10
268.018248
 20
552.419708
 30
0.0
 40
2.4
  0
LINE
  5
29ACD
  8
61
 10
263.074818
 20
551.669708
 30
0.0
 11
247.961678
 21
551.669708
 31
0.0
  0
LINE
  5
29ACE
  8
61
 10
263.074818
 20
553.169708
 30
0.0
 11
247.961678
 21
553.169708
 31
0.0
  0
ARC
  5
29ACF
  8
61
 10
268.018248
 20
552.419708
 30
0.0
 40
5.0
 50
188.626927
 51
0.0
  0
ARC
  5
29AE4
  8
61
 10
268.018248
 20
327.419708
 30
0.0
 40
5.0
 50
360.0
 51
171.373073
  0
LINE
  5
29AE5
  8
61
 10
263.074818
 20
326.669708
 30
0.0
 11
247.961678
 21
326.669708
 31
0.0
  0
LINE
  5
29AE6
  8
61
 10
263.074818
 20
328.169708
 30
0.0
 11
247.961678
 21
328.169708
 31
0.0
  0
CIRCLE
  5
29AE7
  8
61
 10
268.018248
 20
327.419708
 30
0.0
 40
2.4
  0
ARC
  5
29AE8
  8
61
 10
268.018248
 20
327.419708
 30
0.0
 40
5.0
 50
188.626927
 51
360.0
  0
ARC
  5
29AE9
  8
61
 10
243.018248
 20
327.419708
 30
0.0
 40
5.0
 50
188.626927
 51
351.373073
  0
CIRCLE
  5
29AEA
  8
61
 10
243.018248
 20
327.419708
 30
0.0
 40
2.4
  0
ARC
  5
29AEB
  8
61
 10
243.018248
 20
327.419708
 30
0.0
 40
5.0
 50
8.626927
 51
171.373073
  0
ARC
  5
29AEC
  8
61
 10
307.618248
 20
330.444708
 30
0.0
 40
7.4
 50
270.0
 51
0.0
  0
ARC
  5
29AED
  8
61
 10
289.99342
 20
312.819708
 30
0.0
 40
7.4
 50
270.0
 51
0.0
  0
ARC
  5
29AEE
  8
61
 10
307.618248
 20
330.319708
 30
0.0
 40
5.4
 50
270.0
 51
0.0
  0
ARC
  5
29AEF
  8
61
 10
290.118248
 20
312.819708
 30
0.0
 40
5.4
 50
270.0
 51
360.0
  0
LINE
  5
29AF0
  8
61
 10
297.39342
 20
312.978632
 30
0.0
 11
297.39342
 21
312.819708
 31
0.0
  0
LINE
  5
29AF1
  8
61
 10
295.518248
 20
312.919708
 30
0.0
 11
295.518248
 21
312.819708
 31
0.0
  0
LINE
  5
29AF2
  8
61
 10
307.518248
 20
323.044708
 30
0.0
 11
307.618248
 21
323.044708
 31
0.0
  0
LINE
  5
29AF3
  8
61
 10
307.518248
 20
324.919708
 30
0.0
 11
307.618248
 21
324.919708
 31
0.0
  0
LINE
  5
29AF4
  8
61
 10
313.018248
 20
330.319708
 30
0.0
 11
313.018248
 21
439.919708
 31
0.0
  0
LINE
  5
29AF5
  8
61
 10
315.018248
 20
330.444708
 30
0.0
 11
315.018248
 21
439.919708
 31
0.0
  0
LINE
  5
29AF6
  8
61
 10
289.99342
 20
305.419708
 30
0.0
 11
180.518248
 21
305.419708
 31
0.0
  0
LINE
  5
29AF7
  8
61
 10
290.118248
 20
307.419708
 30
0.0
 11
180.518248
 21
307.419708
 31
0.0
  0
ARC
  5
29AF8
  8
61
 10
307.518248
 20
312.919708
 30
0.0
 40
12.0
 50
90.0
 51
180.0
  0
CIRCLE
  5
29AF9
  8
61
 10
307.518248
 20
312.919708
 30
0.0
 40
3.5
  0
CIRCLE
  5
29AFA
  8
61
 10
307.518248
 20
312.919708
 30
0.0
 40
6.75
  0
CIRCLE
  5
29AFB
  8
61
 10
307.518248
 20
312.919708
 30
0.0
 40
10.125
  0
ARC
  5
29AFC
  8
61
 10
307.518248
 20
312.919708
 30
0.0
 40
12.0
 50
270.0
 51
0.0
  0
LINE
  5
29AFD
  8
61
 10
319.518248
 20
312.919708
 30
0.0
 11
319.518248
 21
439.919708
 31
0.0
  0
LINE
  5
29AFE
  8
61
 10
307.518248
 20
300.919708
 30
0.0
 11
180.518248
 21
300.919708
 31
0.0
  0
LINE
  5
29B24
  8
61
 10
65.518248
 20
312.81971
 30
0.0
 11
65.53349
 21
312.36901
 31
0.0
  0
LINE
  5
29B2B
  8
62
 10
59.887804
 20
302.825927
 30
0.0
 11
59.887804
 21
302.825927
 31
0.0
  0
LINE
  5
29BA8
  8
63
 10
180.518248
 20
591.099658
 30
0.0
 11
180.518248
 21
439.919708
 31
0.0
  0
LINE
  5
29BAA
  8
63
  6
DASHDOT
 10
180.518248
 20
296.23326
 30
0.0
 11
180.518248
 21
439.919708
 31
0.0
  0
LINE
  5
29BAC
  8
63
  6
DASHDOT
 10
25.76962
 20
439.919708
 30
0.0
 11
324.59084
 21
439.919708
 31
0.0
  0
CIRCLE
  5
29BB1
  8
61
 10
285.518248
 20
544.919708
 30
0.0
 40
3.0
  0
CIRCLE
  5
29BB2
  8
61
 10
285.518248
 20
544.919708
 30
0.0
 40
6.0
  0
CIRCLE
  5
29BB3
  8
61
 10
285.518248
 20
334.919708
 30
0.0
 40
3.0
  0
CIRCLE
  5
29BB4
  8
61
 10
285.518248
 20
334.919708
 30
0.0
 40
6.0
  0
CIRCLE
  5
29BB5
  8
61
 10
75.584816
 20
544.919708
 30
0.0
 40
6.0
  0
CIRCLE
  5
29BB6
  8
61
 10
75.584816
 20
544.919708
 30
0.0
 40
3.0
  0
CIRCLE
  5
29BB7
  8
61
 10
75.584816
 20
334.919708
 30
0.0
 40
6.0
  0
CIRCLE
  5
29BB8
  8
61
 10
75.584816
 20
334.919708
 30
0.0
 40
3.0
  0
ARC
  5
29BEC
  8
61
 10
71.018248
 20
312.919708
 30
0.0
 40
5.5
 50
180.0
 51
270.0
  0
ARC
  5
29BED
  8
61
 10
71.143248
 20
312.919708
 30
0.0
 40
7.5
 50
180.0
 51
270.0
  0
LINE
  5
29BF1
  8
53
  6
DASHDOT
 10
-377.203527
 20
591.420777
 30
0.0
 11
-377.203527
 21
292.866652
 31
0.0
  0
LINE
  5
29BF2
  8
53
  6
DASHDOT
 10
-221.352461
 20
439.919708
 30
0.0
 11
-530.271496
 21
439.919708
 31
0.0
  0
LINE
  5
29BF3
  8
53
 10
-455.791061
 20
439.919708
 30
0.0
 11
-453.721775
 21
439.919708
 31
0.0
  0
LINE
  5
29BF5
  8
52
 10
-497.833971
 20
302.825927
 30
0.0
 11
-497.833971
 21
302.825927
 31
0.0
  0
LINE
  5
29BF6
  8
51
 10
-504.203527
 20
578.919708
 30
0.0
 11
-377.203527
 21
578.919708
 31
0.0
  0
LINE
  5
29BF7
  8
51
 10
-516.203527
 20
566.919708
 30
0.0
 11
-516.203527
 21
439.919708
 31
0.0
  0
ARC
  5
29BF8
  8
51
 10
-504.203527
 20
566.919708
 30
0.0
 40
12.0
 50
90.0
 51
180.0
  0
ARC
  5
29BF9
  8
51
 10
-504.203527
 20
312.919708
 30
0.0
 40
12.0
 50
180.0
 51
270.0
  0
LINE
  5
29BFA
  8
51
 10
-516.203527
 20
312.919708
 30
0.0
 11
-516.203527
 21
439.919708
 31
0.0
  0
LINE
  5
29BFB
  8
51
 10
-504.203527
 20
300.919708
 30
0.0
 11
-377.203527
 21
300.919708
 31
0.0
  0
ARC
  5
29BFC
  8
51
 10
-512.203527
 20
319.084122
 30
0.0
 40
0.5
 50
324.049432
 51
0.0
  0
CIRCLE
  5
29BFD
  8
51
 10
-504.203527
 20
312.919708
 30
0.0
 40
3.5
  0
CIRCLE
  5
29BFE
  8
51
 10
-504.203527
 20
312.919708
 30
0.0
 40
7.5
  0
CIRCLE
  5
29BFF
  8
51
 10
-482.203527
 20
334.919708
 30
0.0
 40
5.75
  0
CIRCLE
  5
29C00
  8
51
 10
-482.203527
 20
334.919708
 30
0.0
 40
6.5
  0
CIRCLE
  5
29C01
  8
51
 10
-489.703527
 20
402.419708
 30
0.0
 40
3.5
  0
CIRCLE
  5
29C02
  8
51
 10
-489.703527
 20
402.419708
 30
0.0
 40
4.25
  0
CIRCLE
  5
29C03
  8
51
 10
-489.703527
 20
427.419708
 30
0.0
 40
4.25
  0
CIRCLE
  5
29C04
  8
51
 10
-489.703527
 20
427.419708
 30
0.0
 40
3.5
  0
CIRCLE
  5
29C05
  8
51
 10
-464.703527
 20
327.419708
 30
0.0
 40
4.25
  0
CIRCLE
  5
29C06
  8
51
 10
-464.703527
 20
327.419708
 30
0.0
 40
3.5
  0
CIRCLE
  5
29C07
  8
51
 10
-439.703527
 20
327.419708
 30
0.0
 40
3.5
  0
CIRCLE
  5
29C08
  8
51
 10
-439.703527
 20
327.419708
 30
0.0
 40
4.25
  0
LINE
  5
29C0D
  8
51
 10
-511.703527
 20
319.084122
 30
0.0
 11
-511.703527
 21
439.919708
 31
0.0
  0
LINE
  5
29C0E
  8
51
 10
-513.703527
 20
320.904068
 30
0.0
 11
-513.703527
 21
439.919708
 31
0.0
  0
LINE
  5
29C0F
  8
51
 10
-498.039113
 20
305.419708
 30
0.0
 11
-377.203527
 21
305.419708
 31
0.0
  0
LINE
  5
29C10
  8
51
 10
-496.219167
 20
303.419708
 30
0.0
 11
-377.203527
 21
303.419708
 31
0.0
  0
ARC
  5
29C11
  8
51
 10
-504.203527
 20
312.919708
 30
0.0
 40
12.0
 50
180.0
 51
304.771944
  0
ARC
  5
29C12
  8
51
 10
-504.3572
 20
313.09137
 30
0.0
 40
9.82954
 50
241.100183
 51
307.799623
  0
ARC
  5
29C13
  8
51
 10
-504.758099
 20
312.365136
 30
0.0
 40
9.0
 50
208.899817
 51
241.100183
  0
ARC
  5
29C14
  8
51
 10
-504.031865
 20
312.766035
 30
0.0
 40
9.82954
 50
142.200377
 51
208.899817
  0
ARC
  5
29C15
  8
51
 10
-504.203527
 20
312.919708
 30
0.0
 40
12.0
 50
145.228056
 51
270.0
  0
ARC
  5
29C16
  8
51
 10
-504.031865
 20
567.073381
 30
0.0
 40
9.82954
 50
151.100183
 51
217.799623
  0
LINE
  5
29C17
  8
51
 10
-511.703527
 20
560.755294
 30
0.0
 11
-511.703527
 21
439.919708
 31
0.0
  0
CIRCLE
  5
29C1C
  8
51
 10
-439.703527
 20
552.419708
 30
0.0
 40
4.25
  0
CIRCLE
  5
29C1D
  8
51
 10
-439.703527
 20
552.419708
 30
0.0
 40
3.5
  0
CIRCLE
  5
29C1E
  8
51
 10
-464.703527
 20
552.419708
 30
0.0
 40
3.5
  0
CIRCLE
  5
29C1F
  8
51
 10
-464.703527
 20
552.419708
 30
0.0
 40
4.25
  0
CIRCLE
  5
29C20
  8
51
 10
-489.703527
 20
452.419708
 30
0.0
 40
3.5
  0
CIRCLE
  5
29C21
  8
51
 10
-489.703527
 20
452.419708
 30
0.0
 40
4.25
  0
CIRCLE
  5
29C22
  8
51
 10
-489.703527
 20
477.419708
 30
0.0
 40
4.25
  0
CIRCLE
  5
29C23
  8
51
 10
-489.703527
 20
477.419708
 30
0.0
 40
3.5
  0
CIRCLE
  5
29C24
  8
51
 10
-482.203527
 20
544.919708
 30
0.0
 40
6.5
  0
CIRCLE
  5
29C25
  8
51
 10
-482.203527
 20
544.919708
 30
0.0
 40
5.75
  0
CIRCLE
  5
29C26
  8
51
 10
-504.203527
 20
566.919708
 30
0.0
 40
7.5
  0
CIRCLE
  5
29C27
  8
51
 10
-504.203527
 20
566.919708
 30
0.0
 40
3.5
  0
ARC
  5
29C28
  8
51
 10
-512.203527
 20
560.755294
 30
0.0
 40
0.5
 50
0.0
 51
35.950568
  0
LINE
  5
29C29
  8
51
 10
-496.219167
 20
576.419708
 30
0.0
 11
-377.203527
 21
576.419708
 31
0.0
  0
LINE
  5
29C2A
  8
51
 10
-498.039113
 20
574.419708
 30
0.0
 11
-377.203527
 21
574.419708
 31
0.0
  0
ARC
  5
29C2B
  8
51
 10
-504.203527
 20
566.919708
 30
0.0
 40
12.0
 50
55.228056
 51
180.0
  0
ARC
  5
29C2C
  8
51
 10
-504.3572
 20
566.748046
 30
0.0
 40
9.82954
 50
52.200377
 51
118.899817
  0
ARC
  5
29C2D
  8
51
 10
-504.758099
 20
567.47428
 30
0.0
 40
9.0
 50
118.899817
 51
151.100183
  0
ARC
  5
29C2E
  8
51
 10
-504.203527
 20
566.919708
 30
0.0
 40
12.0
 50
90.0
 51
214.771944
  0
LINE
  5
29C2F
  8
51
 10
-513.703527
 20
558.935348
 30
0.0
 11
-513.703527
 21
439.919708
 31
0.0
  0
ARC
  5
29C30
  8
61
 10
143.018248
 20
552.419708
 30
0.0
 40
5.0
 50
8.626927
 51
171.373073
  0
CIRCLE
  5
29C31
  8
61
 10
143.018248
 20
552.419708
 30
0.0
 40
2.4
  0
ARC
  5
29C32
  8
61
 10
143.018248
 20
552.419708
 30
0.0
 40
5.0
 50
188.626927
 51
351.373073
  0
ARC
  5
29C33
  8
61
 10
168.018248
 20
552.419708
 30
0.0
 40
5.0
 50
8.626927
 51
171.373073
  0
CIRCLE
  5
29C34
  8
61
 10
168.018248
 20
552.419708
 30
0.0
 40
2.4
  0
ARC
  5
29C35
  8
61
 10
168.018248
 20
552.419708
 30
0.0
 40
5.0
 50
188.626927
 51
351.373073
  0
ARC
  5
29C36
  8
61
 10
193.018248
 20
552.419708
 30
0.0
 40
5.0
 50
8.626927
 51
171.373073
  0
CIRCLE
  5
29C37
  8
61
 10
193.018248
 20
552.419708
 30
0.0
 40
2.4
  0
ARC
  5
29C38
  8
61
 10
193.018248
 20
552.419708
 30
0.0
 40
5.0
 50
188.626927
 51
351.373073
  0
ARC
  5
29C39
  8
61
 10
218.018248
 20
552.419708
 30
0.0
 40
5.0
 50
188.626927
 51
351.373073
  0
CIRCLE
  5
29C3A
  8
61
 10
218.018248
 20
552.419708
 30
0.0
 40
2.4
  0
ARC
  5
29C3B
  8
61
 10
218.018248
 20
552.419708
 30
0.0
 40
5.0
 50
8.626927
 51
171.373073
  0
LINE
  5
29C3C
  8
61
 10
138.074818
 20
553.169708
 30
0.0
 11
122.961678
 21
553.169708
 31
0.0
  0
LINE
  5
29C3D
  8
61
 10
138.074818
 20
551.669708
 30
0.0
 11
122.961678
 21
551.669708
 31
0.0
  0
LINE
  5
29C3E
  8
61
 10
163.074818
 20
551.669708
 30
0.0
 11
147.961678
 21
551.669708
 31
0.0
  0
LINE
  5
29C3F
  8
61
 10
163.074818
 20
553.169708
 30
0.0
 11
147.961678
 21
553.169708
 31
0.0
  0
LINE
  5
29C40
  8
61
 10
188.074818
 20
553.169708
 30
0.0
 11
172.961678
 21
553.169708
 31
0.0
  0
LINE
  5
29C41
  8
61
 10
188.074818
 20
551.669708
 30
0.0
 11
172.961678
 21
551.669708
 31
0.0
  0
LINE
  5
29C42
  8
61
 10
213.074818
 20
551.669708
 30
0.0
 11
197.961678
 21
551.669708
 31
0.0
  0
LINE
  5
29C43
  8
61
 10
213.074818
 20
553.169708
 30
0.0
 11
197.961678
 21
553.169708
 31
0.0
  0
LINE
  5
29C44
  8
61
 10
188.074818
 20
326.669708
 30
0.0
 11
172.961678
 21
326.669708
 31
0.0
  0
LINE
  5
29C45
  8
61
 10
188.074818
 20
328.169708
 30
0.0
 11
172.961678
 21
328.169708
 31
0.0
  0
LINE
  5
29C46
  8
61
 10
163.074818
 20
328.169708
 30
0.0
 11
147.961678
 21
328.169708
 31
0.0
  0
LINE
  5
29C47
  8
61
 10
163.074818
 20
326.669708
 30
0.0
 11
147.961678
 21
326.669708
 31
0.0
  0
LINE
  5
29C48
  8
61
 10
138.074818
 20
326.669708
 30
0.0
 11
122.961678
 21
326.669708
 31
0.0
  0
LINE
  5
29C49
  8
61
 10
138.074818
 20
328.169708
 30
0.0
 11
122.961678
 21
328.169708
 31
0.0
  0
ARC
  5
29C4A
  8
61
 10
168.018248
 20
327.419708
 30
0.0
 40
5.0
 50
188.626927
 51
351.373073
  0
CIRCLE
  5
29C4B
  8
61
 10
168.018248
 20
327.419708
 30
0.0
 40
2.4
  0
ARC
  5
29C4C
  8
61
 10
168.018248
 20
327.419708
 30
0.0
 40
5.0
 50
8.626927
 51
171.373073
  0
ARC
  5
29C4D
  8
61
 10
143.018248
 20
327.419708
 30
0.0
 40
5.0
 50
188.626927
 51
351.373073
  0
CIRCLE
  5
29C4E
  8
61
 10
143.018248
 20
327.419708
 30
0.0
 40
2.4
  0
ARC
  5
29C4F
  8
61
 10
143.018248
 20
327.419708
 30
0.0
 40
5.0
 50
8.626927
 51
171.373073
  0
LINE
  5
29C50
  8
61
 10
213.074818
 20
328.169708
 30
0.0
 11
197.961678
 21
328.169708
 31
0.0
  0
LINE
  5
29C51
  8
61
 10
213.074818
 20
326.669708
 30
0.0
 11
197.961678
 21
326.669708
 31
0.0
  0
ARC
  5
29C52
  8
61
 10
218.018248
 20
327.419708
 30
0.0
 40
5.0
 50
8.626927
 51
171.373073
  0
CIRCLE
  5
29C53
  8
61
 10
218.018248
 20
327.419708
 30
0.0
 40
2.4
  0
ARC
  5
29C54
  8
61
 10
218.018248
 20
327.419708
 30
0.0
 40
5.0
 50
188.626927
 51
351.373073
  0
ARC
  5
29C55
  8
61
 10
193.018248
 20
327.419708
 30
0.0
 40
5.0
 50
188.626927
 51
351.373073
  0
CIRCLE
  5
29C56
  8
61
 10
193.018248
 20
327.419708
 30
0.0
 40
2.4
  0
ARC
  5
29C57
  8
61
 10
193.018248
 20
327.419708
 30
0.0
 40
5.0
 50
8.626927
 51
171.373073
  0
LINE
  5
29C58
  8
61
 10
238.074818
 20
326.669708
 30
0.0
 11
222.961678
 21
326.669708
 31
0.0
  0
LINE
  5
29C59
  8
61
 10
238.074818
 20
328.169708
 30
0.0
 11
222.961678
 21
328.169708
 31
0.0
  0
CIRCLE
  5
29C5A
  8
51
 10
-414.703527
 20
552.419708
 30
0.0
 40
4.25
  0
CIRCLE
  5
29C5B
  8
51
 10
-414.703527
 20
552.419708
 30
0.0
 40
3.5
  0
CIRCLE
  5
29C5C
  8
51
 10
-389.703527
 20
552.419708
 30
0.0
 40
3.5
  0
CIRCLE
  5
29C5D
  8
51
 10
-389.703527
 20
552.419708
 30
0.0
 40
4.25
  0
CIRCLE
  5
29C5E
  8
51
 10
-389.703527
 20
327.419708
 30
0.0
 40
4.25
  0
CIRCLE
  5
29C5F
  8
51
 10
-389.703527
 20
327.419708
 30
0.0
 40
3.5
  0
CIRCLE
  5
29C60
  8
51
 10
-414.703527
 20
327.419708
 30
0.0
 40
3.5
  0
CIRCLE
  5
29C61
  8
51
 10
-414.703527
 20
327.419708
 30
0.0
 40
4.25
  0
LINE
  5
29D95
  8
31
 10
420.195811
 20
322.644437
 30
0.0
 11
510.945811
 21
324.751384
 31
0.0
  0
LINE
  5
29D96
  8
31
 10
516.595811
 20
333.919708
 30
0.0
 11
516.595811
 21
312.919708
 31
0.0
  0
LINE
  5
29D97
  8
31
 10
513.235811
 20
333.919708
 30
0.0
 11
513.235811
 21
312.919708
 31
0.0
  0
LINE
  5
29D98
  8
31
 10
516.595811
 20
347.919708
 30
0.0
 11
516.595811
 21
339.919708
 31
0.0
  0
LINE
  5
29D99
  8
31
 10
513.235811
 20
347.919708
 30
0.0
 11
513.235811
 21
339.919708
 31
0.0
  0
LINE
  5
29D9A
  8
31
 10
516.595811
 20
361.919708
 30
0.0
 11
516.595811
 21
353.919708
 31
0.0
  0
LINE
  5
29D9B
  8
31
 10
513.235811
 20
361.919708
 30
0.0
 11
513.235811
 21
353.919708
 31
0.0
  0
LINE
  5
29D9C
  8
31
 10
516.595811
 20
375.919708
 30
0.0
 11
516.595811
 21
367.919708
 31
0.0
  0
LINE
  5
29D9D
  8
31
 10
513.235811
 20
375.919708
 30
0.0
 11
513.235811
 21
367.919708
 31
0.0
  0
LINE
  5
29D9E
  8
31
 10
513.235811
 20
333.919708
 30
0.0
 11
516.595811
 21
333.919708
 31
0.0
  0
LINE
  5
29D9F
  8
31
 10
513.235811
 20
339.919708
 30
0.0
 11
516.595811
 21
339.919708
 31
0.0
  0
LINE
  5
29DA0
  8
31
 10
513.235811
 20
347.919708
 30
0.0
 11
516.595811
 21
347.919708
 31
0.0
  0
LINE
  5
29DA1
  8
31
 10
513.235811
 20
353.919708
 30
0.0
 11
516.595811
 21
353.919708
 31
0.0
  0
LINE
  5
29DA2
  8
31
 10
513.235811
 20
361.919708
 30
0.0
 11
516.595811
 21
361.919708
 31
0.0
  0
LINE
  5
29DA3
  8
31
 10
513.235811
 20
367.919708
 30
0.0
 11
516.595811
 21
367.919708
 31
0.0
  0
LINE
  5
29DA4
  8
31
 10
513.235811
 20
375.919708
 30
0.0
 11
516.595811
 21
375.919708
 31
0.0
  0
LINE
  5
29DA5
  8
31
 10
513.235811
 20
381.919708
 30
0.0
 11
516.595811
 21
381.919708
 31
0.0
  0
LINE
  5
29DA6
  8
31
 10
510.945811
 20
439.919708
 30
0.0
 11
510.945811
 21
312.919708
 31
0.0
  0
LINE
  5
29DA7
  8
31
 10
513.235811
 20
439.919708
 30
0.0
 11
513.235811
 21
381.919708
 31
0.0
  0
LINE
  5
29DA8
  8
31
 10
516.595811
 20
439.919708
 30
0.0
 11
516.595811
 21
381.919708
 31
0.0
  0
LINE
  5
29DA9
  8
31
 10
418.695811
 20
340.553683
 30
0.0
 11
418.695811
 21
329.285733
 31
0.0
  0
LINE
  5
29DAA
  8
31
 10
418.695811
 20
329.285733
 30
0.0
 11
420.195811
 21
328.419708
 31
0.0
  0
LINE
  5
29DAB
  8
31
 10
418.695811
 20
340.553683
 30
0.0
 11
420.195811
 21
341.419708
 31
0.0
  0
LINE
  5
29DAC
  8
31
 10
418.695811
 20
430.803683
 30
0.0
 11
420.195811
 21
431.669708
 31
0.0
  0
LINE
  5
29DAD
  8
31
 10
418.695811
 20
424.035733
 30
0.0
 11
420.195811
 21
423.169708
 31
0.0
  0
LINE
  5
29DAE
  8
31
 10
418.695811
 20
430.803683
 30
0.0
 11
418.695811
 21
424.035733
 31
0.0
  0
LINE
  5
29DAF
  8
31
 10
418.695811
 20
405.803683
 30
0.0
 11
420.195811
 21
406.669708
 31
0.0
  0
LINE
  5
29DB0
  8
31
 10
418.695811
 20
399.035733
 30
0.0
 11
420.195811
 21
398.169708
 31
0.0
  0
LINE
  5
29DB1
  8
31
 10
418.695811
 20
405.803683
 30
0.0
 11
418.695811
 21
399.035733
 31
0.0
  0
LINE
  5
29DB2
  8
31
 10
418.695811
 20
380.803683
 30
0.0
 11
420.195811
 21
381.669708
 31
0.0
  0
LINE
  5
29DB3
  8
31
 10
418.695811
 20
374.035733
 30
0.0
 11
420.195811
 21
373.169708
 31
0.0
  0
LINE
  5
29DB4
  8
31
 10
418.695811
 20
380.803683
 30
0.0
 11
418.695811
 21
374.035733
 31
0.0
  0
LINE
  5
29DB5
  8
31
 10
418.695811
 20
355.803683
 30
0.0
 11
418.695811
 21
349.035733
 31
0.0
  0
LINE
  5
29DB6
  8
31
 10
418.695811
 20
349.035733
 30
0.0
 11
420.195811
 21
348.169708
 31
0.0
  0
LINE
  5
29DB7
  8
31
 10
418.695811
 20
355.803683
 30
0.0
 11
420.195811
 21
356.669708
 31
0.0
  0
LINE
  5
29DB9
  8
31
 10
418.195811
 20
304.919708
 30
0.0
 11
420.195811
 21
304.884798
 31
0.0
  0
LINE
  5
29DBA
  8
31
 10
418.195811
 20
320.919708
 30
0.0
 11
420.195811
 21
320.954618
 31
0.0
  0
LINE
  5
29DBB
  8
31
 10
420.195811
 20
439.919708
 30
0.0
 11
420.195811
 21
303.194979
 31
0.0
  0
ARC
  5
29DBC
  8
31
 10
520.195811
 20
306.402405
 30
0.0
 40
1.0
 50
271.0
 51
0.0
  0
LINE
  5
29DBD
  8
31
 10
518.195811
 20
305.367343
 30
0.0
 11
520.213263
 21
305.402558
 31
0.0
  0
LINE
  5
29DBE
  8
31
 10
521.195811
 20
439.919708
 30
0.0
 11
521.195811
 21
326.943464
 31
0.0
  0
LINE
  5
29DBF
  8
31
 10
418.195811
 20
320.919708
 30
0.0
 11
418.195811
 21
304.919708
 31
0.0
  0
LINE
  5
29DC0
  8
31
 10
420.195811
 20
303.194979
 30
0.0
 11
510.945811
 21
301.088032
 31
0.0
  0
LINE
  5
29DC1
  8
31
 10
518.195811
 20
439.919708
 30
0.0
 11
518.195811
 21
312.919708
 31
0.0
  0
LINE
  5
29DC2
  8
33
 10
410.195811
 20
439.919708
 30
0.0
 11
531.195811
 21
439.919708
 31
0.0
  0
LINE
  5
29E38
  8
31
 10
504.175747
 20
301.245213
 30
0.0
 11
510.945811
 21
301.088032
 31
0.0
  0
LINE
  5
29E39
  8
31
 10
521.195811
 20
326.943464
 30
0.0
 11
521.195811
 21
306.4024
 31
0.0
  0
LINE
  5
29E3A
  8
31
 10
518.195811
 20
305.367343
 30
0.0
 11
520.213263
 21
305.402558
 31
0.0
  0
ARC
  5
29E3B
  8
31
 10
520.195811
 20
306.402405
 30
0.0
 40
1.0
 50
271.0
 51
0.0
  0
LINE
  5
29E3C
  8
31
 10
518.195811
 20
300.919708
 30
0.0
 11
518.195811
 21
305.367343
 31
0.0
  0
LINE
  5
29E3D
  8
31
 10
518.195811
 20
300.919708
 30
0.0
 11
516.558232
 21
300.919708
 31
0.0
  0
LINE
  5
29E3E
  8
31
 10
521.195811
 20
306.402405
 30
0.0
 11
521.195811
 21
306.402405
 31
0.0
  0
LINE
  5
29E3F
  8
31
 10
518.195811
 20
305.367343
 30
0.0
 11
518.195811
 21
300.919708
 31
0.0
  0
LINE
  5
29E40
  8
31
 10
512.58339
 20
300.919708
 30
0.0
 11
510.945811
 21
300.919708
 31
0.0
  0
LINE
  5
29E41
  8
31
 10
516.558232
 20
300.919708
 30
0.0
 11
512.58339
 21
300.919708
 31
0.0
  0
LINE
  5
29E5E
  8
31
 10
418.695811
 20
324.035733
 30
0.0
 11
420.195811
 21
323.169708
 31
0.0
  0
LINE
  5
29E5F
  8
31
 10
418.695811
 20
330.803683
 30
0.0
 11
418.695811
 21
324.035733
 31
0.0
  0
ARC
  5
29E90
  8
31
 10
519.195811
 20
326.943464
 30
0.0
 40
2.0
 50
271.33
 51
0.0
  0
LINE
  5
29E91
  8
31
 10
518.195811
 20
324.919708
 30
0.0
 11
519.242233
 21
324.944003
 31
0.0
  0
LINE
  5
29E93
  8
61
 10
65.894773
 20
310.919708
 30
0.0
 11
180.518248
 21
310.919708
 31
0.0
  0
LINE
  5
29E94
  8
61
 10
295.172949
 20
310.919708
 30
0.0
 11
180.518248
 21
310.919708
 31
0.0
  0
LINE
  5
29E95
  8
61
 10
65.863547
 20
568.919708
 30
0.0
 11
180.518248
 21
568.919708
 31
0.0
  0
LINE
  5
29E96
  8
61
 10
295.172949
 20
568.919708
 30
0.0
 11
180.518248
 21
568.919708
 31
0.0
  0
LINE
  5
29E9B
  8
31
 10
518.195811
 20
554.919708
 30
0.0
 11
519.242233
 21
554.895413
 31
0.0
  0
ARC
  5
29E9C
  8
31
 10
519.195811
 20
552.895952
 30
0.0
 40
2.0
 50
360.0
 51
88.67
  0
LINE
  5
29E9D
  8
31
 10
418.695811
 20
549.035733
 30
0.0
 11
418.695811
 21
555.803683
 31
0.0
  0
LINE
  5
29E9E
  8
31
 10
418.695811
 20
555.803683
 30
0.0
 11
420.195811
 21
556.669708
 31
0.0
  0
LINE
  5
29E9F
  8
31
 10
516.558232
 20
578.919708
 30
0.0
 11
512.58339
 21
578.919708
 31
0.0
  0
LINE
  5
29EA0
  8
31
 10
512.58339
 20
578.919708
 30
0.0
 11
510.945811
 21
578.919708
 31
0.0
  0
LINE
  5
29EA1
  8
31
 10
518.195811
 20
574.472073
 30
0.0
 11
518.195811
 21
578.919708
 31
0.0
  0
LINE
  5
29EA2
  8
31
 10
521.195811
 20
573.437011
 30
0.0
 11
521.195811
 21
573.437011
 31
0.0
  0
LINE
  5
29EA3
  8
31
 10
518.195811
 20
578.919708
 30
0.0
 11
516.558232
 21
578.919708
 31
0.0
  0
LINE
  5
29EA4
  8
31
 10
518.195811
 20
578.919708
 30
0.0
 11
518.195811
 21
574.472073
 31
0.0
  0
ARC
  5
29EA5
  8
31
 10
520.195811
 20
573.437011
 30
0.0
 40
1.0
 50
0.0
 51
89.0
  0
LINE
  5
29EA6
  8
31
 10
518.195811
 20
574.472073
 30
0.0
 11
520.213263
 21
574.436858
 31
0.0
  0
LINE
  5
29EA7
  8
31
 10
521.195811
 20
552.895952
 30
0.0
 11
521.195811
 21
573.437016
 31
0.0
  0
LINE
  5
29EA8
  8
31
 10
504.175747
 20
578.594204
 30
0.0
 11
510.945811
 21
578.751384
 31
0.0
  0
LINE
  5
29EAA
  8
31
 10
518.195811
 20
439.919708
 30
0.0
 11
518.195811
 21
566.919708
 31
0.0
  0
LINE
  5
29EAB
  8
31
 10
420.195811
 20
576.644437
 30
0.0
 11
510.945811
 21
578.751384
 31
0.0
  0
LINE
  5
29EAC
  8
31
 10
418.195811
 20
558.919708
 30
0.0
 11
418.195811
 21
574.919708
 31
0.0
  0
LINE
  5
29EAD
  8
31
 10
521.195811
 20
439.919708
 30
0.0
 11
521.195811
 21
552.895952
 31
0.0
  0
LINE
  5
29EAE
  8
31
 10
518.195811
 20
574.472073
 30
0.0
 11
520.213263
 21
574.436858
 31
0.0
  0
ARC
  5
29EAF
  8
31
 10
520.195811
 20
573.437011
 30
0.0
 40
1.0
 50
0.0
 51
89.0
  0
LINE
  5
29EB0
  8
31
 10
420.195811
 20
439.919708
 30
0.0
 11
420.195811
 21
576.644437
 31
0.0
  0
LINE
  5
29EB1
  8
31
 10
418.195811
 20
558.919708
 30
0.0
 11
420.195811
 21
558.884798
 31
0.0
  0
LINE
  5
29EB2
  8
31
 10
418.195811
 20
574.919708
 30
0.0
 11
420.195811
 21
574.954618
 31
0.0
  0
LINE
  5
29EB4
  8
31
 10
418.695811
 20
524.035733
 30
0.0
 11
420.195811
 21
523.169708
 31
0.0
  0
LINE
  5
29EB5
  8
31
 10
418.695811
 20
530.803683
 30
0.0
 11
420.195811
 21
531.669708
 31
0.0
  0
LINE
  5
29EB6
  8
31
 10
418.695811
 20
524.035733
 30
0.0
 11
418.695811
 21
530.803683
 31
0.0
  0
LINE
  5
29EB7
  8
31
 10
418.695811
 20
499.035733
 30
0.0
 11
418.695811
 21
505.803683
 31
0.0
  0
LINE
  5
29EB8
  8
31
 10
418.695811
 20
505.803683
 30
0.0
 11
420.195811
 21
506.669708
 31
0.0
  0
LINE
  5
29EB9
  8
31
 10
418.695811
 20
499.035733
 30
0.0
 11
420.195811
 21
498.169708
 31
0.0
  0
LINE
  5
29EBA
  8
31
 10
418.695811
 20
474.035733
 30
0.0
 11
418.695811
 21
480.803683
 31
0.0
  0
LINE
  5
29EBB
  8
31
 10
418.695811
 20
480.803683
 30
0.0
 11
420.195811
 21
481.669708
 31
0.0
  0
LINE
  5
29EBC
  8
31
 10
418.695811
 20
474.035733
 30
0.0
 11
420.195811
 21
473.169708
 31
0.0
  0
LINE
  5
29EBD
  8
31
 10
418.695811
 20
449.035733
 30
0.0
 11
418.695811
 21
455.803683
 31
0.0
  0
LINE
  5
29EBE
  8
31
 10
418.695811
 20
455.803683
 30
0.0
 11
420.195811
 21
456.669708
 31
0.0
  0
LINE
  5
29EBF
  8
31
 10
418.695811
 20
449.035733
 30
0.0
 11
420.195811
 21
448.169708
 31
0.0
  0
LINE
  5
29EC0
  8
31
 10
418.695811
 20
539.285733
 30
0.0
 11
420.195811
 21
538.419708
 31
0.0
  0
LINE
  5
29EC1
  8
31
 10
418.695811
 20
550.553683
 30
0.0
 11
420.195811
 21
551.419708
 31
0.0
  0
LINE
  5
29EC2
  8
31
 10
418.695811
 20
539.285733
 30
0.0
 11
418.695811
 21
550.553683
 31
0.0
  0
LINE
  5
29EC3
  8
31
 10
516.595811
 20
439.919708
 30
0.0
 11
516.595811
 21
497.919708
 31
0.0
  0
LINE
  5
29EC4
  8
31
 10
513.235811
 20
439.919708
 30
0.0
 11
513.235811
 21
497.919708
 31
0.0
  0
LINE
  5
29EC5
  8
31
 10
510.945811
 20
439.919708
 30
0.0
 11
510.945811
 21
566.919708
 31
0.0
  0
LINE
  5
29EC6
  8
31
 10
513.235811
 20
497.919708
 30
0.0
 11
516.595811
 21
497.919708
 31
0.0
  0
LINE
  5
29EC7
  8
31
 10
513.235811
 20
503.919708
 30
0.0
 11
516.595811
 21
503.919708
 31
0.0
  0
LINE
  5
29EC8
  8
31
 10
513.235811
 20
511.919708
 30
0.0
 11
516.595811
 21
511.919708
 31
0.0
  0
LINE
  5
29EC9
  8
31
 10
513.235811
 20
517.919708
 30
0.0
 11
516.595811
 21
517.919708
 31
0.0
  0
LINE
  5
29ECA
  8
31
 10
513.235811
 20
525.919708
 30
0.0
 11
516.595811
 21
525.919708
 31
0.0
  0
LINE
  5
29ECB
  8
31
 10
513.235811
 20
531.919708
 30
0.0
 11
516.595811
 21
531.919708
 31
0.0
  0
LINE
  5
29ECC
  8
31
 10
513.235811
 20
539.919708
 30
0.0
 11
516.595811
 21
539.919708
 31
0.0
  0
LINE
  5
29ECD
  8
31
 10
513.235811
 20
545.919708
 30
0.0
 11
516.595811
 21
545.919708
 31
0.0
  0
LINE
  5
29ECE
  8
31
 10
513.235811
 20
503.919708
 30
0.0
 11
513.235811
 21
511.919708
 31
0.0
  0
LINE
  5
29ECF
  8
31
 10
516.595811
 20
503.919708
 30
0.0
 11
516.595811
 21
511.919708
 31
0.0
  0
LINE
  5
29ED0
  8
31
 10
513.235811
 20
517.919708
 30
0.0
 11
513.235811
 21
525.919708
 31
0.0
  0
LINE
  5
29ED1
  8
31
 10
516.595811
 20
517.919708
 30
0.0
 11
516.595811
 21
525.919708
 31
0.0
  0
LINE
  5
29ED2
  8
31
 10
513.235811
 20
531.919708
 30
0.0
 11
513.235811
 21
539.919708
 31
0.0
  0
LINE
  5
29ED3
  8
31
 10
516.595811
 20
531.919708
 30
0.0
 11
516.595811
 21
539.919708
 31
0.0
  0
LINE
  5
29ED4
  8
31
 10
513.235811
 20
545.919708
 30
0.0
 11
513.235811
 21
566.919708
 31
0.0
  0
LINE
  5
29ED5
  8
31
 10
516.595811
 20
545.919708
 30
0.0
 11
516.595811
 21
566.919708
 31
0.0
  0
LINE
  5
29ED6
  8
31
 10
420.195811
 20
557.194979
 30
0.0
 11
510.945811
 21
555.088032
 31
0.0
  0
LINE
  5
29ED7
  8
34
 10
430.545811
 20
354.819708
 30
0.0
 11
430.545811
 21
352.419708
 31
0.0
  0
LINE
  5
29ED8
  8
34
 10
430.545811
 20
350.019708
 30
0.0
 11
430.545811
 21
352.419708
 31
0.0
  0
LINE
  5
29ED9
  8
34
 10
424.028359
 20
341.024743
 30
0.0
 11
430.045811
 21
340.919708
 31
0.0
  0
LINE
  5
29EDA
  8
34
 10
430.545811
 20
334.919708
 30
0.0
 11
430.545811
 21
338.969708
 31
0.0
  0
LINE
  5
29EDB
  8
34
 10
430.545811
 20
334.919708
 30
0.0
 11
430.545811
 21
329.419708
 31
0.0
  0
LINE
  5
29EDC
  8
34
 10
424.028359
 20
328.814673
 30
0.0
 11
430.045811
 21
328.919708
 31
0.0
  0
LINE
  5
29EDD
  8
34
 10
430.545811
 20
330.869708
 30
0.0
 11
430.545811
 21
329.419708
 31
0.0
  0
LINE
  5
29EDE
  8
34
 10
430.545811
 20
338.969708
 30
0.0
 11
430.545811
 21
340.419708
 31
0.0
  0
ARC
  5
29EDF
  8
34
 10
430.045811
 20
329.419708
 30
0.0
 40
0.5
 50
270.0
 51
0.0
  0
ARC
  5
29EE0
  8
34
 10
430.045811
 20
340.419708
 30
0.0
 40
0.5
 50
0.0
 51
90.0
  0
ARC
  5
29EE1
  8
34
 10
430.045811
 20
347.919708
 30
0.0
 40
0.5
 50
270.0
 51
0.0
  0
ARC
  5
29EE2
  8
34
 10
430.045811
 20
356.919708
 30
0.0
 40
0.5
 50
0.0
 51
90.0
  0
LINE
  5
29EE3
  8
34
 10
430.045811
 20
357.419708
 30
0.0
 11
425.045811
 21
357.419708
 31
0.0
  0
LINE
  5
29EE4
  8
34
 10
430.545811
 20
356.919708
 30
0.0
 11
430.545811
 21
354.819708
 31
0.0
  0
ARC
  5
29EE5
  8
34
 10
425.045811
 20
359.419708
 30
0.0
 40
2.0
 50
180.0
 51
270.0
  0
ARC
  5
29EE6
  8
34
 10
425.045811
 20
345.419708
 30
0.0
 40
2.0
 50
90.0
 51
180.0
  0
LINE
  5
29EE7
  8
34
 10
430.545811
 20
347.919708
 30
0.0
 11
430.545811
 21
350.019708
 31
0.0
  0
LINE
  5
29EE8
  8
34
 10
430.045811
 20
347.419708
 30
0.0
 11
425.045811
 21
347.419708
 31
0.0
  0
ARC
  5
29EE9
  8
34
 10
424.045811
 20
342.024591
 30
0.0
 40
1.0
 50
180.0
 51
269.0
  0
ARC
  5
29EEA
  8
34
 10
424.045811
 20
327.814825
 30
0.0
 40
1.0
 50
91.0
 51
180.0
  0
LINE
  5
29EEB
  8
34
 10
521.045811
 20
325.114532
 30
0.0
 11
425.028358
 21
325.952464
 31
0.0
  0
ARC
  5
29EEC
  8
34
 10
425.045811
 20
327.952388
 30
0.0
 40
2.0
 50
180.0
 51
269.5
  0
LINE
  5
29EED
  8
34
 10
423.045811
 20
327.952388
 30
0.0
 11
423.045811
 21
423.834
 31
0.0
  0
ARC
  5
29EEE
  8
34
 10
375.545811
 20
439.919708
 30
0.0
 40
50.0
 50
342.331821
 51
0.0
  0
ARC
  5
29EEF
  8
34
 10
375.545811
 20
439.919708
 30
0.0
 40
47.0
 50
341.805128
 51
0.0
  0
ARC
  5
29EF0
  8
34
 10
375.545811
 20
439.919708
 30
0.0
 40
47.0
 50
360.0
 51
18.194872
  0
ARC
  5
29EF1
  8
34
 10
375.545811
 20
439.919708
 30
0.0
 40
50.0
 50
360.0
 51
17.668179
  0
ARC
  5
29EF2
  8
34
 10
426.045811
 20
423.834
 30
0.0
 40
3.0
 50
162.331821
 51
180.0
  0
LINE
  5
29EF3
  8
34
 10
423.045811
 20
550.895717
 30
0.0
 11
423.045811
 21
456.005416
 31
0.0
  0
ARC
  5
29EF4
  8
34
 10
426.045811
 20
550.895717
 30
0.0
 40
3.0
 50
90.5
 51
180.0
  0
LINE
  5
29EF5
  8
34
 10
520.153665
 20
554.717098
 30
0.0
 11
426.019631
 21
553.895603
 31
0.0
  0
LINE
  5
29EF6
  8
31
 10
521.045811
 20
555.617064
 30
0.0
 11
521.045811
 21
555.845587
 31
0.0
  0
ARC
  5
29EF7
  8
34
 10
520.145811
 20
555.617064
 30
0.0
 40
0.9
 50
270.5
 51
0.0
  0
CIRCLE
  5
2A171
  8
51
 10
-339.703527
 20
327.419708
 30
0.0
 40
4.25
  0
CIRCLE
  5
2A172
  8
51
 10
-339.703527
 20
327.419708
 30
0.0
 40
3.5
  0
CIRCLE
  5
2A173
  8
51
 10
-339.703527
 20
552.419708
 30
0.0
 40
3.5
  0
CIRCLE
  5
2A174
  8
51
 10
-339.703527
 20
552.419708
 30
0.0
 40
4.25
  0
LINE
  5
2A175
  8
51
 10
-240.703527
 20
558.935348
 30
0.0
 11
-240.703527
 21
439.919708
 31
0.0
  0
ARC
  5
2A176
  8
51
 10
-250.203527
 20
566.919708
 30
0.0
 40
12.0
 50
325.228056
 51
90.0
  0
ARC
  5
2A177
  8
51
 10
-249.648955
 20
567.47428
 30
0.0
 40
9.0
 50
28.899817
 51
61.100183
  0
ARC
  5
2A178
  8
51
 10
-250.049854
 20
566.748046
 30
0.0
 40
9.82954
 50
61.100183
 51
127.799623
  0
ARC
  5
2A179
  8
51
 10
-250.203527
 20
566.919708
 30
0.0
 40
12.0
 50
360.0
 51
124.771944
  0
ARC
  5
2A17A
  8
51
 10
-242.203527
 20
560.755294
 30
0.0
 40
0.5
 50
144.049432
 51
180.0
  0
CIRCLE
  5
2A17B
  8
51
 10
-250.203527
 20
566.919708
 30
0.0
 40
3.5
  0
CIRCLE
  5
2A17C
  8
51
 10
-250.203527
 20
566.919708
 30
0.0
 40
7.5
  0
CIRCLE
  5
2A17D
  8
51
 10
-272.203527
 20
544.919708
 30
0.0
 40
5.75
  0
CIRCLE
  5
2A17E
  8
51
 10
-272.203527
 20
544.919708
 30
0.0
 40
6.5
  0
CIRCLE
  5
2A183
  8
51
 10
-289.703527
 20
552.419708
 30
0.0
 40
4.25
  0
CIRCLE
  5
2A184
  8
51
 10
-289.703527
 20
552.419708
 30
0.0
 40
3.5
  0
CIRCLE
  5
2A185
  8
51
 10
-314.703527
 20
552.419708
 30
0.0
 40
3.5
  0
CIRCLE
  5
2A186
  8
51
 10
-314.703527
 20
552.419708
 30
0.0
 40
4.25
  0
LINE
  5
2A18B
  8
51
 10
-242.703527
 20
560.755294
 30
0.0
 11
-242.703527
 21
439.919708
 31
0.0
  0
ARC
  5
2A18C
  8
51
 10
-250.375189
 20
567.073381
 30
0.0
 40
9.82954
 50
322.200377
 51
28.899817
  0
ARC
  5
2A18D
  8
51
 10
-250.203527
 20
312.919708
 30
0.0
 40
12.0
 50
270.0
 51
34.771944
  0
ARC
  5
2A18E
  8
51
 10
-250.375189
 20
312.766035
 30
0.0
 40
9.82954
 50
331.100183
 51
37.799623
  0
ARC
  5
2A18F
  8
51
 10
-249.648955
 20
312.365136
 30
0.0
 40
9.0
 50
298.899817
 51
331.100183
  0
ARC
  5
2A190
  8
51
 10
-250.049854
 20
313.09137
 30
0.0
 40
9.82954
 50
232.200377
 51
298.899817
  0
ARC
  5
2A191
  8
51
 10
-250.203527
 20
312.919708
 30
0.0
 40
12.0
 50
235.228056
 51
0.0
  0
LINE
  5
2A192
  8
51
 10
-240.703527
 20
320.904068
 30
0.0
 11
-240.703527
 21
439.919708
 31
0.0
  0
LINE
  5
2A193
  8
51
 10
-242.703527
 20
319.084122
 30
0.0
 11
-242.703527
 21
439.919708
 31
0.0
  0
CIRCLE
  5
2A198
  8
51
 10
-314.703527
 20
327.419708
 30
0.0
 40
4.25
  0
CIRCLE
  5
2A199
  8
51
 10
-314.703527
 20
327.419708
 30
0.0
 40
3.5
  0
CIRCLE
  5
2A19A
  8
51
 10
-289.703527
 20
327.419708
 30
0.0
 40
3.5
  0
CIRCLE
  5
2A19B
  8
51
 10
-289.703527
 20
327.419708
 30
0.0
 40
4.25
  0
CIRCLE
  5
2A1A0
  8
51
 10
-272.203527
 20
334.919708
 30
0.0
 40
6.5
  0
CIRCLE
  5
2A1A1
  8
51
 10
-272.203527
 20
334.919708
 30
0.0
 40
5.75
  0
CIRCLE
  5
2A1A2
  8
51
 10
-250.203527
 20
312.919708
 30
0.0
 40
7.5
  0
CIRCLE
  5
2A1A3
  8
51
 10
-250.203527
 20
312.919708
 30
0.0
 40
3.5
  0
ARC
  5
2A1A4
  8
51
 10
-242.203527
 20
319.084122
 30
0.0
 40
0.5
 50
180.0
 51
215.950568
  0
LINE
  5
2A1A5
  8
51
 10
-238.203527
 20
312.919708
 30
0.0
 11
-238.203527
 21
439.919708
 31
0.0
  0
ARC
  5
2A1A6
  8
51
 10
-250.203527
 20
312.919708
 30
0.0
 40
12.0
 50
270.0
 51
0.0
  0
ARC
  5
2A1A7
  8
51
 10
-250.203527
 20
566.919708
 30
0.0
 40
12.0
 50
360.0
 51
90.0
  0
LINE
  5
2A1A8
  8
51
 10
-238.203527
 20
566.919708
 30
0.0
 11
-238.203527
 21
439.919708
 31
0.0
  0
LINE
  5
2A1A9
  8
52
 10
-256.573083
 20
302.825927
 30
0.0
 11
-256.573083
 21
302.825927
 31
0.0
  0
LINE
  5
2A1AA
  8
53
 10
-301.615993
 20
439.919708
 30
0.0
 11
-303.685279
 21
439.919708
 31
0.0
  0
CIRCLE
  5
2A1AB
  8
51
 10
-364.703527
 20
327.419708
 30
0.0
 40
3.5
  0
CIRCLE
  5
2A1AC
  8
51
 10
-364.703527
 20
327.419708
 30
0.0
 40
4.25
  0
LINE
  5
2A1AD
  8
51
 10
-258.187887
 20
303.419708
 30
0.0
 11
-377.203527
 21
303.419708
 31
0.0
  0
LINE
  5
2A1AE
  8
51
 10
-256.367941
 20
305.419708
 30
0.0
 11
-377.203527
 21
305.419708
 31
0.0
  0
LINE
  5
2A1AF
  8
51
 10
-250.203527
 20
300.919708
 30
0.0
 11
-377.203527
 21
300.919708
 31
0.0
  0
CIRCLE
  5
2A1B0
  8
51
 10
-364.703527
 20
552.419708
 30
0.0
 40
4.25
  0
CIRCLE
  5
2A1B1
  8
51
 10
-364.703527
 20
552.419708
 30
0.0
 40
3.5
  0
LINE
  5
2A1B2
  8
51
 10
-256.367941
 20
574.419708
 30
0.0
 11
-377.203527
 21
574.419708
 31
0.0
  0
LINE
  5
2A1B3
  8
51
 10
-258.187887
 20
576.419708
 30
0.0
 11
-377.203527
 21
576.419708
 31
0.0
  0
LINE
  5
2A1B4
  8
51
 10
-250.203527
 20
578.919708
 30
0.0
 11
-377.203527
 21
578.919708
 31
0.0
  0
ARC
  5
2A1B5
  8
44
 10
-159.109315
 20
555.617064
 30
0.0
 40
0.9
 50
180.0
 51
269.5
  0
LINE
  5
2A1B6
  8
41
 10
-160.009315
 20
555.617064
 30
0.0
 11
-160.009315
 21
555.845587
 31
0.0
  0
LINE
  5
2A1B7
  8
44
 10
-159.117168
 20
554.717098
 30
0.0
 11
-64.983135
 21
553.895603
 31
0.0
  0
ARC
  5
2A1B8
  8
44
 10
-65.009315
 20
550.895717
 30
0.0
 40
3.0
 50
0.0
 51
89.5
  0
LINE
  5
2A1B9
  8
44
 10
-62.009315
 20
550.895717
 30
0.0
 11
-62.009315
 21
456.005416
 31
0.0
  0
ARC
  5
2A1BA
  8
44
 10
-65.009315
 20
423.834
 30
0.0
 40
3.0
 50
0.0
 51
17.668179
  0
ARC
  5
2A1BB
  8
44
 10
-14.509315
 20
439.919708
 30
0.0
 40
50.0
 50
162.331821
 51
180.0
  0
ARC
  5
2A1BC
  8
44
 10
-14.509315
 20
439.919708
 30
0.0
 40
47.0
 50
161.805128
 51
180.0
  0
ARC
  5
2A1BD
  8
44
 10
-14.509315
 20
439.919708
 30
0.0
 40
47.0
 50
180.0
 51
198.194872
  0
ARC
  5
2A1BE
  8
44
 10
-14.509315
 20
439.919708
 30
0.0
 40
50.0
 50
180.0
 51
197.668179
  0
LINE
  5
2A1BF
  8
44
 10
-62.009315
 20
327.952388
 30
0.0
 11
-62.009315
 21
423.834
 31
0.0
  0
ARC
  5
2A1C0
  8
44
 10
-64.009315
 20
327.952388
 30
0.0
 40
2.0
 50
270.5
 51
360.0
  0
LINE
  5
2A1C1
  8
44
 10
-160.009315
 20
325.114532
 30
0.0
 11
-63.991862
 21
325.952464
 31
0.0
  0
ARC
  5
2A1C2
  8
44
 10
-63.009315
 20
327.814825
 30
0.0
 40
1.0
 50
0.0
 51
89.0
  0
ARC
  5
2A1C3
  8
44
 10
-63.009315
 20
342.024591
 30
0.0
 40
1.0
 50
271.0
 51
0.0
  0
LINE
  5
2A1C4
  8
44
 10
-69.009315
 20
347.419708
 30
0.0
 11
-64.009315
 21
347.419708
 31
0.0
  0
LINE
  5
2A1C5
  8
44
 10
-69.509315
 20
347.919708
 30
0.0
 11
-69.509315
 21
350.019708
 31
0.0
  0
ARC
  5
2A1C6
  8
44
 10
-64.009315
 20
345.419708
 30
0.0
 40
2.0
 50
0.0
 51
90.0
  0
ARC
  5
2A1C7
  8
44
 10
-64.009315
 20
359.419708
 30
0.0
 40
2.0
 50
270.0
 51
360.0
  0
LINE
  5
2A1C8
  8
44
 10
-69.509315
 20
356.919708
 30
0.0
 11
-69.509315
 21
354.819708
 31
0.0
  0
LINE
  5
2A1C9
  8
44
 10
-69.009315
 20
357.419708
 30
0.0
 11
-64.009315
 21
357.419708
 31
0.0
  0
ARC
  5
2A1CA
  8
44
 10
-69.009315
 20
356.919708
 30
0.0
 40
0.5
 50
90.0
 51
180.0
  0
ARC
  5
2A1CB
  8
44
 10
-69.009315
 20
347.919708
 30
0.0
 40
0.5
 50
180.0
 51
270.0
  0
ARC
  5
2A1CC
  8
44
 10
-69.009315
 20
340.419708
 30
0.0
 40
0.5
 50
90.0
 51
180.0
  0
ARC
  5
2A1CD
  8
44
 10
-69.009315
 20
329.419708
 30
0.0
 40
0.5
 50
180.0
 51
270.0
  0
LINE
  5
2A1CE
  8
44
 10
-69.509315
 20
338.969708
 30
0.0
 11
-69.509315
 21
340.419708
 31
0.0
  0
LINE
  5
2A1CF
  8
44
 10
-69.509315
 20
330.869708
 30
0.0
 11
-69.509315
 21
329.419708
 31
0.0
  0
LINE
  5
2A1D0
  8
44
 10
-62.991862
 20
328.814673
 30
0.0
 11
-69.009315
 21
328.919708
 31
0.0
  0
LINE
  5
2A1D1
  8
44
 10
-69.509315
 20
334.919708
 30
0.0
 11
-69.509315
 21
329.419708
 31
0.0
  0
LINE
  5
2A1D2
  8
44
 10
-69.509315
 20
334.919708
 30
0.0
 11
-69.509315
 21
338.969708
 31
0.0
  0
LINE
  5
2A1D3
  8
44
 10
-62.991862
 20
341.024743
 30
0.0
 11
-69.009315
 21
340.919708
 31
0.0
  0
LINE
  5
2A1D4
  8
44
 10
-69.509315
 20
350.019708
 30
0.0
 11
-69.509315
 21
352.419708
 31
0.0
  0
LINE
  5
2A1D5
  8
44
 10
-69.509315
 20
354.819708
 30
0.0
 11
-69.509315
 21
352.419708
 31
0.0
  0
LINE
  5
2A1D6
  8
41
 10
-59.159315
 20
557.194979
 30
0.0
 11
-149.909315
 21
555.088032
 31
0.0
  0
LINE
  5
2A1D7
  8
41
 10
-155.559315
 20
545.919708
 30
0.0
 11
-155.559315
 21
566.919708
 31
0.0
  0
LINE
  5
2A1D8
  8
41
 10
-152.199315
 20
545.919708
 30
0.0
 11
-152.199315
 21
566.919708
 31
0.0
  0
LINE
  5
2A1D9
  8
41
 10
-155.559315
 20
531.919708
 30
0.0
 11
-155.559315
 21
539.919708
 31
0.0
  0
LINE
  5
2A1DA
  8
41
 10
-152.199315
 20
531.919708
 30
0.0
 11
-152.199315
 21
539.919708
 31
0.0
  0
LINE
  5
2A1DB
  8
41
 10
-155.559315
 20
517.919708
 30
0.0
 11
-155.559315
 21
525.919708
 31
0.0
  0
LINE
  5
2A1DC
  8
41
 10
-152.199315
 20
517.919708
 30
0.0
 11
-152.199315
 21
525.919708
 31
0.0
  0
LINE
  5
2A1DD
  8
41
 10
-155.559315
 20
503.919708
 30
0.0
 11
-155.559315
 21
511.919708
 31
0.0
  0
LINE
  5
2A1DE
  8
41
 10
-152.199315
 20
503.919708
 30
0.0
 11
-152.199315
 21
511.919708
 31
0.0
  0
LINE
  5
2A1DF
  8
41
 10
-152.199315
 20
545.919708
 30
0.0
 11
-155.559315
 21
545.919708
 31
0.0
  0
LINE
  5
2A1E0
  8
41
 10
-152.199315
 20
539.919708
 30
0.0
 11
-155.559315
 21
539.919708
 31
0.0
  0
LINE
  5
2A1E1
  8
41
 10
-152.199315
 20
531.919708
 30
0.0
 11
-155.559315
 21
531.919708
 31
0.0
  0
LINE
  5
2A1E2
  8
41
 10
-152.199315
 20
525.919708
 30
0.0
 11
-155.559315
 21
525.919708
 31
0.0
  0
LINE
  5
2A1E3
  8
41
 10
-152.199315
 20
517.919708
 30
0.0
 11
-155.559315
 21
517.919708
 31
0.0
  0
LINE
  5
2A1E4
  8
41
 10
-152.199315
 20
511.919708
 30
0.0
 11
-155.559315
 21
511.919708
 31
0.0
  0
LINE
  5
2A1E5
  8
41
 10
-152.199315
 20
503.919708
 30
0.0
 11
-155.559315
 21
503.919708
 31
0.0
  0
LINE
  5
2A1E6
  8
41
 10
-152.199315
 20
497.919708
 30
0.0
 11
-155.559315
 21
497.919708
 31
0.0
  0
LINE
  5
2A1E7
  8
41
 10
-149.909315
 20
439.919708
 30
0.0
 11
-149.909315
 21
566.919708
 31
0.0
  0
LINE
  5
2A1E8
  8
41
 10
-152.199315
 20
439.919708
 30
0.0
 11
-152.199315
 21
497.919708
 31
0.0
  0
LINE
  5
2A1E9
  8
41
 10
-155.559315
 20
439.919708
 30
0.0
 11
-155.559315
 21
497.919708
 31
0.0
  0
LINE
  5
2A1EA
  8
41
 10
-57.659315
 20
539.285733
 30
0.0
 11
-57.659315
 21
550.553683
 31
0.0
  0
LINE
  5
2A1EB
  8
41
 10
-57.659315
 20
550.553683
 30
0.0
 11
-59.159315
 21
551.419708
 31
0.0
  0
LINE
  5
2A1EC
  8
41
 10
-57.659315
 20
539.285733
 30
0.0
 11
-59.159315
 21
538.419708
 31
0.0
  0
LINE
  5
2A1ED
  8
41
 10
-57.659315
 20
449.035733
 30
0.0
 11
-59.159315
 21
448.169708
 31
0.0
  0
LINE
  5
2A1EE
  8
41
 10
-57.659315
 20
455.803683
 30
0.0
 11
-59.159315
 21
456.669708
 31
0.0
  0
LINE
  5
2A1EF
  8
41
 10
-57.659315
 20
449.035733
 30
0.0
 11
-57.659315
 21
455.803683
 31
0.0
  0
LINE
  5
2A1F0
  8
41
 10
-57.659315
 20
474.035733
 30
0.0
 11
-59.159315
 21
473.169708
 31
0.0
  0
LINE
  5
2A1F1
  8
41
 10
-57.659315
 20
480.803683
 30
0.0
 11
-59.159315
 21
481.669708
 31
0.0
  0
LINE
  5
2A1F2
  8
41
 10
-57.659315
 20
474.035733
 30
0.0
 11
-57.659315
 21
480.803683
 31
0.0
  0
LINE
  5
2A1F3
  8
41
 10
-57.659315
 20
499.035733
 30
0.0
 11
-59.159315
 21
498.169708
 31
0.0
  0
LINE
  5
2A1F4
  8
41
 10
-57.659315
 20
505.803683
 30
0.0
 11
-59.159315
 21
506.669708
 31
0.0
  0
LINE
  5
2A1F5
  8
41
 10
-57.659315
 20
499.035733
 30
0.0
 11
-57.659315
 21
505.803683
 31
0.0
  0
LINE
  5
2A1F6
  8
41
 10
-57.659315
 20
524.035733
 30
0.0
 11
-57.659315
 21
530.803683
 31
0.0
  0
LINE
  5
2A1F7
  8
41
 10
-57.659315
 20
530.803683
 30
0.0
 11
-59.159315
 21
531.669708
 31
0.0
  0
LINE
  5
2A1F8
  8
41
 10
-57.659315
 20
524.035733
 30
0.0
 11
-59.159315
 21
523.169708
 31
0.0
  0
LINE
  5
2A1FA
  8
41
 10
-57.159315
 20
574.919708
 30
0.0
 11
-59.159315
 21
574.954618
 31
0.0
  0
LINE
  5
2A1FB
  8
41
 10
-57.159315
 20
558.919708
 30
0.0
 11
-59.159315
 21
558.884798
 31
0.0
  0
LINE
  5
2A1FC
  8
41
 10
-59.159315
 20
439.919708
 30
0.0
 11
-59.159315
 21
576.644437
 31
0.0
  0
ARC
  5
2A1FD
  8
41
 10
-159.159315
 20
573.437011
 30
0.0
 40
1.0
 50
91.0
 51
180.0
  0
LINE
  5
2A1FE
  8
41
 10
-157.159315
 20
574.472073
 30
0.0
 11
-159.176767
 21
574.436858
 31
0.0
  0
LINE
  5
2A1FF
  8
41
 10
-160.159315
 20
439.919708
 30
0.0
 11
-160.159315
 21
552.895952
 31
0.0
  0
LINE
  5
2A200
  8
41
 10
-57.159315
 20
558.919708
 30
0.0
 11
-57.159315
 21
574.919708
 31
0.0
  0
LINE
  5
2A201
  8
41
 10
-59.159315
 20
576.644437
 30
0.0
 11
-149.909315
 21
578.751384
 31
0.0
  0
LINE
  5
2A202
  8
41
 10
-157.159315
 20
439.919708
 30
0.0
 11
-157.159315
 21
566.919708
 31
0.0
  0
LINE
  5
2A203
  8
23
 10
180.518248
 20
669.597271
 30
0.0
 11
180.518248
 21
790.597271
 31
0.0
  0
LINE
  5
2A204
  8
41
 10
-143.139251
 20
578.594204
 30
0.0
 11
-149.909315
 21
578.751384
 31
0.0
  0
LINE
  5
2A205
  8
41
 10
-160.159315
 20
552.895952
 30
0.0
 11
-160.159315
 21
573.437016
 31
0.0
  0
LINE
  5
2A206
  8
41
 10
-157.159315
 20
574.472073
 30
0.0
 11
-159.176767
 21
574.436858
 31
0.0
  0
ARC
  5
2A207
  8
41
 10
-159.159315
 20
573.437011
 30
0.0
 40
1.0
 50
91.0
 51
180.0
  0
LINE
  5
2A208
  8
41
 10
-157.159315
 20
578.919708
 30
0.0
 11
-157.159315
 21
574.472073
 31
0.0
  0
LINE
  5
2A209
  8
41
 10
-157.159315
 20
578.919708
 30
0.0
 11
-155.521735
 21
578.919708
 31
0.0
  0
LINE
  5
2A20A
  8
41
 10
-160.159315
 20
573.437011
 30
0.0
 11
-160.159315
 21
573.437011
 31
0.0
  0
LINE
  5
2A20B
  8
41
 10
-157.159315
 20
574.472073
 30
0.0
 11
-157.159315
 21
578.919708
 31
0.0
  0
LINE
  5
2A20C
  8
41
 10
-151.546894
 20
578.919708
 30
0.0
 11
-149.909315
 21
578.919708
 31
0.0
  0
LINE
  5
2A20D
  8
41
 10
-155.521735
 20
578.919708
 30
0.0
 11
-151.546894
 21
578.919708
 31
0.0
  0
LINE
  5
2A20E
  8
41
 10
-57.659315
 20
555.803683
 30
0.0
 11
-59.159315
 21
556.669708
 31
0.0
  0
LINE
  5
2A20F
  8
41
 10
-57.659315
 20
549.035733
 30
0.0
 11
-57.659315
 21
555.803683
 31
0.0
  0
ARC
  5
2A210
  8
41
 10
-158.159315
 20
552.895952
 30
0.0
 40
2.0
 50
91.33
 51
180.0
  0
LINE
  5
2A211
  8
41
 10
-157.159315
 20
554.919708
 30
0.0
 11
-158.205736
 21
554.895413
 31
0.0
  0
LINE
  5
2A214
  8
41
 10
-157.159315
 20
324.919708
 30
0.0
 11
-158.205736
 21
324.944003
 31
0.0
  0
ARC
  5
2A215
  8
41
 10
-158.159315
 20
326.943464
 30
0.0
 40
2.0
 50
180.0
 51
268.67
  0
LINE
  5
2A216
  8
41
 10
-57.659315
 20
330.803683
 30
0.0
 11
-57.659315
 21
324.035733
 31
0.0
  0
LINE
  5
2A217
  8
41
 10
-57.659315
 20
324.035733
 30
0.0
 11
-59.159315
 21
323.169708
 31
0.0
  0
LINE
  5
2A218
  8
41
 10
-155.521735
 20
300.919708
 30
0.0
 11
-151.546894
 21
300.919708
 31
0.0
  0
LINE
  5
2A219
  8
41
 10
-151.546894
 20
300.919708
 30
0.0
 11
-149.909315
 21
300.919708
 31
0.0
  0
LINE
  5
2A21A
  8
41
 10
-157.159315
 20
305.367343
 30
0.0
 11
-157.159315
 21
300.919708
 31
0.0
  0
LINE
  5
2A21B
  8
41
 10
-160.159315
 20
306.402405
 30
0.0
 11
-160.159315
 21
306.402405
 31
0.0
  0
LINE
  5
2A21C
  8
41
 10
-157.159315
 20
300.919708
 30
0.0
 11
-155.521735
 21
300.919708
 31
0.0
  0
LINE
  5
2A21D
  8
41
 10
-157.159315
 20
300.919708
 30
0.0
 11
-157.159315
 21
305.367343
 31
0.0
  0
ARC
  5
2A21E
  8
41
 10
-159.159315
 20
306.402405
 30
0.0
 40
1.0
 50
180.0
 51
269.0
  0
LINE
  5
2A21F
  8
41
 10
-157.159315
 20
305.367343
 30
0.0
 11
-159.176767
 21
305.402558
 31
0.0
  0
LINE
  5
2A220
  8
41
 10
-160.159315
 20
326.943464
 30
0.0
 11
-160.159315
 21
306.4024
 31
0.0
  0
LINE
  5
2A221
  8
41
 10
-143.139251
 20
301.245213
 30
0.0
 11
-149.909315
 21
301.088032
 31
0.0
  0
LINE
  5
2A222
  8
43
  6
DASHDOT
 10
-49.159315
 20
439.919708
 30
0.0
 11
-170.159315
 21
439.919708
 31
0.0
  0
LINE
  5
2A223
  8
41
 10
-157.159315
 20
439.919708
 30
0.0
 11
-157.159315
 21
312.919708
 31
0.0
  0
LINE
  5
2A224
  8
41
 10
-59.159315
 20
303.194979
 30
0.0
 11
-149.909315
 21
301.088032
 31
0.0
  0
LINE
  5
2A225
  8
41
 10
-57.159315
 20
320.919708
 30
0.0
 11
-57.159315
 21
304.919708
 31
0.0
  0
LINE
  5
2A226
  8
41
 10
-160.159315
 20
439.919708
 30
0.0
 11
-160.159315
 21
326.943464
 31
0.0
  0
LINE
  5
2A227
  8
41
 10
-157.159315
 20
305.367343
 30
0.0
 11
-159.176767
 21
305.402558
 31
0.0
  0
ARC
  5
2A228
  8
41
 10
-159.159315
 20
306.402405
 30
0.0
 40
1.0
 50
180.0
 51
269.0
  0
LINE
  5
2A229
  8
41
 10
-59.159315
 20
439.919708
 30
0.0
 11
-59.159315
 21
303.194979
 31
0.0
  0
LINE
  5
2A22A
  8
41
 10
-57.159315
 20
320.919708
 30
0.0
 11
-59.159315
 21
320.954618
 31
0.0
  0
LINE
  5
2A22B
  8
41
 10
-57.159315
 20
304.919708
 30
0.0
 11
-59.159315
 21
304.884798
 31
0.0
  0
LINE
  5
2A22D
  8
41
 10
-57.659315
 20
355.803683
 30
0.0
 11
-59.159315
 21
356.669708
 31
0.0
  0
LINE
  5
2A22E
  8
41
 10
-57.659315
 20
349.035733
 30
0.0
 11
-59.159315
 21
348.169708
 31
0.0
  0
LINE
  5
2A22F
  8
41
 10
-57.659315
 20
355.803683
 30
0.0
 11
-57.659315
 21
349.035733
 31
0.0
  0
LINE
  5
2A230
  8
41
 10
-57.659315
 20
380.803683
 30
0.0
 11
-57.659315
 21
374.035733
 31
0.0
  0
LINE
  5
2A231
  8
41
 10
-57.659315
 20
374.035733
 30
0.0
 11
-59.159315
 21
373.169708
 31
0.0
  0
LINE
  5
2A232
  8
41
 10
-57.659315
 20
380.803683
 30
0.0
 11
-59.159315
 21
381.669708
 31
0.0
  0
LINE
  5
2A233
  8
41
 10
-57.659315
 20
405.803683
 30
0.0
 11
-57.659315
 21
399.035733
 31
0.0
  0
LINE
  5
2A234
  8
41
 10
-57.659315
 20
399.035733
 30
0.0
 11
-59.159315
 21
398.169708
 31
0.0
  0
LINE
  5
2A235
  8
41
 10
-57.659315
 20
405.803683
 30
0.0
 11
-59.159315
 21
406.669708
 31
0.0
  0
LINE
  5
2A236
  8
41
 10
-57.659315
 20
430.803683
 30
0.0
 11
-57.659315
 21
424.035733
 31
0.0
  0
LINE
  5
2A237
  8
41
 10
-57.659315
 20
424.035733
 30
0.0
 11
-59.159315
 21
423.169708
 31
0.0
  0
LINE
  5
2A238
  8
41
 10
-57.659315
 20
430.803683
 30
0.0
 11
-59.159315
 21
431.669708
 31
0.0
  0
LINE
  5
2A239
  8
41
 10
-57.659315
 20
340.553683
 30
0.0
 11
-59.159315
 21
341.419708
 31
0.0
  0
LINE
  5
2A23A
  8
41
 10
-57.659315
 20
329.285733
 30
0.0
 11
-59.159315
 21
328.419708
 31
0.0
  0
LINE
  5
2A23B
  8
41
 10
-57.659315
 20
340.553683
 30
0.0
 11
-57.659315
 21
329.285733
 31
0.0
  0
LINE
  5
2A23C
  8
41
 10
-155.559315
 20
439.919708
 30
0.0
 11
-155.559315
 21
381.919708
 31
0.0
  0
LINE
  5
2A23D
  8
41
 10
-152.199315
 20
439.919708
 30
0.0
 11
-152.199315
 21
381.919708
 31
0.0
  0
LINE
  5
2A23E
  8
41
 10
-149.909315
 20
439.919708
 30
0.0
 11
-149.909315
 21
312.919708
 31
0.0
  0
LINE
  5
2A23F
  8
41
 10
-152.199315
 20
381.919708
 30
0.0
 11
-155.559315
 21
381.919708
 31
0.0
  0
LINE
  5
2A240
  8
41
 10
-152.199315
 20
375.919708
 30
0.0
 11
-155.559315
 21
375.919708
 31
0.0
  0
LINE
  5
2A241
  8
41
 10
-152.199315
 20
367.919708
 30
0.0
 11
-155.559315
 21
367.919708
 31
0.0
  0
LINE
  5
2A242
  8
41
 10
-152.199315
 20
361.919708
 30
0.0
 11
-155.559315
 21
361.919708
 31
0.0
  0
LINE
  5
2A243
  8
41
 10
-152.199315
 20
353.919708
 30
0.0
 11
-155.559315
 21
353.919708
 31
0.0
  0
LINE
  5
2A244
  8
41
 10
-152.199315
 20
347.919708
 30
0.0
 11
-155.559315
 21
347.919708
 31
0.0
  0
LINE
  5
2A245
  8
41
 10
-152.199315
 20
339.919708
 30
0.0
 11
-155.559315
 21
339.919708
 31
0.0
  0
LINE
  5
2A246
  8
41
 10
-152.199315
 20
333.919708
 30
0.0
 11
-155.559315
 21
333.919708
 31
0.0
  0
LINE
  5
2A247
  8
41
 10
-152.199315
 20
375.919708
 30
0.0
 11
-152.199315
 21
367.919708
 31
0.0
  0
LINE
  5
2A248
  8
41
 10
-155.559315
 20
375.919708
 30
0.0
 11
-155.559315
 21
367.919708
 31
0.0
  0
LINE
  5
2A249
  8
41
 10
-152.199315
 20
361.919708
 30
0.0
 11
-152.199315
 21
353.919708
 31
0.0
  0
LINE
  5
2A24A
  8
41
 10
-155.559315
 20
361.919708
 30
0.0
 11
-155.559315
 21
353.919708
 31
0.0
  0
LINE
  5
2A24B
  8
41
 10
-152.199315
 20
347.919708
 30
0.0
 11
-152.199315
 21
339.919708
 31
0.0
  0
LINE
  5
2A24C
  8
41
 10
-155.559315
 20
347.919708
 30
0.0
 11
-155.559315
 21
339.919708
 31
0.0
  0
LINE
  5
2A24D
  8
41
 10
-152.199315
 20
333.919708
 30
0.0
 11
-152.199315
 21
312.919708
 31
0.0
  0
LINE
  5
2A24E
  8
41
 10
-155.559315
 20
333.919708
 30
0.0
 11
-155.559315
 21
312.919708
 31
0.0
  0
LINE
  5
2A24F
  8
41
 10
-59.159315
 20
322.644437
 30
0.0
 11
-149.909315
 21
324.751384
 31
0.0
  0
CIRCLE
  5
2A2AE
  8
51
 10
-489.703527
 20
527.419708
 30
0.0
 40
3.5
  0
CIRCLE
  5
2A2AF
  8
51
 10
-489.703527
 20
527.419708
 30
0.0
 40
4.25
  0
CIRCLE
  5
2A2B0
  8
51
 10
-489.703527
 20
502.419708
 30
0.0
 40
4.25
  0
CIRCLE
  5
2A2B1
  8
51
 10
-489.703527
 20
502.419708
 30
0.0
 40
3.5
  0
CIRCLE
  5
2A2B2
  8
51
 10
-489.703527
 20
377.419708
 30
0.0
 40
3.5
  0
CIRCLE
  5
2A2B3
  8
51
 10
-489.703527
 20
377.419708
 30
0.0
 40
4.25
  0
CIRCLE
  5
2A2B4
  8
51
 10
-489.703527
 20
352.419708
 30
0.0
 40
4.25
  0
CIRCLE
  5
2A2B5
  8
51
 10
-489.703527
 20
352.419708
 30
0.0
 40
3.5
  0
CIRCLE
  5
2A2B6
  8
51
 10
-264.703527
 20
352.419708
 30
0.0
 40
3.5
  0
CIRCLE
  5
2A2B7
  8
51
 10
-264.703527
 20
352.419708
 30
0.0
 40
4.25
  0
CIRCLE
  5
2A2B8
  8
51
 10
-264.703527
 20
377.419708
 30
0.0
 40
4.25
  0
CIRCLE
  5
2A2B9
  8
51
 10
-264.703527
 20
377.419708
 30
0.0
 40
3.5
  0
CIRCLE
  5
2A2BA
  8
51
 10
-264.703527
 20
502.419708
 30
0.0
 40
3.5
  0
CIRCLE
  5
2A2BB
  8
51
 10
-264.703527
 20
502.419708
 30
0.0
 40
4.25
  0
CIRCLE
  5
2A2BC
  8
51
 10
-264.703527
 20
527.419708
 30
0.0
 40
4.25
  0
CIRCLE
  5
2A2BD
  8
51
 10
-264.703527
 20
527.419708
 30
0.0
 40
3.5
  0
CIRCLE
  5
2A2BE
  8
51
 10
-264.703527
 20
477.419708
 30
0.0
 40
3.5
  0
CIRCLE
  5
2A2BF
  8
51
 10
-264.703527
 20
477.419708
 30
0.0
 40
4.25
  0
CIRCLE
  5
2A2C0
  8
51
 10
-264.703527
 20
452.419708
 30
0.0
 40
4.25
  0
CIRCLE
  5
2A2C1
  8
51
 10
-264.703527
 20
452.419708
 30
0.0
 40
3.5
  0
CIRCLE
  5
2A2C2
  8
51
 10
-264.703527
 20
427.419708
 30
0.0
 40
3.5
  0
CIRCLE
  5
2A2C3
  8
51
 10
-264.703527
 20
427.419708
 30
0.0
 40
4.25
  0
CIRCLE
  5
2A2C4
  8
51
 10
-264.703527
 20
402.419708
 30
0.0
 40
4.25
  0
CIRCLE
  5
2A2C5
  8
51
 10
-264.703527
 20
402.419708
 30
0.0
 40
3.5
  0
LINE
  5
2A2C6
  8
61
 10
67.268248
 20
522.476278
 30
0.0
 11
67.268248
 21
507.363138
 31
0.0
  0
LINE
  5
2A2C7
  8
61
 10
68.768248
 20
522.476278
 30
0.0
 11
68.768248
 21
507.363138
 31
0.0
  0
ARC
  5
2A2C8
  8
61
 10
68.018248
 20
502.419708
 30
0.0
 40
5.0
 50
98.626927
 51
261.373073
  0
LINE
  5
2A2C9
  8
61
 10
68.768248
 20
497.476278
 30
0.0
 11
68.768248
 21
489.919708
 31
0.0
  0
LINE
  5
2A2CA
  8
61
 10
67.268248
 20
497.476278
 30
0.0
 11
67.268248
 21
489.919708
 31
0.0
  0
CIRCLE
  5
2A2CB
  8
61
 10
68.018248
 20
502.419708
 30
0.0
 40
2.4
  0
ARC
  5
2A2CC
  8
61
 10
68.018248
 20
502.419708
 30
0.0
 40
5.0
 50
278.626927
 51
81.373073
  0
ARC
  5
2A2CD
  8
61
 10
68.018248
 20
527.419708
 30
0.0
 40
5.0
 50
278.626927
 51
90.0
  0
CIRCLE
  5
2A2CE
  8
61
 10
68.018248
 20
527.419708
 30
0.0
 40
2.4
  0
ARC
  5
2A2CF
  8
61
 10
68.018248
 20
527.419708
 30
0.0
 40
5.0
 50
90.0
 51
261.373073
  0
LINE
  5
2A2D0
  8
61
 10
67.268248
 20
482.363138
 30
0.0
 11
67.268248
 21
489.919708
 31
0.0
  0
LINE
  5
2A2D1
  8
61
 10
68.768248
 20
482.363138
 30
0.0
 11
68.768248
 21
489.919708
 31
0.0
  0
LINE
  5
2A2D2
  8
61
 10
68.768248
 20
397.476278
 30
0.0
 11
68.768248
 21
389.919708
 31
0.0
  0
LINE
  5
2A2D3
  8
61
 10
67.268248
 20
397.476278
 30
0.0
 11
67.268248
 21
389.919708
 31
0.0
  0
ARC
  5
2A2D4
  8
61
 10
68.018248
 20
352.419708
 30
0.0
 40
5.0
 50
98.626927
 51
270.0
  0
CIRCLE
  5
2A2D5
  8
61
 10
68.018248
 20
352.419708
 30
0.0
 40
2.4
  0
ARC
  5
2A2D6
  8
61
 10
68.018248
 20
352.419708
 30
0.0
 40
5.0
 50
270.0
 51
81.373073
  0
ARC
  5
2A2D7
  8
61
 10
68.018248
 20
377.419708
 30
0.0
 40
5.0
 50
278.626927
 51
81.373073
  0
CIRCLE
  5
2A2D8
  8
61
 10
68.018248
 20
377.419708
 30
0.0
 40
2.4
  0
LINE
  5
2A2D9
  8
61
 10
67.268248
 20
382.363138
 30
0.0
 11
67.268248
 21
389.919708
 31
0.0
  0
LINE
  5
2A2DA
  8
61
 10
68.768248
 20
382.363138
 30
0.0
 11
68.768248
 21
389.919708
 31
0.0
  0
ARC
  5
2A2DB
  8
61
 10
68.018248
 20
377.419708
 30
0.0
 40
5.0
 50
98.626927
 51
261.373073
  0
LINE
  5
2A2DC
  8
61
 10
68.768248
 20
357.363138
 30
0.0
 11
68.768248
 21
372.476278
 31
0.0
  0
LINE
  5
2A2DD
  8
61
 10
67.268248
 20
357.363138
 30
0.0
 11
67.268248
 21
372.476278
 31
0.0
  0
LINE
  5
2A2DE
  8
61
 10
293.768248
 20
357.363138
 30
0.0
 11
293.768248
 21
372.476278
 31
0.0
  0
LINE
  5
2A2DF
  8
61
 10
292.268248
 20
357.363138
 30
0.0
 11
292.268248
 21
372.476278
 31
0.0
  0
ARC
  5
2A2E0
  8
61
 10
293.018248
 20
377.419708
 30
0.0
 40
5.0
 50
278.626927
 51
81.373073
  0
LINE
  5
2A2E1
  8
61
 10
292.268248
 20
382.363138
 30
0.0
 11
292.268248
 21
389.919708
 31
0.0
  0
LINE
  5
2A2E2
  8
61
 10
293.768248
 20
382.363138
 30
0.0
 11
293.768248
 21
389.919708
 31
0.0
  0
CIRCLE
  5
2A2E3
  8
61
 10
293.018248
 20
377.419708
 30
0.0
 40
2.4
  0
ARC
  5
2A2E4
  8
61
 10
293.018248
 20
377.419708
 30
0.0
 40
5.0
 50
98.626927
 51
261.373073
  0
ARC
  5
2A2E5
  8
61
 10
293.018248
 20
352.419708
 30
0.0
 40
5.0
 50
98.626927
 51
270.0
  0
CIRCLE
  5
2A2E6
  8
61
 10
293.018248
 20
352.419708
 30
0.0
 40
2.4
  0
ARC
  5
2A2E7
  8
61
 10
293.018248
 20
352.419708
 30
0.0
 40
5.0
 50
270.0
 51
81.373073
  0
LINE
  5
2A2E8
  8
61
 10
293.768248
 20
397.476278
 30
0.0
 11
293.768248
 21
389.919708
 31
0.0
  0
LINE
  5
2A2E9
  8
61
 10
292.268248
 20
397.476278
 30
0.0
 11
292.268248
 21
389.919708
 31
0.0
  0
LINE
  5
2A2EA
  8
61
 10
292.268248
 20
482.363138
 30
0.0
 11
292.268248
 21
489.919708
 31
0.0
  0
LINE
  5
2A2EB
  8
61
 10
293.768248
 20
482.363138
 30
0.0
 11
293.768248
 21
489.919708
 31
0.0
  0
ARC
  5
2A2EC
  8
61
 10
293.018248
 20
527.419708
 30
0.0
 40
5.0
 50
278.626927
 51
90.0
  0
CIRCLE
  5
2A2ED
  8
61
 10
293.018248
 20
527.419708
 30
0.0
 40
2.4
  0
ARC
  5
2A2EE
  8
61
 10
293.018248
 20
527.419708
 30
0.0
 40
5.0
 50
90.0
 51
261.373073
  0
ARC
  5
2A2EF
  8
61
 10
293.018248
 20
502.419708
 30
0.0
 40
5.0
 50
98.626927
 51
261.373073
  0
CIRCLE
  5
2A2F0
  8
61
 10
293.018248
 20
502.419708
 30
0.0
 40
2.4
  0
LINE
  5
2A2F1
  8
61
 10
293.768248
 20
497.476278
 30
0.0
 11
293.768248
 21
489.919708
 31
0.0
  0
LINE
  5
2A2F2
  8
61
 10
292.268248
 20
497.476278
 30
0.0
 11
292.268248
 21
489.919708
 31
0.0
  0
ARC
  5
2A2F3
  8
61
 10
293.018248
 20
502.419708
 30
0.0
 40
5.0
 50
278.626927
 51
81.373073
  0
LINE
  5
2A2F4
  8
61
 10
292.268248
 20
522.476278
 30
0.0
 11
292.268248
 21
507.363138
 31
0.0
  0
LINE
  5
2A2F5
  8
61
 10
293.768248
 20
522.476278
 30
0.0
 11
293.768248
 21
507.363138
 31
0.0
  0
LINE
  5
2A2F6
  8
61
 10
293.768248
 20
472.476278
 30
0.0
 11
293.768248
 21
457.363138
 31
0.0
  0
LINE
  5
2A2F7
  8
61
 10
292.268248
 20
472.476278
 30
0.0
 11
292.268248
 21
457.363138
 31
0.0
  0
ARC
  5
2A2F8
  8
61
 10
293.018248
 20
452.419708
 30
0.0
 40
5.0
 50
278.626927
 51
81.373073
  0
LINE
  5
2A2F9
  8
61
 10
292.268248
 20
447.476278
 30
0.0
 11
292.268248
 21
439.919708
 31
0.0
  0
LINE
  5
2A2FA
  8
61
 10
293.768248
 20
447.476278
 30
0.0
 11
293.768248
 21
439.919708
 31
0.0
  0
CIRCLE
  5
2A2FB
  8
61
 10
293.018248
 20
452.419708
 30
0.0
 40
2.4
  0
ARC
  5
2A2FC
  8
61
 10
293.018248
 20
452.419708
 30
0.0
 40
5.0
 50
98.626927
 51
261.373073
  0
ARC
  5
2A2FD
  8
61
 10
293.018248
 20
477.419708
 30
0.0
 40
5.0
 50
98.626927
 51
261.373073
  0
CIRCLE
  5
2A2FE
  8
61
 10
293.018248
 20
477.419708
 30
0.0
 40
2.4
  0
ARC
  5
2A2FF
  8
61
 10
293.018248
 20
477.419708
 30
0.0
 40
5.0
 50
278.626927
 51
81.373073
  0
ARC
  5
2A300
  8
61
 10
293.018248
 20
402.419708
 30
0.0
 40
5.0
 50
278.626927
 51
81.373073
  0
CIRCLE
  5
2A301
  8
61
 10
293.018248
 20
402.419708
 30
0.0
 40
2.4
  0
ARC
  5
2A302
  8
61
 10
293.018248
 20
402.419708
 30
0.0
 40
5.0
 50
98.626927
 51
261.373073
  0
ARC
  5
2A303
  8
61
 10
293.018248
 20
427.419708
 30
0.0
 40
5.0
 50
98.626927
 51
261.373073
  0
CIRCLE
  5
2A304
  8
61
 10
293.018248
 20
427.419708
 30
0.0
 40
2.4
  0
LINE
  5
2A305
  8
61
 10
293.768248
 20
432.363138
 30
0.0
 11
293.768248
 21
439.919708
 31
0.0
  0
LINE
  5
2A306
  8
61
 10
292.268248
 20
432.363138
 30
0.0
 11
292.268248
 21
439.919708
 31
0.0
  0
ARC
  5
2A307
  8
61
 10
293.018248
 20
427.419708
 30
0.0
 40
5.0
 50
278.626927
 51
81.373073
  0
LINE
  5
2A308
  8
61
 10
292.268248
 20
407.363138
 30
0.0
 11
292.268248
 21
422.476278
 31
0.0
  0
LINE
  5
2A309
  8
61
 10
293.768248
 20
407.363138
 30
0.0
 11
293.768248
 21
422.476278
 31
0.0
  0
LINE
  5
2A30A
  8
21
 10
63.242977
 20
679.597271
 30
0.0
 11
65.349925
 21
770.347271
 31
0.0
  0
LINE
  5
2A30B
  8
21
 10
74.518248
 20
775.997271
 30
0.0
 11
53.518248
 21
775.997271
 31
0.0
  0
LINE
  5
2A30C
  8
21
 10
74.518248
 20
772.637271
 30
0.0
 11
53.518248
 21
772.637271
 31
0.0
  0
LINE
  5
2A30D
  8
21
 10
88.518248
 20
775.997271
 30
0.0
 11
80.518248
 21
775.997271
 31
0.0
  0
LINE
  5
2A30E
  8
21
 10
88.518248
 20
772.637271
 30
0.0
 11
80.518248
 21
772.637271
 31
0.0
  0
LINE
  5
2A30F
  8
21
 10
102.518248
 20
775.997271
 30
0.0
 11
94.518248
 21
775.997271
 31
0.0
  0
LINE
  5
2A310
  8
21
 10
102.518248
 20
772.637271
 30
0.0
 11
94.518248
 21
772.637271
 31
0.0
  0
LINE
  5
2A311
  8
21
 10
116.518248
 20
775.997271
 30
0.0
 11
108.518248
 21
775.997271
 31
0.0
  0
LINE
  5
2A312
  8
21
 10
116.518248
 20
772.637271
 30
0.0
 11
108.518248
 21
772.637271
 31
0.0
  0
LINE
  5
2A313
  8
21
 10
74.518248
 20
772.637271
 30
0.0
 11
74.518248
 21
775.997271
 31
0.0
  0
LINE
  5
2A314
  8
21
 10
80.518248
 20
772.637271
 30
0.0
 11
80.518248
 21
775.997271
 31
0.0
  0
LINE
  5
2A315
  8
21
 10
88.518248
 20
772.637271
 30
0.0
 11
88.518248
 21
775.997271
 31
0.0
  0
LINE
  5
2A316
  8
21
 10
94.518248
 20
772.637271
 30
0.0
 11
94.518248
 21
775.997271
 31
0.0
  0
LINE
  5
2A317
  8
21
 10
102.518248
 20
772.637271
 30
0.0
 11
102.518248
 21
775.997271
 31
0.0
  0
LINE
  5
2A318
  8
21
 10
108.518248
 20
772.637271
 30
0.0
 11
108.518248
 21
775.997271
 31
0.0
  0
LINE
  5
2A319
  8
21
 10
116.518248
 20
772.637271
 30
0.0
 11
116.518248
 21
775.997271
 31
0.0
  0
LINE
  5
2A31A
  8
21
 10
122.518248
 20
772.637271
 30
0.0
 11
122.518248
 21
775.997271
 31
0.0
  0
LINE
  5
2A31B
  8
21
 10
180.518248
 20
770.347271
 30
0.0
 11
53.518248
 21
770.347271
 31
0.0
  0
LINE
  5
2A31C
  8
21
 10
180.518248
 20
772.637271
 30
0.0
 11
122.518248
 21
772.637271
 31
0.0
  0
LINE
  5
2A31D
  8
21
 10
180.518248
 20
775.997271
 30
0.0
 11
122.518248
 21
775.997271
 31
0.0
  0
LINE
  5
2A31E
  8
21
 10
81.152223
 20
678.097271
 30
0.0
 11
69.884274
 21
678.097271
 31
0.0
  0
LINE
  5
2A31F
  8
21
 10
69.884274
 20
678.097271
 30
0.0
 11
69.018248
 21
679.597271
 31
0.0
  0
LINE
  5
2A320
  8
21
 10
81.152223
 20
678.097271
 30
0.0
 11
82.018248
 21
679.597271
 31
0.0
  0
LINE
  5
2A321
  8
21
 10
171.402223
 20
678.097271
 30
0.0
 11
172.268248
 21
679.597271
 31
0.0
  0
LINE
  5
2A322
  8
21
 10
164.634274
 20
678.097271
 30
0.0
 11
163.768248
 21
679.597271
 31
0.0
  0
LINE
  5
2A323
  8
21
 10
171.402223
 20
678.097271
 30
0.0
 11
164.634274
 21
678.097271
 31
0.0
  0
LINE
  5
2A324
  8
21
 10
146.402223
 20
678.097271
 30
0.0
 11
147.268248
 21
679.597271
 31
0.0
  0
LINE
  5
2A325
  8
21
 10
139.634274
 20
678.097271
 30
0.0
 11
138.768248
 21
679.597271
 31
0.0
  0
LINE
  5
2A326
  8
21
 10
146.402223
 20
678.097271
 30
0.0
 11
139.634274
 21
678.097271
 31
0.0
  0
LINE
  5
2A327
  8
21
 10
121.402223
 20
678.097271
 30
0.0
 11
122.268248
 21
679.597271
 31
0.0
  0
LINE
  5
2A328
  8
21
 10
114.634274
 20
678.097271
 30
0.0
 11
113.768248
 21
679.597271
 31
0.0
  0
LINE
  5
2A329
  8
21
 10
121.402223
 20
678.097271
 30
0.0
 11
114.634274
 21
678.097271
 31
0.0
  0
LINE
  5
2A32A
  8
21
 10
96.402223
 20
678.097271
 30
0.0
 11
89.634274
 21
678.097271
 31
0.0
  0
LINE
  5
2A32B
  8
21
 10
89.634274
 20
678.097271
 30
0.0
 11
88.768248
 21
679.597271
 31
0.0
  0
LINE
  5
2A32C
  8
21
 10
96.402223
 20
678.097271
 30
0.0
 11
97.268248
 21
679.597271
 31
0.0
  0
LINE
  5
2A32E
  8
21
 10
45.518248
 20
677.597271
 30
0.0
 11
45.483338
 21
679.597271
 31
0.0
  0
LINE
  5
2A32F
  8
21
 10
61.518248
 20
677.597271
 30
0.0
 11
61.553158
 21
679.597271
 31
0.0
  0
LINE
  5
2A330
  8
21
 10
180.518248
 20
679.597271
 30
0.0
 11
43.793519
 21
679.597271
 31
0.0
  0
ARC
  5
2A331
  8
21
 10
47.000945
 20
779.597271
 30
0.0
 40
1.0
 50
90.0
 51
179.0
  0
LINE
  5
2A332
  8
21
 10
45.965883
 20
777.597271
 30
0.0
 11
46.001098
 21
779.614723
 31
0.0
  0
LINE
  5
2A333
  8
21
 10
180.518248
 20
780.597271
 30
0.0
 11
67.542004
 21
780.597271
 31
0.0
  0
LINE
  5
2A334
  8
21
 10
61.518248
 20
677.597271
 30
0.0
 11
45.518248
 21
677.597271
 31
0.0
  0
LINE
  5
2A335
  8
21
 10
43.793519
 20
679.597271
 30
0.0
 11
41.686572
 21
770.347271
 31
0.0
  0
LINE
  5
2A336
  8
21
 10
180.518248
 20
777.597271
 30
0.0
 11
53.518248
 21
777.597271
 31
0.0
  0
LINE
  5
2A337
  8
21
 10
41.843753
 20
763.577207
 30
0.0
 11
41.686572
 21
770.347271
 31
0.0
  0
LINE
  5
2A338
  8
21
 10
67.542004
 20
780.597271
 30
0.0
 11
47.000941
 21
780.597271
 31
0.0
  0
LINE
  5
2A339
  8
21
 10
45.965883
 20
777.597271
 30
0.0
 11
46.001098
 21
779.614723
 31
0.0
  0
ARC
  5
2A33A
  8
21
 10
47.000945
 20
779.597271
 30
0.0
 40
1.0
 50
90.0
 51
179.0
  0
LINE
  5
2A33B
  8
21
 10
41.518248
 20
777.597271
 30
0.0
 11
45.965883
 21
777.597271
 31
0.0
  0
LINE
  5
2A33C
  8
21
 10
41.518248
 20
777.597271
 30
0.0
 11
41.518248
 21
775.959691
 31
0.0
  0
LINE
  5
2A33D
  8
21
 10
47.000945
 20
780.597271
 30
0.0
 11
47.000945
 21
780.597271
 31
0.0
  0
LINE
  5
2A33E
  8
21
 10
45.965883
 20
777.597271
 30
0.0
 11
41.518248
 21
777.597271
 31
0.0
  0
LINE
  5
2A33F
  8
21
 10
41.518248
 20
771.98485
 30
0.0
 11
41.518248
 21
770.347271
 31
0.0
  0
LINE
  5
2A340
  8
21
 10
41.518248
 20
775.959691
 30
0.0
 11
41.518248
 21
771.98485
 31
0.0
  0
LINE
  5
2A341
  8
21
 10
64.634274
 20
678.097271
 30
0.0
 11
63.768248
 21
679.597271
 31
0.0
  0
LINE
  5
2A342
  8
21
 10
71.402223
 20
678.097271
 30
0.0
 11
64.634274
 21
678.097271
 31
0.0
  0
ARC
  5
2A343
  8
21
 10
67.542004
 20
778.597271
 30
0.0
 40
2.0
 50
90.0
 51
178.67
  0
LINE
  5
2A344
  8
21
 10
65.518248
 20
777.597271
 30
0.0
 11
65.542543
 21
778.643692
 31
0.0
  0
LINE
  5
2A347
  8
21
 10
295.518248
 20
777.597271
 30
0.0
 11
295.493953
 21
778.643692
 31
0.0
  0
ARC
  5
2A348
  8
21
 10
293.494492
 20
778.597271
 30
0.0
 40
2.0
 50
1.33
 51
90.0
  0
LINE
  5
2A349
  8
21
 10
289.634274
 20
678.097271
 30
0.0
 11
296.402223
 21
678.097271
 31
0.0
  0
LINE
  5
2A34A
  8
21
 10
296.402223
 20
678.097271
 30
0.0
 11
297.268248
 21
679.597271
 31
0.0
  0
LINE
  5
2A34B
  8
21
 10
319.518248
 20
775.959691
 30
0.0
 11
319.518248
 21
771.98485
 31
0.0
  0
LINE
  5
2A34C
  8
21
 10
319.518248
 20
771.98485
 30
0.0
 11
319.518248
 21
770.347271
 31
0.0
  0
LINE
  5
2A34D
  8
21
 10
315.070613
 20
777.597271
 30
0.0
 11
319.518248
 21
777.597271
 31
0.0
  0
LINE
  5
2A34E
  8
21
 10
314.035551
 20
780.597271
 30
0.0
 11
314.035551
 21
780.597271
 31
0.0
  0
LINE
  5
2A34F
  8
21
 10
319.518248
 20
777.597271
 30
0.0
 11
319.518248
 21
775.959691
 31
0.0
  0
LINE
  5
2A350
  8
21
 10
319.518248
 20
777.597271
 30
0.0
 11
315.070613
 21
777.597271
 31
0.0
  0
ARC
  5
2A351
  8
21
 10
314.035551
 20
779.597271
 30
0.0
 40
1.0
 50
1.0
 51
90.0
  0
LINE
  5
2A352
  8
21
 10
315.070613
 20
777.597271
 30
0.0
 11
315.035399
 21
779.614723
 31
0.0
  0
LINE
  5
2A353
  8
21
 10
293.494492
 20
780.597271
 30
0.0
 11
314.035556
 21
780.597271
 31
0.0
  0
LINE
  5
2A354
  8
21
 10
319.192744
 20
763.577207
 30
0.0
 11
319.349925
 21
770.347271
 31
0.0
  0
LINE
  5
2A355
  8
21
 10
180.518248
 20
777.597271
 30
0.0
 11
307.518248
 21
777.597271
 31
0.0
  0
LINE
  5
2A356
  8
21
 10
317.242977
 20
679.597271
 30
0.0
 11
319.349925
 21
770.347271
 31
0.0
  0
LINE
  5
2A357
  8
21
 10
299.518248
 20
677.597271
 30
0.0
 11
315.518248
 21
677.597271
 31
0.0
  0
LINE
  5
2A358
  8
21
 10
180.518248
 20
780.597271
 30
0.0
 11
293.494492
 21
780.597271
 31
0.0
  0
LINE
  5
2A359
  8
21
 10
315.070613
 20
777.597271
 30
0.0
 11
315.035399
 21
779.614723
 31
0.0
  0
ARC
  5
2A35A
  8
21
 10
314.035551
 20
779.597271
 30
0.0
 40
1.0
 50
1.0
 51
90.0
  0
LINE
  5
2A35B
  8
21
 10
180.518248
 20
679.597271
 30
0.0
 11
317.242977
 21
679.597271
 31
0.0
  0
LINE
  5
2A35C
  8
21
 10
299.518248
 20
677.597271
 30
0.0
 11
299.483338
 21
679.597271
 31
0.0
  0
LINE
  5
2A35D
  8
21
 10
315.518248
 20
677.597271
 30
0.0
 11
315.553158
 21
679.597271
 31
0.0
  0
LINE
  5
2A35F
  8
21
 10
264.634274
 20
678.097271
 30
0.0
 11
263.768248
 21
679.597271
 31
0.0
  0
LINE
  5
2A360
  8
21
 10
271.402223
 20
678.097271
 30
0.0
 11
272.268248
 21
679.597271
 31
0.0
  0
LINE
  5
2A361
  8
21
 10
264.634274
 20
678.097271
 30
0.0
 11
271.402223
 21
678.097271
 31
0.0
  0
LINE
  5
2A362
  8
21
 10
239.634274
 20
678.097271
 30
0.0
 11
246.402223
 21
678.097271
 31
0.0
  0
LINE
  5
2A363
  8
21
 10
246.402223
 20
678.097271
 30
0.0
 11
247.268248
 21
679.597271
 31
0.0
  0
LINE
  5
2A364
  8
21
 10
239.634274
 20
678.097271
 30
0.0
 11
238.768248
 21
679.597271
 31
0.0
  0
LINE
  5
2A365
  8
21
 10
214.634274
 20
678.097271
 30
0.0
 11
221.402223
 21
678.097271
 31
0.0
  0
LINE
  5
2A366
  8
21
 10
221.402223
 20
678.097271
 30
0.0
 11
222.268248
 21
679.597271
 31
0.0
  0
LINE
  5
2A367
  8
21
 10
214.634274
 20
678.097271
 30
0.0
 11
213.768248
 21
679.597271
 31
0.0
  0
LINE
  5
2A368
  8
21
 10
189.634274
 20
678.097271
 30
0.0
 11
196.402223
 21
678.097271
 31
0.0
  0
LINE
  5
2A369
  8
21
 10
196.402223
 20
678.097271
 30
0.0
 11
197.268248
 21
679.597271
 31
0.0
  0
LINE
  5
2A36A
  8
21
 10
189.634274
 20
678.097271
 30
0.0
 11
188.768248
 21
679.597271
 31
0.0
  0
LINE
  5
2A36B
  8
21
 10
279.884274
 20
678.097271
 30
0.0
 11
279.018248
 21
679.597271
 31
0.0
  0
LINE
  5
2A36C
  8
21
 10
291.152223
 20
678.097271
 30
0.0
 11
292.018248
 21
679.597271
 31
0.0
  0
LINE
  5
2A36D
  8
21
 10
279.884274
 20
678.097271
 30
0.0
 11
291.152223
 21
678.097271
 31
0.0
  0
LINE
  5
2A36E
  8
21
 10
180.518248
 20
775.997271
 30
0.0
 11
238.518248
 21
775.997271
 31
0.0
  0
LINE
  5
2A36F
  8
21
 10
180.518248
 20
772.637271
 30
0.0
 11
238.518248
 21
772.637271
 31
0.0
  0
LINE
  5
2A370
  8
21
 10
180.518248
 20
770.347271
 30
0.0
 11
307.518248
 21
770.347271
 31
0.0
  0
LINE
  5
2A371
  8
21
 10
238.518248
 20
772.637271
 30
0.0
 11
238.518248
 21
775.997271
 31
0.0
  0
LINE
  5
2A372
  8
21
 10
244.518248
 20
772.637271
 30
0.0
 11
244.518248
 21
775.997271
 31
0.0
  0
LINE
  5
2A373
  8
21
 10
252.518248
 20
772.637271
 30
0.0
 11
252.518248
 21
775.997271
 31
0.0
  0
LINE
  5
2A374
  8
21
 10
258.518248
 20
772.637271
 30
0.0
 11
258.518248
 21
775.997271
 31
0.0
  0
LINE
  5
2A375
  8
21
 10
266.518248
 20
772.637271
 30
0.0
 11
266.518248
 21
775.997271
 31
0.0
  0
LINE
  5
2A376
  8
21
 10
272.518248
 20
772.637271
 30
0.0
 11
272.518248
 21
775.997271
 31
0.0
  0
LINE
  5
2A377
  8
21
 10
280.518248
 20
772.637271
 30
0.0
 11
280.518248
 21
775.997271
 31
0.0
  0
LINE
  5
2A378
  8
21
 10
286.518248
 20
772.637271
 30
0.0
 11
286.518248
 21
775.997271
 31
0.0
  0
LINE
  5
2A379
  8
21
 10
244.518248
 20
772.637271
 30
0.0
 11
252.518248
 21
772.637271
 31
0.0
  0
LINE
  5
2A37A
  8
21
 10
244.518248
 20
775.997271
 30
0.0
 11
252.518248
 21
775.997271
 31
0.0
  0
LINE
  5
2A37B
  8
21
 10
258.518248
 20
772.637271
 30
0.0
 11
266.518248
 21
772.637271
 31
0.0
  0
LINE
  5
2A37C
  8
21
 10
258.518248
 20
775.997271
 30
0.0
 11
266.518248
 21
775.997271
 31
0.0
  0
LINE
  5
2A37D
  8
21
 10
272.518248
 20
772.637271
 30
0.0
 11
280.518248
 21
772.637271
 31
0.0
  0
LINE
  5
2A37E
  8
21
 10
272.518248
 20
775.997271
 30
0.0
 11
280.518248
 21
775.997271
 31
0.0
  0
LINE
  5
2A37F
  8
21
 10
286.518248
 20
772.637271
 30
0.0
 11
307.518248
 21
772.637271
 31
0.0
  0
LINE
  5
2A380
  8
21
 10
286.518248
 20
775.997271
 30
0.0
 11
307.518248
 21
775.997271
 31
0.0
  0
LINE
  5
2A381
  8
21
 10
297.793519
 20
679.597271
 30
0.0
 11
295.686572
 21
770.347271
 31
0.0
  0
LINE
  5
2A382
  8
24
 10
95.418248
 20
689.947271
 30
0.0
 11
93.018248
 21
689.947271
 31
0.0
  0
LINE
  5
2A383
  8
24
 10
90.618248
 20
689.947271
 30
0.0
 11
93.018248
 21
689.947271
 31
0.0
  0
LINE
  5
2A384
  8
24
 10
81.623283
 20
683.429818
 30
0.0
 11
81.518248
 21
689.447271
 31
0.0
  0
LINE
  5
2A385
  8
24
 10
75.518248
 20
689.947271
 30
0.0
 11
79.568248
 21
689.947271
 31
0.0
  0
LINE
  5
2A386
  8
24
 10
75.518248
 20
689.947271
 30
0.0
 11
70.018248
 21
689.947271
 31
0.0
  0
LINE
  5
2A387
  8
24
 10
69.413213
 20
683.429818
 30
0.0
 11
69.518248
 21
689.447271
 31
0.0
  0
LINE
  5
2A388
  8
24
 10
71.468248
 20
689.947271
 30
0.0
 11
70.018248
 21
689.947271
 31
0.0
  0
LINE
  5
2A389
  8
24
 10
79.568248
 20
689.947271
 30
0.0
 11
81.018248
 21
689.947271
 31
0.0
  0
ARC
  5
2A38A
  8
24
 10
70.018248
 20
689.447271
 30
0.0
 40
0.5
 50
90.0
 51
180.0
  0
ARC
  5
2A38B
  8
24
 10
81.018248
 20
689.447271
 30
0.0
 40
0.5
 50
0.0
 51
90.0
  0
ARC
  5
2A38C
  8
24
 10
88.518248
 20
689.447271
 30
0.0
 40
0.5
 50
90.0
 51
180.0
  0
ARC
  5
2A38D
  8
24
 10
97.518248
 20
689.447271
 30
0.0
 40
0.5
 50
0.0
 51
90.0
  0
LINE
  5
2A38E
  8
24
 10
98.018248
 20
689.447271
 30
0.0
 11
98.018248
 21
684.447271
 31
0.0
  0
LINE
  5
2A38F
  8
24
 10
97.518248
 20
689.947271
 30
0.0
 11
95.418248
 21
689.947271
 31
0.0
  0
ARC
  5
2A390
  8
24
 10
100.018248
 20
684.447271
 30
0.0
 40
2.0
 50
180.0
 51
270.0
  0
ARC
  5
2A391
  8
24
 10
86.018248
 20
684.447271
 30
0.0
 40
2.0
 50
270.0
 51
0.0
  0
LINE
  5
2A392
  8
24
 10
88.518248
 20
689.947271
 30
0.0
 11
90.618248
 21
689.947271
 31
0.0
  0
LINE
  5
2A393
  8
24
 10
88.018248
 20
689.447271
 30
0.0
 11
88.018248
 21
684.447271
 31
0.0
  0
ARC
  5
2A394
  8
24
 10
82.623131
 20
683.447271
 30
0.0
 40
1.0
 50
181.0
 51
270.0
  0
ARC
  5
2A395
  8
24
 10
68.413365
 20
683.447271
 30
0.0
 40
1.0
 50
270.0
 51
359.0
  0
LINE
  5
2A396
  8
24
 10
65.713072
 20
780.447271
 30
0.0
 11
66.551004
 21
684.429818
 31
0.0
  0
ARC
  5
2A397
  8
24
 10
68.550928
 20
684.447271
 30
0.0
 40
2.0
 50
180.5
 51
270.0
  0
LINE
  5
2A398
  8
24
 10
68.550928
 20
682.447271
 30
0.0
 11
164.43254
 21
682.447271
 31
0.0
  0
ARC
  5
2A399
  8
24
 10
180.518248
 20
634.947271
 30
0.0
 40
50.0
 50
90.0
 51
107.668179
  0
ARC
  5
2A39A
  8
24
 10
180.518248
 20
634.947271
 30
0.0
 40
47.0
 50
90.0
 51
108.194872
  0
ARC
  5
2A39B
  8
24
 10
180.518248
 20
634.947271
 30
0.0
 40
47.0
 50
71.805128
 51
90.0
  0
ARC
  5
2A39C
  8
24
 10
180.518248
 20
634.947271
 30
0.0
 40
50.0
 50
72.331821
 51
90.0
  0
ARC
  5
2A39D
  8
24
 10
164.43254
 20
685.447271
 30
0.0
 40
3.0
 50
270.0
 51
287.668179
  0
LINE
  5
2A39E
  8
24
 10
291.494257
 20
682.447271
 30
0.0
 11
196.603956
 21
682.447271
 31
0.0
  0
ARC
  5
2A39F
  8
24
 10
291.494257
 20
685.447271
 30
0.0
 40
3.0
 50
270.0
 51
359.5
  0
LINE
  5
2A3A0
  8
24
 10
295.315639
 20
779.555125
 30
0.0
 11
294.494143
 21
685.421091
 31
0.0
  0
LINE
  5
2A3A1
  8
21
 10
296.215604
 20
780.447271
 30
0.0
 11
296.444128
 21
780.447271
 31
0.0
  0
ARC
  5
2A3A2
  8
24
 10
296.215604
 20
779.547271
 30
0.0
 40
0.9
 50
90.0
 51
179.5
  0
ARC
  5
2A3A4
  8
14
 10
296.215604
 20
100.292145
 30
0.0
 40
0.9
 50
180.5
 51
270.0
  0
LINE
  5
2A3A5
  8
11
 10
296.215604
 20
99.392145
 30
0.0
 11
296.444128
 21
99.392145
 31
0.0
  0
LINE
  5
2A3A6
  8
14
 10
295.315639
 20
100.284291
 30
0.0
 11
294.494143
 21
194.418325
 31
0.0
  0
ARC
  5
2A3A7
  8
14
 10
291.494257
 20
194.392145
 30
0.0
 40
3.0
 50
0.5
 51
90.0
  0
LINE
  5
2A3A8
  8
14
 10
291.494257
 20
197.392145
 30
0.0
 11
196.603956
 21
197.392145
 31
0.0
  0
ARC
  5
2A3A9
  8
14
 10
164.43254
 20
194.392145
 30
0.0
 40
3.0
 50
72.331821
 51
90.0
  0
ARC
  5
2A3AA
  8
14
 10
180.518248
 20
244.892145
 30
0.0
 40
50.0
 50
270.0
 51
287.668179
  0
ARC
  5
2A3AB
  8
14
 10
180.518248
 20
244.892145
 30
0.0
 40
47.0
 50
270.0
 51
288.194872
  0
ARC
  5
2A3AC
  8
14
 10
180.518248
 20
244.892145
 30
0.0
 40
47.0
 50
251.805128
 51
270.0
  0
ARC
  5
2A3AD
  8
14
 10
180.518248
 20
244.892145
 30
0.0
 40
50.0
 50
252.331821
 51
270.0
  0
LINE
  5
2A3AE
  8
14
 10
68.550928
 20
197.392145
 30
0.0
 11
164.43254
 21
197.392145
 31
0.0
  0
ARC
  5
2A3AF
  8
14
 10
68.550928
 20
195.392145
 30
0.0
 40
2.0
 50
90.0
 51
179.5
  0
LINE
  5
2A3B0
  8
14
 10
65.713072
 20
99.392145
 30
0.0
 11
66.551004
 21
195.409598
 31
0.0
  0
ARC
  5
2A3B1
  8
14
 10
68.413365
 20
196.392145
 30
0.0
 40
1.0
 50
1.0
 51
90.0
  0
ARC
  5
2A3B2
  8
14
 10
82.623131
 20
196.392145
 30
0.0
 40
1.0
 50
90.0
 51
179.0
  0
LINE
  5
2A3B3
  8
14
 10
88.018248
 20
190.392145
 30
0.0
 11
88.018248
 21
195.392145
 31
0.0
  0
LINE
  5
2A3B4
  8
14
 10
88.518248
 20
189.892145
 30
0.0
 11
90.618248
 21
189.892145
 31
0.0
  0
ARC
  5
2A3B5
  8
14
 10
86.018248
 20
195.392145
 30
0.0
 40
2.0
 50
0.0
 51
90.0
  0
ARC
  5
2A3B6
  8
14
 10
100.018248
 20
195.392145
 30
0.0
 40
2.0
 50
90.0
 51
180.0
  0
LINE
  5
2A3B7
  8
14
 10
97.518248
 20
189.892145
 30
0.0
 11
95.418248
 21
189.892145
 31
0.0
  0
LINE
  5
2A3B8
  8
14
 10
98.018248
 20
190.392145
 30
0.0
 11
98.018248
 21
195.392145
 31
0.0
  0
ARC
  5
2A3B9
  8
14
 10
97.518248
 20
190.392145
 30
0.0
 40
0.5
 50
270.0
 51
0.0
  0
ARC
  5
2A3BA
  8
14
 10
88.518248
 20
190.392145
 30
0.0
 40
0.5
 50
180.0
 51
270.0
  0
ARC
  5
2A3BB
  8
14
 10
81.018248
 20
190.392145
 30
0.0
 40
0.5
 50
270.0
 51
360.0
  0
ARC
  5
2A3BC
  8
14
 10
70.018248
 20
190.392145
 30
0.0
 40
0.5
 50
180.0
 51
270.0
  0
LINE
  5
2A3BD
  8
14
 10
79.568248
 20
189.892145
 30
0.0
 11
81.018248
 21
189.892145
 31
0.0
  0
LINE
  5
2A3BE
  8
14
 10
71.468248
 20
189.892145
 30
0.0
 11
70.018248
 21
189.892145
 31
0.0
  0
LINE
  5
2A3BF
  8
14
 10
69.413213
 20
196.409598
 30
0.0
 11
69.518248
 21
190.392145
 31
0.0
  0
LINE
  5
2A3C0
  8
14
 10
75.518248
 20
189.892145
 30
0.0
 11
70.018248
 21
189.892145
 31
0.0
  0
LINE
  5
2A3C1
  8
14
 10
75.518248
 20
189.892145
 30
0.0
 11
79.568248
 21
189.892145
 31
0.0
  0
LINE
  5
2A3C2
  8
14
 10
81.623283
 20
196.409598
 30
0.0
 11
81.518248
 21
190.392145
 31
0.0
  0
LINE
  5
2A3C3
  8
14
 10
90.618248
 20
189.892145
 30
0.0
 11
93.018248
 21
189.892145
 31
0.0
  0
LINE
  5
2A3C4
  8
14
 10
95.418248
 20
189.892145
 30
0.0
 11
93.018248
 21
189.892145
 31
0.0
  0
LINE
  5
2A3C5
  8
11
 10
297.793519
 20
200.242145
 30
0.0
 11
295.686572
 21
109.492145
 31
0.0
  0
LINE
  5
2A3C6
  8
11
 10
286.518248
 20
103.842145
 30
0.0
 11
307.518248
 21
103.842145
 31
0.0
  0
LINE
  5
2A3C7
  8
11
 10
286.518248
 20
107.202145
 30
0.0
 11
307.518248
 21
107.202145
 31
0.0
  0
LINE
  5
2A3C8
  8
11
 10
272.518248
 20
103.842145
 30
0.0
 11
280.518248
 21
103.842145
 31
0.0
  0
LINE
  5
2A3C9
  8
11
 10
272.518248
 20
107.202145
 30
0.0
 11
280.518248
 21
107.202145
 31
0.0
  0
LINE
  5
2A3CA
  8
11
 10
258.518248
 20
103.842145
 30
0.0
 11
266.518248
 21
103.842145
 31
0.0
  0
LINE
  5
2A3CB
  8
11
 10
258.518248
 20
107.202145
 30
0.0
 11
266.518248
 21
107.202145
 31
0.0
  0
LINE
  5
2A3CC
  8
11
 10
244.518248
 20
103.842145
 30
0.0
 11
252.518248
 21
103.842145
 31
0.0
  0
LINE
  5
2A3CD
  8
11
 10
244.518248
 20
107.202145
 30
0.0
 11
252.518248
 21
107.202145
 31
0.0
  0
LINE
  5
2A3CE
  8
11
 10
286.518248
 20
107.202145
 30
0.0
 11
286.518248
 21
103.842145
 31
0.0
  0
LINE
  5
2A3CF
  8
11
 10
280.518248
 20
107.202145
 30
0.0
 11
280.518248
 21
103.842145
 31
0.0
  0
LINE
  5
2A3D0
  8
11
 10
272.518248
 20
107.202145
 30
0.0
 11
272.518248
 21
103.842145
 31
0.0
  0
LINE
  5
2A3D1
  8
11
 10
266.518248
 20
107.202145
 30
0.0
 11
266.518248
 21
103.842145
 31
0.0
  0
LINE
  5
2A3D2
  8
11
 10
258.518248
 20
107.202145
 30
0.0
 11
258.518248
 21
103.842145
 31
0.0
  0
LINE
  5
2A3D3
  8
11
 10
252.518248
 20
107.202145
 30
0.0
 11
252.518248
 21
103.842145
 31
0.0
  0
LINE
  5
2A3D4
  8
11
 10
244.518248
 20
107.202145
 30
0.0
 11
244.518248
 21
103.842145
 31
0.0
  0
LINE
  5
2A3D5
  8
11
 10
238.518248
 20
107.202145
 30
0.0
 11
238.518248
 21
103.842145
 31
0.0
  0
LINE
  5
2A3D6
  8
11
 10
180.518248
 20
109.492145
 30
0.0
 11
307.518248
 21
109.492145
 31
0.0
  0
LINE
  5
2A3D7
  8
11
 10
180.518248
 20
107.202145
 30
0.0
 11
238.518248
 21
107.202145
 31
0.0
  0
LINE
  5
2A3D8
  8
11
 10
180.518248
 20
103.842145
 30
0.0
 11
238.518248
 21
103.842145
 31
0.0
  0
LINE
  5
2A3D9
  8
11
 10
279.884274
 20
201.742145
 30
0.0
 11
291.152223
 21
201.742145
 31
0.0
  0
LINE
  5
2A3DA
  8
11
 10
291.152223
 20
201.742145
 30
0.0
 11
292.018248
 21
200.242145
 31
0.0
  0
LINE
  5
2A3DB
  8
11
 10
279.884274
 20
201.742145
 30
0.0
 11
279.018248
 21
200.242145
 31
0.0
  0
LINE
  5
2A3DC
  8
11
 10
189.634274
 20
201.742145
 30
0.0
 11
188.768248
 21
200.242145
 31
0.0
  0
LINE
  5
2A3DD
  8
11
 10
196.402223
 20
201.742145
 30
0.0
 11
197.268248
 21
200.242145
 31
0.0
  0
LINE
  5
2A3DE
  8
11
 10
189.634274
 20
201.742145
 30
0.0
 11
196.402223
 21
201.742145
 31
0.0
  0
LINE
  5
2A3DF
  8
11
 10
214.634274
 20
201.742145
 30
0.0
 11
213.768248
 21
200.242145
 31
0.0
  0
LINE
  5
2A3E0
  8
11
 10
221.402223
 20
201.742145
 30
0.0
 11
222.268248
 21
200.242145
 31
0.0
  0
LINE
  5
2A3E1
  8
11
 10
214.634274
 20
201.742145
 30
0.0
 11
221.402223
 21
201.742145
 31
0.0
  0
LINE
  5
2A3E2
  8
11
 10
239.634274
 20
201.742145
 30
0.0
 11
238.768248
 21
200.242145
 31
0.0
  0
LINE
  5
2A3E3
  8
11
 10
246.402223
 20
201.742145
 30
0.0
 11
247.268248
 21
200.242145
 31
0.0
  0
LINE
  5
2A3E4
  8
11
 10
239.634274
 20
201.742145
 30
0.0
 11
246.402223
 21
201.742145
 31
0.0
  0
LINE
  5
2A3E5
  8
11
 10
264.634274
 20
201.742145
 30
0.0
 11
271.402223
 21
201.742145
 31
0.0
  0
LINE
  5
2A3E6
  8
11
 10
271.402223
 20
201.742145
 30
0.0
 11
272.268248
 21
200.242145
 31
0.0
  0
LINE
  5
2A3E7
  8
11
 10
264.634274
 20
201.742145
 30
0.0
 11
263.768248
 21
200.242145
 31
0.0
  0
LINE
  5
2A3E9
  8
11
 10
315.518248
 20
202.242145
 30
0.0
 11
315.553158
 21
200.242145
 31
0.0
  0
LINE
  5
2A3EA
  8
11
 10
299.518248
 20
202.242145
 30
0.0
 11
299.483338
 21
200.242145
 31
0.0
  0
LINE
  5
2A3EB
  8
11
 10
180.518248
 20
200.242145
 30
0.0
 11
317.242977
 21
200.242145
 31
0.0
  0
ARC
  5
2A3EC
  8
11
 10
314.035551
 20
100.242145
 30
0.0
 40
1.0
 50
270.0
 51
359.0
  0
LINE
  5
2A3ED
  8
11
 10
315.070613
 20
102.242145
 30
0.0
 11
315.035399
 21
100.224693
 31
0.0
  0
LINE
  5
2A3EE
  8
11
 10
180.518248
 20
99.242145
 30
0.0
 11
293.494492
 21
99.242145
 31
0.0
  0
LINE
  5
2A3EF
  8
11
 10
299.518248
 20
202.242145
 30
0.0
 11
315.518248
 21
202.242145
 31
0.0
  0
LINE
  5
2A3F0
  8
11
 10
317.242977
 20
200.242145
 30
0.0
 11
319.349925
 21
109.492145
 31
0.0
  0
LINE
  5
2A3F1
  8
11
 10
180.518248
 20
102.242145
 30
0.0
 11
307.518248
 21
102.242145
 31
0.0
  0
LINE
  5
2A3F2
  8
13
 10
180.518248
 20
210.242145
 30
0.0
 11
180.518248
 21
89.242145
 31
0.0
  0
LINE
  5
2A3F3
  8
11
 10
319.192744
 20
116.262209
 30
0.0
 11
319.349925
 21
109.492145
 31
0.0
  0
LINE
  5
2A3F4
  8
11
 10
293.494492
 20
99.242145
 30
0.0
 11
314.035556
 21
99.242145
 31
0.0
  0
LINE
  5
2A3F5
  8
11
 10
315.070613
 20
102.242145
 30
0.0
 11
315.035399
 21
100.224693
 31
0.0
  0
ARC
  5
2A3F6
  8
11
 10
314.035551
 20
100.242145
 30
0.0
 40
1.0
 50
270.0
 51
359.0
  0
LINE
  5
2A3F7
  8
11
 10
319.518248
 20
102.242145
 30
0.0
 11
315.070613
 21
102.242145
 31
0.0
  0
LINE
  5
2A3F8
  8
11
 10
319.518248
 20
102.242145
 30
0.0
 11
319.518248
 21
103.879725
 31
0.0
  0
LINE
  5
2A3F9
  8
11
 10
314.035551
 20
99.242145
 30
0.0
 11
314.035551
 21
99.242145
 31
0.0
  0
LINE
  5
2A3FA
  8
11
 10
315.070613
 20
102.242145
 30
0.0
 11
319.518248
 21
102.242145
 31
0.0
  0
LINE
  5
2A3FB
  8
11
 10
319.518248
 20
107.854566
 30
0.0
 11
319.518248
 21
109.492145
 31
0.0
  0
LINE
  5
2A3FC
  8
11
 10
319.518248
 20
103.879725
 30
0.0
 11
319.518248
 21
107.854566
 31
0.0
  0
LINE
  5
2A3FD
  8
11
 10
296.402223
 20
201.742145
 30
0.0
 11
297.268248
 21
200.242145
 31
0.0
  0
LINE
  5
2A3FE
  8
11
 10
289.634274
 20
201.742145
 30
0.0
 11
296.402223
 21
201.742145
 31
0.0
  0
ARC
  5
2A3FF
  8
11
 10
293.494492
 20
101.242145
 30
0.0
 40
2.0
 50
270.0
 51
358.67
  0
LINE
  5
2A400
  8
11
 10
295.518248
 20
102.242145
 30
0.0
 11
295.493953
 21
101.195724
 31
0.0
  0
LINE
  5
2A403
  8
11
 10
65.518248
 20
102.242145
 30
0.0
 11
65.542543
 21
101.195724
 31
0.0
  0
ARC
  5
2A404
  8
11
 10
67.542004
 20
101.242145
 30
0.0
 40
2.0
 50
181.33
 51
270.0
  0
LINE
  5
2A405
  8
11
 10
71.402223
 20
201.742145
 30
0.0
 11
64.634274
 21
201.742145
 31
0.0
  0
LINE
  5
2A406
  8
11
 10
64.634274
 20
201.742145
 30
0.0
 11
63.768248
 21
200.242145
 31
0.0
  0
LINE
  5
2A407
  8
11
 10
41.518248
 20
103.879725
 30
0.0
 11
41.518248
 21
107.854566
 31
0.0
  0
LINE
  5
2A408
  8
11
 10
41.518248
 20
107.854566
 30
0.0
 11
41.518248
 21
109.492145
 31
0.0
  0
LINE
  5
2A409
  8
11
 10
45.965883
 20
102.242145
 30
0.0
 11
41.518248
 21
102.242145
 31
0.0
  0
LINE
  5
2A40A
  8
11
 10
47.000945
 20
99.242145
 30
0.0
 11
47.000945
 21
99.242145
 31
0.0
  0
LINE
  5
2A40B
  8
11
 10
41.518248
 20
102.242145
 30
0.0
 11
41.518248
 21
103.879725
 31
0.0
  0
LINE
  5
2A40C
  8
11
 10
41.518248
 20
102.242145
 30
0.0
 11
45.965883
 21
102.242145
 31
0.0
  0
ARC
  5
2A40D
  8
11
 10
47.000945
 20
100.242145
 30
0.0
 40
1.0
 50
181.0
 51
270.0
  0
LINE
  5
2A40E
  8
11
 10
45.965883
 20
102.242145
 30
0.0
 11
46.001098
 21
100.224693
 31
0.0
  0
LINE
  5
2A40F
  8
11
 10
67.542004
 20
99.242145
 30
0.0
 11
47.000941
 21
99.242145
 31
0.0
  0
LINE
  5
2A410
  8
11
 10
41.843753
 20
116.262209
 30
0.0
 11
41.686572
 21
109.492145
 31
0.0
  0
LINE
  5
2A412
  8
11
 10
180.518248
 20
102.242145
 30
0.0
 11
53.518248
 21
102.242145
 31
0.0
  0
LINE
  5
2A413
  8
11
 10
43.793519
 20
200.242145
 30
0.0
 11
41.686572
 21
109.492145
 31
0.0
  0
LINE
  5
2A414
  8
11
 10
61.518248
 20
202.242145
 30
0.0
 11
45.518248
 21
202.242145
 31
0.0
  0
LINE
  5
2A415
  8
11
 10
180.518248
 20
99.242145
 30
0.0
 11
67.542004
 21
99.242145
 31
0.0
  0
LINE
  5
2A416
  8
11
 10
45.965883
 20
102.242145
 30
0.0
 11
46.001098
 21
100.224693
 31
0.0
  0
ARC
  5
2A417
  8
11
 10
47.000945
 20
100.242145
 30
0.0
 40
1.0
 50
181.0
 51
270.0
  0
LINE
  5
2A418
  8
11
 10
180.518248
 20
200.242145
 30
0.0
 11
43.793519
 21
200.242145
 31
0.0
  0
LINE
  5
2A419
  8
11
 10
61.518248
 20
202.242145
 30
0.0
 11
61.553158
 21
200.242145
 31
0.0
  0
LINE
  5
2A41A
  8
11
 10
45.518248
 20
202.242145
 30
0.0
 11
45.483338
 21
200.242145
 31
0.0
  0
LINE
  5
2A41C
  8
11
 10
96.402223
 20
201.742145
 30
0.0
 11
97.268248
 21
200.242145
 31
0.0
  0
LINE
  5
2A41D
  8
11
 10
89.634274
 20
201.742145
 30
0.0
 11
88.768248
 21
200.242145
 31
0.0
  0
LINE
  5
2A41E
  8
11
 10
96.402223
 20
201.742145
 30
0.0
 11
89.634274
 21
201.742145
 31
0.0
  0
LINE
  5
2A41F
  8
11
 10
121.402223
 20
201.742145
 30
0.0
 11
114.634274
 21
201.742145
 31
0.0
  0
LINE
  5
2A420
  8
11
 10
114.634274
 20
201.742145
 30
0.0
 11
113.768248
 21
200.242145
 31
0.0
  0
LINE
  5
2A421
  8
11
 10
121.402223
 20
201.742145
 30
0.0
 11
122.268248
 21
200.242145
 31
0.0
  0
LINE
  5
2A422
  8
11
 10
146.402223
 20
201.742145
 30
0.0
 11
139.634274
 21
201.742145
 31
0.0
  0
LINE
  5
2A423
  8
11
 10
139.634274
 20
201.742145
 30
0.0
 11
138.768248
 21
200.242145
 31
0.0
  0
LINE
  5
2A424
  8
11
 10
146.402223
 20
201.742145
 30
0.0
 11
147.268248
 21
200.242145
 31
0.0
  0
LINE
  5
2A425
  8
11
 10
171.402223
 20
201.742145
 30
0.0
 11
164.634274
 21
201.742145
 31
0.0
  0
LINE
  5
2A426
  8
11
 10
164.634274
 20
201.742145
 30
0.0
 11
163.768248
 21
200.242145
 31
0.0
  0
LINE
  5
2A427
  8
11
 10
171.402223
 20
201.742145
 30
0.0
 11
172.268248
 21
200.242145
 31
0.0
  0
LINE
  5
2A428
  8
11
 10
81.152223
 20
201.742145
 30
0.0
 11
82.018248
 21
200.242145
 31
0.0
  0
LINE
  5
2A429
  8
11
 10
69.884274
 20
201.742145
 30
0.0
 11
69.018248
 21
200.242145
 31
0.0
  0
LINE
  5
2A42A
  8
11
 10
81.152223
 20
201.742145
 30
0.0
 11
69.884274
 21
201.742145
 31
0.0
  0
LINE
  5
2A42B
  8
11
 10
180.518248
 20
103.842145
 30
0.0
 11
122.518248
 21
103.842145
 31
0.0
  0
LINE
  5
2A42C
  8
11
 10
180.518248
 20
107.202145
 30
0.0
 11
122.518248
 21
107.202145
 31
0.0
  0
LINE
  5
2A42D
  8
11
 10
180.518248
 20
109.492145
 30
0.0
 11
53.518248
 21
109.492145
 31
0.0
  0
LINE
  5
2A42E
  8
11
 10
122.518248
 20
107.202145
 30
0.0
 11
122.518248
 21
103.842145
 31
0.0
  0
LINE
  5
2A42F
  8
11
 10
116.518248
 20
107.202145
 30
0.0
 11
116.518248
 21
103.842145
 31
0.0
  0
LINE
  5
2A430
  8
11
 10
108.518248
 20
107.202145
 30
0.0
 11
108.518248
 21
103.842145
 31
0.0
  0
LINE
  5
2A431
  8
11
 10
102.518248
 20
107.202145
 30
0.0
 11
102.518248
 21
103.842145
 31
0.0
  0
LINE
  5
2A432
  8
11
 10
94.518248
 20
107.202145
 30
0.0
 11
94.518248
 21
103.842145
 31
0.0
  0
LINE
  5
2A433
  8
11
 10
88.518248
 20
107.202145
 30
0.0
 11
88.518248
 21
103.842145
 31
0.0
  0
LINE
  5
2A434
  8
11
 10
80.518248
 20
107.202145
 30
0.0
 11
80.518248
 21
103.842145
 31
0.0
  0
LINE
  5
2A435
  8
11
 10
74.518248
 20
107.202145
 30
0.0
 11
74.518248
 21
103.842145
 31
0.0
  0
LINE
  5
2A436
  8
11
 10
116.518248
 20
107.202145
 30
0.0
 11
108.518248
 21
107.202145
 31
0.0
  0
LINE
  5
2A437
  8
11
 10
116.518248
 20
103.842145
 30
0.0
 11
108.518248
 21
103.842145
 31
0.0
  0
LINE
  5
2A438
  8
11
 10
102.518248
 20
107.202145
 30
0.0
 11
94.518248
 21
107.202145
 31
0.0
  0
LINE
  5
2A439
  8
11
 10
102.518248
 20
103.842145
 30
0.0
 11
94.518248
 21
103.842145
 31
0.0
  0
LINE
  5
2A43A
  8
11
 10
88.518248
 20
107.202145
 30
0.0
 11
80.518248
 21
107.202145
 31
0.0
  0
LINE
  5
2A43B
  8
11
 10
88.518248
 20
103.842145
 30
0.0
 11
80.518248
 21
103.842145
 31
0.0
  0
LINE
  5
2A43C
  8
11
 10
74.518248
 20
107.202145
 30
0.0
 11
53.518248
 21
107.202145
 31
0.0
  0
LINE
  5
2A43D
  8
11
 10
74.518248
 20
103.842145
 30
0.0
 11
53.518248
 21
103.842145
 31
0.0
  0
LINE
  5
2A43E
  8
11
 10
63.242977
 20
200.242145
 30
0.0
 11
65.349925
 21
109.492145
 31
0.0
  0
TEXT
  5
2A43F
  8
L20
 10
-458.891981
 20
715.127571
 30
0.0
 40
17.85
  1
FIBOX EK-O 278x278x100 BASE
  0
LINE
  5
2A440
  8
61
 10
309.518248
 20
325.265007
 30
0.0
 11
309.518248
 21
439.919708
 31
0.0
  0
LINE
  5
2A441
  8
61
 10
309.518248
 20
554.574409
 30
0.0
 11
309.518248
 21
439.919708
 31
0.0
  0
LINE
  5
2A442
  8
61
 10
51.518248
 20
554.574409
 30
0.0
 11
51.518248
 21
439.919708
 31
0.0
  0
LINE
  5
2A443
  8
61
 10
51.518248
 20
325.265007
 30
0.0
 11
51.518248
 21
439.919708
 31
0.0
  0
VIEWPORT
  5
1
 67
     1
  8
0
 10
210.0
 20
152.094241
 30
0.0
 40
420.0
 41
304.188482
 68
    -1
 69
     1
1001
ACAD
1000
MVIEW
1002
{
1070
    16
1010
0.0
1020
0.0
1030
0.0
1010
0.0
1020
0.0
1030
1.0
1040
0.0
1040
304.188482
1040
210.0
1040
152.094241
1040
50.0
1040
0.0
1040
0.0
1070
     0
1070
   100
1070
     1
1070
     1
1070
     1
1070
     0
1070
     0
1070
     0
1040
0.0
1040
0.0
1040
0.0
1040
1.0
1040
1.0
1040
0.0
1040
0.0
1070
     0
1002
{
1002
}
1002
}
  0
ENDSEC
  0
EOF
