  0
SECTION
  2
HEADER
  9
$ACADVER
  1
AC1009
  9
$INSBASE
 10
0.0
 20
0.0
 30
0.0
  9
$EXTMIN
 10
-109.172156
 20
117.04587
 30
0.0
  9
$EXTMAX
 10
1031.423687
 20
642.998516
 30
0.0
  9
$LIMMIN
 10
0.0
 20
0.0
  9
$LIMMAX
 10
420.0
 20
297.0
  9
$ORTHOMODE
 70
     1
  9
$REGENMODE
 70
     1
  9
$FILLMODE
 70
     1
  9
$QTEXTMODE
 70
     0
  9
$MIRRTEXT
 70
     1
  9
$DRAGMODE
 70
     2
  9
$LTSCALE
 40
7.0
  9
$OSMODE
 70
     0
  9
$ATTMODE
 70
     1
  9
$TEXTSIZE
 40
3.5
  9
$TRACEWID
 40
0.05
  9
$TEXTSTYLE
  7
STANDARD
  9
$CLAYER
  8
1
  9
$CELTYPE
  6
BYLAYER
  9
$CECOLOR
 62
   256
  9
$DIMSCALE
 40
1.0
  9
$DIMASZ
 40
3.5
  9
$DIMEXO
 40
0.0
  9
$DIMDLI
 40
10.0
  9
$DIMRND
 40
0.0
  9
$DIMDLE
 40
0.0
  9
$DIMEXE
 40
2.0
  9
$DIMTP
 40
0.0
  9
$DIMTM
 40
0.0
  9
$DIMTXT
 40
3.5
  9
$DIMCEN
 40
2.5
  9
$DIMTSZ
 40
0.0
  9
$DIMTOL
 70
     0
  9
$DIMLIM
 70
     0
  9
$DIMTIH
 70
     0
  9
$DIMTOH
 70
     0
  9
$DIMSE1
 70
     0
  9
$DIMSE2
 70
     0
  9
$DIMTAD
 70
     1
  9
$DIMZIN
 70
     8
  9
$DIMBLK
  1

  9
$DIMASO
 70
     1
  9
$DIMSHO
 70
     1
  9
$DIMPOST
  1

  9
$DIMAPOST
  1

  9
$DIMALT
 70
     0
  9
$DIMALTD
 70
     2
  9
$DIMALTF
 40
25.4
  9
$DIMLFAC
 40
1.0
  9
$DIMTOFL
 70
     1
  9
$DIMTVP
 40
0.0
  9
$DIMTIX
 70
     0
  9
$DIMSOXD
 70
     0
  9
$DIMSAH
 70
     0
  9
$DIMBLK1
  1

  9
$DIMBLK2
  1

  9
$DIMSTYLE
  2
ACADUS
  9
$DIMCLRD
 70
   256
  9
$DIMCLRE
 70
   256
  9
$DIMCLRT
 70
     3
  9
$DIMTFAC
 40
1.0
  9
$DIMGAP
 40
2.0
  9
$LUNITS
 70
     2
  9
$LUPREC
 70
     1
  9
$SKETCHINC
 40
1.0
  9
$FILLETRAD
 40
0.0
  9
$AUNITS
 70
     0
  9
$AUPREC
 70
     2
  9
$MENU
  1
CAESAR
  9
$ELEVATION
 40
0.0
  9
$PELEVATION
 40
0.0
  9
$THICKNESS
 40
0.0
  9
$LIMCHECK
 70
     0
  9
$BLIPMODE
 70
     1
  9
$CHAMFERA
 40
5.0
  9
$CHAMFERB
 40
5.0
  9
$SKPOLY
 70
     0
  9
$TDCREATE
 40
2449496.454721
  9
$TDUPDATE
 40
2453059.652343
  9
$TDINDWG
 40
0.000047
  9
$TDUSRTIMER
 40
0.000047
  9
$USRTIMER
 70
     1
  9
$ANGBASE
 50
0.0
  9
$ANGDIR
 70
     0
  9
$PDMODE
 70
     0
  9
$PDSIZE
 40
0.0
  9
$PLINEWID
 40
0.0
  9
$COORDS
 70
     2
  9
$SPLFRAME
 70
     0
  9
$SPLINETYPE
 70
     6
  9
$SPLINESEGS
 70
     8
  9
$ATTDIA
 70
     0
  9
$ATTREQ
 70
     1
  9
$HANDLING
 70
     1
  9
$HANDSEED
  5
7EF51
  9
$SURFTAB1
 70
     6
  9
$SURFTAB2
 70
     6
  9
$SURFTYPE
 70
     6
  9
$SURFU
 70
     6
  9
$SURFV
 70
     6
  9
$UCSNAME
  2

  9
$UCSORG
 10
0.0
 20
0.0
 30
0.0
  9
$UCSXDIR
 10
1.0
 20
0.0
 30
0.0
  9
$UCSYDIR
 10
0.0
 20
1.0
 30
0.0
  9
$PUCSNAME
  2

  9
$PUCSORG
 10
0.0
 20
0.0
 30
0.0
  9
$PUCSXDIR
 10
1.0
 20
0.0
 30
0.0
  9
$PUCSYDIR
 10
0.0
 20
1.0
 30
0.0
  9
$USERI1
 70
     0
  9
$USERI2
 70
     0
  9
$USERI3
 70
     0
  9
$USERI4
 70
     0
  9
$USERI5
 70
     0
  9
$USERR1
 40
1.0
  9
$USERR2
 40
0.0
  9
$USERR3
 40
3.5
  9
$USERR4
 40
0.0
  9
$USERR5
 40
0.0
  9
$WORLDVIEW
 70
     1
  9
$SHADEDGE
 70
     3
  9
$SHADEDIF
 70
    70
  9
$TILEMODE
 70
     1
  9
$MAXACTVP
 70
    16
  9
$PLIMCHECK
 70
     0
  9
$PEXTMIN
 10
1.000000E+020
 20
1.000000E+020
 30
1.000000E+020
  9
$PEXTMAX
 10
-1.000000E+020
 20
-1.000000E+020
 30
-1.000000E+020
  9
$PLIMMIN
 10
0.0
 20
0.0
  9
$PLIMMAX
 10
420.0
 20
297.0
  9
$UNITMODE
 70
     0
  9
$VISRETAIN
 70
     0
  9
$PLINEGEN
 70
     0
  9
$PSLTSCALE
 70
     0
  0
ENDSEC
  0
SECTION
  2
TABLES
  0
TABLE
  2
VPORT
 70
     2
  0
VPORT
  2
*ACTIVE
 70
     0
 10
0.0
 20
0.0
 11
1.0
 21
1.0
 12
461.125768
 22
380.024134
 13
0.0
 23
0.0
 14
1.0
 24
1.0
 15
10.0
 25
10.0
 16
0.0
 26
0.0
 36
1.0
 17
0.0
 27
0.0
 37
0.0
 40
709.981918
 41
1.616838
 42
50.0
 43
0.0
 44
0.0
 50
0.0
 51
0.0
 71
     0
 72
   100
 73
     1
 74
     1
 75
     0
 76
     0
 77
     0
 78
     0
  0
ENDTAB
  0
TABLE
  2
LTYPE
 70
    10
  0
LTYPE
  2
CONTINUOUS
 70
     0
  3
Solid line
 72
    65
 73
     0
 40
0.0
  0
LTYPE
  2
BORDER
 70
     0
  3
__ __ . __ __ . __ __ . __ __ . __ __ . __ __ .
 72
    65
 73
     6
 40
1.75
 49
0.5
 49
-0.25
 49
0.5
 49
-0.25
 49
0.0
 49
-0.25
  0
LTYPE
  2
CENTER
 70
     0
  3
____ _ ____ _ ____ _ ____ _ ____ _ ____ _ ____ 
 72
    65
 73
     4
 40
2.0
 49
1.25
 49
-0.25
 49
0.25
 49
-0.25
  0
LTYPE
  2
DASHDOT
 70
     0
  3
__ . __ . __ . __ . __ . __ . __ . __ . __ . __
 72
    65
 73
     4
 40
1.0
 49
0.5
 49
-0.25
 49
0.0
 49
-0.25
  0
LTYPE
  2
DASHED
 70
     0
  3
__ __ __ __ __ __ __ __ __ __ __ __ __ __ __ __
 72
    65
 73
     2
 40
0.75
 49
0.5
 49
-0.25
  0
LTYPE
  2
DIVIDE
 70
     0
  3
____ . . ____ . . ____ . . ____ . . ____ . . __
 72
    65
 73
     6
 40
1.25
 49
0.5
 49
-0.25
 49
0.0
 49
-0.25
 49
0.0
 49
-0.25
  0
LTYPE
  2
DOT
 70
     0
  3
. . . . . . . . . . . . . . . . . . . . . . . .
 72
    65
 73
     2
 40
0.25
 49
0.0
 49
-0.25
  0
LTYPE
  2
HIDDEN
 70
     0
  3
__ __ __ __ __ __ __ __ __ __ __ __ __ __ __ __
 72
    65
 73
     2
 40
0.375
 49
0.25
 49
-0.125
  0
LTYPE
  2
PHANTOM
 70
     0
  3
______  __  __  ______  __  __  ______  __  __ 
 72
    65
 73
     6
 40
2.5
 49
1.25
 49
-0.25
 49
0.25
 49
-0.25
 49
0.25
 49
-0.25
  0
LTYPE
  2
DOTX2
 70
     0
  3
.  .  .  .  .  .  .  .  .  .  .  .  .  .  .  . 
 72
    65
 73
     2
 40
0.5
 49
0.0
 49
-0.5
  0
ENDTAB
  0
TABLE
  2
LAYER
 70
   124
  0
LAYER
  2
0
 70
     0
 62
     7
  6
CONTINUOUS
  0
LAYER
  2
L1
 70
     0
 62
     7
  6
CONTINUOUS
  0
LAYER
  2
L2
 70
     0
 62
     1
  6
CONTINUOUS
  0
LAYER
  2
L3
 70
     0
 62
     7
  6
DASHED
  0
LAYER
  2
L4
 70
     0
 62
     1
  6
DASHED
  0
LAYER
  2
L5
 70
     0
 62
     7
  6
CENTER
  0
LAYER
  2
L6
 70
     0
 62
     1
  6
CENTER
  0
LAYER
  2
L7
 70
     0
 62
     1
  6
PHANTOM
  0
LAYER
  2
VPORT
 70
     0
 62
     7
  6
CONTINUOUS
  0
LAYER
  2
L8
 70
     0
 62
     1
  6
CONTINUOUS
  0
LAYER
  2
L20
 70
     0
 62
     3
  6
CONTINUOUS
  0
LAYER
  2
L21
 70
     0
 62
     1
  6
CONTINUOUS
  0
LAYER
  2
L22
 70
     0
 62
     1
  6
CONTINUOUS
  0
LAYER
  2
L23
 70
     0
 62
     1
  6
CONTINUOUS
  0
LAYER
  2
L30
 70
     0
 62
     3
  6
CONTINUOUS
  0
LAYER
  2
L31
 70
     0
 62
     1
  6
CONTINUOUS
  0
LAYER
  2
L32
 70
     0
 62
     3
  6
CONTINUOUS
  0
LAYER
  2
L33
 70
     0
 62
     1
  6
CONTINUOUS
  0
LAYER
  2
L34
 70
     0
 62
     1
  6
DASHED
  0
LAYER
  2
L35
 70
     0
 62
     1
  6
CONTINUOUS
  0
LAYER
  2
L40
 70
     0
 62
     7
  6
CONTINUOUS
  0
LAYER
  2
L41
 70
     0
 62
     1
  6
CONTINUOUS
  0
LAYER
  2
L42
 70
     0
 62
     1
  6
CONTINUOUS
  0
LAYER
  2
L43
 70
     0
 62
     7
  6
CONTINUOUS
  0
LAYER
  2
L44
 70
     0
 62
     1
  6
DASHED
  0
LAYER
  2
L45
 70
     0
 62
     1
  6
CONTINUOUS
  0
LAYER
  2
L46
 70
     0
 62
     3
  6
CONTINUOUS
  0
LAYER
  2
L50
 70
     0
 62
     7
  6
CONTINUOUS
  0
LAYER
  2
L51
 70
     0
 62
     1
  6
CONTINUOUS
  0
LAYER
  2
L52
 70
     0
 62
     7
  6
CONTINUOUS
  0
LAYER
  2
L53
 70
     0
 62
     1
  6
CONTINUOUS
  0
LAYER
  2
L54
 70
     0
 62
     1
  6
DASHED
  0
LAYER
  2
L55
 70
     0
 62
     3
  6
CONTINUOUS
  0
LAYER
  2
L56
 70
     0
 62
     3
  6
CONTINUOUS
  0
LAYER
  2
L57
 70
     0
 62
     1
  6
CONTINUOUS
  0
LAYER
  2
L9
 70
     0
 62
     7
  6
HIDDEN
  0
LAYER
  2
L15
 70
     0
 62
     2
  6
CONTINUOUS
  0
LAYER
  2
L16
 70
     0
 62
     5
  6
DOTX2
  0
LAYER
  2
L24
 70
     0
 62
     1
  6
DASHED
  0
LAYER
  2
1
 70
     0
 62
     7
  6
CONTINUOUS
  0
LAYER
  2
2
 70
     0
 62
     7
  6
CONTINUOUS
  0
LAYER
  2
8
 70
     0
 62
     7
  6
CONTINUOUS
  0
LAYER
  2
11
 70
     0
 62
     7
  6
CONTINUOUS
  0
LAYER
  2
60
 70
     0
 62
     7
  6
CONTINUOUS
  0
LAYER
  2
63
 70
     0
 62
     1
  6
CENTER
  0
LAYER
  2
66
 70
     0
 62
     7
  6
CONTINUOUS
  0
LAYER
  2
69
 70
     0
 62
     7
  6
CONTINUOUS
  0
LAYER
  2
72
 70
     0
 62
     7
  6
CONTINUOUS
  0
LAYER
  2
75
 70
     0
 62
     7
  6
CONTINUOUS
  0
LAYER
  2
86
 70
     0
 62
     7
  6
CONTINUOUS
  0
LAYER
  2
89
 70
     0
 62
     7
  6
CONTINUOUS
  0
LAYER
  2
98
 70
     0
 62
     7
  6
CONTINUOUS
  0
LAYER
  2
DEFPOINTS
 70
     0
 62
     7
  6
CONTINUOUS
  0
LAYER
  2
MUOTOV
 70
     0
 62
     7
  6
CONTINUOUS
  0
LAYER
  2
KATKOV
 70
     0
 62
     1
  6
HIDDEN
  0
LAYER
  2
PIKATKOV
 70
     0
 62
     5
  6
DASHDOT
  0
LAYER
  2
MITAT
 70
     0
 62
     5
  6
CONTINUOUS
  0
LAYER
  2
LEIKV
 70
     0
 62
     5
  6
CONTINUOUS
  0
LAYER
  2
A1
 70
     0
 62
     7
  6
CONTINUOUS
  0
LAYER
  2
RA1
 70
     0
 62
     5
  6
CONTINUOUS
  0
LAYER
  2
TITEL
 70
     0
 62
     7
  6
CONTINUOUS
  0
LAYER
  2
TITEL1
 70
     0
 62
     5
  6
CONTINUOUS
  0
LAYER
  2
MUUTOS
 70
     0
 62
     7
  6
CONTINUOUS
  0
LAYER
  2
MUUTOS1
 70
     0
 62
     1
  6
CONTINUOUS
  0
LAYER
  2
MUUTOSTEXT
 70
     0
 62
     5
  6
CONTINUOUS
  0
LAYER
  2
MUUTOS2
 70
     0
 62
     5
  6
CONTINUOUS
  0
LAYER
  2
A2
 70
     0
 62
     7
  6
CONTINUOUS
  0
LAYER
  2
RA2
 70
     0
 62
     5
  6
CONTINUOUS
  0
LAYER
  2
RA4
 70
     0
 62
     1
  6
DASHED
  0
LAYER
  2
L36
 70
     0
 62
     7
  6
CONTINUOUS
  0
LAYER
  2
L37
 70
     0
 62
     1
  6
CONTINUOUS
  0
LAYER
  2
L38
 70
     0
 62
     1
  6
DASHDOT
  0
LAYER
  2
L58
 70
     0
 62
     1
  6
CONTINUOUS
  0
LAYER
  2
A3
 70
     0
 62
     4
  6
CONTINUOUS
  0
LAYER
  2
A4
 70
     0
 62
     1
  6
DASHED
  0
LAYER
  2
A5
 70
     0
 62
     2
  6
CONTINUOUS
  0
LAYER
  2
A6
 70
     0
 62
     8
  6
CONTINUOUS
  0
LAYER
  2
CAM-A1
 70
     0
 62
     7
  6
CONTINUOUS
  0
LAYER
  2
CAM-A2
 70
     0
 62
     1
  6
CONTINUOUS
  0
LAYER
  2
CAM-A3
 70
     0
 62
     1
  6
DASHED
  0
LAYER
  2
CAM-B1
 70
     0
 62
     7
  6
CONTINUOUS
  0
LAYER
  2
CAM-B2
 70
     0
 62
     1
  6
CONTINUOUS
  0
LAYER
  2
CAM-B3
 70
     0
 62
     1
  6
DASHED
  0
LAYER
  2
CAM-C1
 70
     0
 62
     7
  6
CONTINUOUS
  0
LAYER
  2
CAM-C2
 70
     0
 62
     1
  6
CONTINUOUS
  0
LAYER
  2
CAM-C3
 70
     0
 62
     1
  6
DASHED
  0
LAYER
  2
CAM-D1
 70
     0
 62
     7
  6
CONTINUOUS
  0
LAYER
  2
CAM-D2
 70
     0
 62
     1
  6
CONTINUOUS
  0
LAYER
  2
CAM-D3
 70
     0
 62
     1
  6
DASHED
  0
LAYER
  2
CAM-E1
 70
     0
 62
     7
  6
CONTINUOUS
  0
LAYER
  2
CAM-E2
 70
     0
 62
     1
  6
CONTINUOUS
  0
LAYER
  2
CAM-E3
 70
     0
 62
     1
  6
DASHED
  0
LAYER
  2
CAM-F1
 70
     0
 62
     7
  6
CONTINUOUS
  0
LAYER
  2
CAM-F2
 70
     0
 62
     1
  6
CONTINUOUS
  0
LAYER
  2
CAM-F3
 70
     0
 62
     1
  6
DASHED
  0
LAYER
  2
CAM-2
 70
     0
 62
     7
  6
CONTINUOUS
  0
LAYER
  2
12
 70
     0
 62
     1
  6
CONTINUOUS
  0
LAYER
  2
13
 70
     0
 62
     1
  6
CENTER
  0
LAYER
  2
14
 70
     0
 62
     1
  6
DASHED
  0
LAYER
  2
15
 70
     0
 62
     2
  6
DASHED
  0
LAYER
  2
21
 70
     0
 62
     7
  6
CONTINUOUS
  0
LAYER
  2
22
 70
     0
 62
     1
  6
CONTINUOUS
  0
LAYER
  2
23
 70
     0
 62
     1
  6
CENTER
  0
LAYER
  2
24
 70
     0
 62
     1
  6
DASHED
  0
LAYER
  2
25
 70
     0
 62
     2
  6
DASHED
  0
LAYER
  2
31
 70
     0
 62
     7
  6
CONTINUOUS
  0
LAYER
  2
32
 70
     0
 62
     1
  6
CONTINUOUS
  0
LAYER
  2
33
 70
     0
 62
     1
  6
CENTER
  0
LAYER
  2
34
 70
     0
 62
     1
  6
DASHED
  0
LAYER
  2
35
 70
     0
 62
     2
  6
DASHED
  0
LAYER
  2
41
 70
     0
 62
     7
  6
CONTINUOUS
  0
LAYER
  2
42
 70
     0
 62
     1
  6
CONTINUOUS
  0
LAYER
  2
43
 70
     0
 62
     1
  6
CENTER
  0
LAYER
  2
44
 70
     0
 62
     1
  6
DASHED
  0
LAYER
  2
45
 70
     0
 62
     2
  6
DASHED
  0
LAYER
  2
51
 70
     0
 62
     7
  6
CONTINUOUS
  0
LAYER
  2
52
 70
     0
 62
     1
  6
CONTINUOUS
  0
LAYER
  2
53
 70
     0
 62
     1
  6
CENTER
  0
LAYER
  2
54
 70
     0
 62
     1
  6
DASHED
  0
LAYER
  2
55
 70
     0
 62
     2
  6
DASHED
  0
LAYER
  2
61
 70
     0
 62
     7
  6
CONTINUOUS
  0
LAYER
  2
62
 70
     0
 62
     1
  6
CONTINUOUS
  0
LAYER
  2
64
 70
     0
 62
     1
  6
DASHED
  0
LAYER
  2
65
 70
     0
 62
     2
  6
DASHED
  0
ENDTAB
  0
TABLE
  2
STYLE
 70
     8
  0
STYLE
  2
STANDARD
 70
     0
 40
0.0
 41
1.0
 50
0.0
 71
     0
 42
3.5
  3
CAEISO
  4

  0
STYLE
  2
COMPLEX
 70
     0
 40
5.0
 41
1.0
 50
0.0
 71
     0
 42
5.0
  3
ROMANS.SHX
  4

  0
STYLE
  2
SIMPLEX
 70
     0
 40
2.5
 41
0.8
 50
0.0
 71
     0
 42
5.0
  3
SIMPLEX
  4

  0
STYLE
  2
CAEISO
 70
     0
 40
0.0
 41
1.0
 50
0.0
 71
     0
 42
1.0
  3
CAEISO
  4

  0
STYLE
  2
TXT
 70
     0
 40
0.0
 41
1.0
 50
0.0
 71
     0
 42
0.2
  3
TXT
  4

  0
STYLE
  2
USER
 70
     0
 40
0.0
 41
1.0
 50
0.0
 71
     0
 42
0.2
  3
KIRJAIN
  4

  0
STYLE
  2
ITALIC
 70
     0
 40
0.0
 41
1.0
 50
0.0
 71
     0
 42
0.2
  3
ITALIC
  4

  0
STYLE
  2
MONO
 70
     0
 40
0.0
 41
1.0
 50
0.0
 71
     0
 42
9.5
  3
MONOTXT
  4

  0
ENDTAB
  0
TABLE
  2
VIEW
 70
     0
  0
ENDTAB
  0
TABLE
  2
UCS
 70
     0
  0
ENDTAB
  0
TABLE
  2
APPID
 70
     1
  0
APPID
  2
ACAD
 70
     0
  0
ENDTAB
  0
TABLE
  2
DIMSTYLE
 70
     5
  0
DIMSTYLE
  2
ACADUS
 70
     0
  3

  4

  5

  6

  7

 40
1.0
 41
0.18
 42
0.0625
 43
0.38
 44
0.18
 45
0.0
 46
0.0
 47
0.0
 48
0.0
140
0.18
141
0.09
142
0.0
143
25.4
144
1.0
145
0.0
146
1.0
147
0.09
 71
     0
 72
     0
 73
     1
 74
     1
 75
     0
 76
     0
 77
     0
 78
     0
170
     0
171
     2
172
     0
173
     0
174
     0
175
     0
176
     0
177
     0
178
     0
  0
DIMSTYLE
  2
NORDIC
 70
     0
  3

  4

  5

  6

  7

 40
1.0
 41
3.5
 42
1.0
 43
10.0
 44
2.0
 45
0.0
 46
0.0
 47
0.0
 48
0.0
140
3.5
141
2.5
142
0.0
143
25.4
144
1.0
145
0.0
146
1.0
147
2.0
 71
     0
 72
     0
 73
     0
 74
     0
 75
     0
 76
     0
 77
     1
 78
     8
170
     0
171
     2
172
     1
173
     0
174
     0
175
     0
176
     0
177
     0
178
     0
  0
DIMSTYLE
  2
RADIAL
 70
     0
  3

  4

  5

  6

  7

 40
1.0
 41
3.5
 42
1.0
 43
10.0
 44
2.0
 45
0.0
 46
0.0
 47
0.0
 48
0.0
140
3.5
141
2.5
142
0.0
143
25.4
144
1.0
145
0.0
146
1.0
147
2.0
 71
     0
 72
     0
 73
     0
 74
     1
 75
     0
 76
     0
 77
     1
 78
     8
170
     0
171
     2
172
     0
173
     0
174
     0
175
     0
176
     0
177
     0
178
     0
  0
DIMSTYLE
  2
NORTOL
 70
     0
  3

  4

  5

  6

  7

 40
1.0
 41
3.5
 42
1.0
 43
10.0
 44
2.0
 45
0.0
 46
0.0
 47
0.2
 48
0.1
140
3.5
141
2.5
142
0.0
143
25.4
144
1.0
145
0.7
146
0.71
147
2.0
 71
     1
 72
     0
 73
     0
 74
     0
 75
     0
 76
     0
 77
     0
 78
     8
170
     0
171
     2
172
     1
173
     0
174
     0
175
     0
176
     0
177
     0
178
     0
  0
DIMSTYLE
  2
RADTOL
 70
     0
  3

  4

  5

  6

  7

 40
1.0
 41
3.5
 42
1.0
 43
10.0
 44
2.0
 45
0.0
 46
0.0
 47
0.2
 48
0.1
140
3.5
141
2.5
142
0.0
143
25.4
144
1.0
145
0.7
146
0.7
147
2.0
 71
     1
 72
     0
 73
     0
 74
     1
 75
     0
 76
     0
 77
     0
 78
     8
170
     0
171
     2
172
     0
173
     0
174
     0
175
     0
176
     0
177
     0
178
     0
  0
ENDTAB
  0
ENDSEC
  0
SECTION
  2
BLOCKS
  0
BLOCK
  8
0
  2
$MODEL_SPACE
 70
     0
 10
0.0
 20
0.0
 30
0.0
  3
$MODEL_SPACE
  1

  0
ENDBLK
  5
7EF41
  8
0
  0
BLOCK
 67
     1
  8
0
  2
$PAPER_SPACE
 70
     0
 10
0.0
 20
0.0
 30
0.0
  3
$PAPER_SPACE
  1

  0
ENDBLK
  5
7EF3F
 67
     1
  8
0
  0
BLOCK
  8
0
  2
GEOTOL
 70
     0
 10
0.0
 20
0.0
 30
0.0
  3
GEOTOL
  1

  0
ENDBLK
  5
95ED
  8
0
  0
ENDSEC
  0
SECTION
  2
ENTITIES
  0
TEXT
  5
7ED31
  8
0
  6
CONTINUOUS
 10
330.035074
 20
372.358918
 30
0.0
 40
2.5
  1
  
 50
21.66214
  0
LINE
  5
7ED32
  8
61
 10
878.24588
 20
462.022193
 30
0.0
 11
878.24588
 21
298.022188
 31
0.0
  0
LINE
  5
7ED33
  8
61
 10
867.44588
 20
472.822193
 30
0.0
 11
513.44588
 21
472.822193
 31
0.0
  0
LINE
  5
7ED34
  8
61
 10
870.613334
 20
450.311624
 30
0.0
 11
870.613334
 21
311.971095
 31
0.0
  0
LINE
  5
7ED35
  8
61
 10
855.770445
 20
465.268546
 30
0.0
 11
525.121315
 21
465.268546
 31
0.0
  0
LINE
  5
7ED36
  8
53
  6
DASHDOT
 10
268.0
 20
380.022193
 30
0.0
 11
-109.172156
 21
380.022193
 31
0.0
  0
LINE
  5
7ED37
  8
52
 10
267.307648
 20
469.992177
 30
0.0
 11
275.969984
 21
461.329842
 31
0.0
  0
ARC
  5
7ED38
  8
52
 10
268.0
 20
462.022193
 30
0.0
 40
8.0
 50
277.645696
 51
355.035187
  0
ARC
  5
7ED39
  8
52
 10
268.0
 20
462.022193
 30
0.0
 40
8.0
 50
94.964813
 51
172.354304
  0
LINE
  5
7ED3A
  8
52
 10
260.071122
 20
463.086568
 30
0.0
 11
269.064375
 21
454.093315
 31
0.0
  0
LINE
  5
7ED3B
  8
51
 10
268.0
 20
472.822193
 30
0.0
 11
-85.999995
 21
472.822193
 31
0.0
  0
LINE
  5
7ED3C
  8
51
 10
278.8
 20
462.022193
 30
0.0
 11
278.8
 21
380.022193
 31
0.0
  0
ARC
  5
7ED3D
  8
51
 10
268.0
 20
462.022193
 30
0.0
 40
10.8
 50
293.289549
 51
156.710451
  0
ARC
  5
7ED3E
  8
51
 10
-86.0
 20
462.022193
 30
0.0
 40
10.8
 50
23.289549
 51
246.710451
  0
LINE
  5
7ED3F
  8
52
 10
-93.969984
 20
461.329842
 30
0.0
 11
-85.307648
 21
469.992177
 31
0.0
  0
LINE
  5
7ED40
  8
52
 10
-87.064375
 20
454.093315
 30
0.0
 11
-78.071122
 21
463.086568
 31
0.0
  0
ARC
  5
7ED41
  8
52
 10
-86.0
 20
462.022193
 30
0.0
 40
8.0
 50
7.645696
 51
85.035187
  0
ARC
  5
7ED42
  8
52
 10
-86.0
 20
462.022193
 30
0.0
 40
8.0
 50
184.964813
 51
262.354304
  0
LINE
  5
7ED43
  8
51
 10
270.8
 20
444.722193
 30
0.0
 11
270.8
 21
380.022193
 31
0.0
  0
LINE
  5
7ED44
  8
51
 10
250.7
 20
464.822193
 30
0.0
 11
-68.700009
 21
464.822193
 31
0.0
  0
LINE
  5
7ED45
  8
52
 10
250.5
 20
466.322193
 30
0.0
 11
-68.5
 21
466.322193
 31
0.0
  0
LINE
  5
7ED46
  8
52
 10
272.3
 20
444.522193
 30
0.0
 11
272.3
 21
380.022193
 31
0.0
  0
LINE
  5
7ED47
  8
52
 10
250.5
 20
470.722193
 30
0.0
 11
-68.7
 21
470.722193
 31
0.0
  0
LINE
  5
7ED48
  8
52
 10
276.7
 20
444.522193
 30
0.0
 11
276.7
 21
380.022193
 31
0.0
  0
ARC
  5
7ED49
  8
51
 10
268.0
 20
462.022193
 30
0.0
 40
14.5
 50
180.0
 51
270.0
  0
ARC
  5
7ED4A
  8
52
 10
268.0
 20
462.022193
 30
0.0
 40
13.2
 50
180.0
 51
270.0
  0
ARC
  5
7ED4B
  8
52
 10
268.0
 20
462.022193
 30
0.0
 40
8.8
 50
180.0
 51
270.0
  0
ARC
  5
7ED4C
  8
51
 10
250.7
 20
462.022193
 30
0.0
 40
2.8
 50
360.0
 51
90.0
  0
ARC
  5
7ED4D
  8
51
 10
268.0
 20
444.722193
 30
0.0
 40
2.8
 50
0.0
 51
90.0
  0
ARC
  5
7ED4E
  8
52
 10
268.0
 20
444.522193
 30
0.0
 40
4.3
 50
0.0
 51
90.0
  0
ARC
  5
7ED4F
  8
52
 10
250.5
 20
462.022193
 30
0.0
 40
4.3
 50
360.0
 51
90.0
  0
ARC
  5
7ED50
  8
52
 10
268.0
 20
444.522193
 30
0.0
 40
8.7
 50
0.0
 51
90.0
  0
ARC
  5
7ED51
  8
52
 10
250.5
 20
462.022193
 30
0.0
 40
8.7
 50
360.0
 51
90.0
  0
ARC
  5
7ED52
  8
52
 10
-86.0
 20
444.522193
 30
0.0
 40
8.7
 50
90.0
 51
180.0
  0
ARC
  5
7ED53
  8
52
 10
-86.0
 20
462.022193
 30
0.0
 40
8.8
 50
270.0
 51
0.0
  0
ARC
  5
7ED54
  8
52
 10
-68.5
 20
462.022193
 30
0.0
 40
8.7
 50
90.0
 51
180.0
  0
ARC
  5
7ED55
  8
52
 10
-68.5
 20
462.022193
 30
0.0
 40
4.3
 50
90.0
 51
180.0
  0
ARC
  5
7ED56
  8
51
 10
-86.0
 20
462.022193
 30
0.0
 40
14.5
 50
270.0
 51
0.0
  0
ARC
  5
7ED57
  8
52
 10
-86.0
 20
462.022193
 30
0.0
 40
13.2
 50
270.0
 51
0.0
  0
ARC
  5
7ED58
  8
52
 10
-86.0
 20
444.522193
 30
0.0
 40
4.3
 50
90.0
 51
180.0
  0
ARC
  5
7ED59
  8
51
 10
-86.0
 20
444.722193
 30
0.0
 40
2.8
 50
90.0
 51
180.0
  0
ARC
  5
7ED5A
  8
51
 10
-68.7
 20
462.022193
 30
0.0
 40
2.8
 50
90.0
 51
180.0
  0
LINE
  5
7ED5B
  8
63
  6
DASHDOT
 10
690.44588
 20
278.991887
 30
0.0
 11
690.44588
 21
483.351345
 31
0.0
  0
LINE
  5
7ED5C
  8
61
 10
502.64588
 20
462.022193
 30
0.0
 11
502.64588
 21
298.022193
 31
0.0
  0
LINE
  5
7ED5D
  8
61
 10
510.278426
 20
450.311624
 30
0.0
 11
510.278426
 21
309.732758
 31
0.0
  0
ARC
  5
7ED5E
  8
61
 10
872.613334
 20
309.732762
 30
0.0
 40
2.0
 50
180.0
 51
246.189853
  0
ARC
  5
7ED5F
  8
61
 10
855.770445
 20
292.77584
 30
0.0
 40
2.0
 50
24.196752
 51
90.0
  0
ARC
  5
7ED60
  8
61
 10
853.501469
 20
296.77584
 30
0.0
 40
2.0
 50
270.0
 51
5.107531
  0
ARC
  5
7ED61
  8
61
 10
868.613334
 20
311.973432
 30
0.0
 40
2.0
 50
265.216575
 51
360.0
  0
LINE
  5
7ED62
  8
61
 10
855.770445
 20
294.77584
 30
0.0
 11
525.121315
 21
294.77584
 31
0.0
  0
LINE
  5
7ED63
  8
61
 10
859.517002
 20
296.957818
 30
0.0
 11
868.510255
 21
305.951071
 31
0.0
  0
LINE
  5
7ED64
  8
61
 10
866.753528
 20
290.052209
 30
0.0
 11
875.415864
 21
298.714545
 31
0.0
  0
LINE
  5
7ED65
  8
61
 10
867.44588
 20
287.222193
 30
0.0
 11
513.44588
 21
287.222193
 31
0.0
  0
ARC
  5
7ED66
  8
61
 10
867.44588
 20
298.022193
 30
0.0
 40
10.8
 50
204.196752
 51
66.189853
  0
ARC
  5
7ED67
  8
61
 10
867.44588
 20
298.022193
 30
0.0
 40
12.0
 50
85.216575
 51
185.107531
  0
LINE
  5
7ED68
  8
61
 10
870.613334
 20
309.732762
 30
0.0
 11
870.613334
 21
311.509091
 31
0.0
  0
LINE
  5
7ED69
  8
53
  6
DASHDOT
 10
91.0
 20
279.97147
 30
0.0
 11
91.0
 21
483.47729
 31
0.0
  0
LINE
  5
7ED6A
  8
53
 10
268.0
 20
380.022193
 30
0.0
 11
297.003633
 21
380.022193
 31
0.0
  0
LINE
  5
7ED6B
  8
53
 10
268.0
 20
380.022193
 30
0.0
 11
297.003633
 21
380.022193
 31
0.0
  0
LINE
  5
7ED6C
  8
52
 10
-85.307648
 20
290.052209
 30
0.0
 11
-93.969984
 21
298.714545
 31
0.0
  0
ARC
  5
7ED6D
  8
52
 10
-86.0
 20
298.022193
 30
0.0
 40
8.0
 50
97.645696
 51
175.035187
  0
ARC
  5
7ED6E
  8
52
 10
-86.0
 20
298.022193
 30
0.0
 40
8.0
 50
274.964813
 51
352.354304
  0
LINE
  5
7ED6F
  8
52
 10
-78.071122
 20
296.957818
 30
0.0
 11
-87.064375
 21
305.951071
 31
0.0
  0
ARC
  5
7ED70
  8
51
 10
-86.0
 20
298.022193
 30
0.0
 40
10.8
 50
113.289549
 51
336.710451
  0
ARC
  5
7ED71
  8
51
 10
-86.0
 20
298.022193
 30
0.0
 40
14.5
 50
360.0
 51
90.0
  0
ARC
  5
7ED72
  8
52
 10
-86.0
 20
298.022193
 30
0.0
 40
13.2
 50
360.0
 51
90.0
  0
ARC
  5
7ED73
  8
52
 10
-86.0
 20
298.022193
 30
0.0
 40
8.8
 50
360.0
 51
90.0
  0
ARC
  5
7ED74
  8
51
 10
-68.7
 20
298.022193
 30
0.0
 40
2.8
 50
180.0
 51
270.0
  0
ARC
  5
7ED75
  8
51
 10
-86.0
 20
315.322193
 30
0.0
 40
2.8
 50
180.0
 51
270.0
  0
ARC
  5
7ED76
  8
52
 10
-86.0
 20
315.522193
 30
0.0
 40
4.3
 50
180.0
 51
270.0
  0
ARC
  5
7ED77
  8
52
 10
-68.5
 20
298.022193
 30
0.0
 40
4.3
 50
180.0
 51
270.0
  0
ARC
  5
7ED78
  8
52
 10
-86.0
 20
315.522193
 30
0.0
 40
8.7
 50
180.0
 51
270.0
  0
ARC
  5
7ED79
  8
52
 10
-68.5
 20
298.022193
 30
0.0
 40
8.7
 50
180.0
 51
270.0
  0
ARC
  5
7ED7A
  8
52
 10
250.5
 20
298.022193
 30
0.0
 40
8.7
 50
270.0
 51
0.0
  0
ARC
  5
7ED7B
  8
52
 10
268.0
 20
315.522193
 30
0.0
 40
8.7
 50
270.0
 51
0.0
  0
ARC
  5
7ED7C
  8
52
 10
250.5
 20
298.022193
 30
0.0
 40
4.3
 50
270.0
 51
0.0
  0
ARC
  5
7ED7D
  8
52
 10
268.0
 20
315.522193
 30
0.0
 40
4.3
 50
270.0
 51
0.0
  0
ARC
  5
7ED7E
  8
51
 10
268.0
 20
315.322193
 30
0.0
 40
2.8
 50
270.0
 51
0.0
  0
ARC
  5
7ED7F
  8
51
 10
250.7
 20
298.022193
 30
0.0
 40
2.8
 50
270.0
 51
0.0
  0
ARC
  5
7ED80
  8
52
 10
268.0
 20
298.022193
 30
0.0
 40
8.8
 50
90.0
 51
180.0
  0
ARC
  5
7ED81
  8
52
 10
268.0
 20
298.022193
 30
0.0
 40
13.2
 50
90.0
 51
180.0
  0
ARC
  5
7ED82
  8
51
 10
268.0
 20
298.022193
 30
0.0
 40
14.5
 50
90.0
 51
180.0
  0
LINE
  5
7ED83
  8
52
 10
276.7
 20
315.522193
 30
0.0
 11
276.7
 21
380.022193
 31
0.0
  0
LINE
  5
7ED84
  8
52
 10
250.5
 20
289.322193
 30
0.0
 11
-68.7
 21
289.322193
 31
0.0
  0
LINE
  5
7ED85
  8
52
 10
272.3
 20
315.522193
 30
0.0
 11
272.3
 21
380.022193
 31
0.0
  0
LINE
  5
7ED86
  8
52
 10
250.5
 20
293.722193
 30
0.0
 11
-68.5
 21
293.722193
 31
0.0
  0
LINE
  5
7ED87
  8
51
 10
250.7
 20
295.222193
 30
0.0
 11
-68.700009
 21
295.222193
 31
0.0
  0
LINE
  5
7ED88
  8
51
 10
270.8
 20
315.322193
 30
0.0
 11
270.8
 21
380.022193
 31
0.0
  0
ARC
  5
7ED89
  8
51
 10
268.0
 20
298.022193
 30
0.0
 40
10.8
 50
203.289549
 51
66.710451
  0
LINE
  5
7ED8A
  8
51
 10
278.8
 20
298.022193
 30
0.0
 11
278.8
 21
380.022193
 31
0.0
  0
LINE
  5
7ED8B
  8
51
 10
268.0
 20
287.222193
 30
0.0
 11
-85.999995
 21
287.222193
 31
0.0
  0
LINE
  5
7ED8C
  8
52
 10
260.071122
 20
296.957818
 30
0.0
 11
269.064375
 21
305.951071
 31
0.0
  0
ARC
  5
7ED8D
  8
52
 10
268.0
 20
298.022193
 30
0.0
 40
8.0
 50
187.645696
 51
265.035187
  0
ARC
  5
7ED8E
  8
52
 10
268.0
 20
298.022193
 30
0.0
 40
8.0
 50
4.964813
 51
82.354304
  0
LINE
  5
7ED8F
  8
52
 10
267.307648
 20
290.052209
 30
0.0
 11
275.969984
 21
298.714545
 31
0.0
  0
LINE
  5
7ED90
  8
51
 10
-88.8
 20
444.722193
 30
0.0
 11
-88.8
 21
380.022193
 31
0.0
  0
LINE
  5
7ED91
  8
52
 10
-90.295346
 20
444.722193
 30
0.0
 11
-90.295346
 21
315.322193
 31
0.0
  0
LINE
  5
7ED92
  8
52
 10
-94.697701
 20
444.722193
 30
0.0
 11
-94.697701
 21
315.322193
 31
0.0
  0
LINE
  5
7ED93
  8
51
 10
-96.8
 20
462.022193
 30
0.0
 11
-96.8
 21
298.022193
 31
0.0
  0
CIRCLE
  5
7ED94
  8
61
 10
867.44588
 20
298.022193
 30
0.0
 40
8.0
  0
ARC
  5
7ED95
  8
61
 10
867.44588
 20
298.022193
 30
0.0
 40
10.0
 50
97.519679
 51
172.493404
  0
LINE
  5
7ED96
  8
61
 10
871.804249
 20
305.26147
 30
0.0
 11
867.71438
 21
307.622756
 31
0.0
  0
LINE
  5
7ED97
  8
61
 10
860.168127
 20
293.728383
 30
0.0
 11
857.845093
 21
297.751996
 31
0.0
  0
ARC
  5
7ED98
  8
61
 10
867.44588
 20
298.022193
 30
0.0
 40
8.45
 50
209.459771
 51
58.950175
  0
LINE
  5
7ED99
  8
61
 10
871.572146
 20
304.875946
 30
0.0
 11
867.624155
 21
307.15532
 31
0.0
  0
LINE
  5
7ED9A
  8
61
 10
860.559942
 20
293.949699
 30
0.0
 11
858.312514
 21
297.842359
 31
0.0
  0
ARC
  5
7ED9B
  8
61
 10
867.44588
 20
298.022193
 30
0.0
 40
9.55
 50
98.743877
 51
171.268945
  0
ARC
  5
7ED9C
  8
61
 10
866.374155
 20
304.990256
 30
0.0
 40
2.5
 50
60.0
 51
98.743877
  0
ARC
  5
7ED9D
  8
61
 10
860.477577
 20
299.092359
 30
0.0
 40
2.5
 50
171.268945
 51
210.0
  0
ARC
  5
7ED9E
  8
61
 10
866.46438
 20
305.457693
 30
0.0
 40
2.5
 50
60.0
 51
97.519679
  0
ARC
  5
7ED9F
  8
61
 10
860.010156
 20
299.001996
 30
0.0
 40
2.5
 50
172.493404
 51
210.0
  0
ARC
  5
7EDA0
  8
61
 10
860.010156
 20
461.042391
 30
0.0
 40
2.5
 50
150.0
 51
187.506596
  0
ARC
  5
7EDA1
  8
61
 10
866.46438
 20
454.586693
 30
0.0
 40
2.5
 50
262.480321
 51
300.0
  0
ARC
  5
7EDA2
  8
61
 10
860.477577
 20
460.952027
 30
0.0
 40
2.5
 50
150.0
 51
188.731055
  0
ARC
  5
7EDA3
  8
61
 10
866.374155
 20
455.05413
 30
0.0
 40
2.5
 50
261.256123
 51
300.0
  0
ARC
  5
7EDA4
  8
61
 10
867.44588
 20
462.022193
 30
0.0
 40
9.55
 50
188.731055
 51
261.256123
  0
LINE
  5
7EDA5
  8
61
 10
860.559942
 20
466.094688
 30
0.0
 11
858.312514
 21
462.202027
 31
0.0
  0
LINE
  5
7EDA6
  8
61
 10
871.572146
 20
455.16844
 30
0.0
 11
867.624155
 21
452.889066
 31
0.0
  0
ARC
  5
7EDA7
  8
61
 10
867.44588
 20
462.022193
 30
0.0
 40
8.45
 50
301.049825
 51
150.540229
  0
LINE
  5
7EDA8
  8
61
 10
860.168127
 20
466.316003
 30
0.0
 11
857.845093
 21
462.292391
 31
0.0
  0
LINE
  5
7EDA9
  8
61
 10
871.804249
 20
454.782917
 30
0.0
 11
867.71438
 21
452.42163
 31
0.0
  0
ARC
  5
7EDAA
  8
61
 10
867.44588
 20
462.022193
 30
0.0
 40
10.0
 50
187.506596
 51
262.480321
  0
CIRCLE
  5
7EDAB
  8
61
 10
867.44588
 20
462.022193
 30
0.0
 40
8.0
  0
LINE
  5
7EDAC
  8
61
 10
870.613334
 20
450.311624
 30
0.0
 11
870.613334
 21
448.535295
 31
0.0
  0
ARC
  5
7EDAD
  8
61
 10
867.44588
 20
462.022193
 30
0.0
 40
12.0
 50
174.892469
 51
274.783425
  0
ARC
  5
7EDAE
  8
61
 10
867.44588
 20
462.022193
 30
0.0
 40
10.8
 50
293.810147
 51
155.803248
  0
LINE
  5
7EDAF
  8
61
 10
866.753528
 20
469.992177
 30
0.0
 11
875.415864
 21
461.329842
 31
0.0
  0
LINE
  5
7EDB0
  8
61
 10
859.517002
 20
463.086568
 30
0.0
 11
868.510255
 21
454.093315
 31
0.0
  0
ARC
  5
7EDB1
  8
61
 10
868.613334
 20
448.070955
 30
0.0
 40
2.0
 50
0.0
 51
94.783425
  0
ARC
  5
7EDB2
  8
61
 10
853.501469
 20
463.268546
 30
0.0
 40
2.0
 50
354.892469
 51
90.0
  0
ARC
  5
7EDB3
  8
61
 10
855.770445
 20
467.268546
 30
0.0
 40
2.0
 50
270.0
 51
335.803248
  0
ARC
  5
7EDB4
  8
61
 10
872.613334
 20
450.311624
 30
0.0
 40
2.0
 50
113.810147
 51
180.0
  0
ARC
  5
7EDB5
  8
61
 10
508.278426
 20
450.311624
 30
0.0
 40
2.0
 50
0.0
 51
66.189853
  0
ARC
  5
7EDB6
  8
61
 10
525.121315
 20
467.268546
 30
0.0
 40
2.0
 50
204.196752
 51
270.0
  0
ARC
  5
7EDB7
  8
61
 10
527.390291
 20
463.268546
 30
0.0
 40
2.0
 50
90.0
 51
185.107531
  0
ARC
  5
7EDB8
  8
61
 10
512.278426
 20
448.070955
 30
0.0
 40
2.0
 50
85.216575
 51
180.0
  0
LINE
  5
7EDB9
  8
61
 10
521.374758
 20
463.086568
 30
0.0
 11
512.381505
 21
454.093315
 31
0.0
  0
LINE
  5
7EDBA
  8
61
 10
514.138232
 20
469.992177
 30
0.0
 11
505.475896
 21
461.329842
 31
0.0
  0
ARC
  5
7EDBB
  8
61
 10
513.44588
 20
462.022193
 30
0.0
 40
10.8
 50
24.196752
 51
246.189853
  0
ARC
  5
7EDBC
  8
61
 10
513.44588
 20
462.022193
 30
0.0
 40
12.0
 50
265.216575
 51
5.107531
  0
LINE
  5
7EDBD
  8
61
 10
510.278426
 20
450.311624
 30
0.0
 11
510.278426
 21
448.535295
 31
0.0
  0
CIRCLE
  5
7EDBE
  8
61
 10
513.44588
 20
462.022193
 30
0.0
 40
8.0
  0
ARC
  5
7EDBF
  8
61
 10
513.44588
 20
462.022193
 30
0.0
 40
10.0
 50
277.519679
 51
352.493404
  0
LINE
  5
7EDC0
  8
61
 10
509.087511
 20
454.782917
 30
0.0
 11
513.17738
 21
452.42163
 31
0.0
  0
LINE
  5
7EDC1
  8
61
 10
520.723633
 20
466.316003
 30
0.0
 11
523.046667
 21
462.292391
 31
0.0
  0
ARC
  5
7EDC2
  8
61
 10
513.44588
 20
462.022193
 30
0.0
 40
8.45
 50
29.459771
 51
238.950175
  0
LINE
  5
7EDC3
  8
61
 10
509.319614
 20
455.16844
 30
0.0
 11
513.267605
 21
452.889066
 31
0.0
  0
LINE
  5
7EDC4
  8
61
 10
520.331818
 20
466.094688
 30
0.0
 11
522.579246
 21
462.202027
 31
0.0
  0
ARC
  5
7EDC5
  8
61
 10
513.44588
 20
462.022193
 30
0.0
 40
9.55
 50
278.743877
 51
351.268945
  0
ARC
  5
7EDC6
  8
61
 10
514.517605
 20
455.05413
 30
0.0
 40
2.5
 50
240.0
 51
278.743877
  0
ARC
  5
7EDC7
  8
61
 10
520.414183
 20
460.952027
 30
0.0
 40
2.5
 50
351.268945
 51
30.0
  0
ARC
  5
7EDC8
  8
61
 10
514.42738
 20
454.586693
 30
0.0
 40
2.5
 50
240.0
 51
277.519679
  0
ARC
  5
7EDC9
  8
61
 10
520.881604
 20
461.042391
 30
0.0
 40
2.5
 50
352.493404
 51
30.0
  0
ARC
  5
7EDCA
  8
61
 10
520.881604
 20
299.001996
 30
0.0
 40
2.5
 50
330.0
 51
7.506596
  0
ARC
  5
7EDCB
  8
61
 10
514.42738
 20
305.457693
 30
0.0
 40
2.5
 50
82.480321
 51
120.0
  0
ARC
  5
7EDCC
  8
61
 10
520.414183
 20
299.092359
 30
0.0
 40
2.5
 50
330.0
 51
8.731055
  0
ARC
  5
7EDCD
  8
61
 10
514.517605
 20
304.990256
 30
0.0
 40
2.5
 50
81.256123
 51
120.0
  0
ARC
  5
7EDCE
  8
61
 10
513.44588
 20
298.022193
 30
0.0
 40
9.55
 50
8.731055
 51
81.256123
  0
LINE
  5
7EDCF
  8
61
 10
520.331818
 20
293.949699
 30
0.0
 11
522.579246
 21
297.842359
 31
0.0
  0
LINE
  5
7EDD0
  8
61
 10
509.319614
 20
304.875946
 30
0.0
 11
513.267605
 21
307.15532
 31
0.0
  0
ARC
  5
7EDD1
  8
61
 10
513.44588
 20
298.022193
 30
0.0
 40
8.45
 50
121.049825
 51
330.540229
  0
LINE
  5
7EDD2
  8
61
 10
520.723633
 20
293.728383
 30
0.0
 11
523.046667
 21
297.751996
 31
0.0
  0
LINE
  5
7EDD3
  8
61
 10
509.087511
 20
305.26147
 30
0.0
 11
513.17738
 21
307.622756
 31
0.0
  0
ARC
  5
7EDD4
  8
61
 10
513.44588
 20
298.022193
 30
0.0
 40
10.0
 50
7.506596
 51
82.480321
  0
CIRCLE
  5
7EDD5
  8
61
 10
513.44588
 20
298.022193
 30
0.0
 40
8.0
  0
LINE
  5
7EDD6
  8
61
 10
510.278426
 20
309.732762
 30
0.0
 11
510.278426
 21
311.509091
 31
0.0
  0
ARC
  5
7EDD7
  8
61
 10
513.44588
 20
298.022193
 30
0.0
 40
12.0
 50
354.892469
 51
94.783425
  0
ARC
  5
7EDD8
  8
61
 10
513.44588
 20
298.022193
 30
0.0
 40
10.8
 50
113.810147
 51
335.803248
  0
LINE
  5
7EDD9
  8
61
 10
514.138232
 20
290.052209
 30
0.0
 11
505.475896
 21
298.714545
 31
0.0
  0
LINE
  5
7EDDA
  8
61
 10
521.374758
 20
296.957818
 30
0.0
 11
512.381505
 21
305.951071
 31
0.0
  0
ARC
  5
7EDDB
  8
61
 10
512.278426
 20
311.973432
 30
0.0
 40
2.0
 50
180.0
 51
274.783425
  0
ARC
  5
7EDDC
  8
61
 10
527.390291
 20
296.77584
 30
0.0
 40
2.0
 50
174.892469
 51
270.0
  0
ARC
  5
7EDDD
  8
61
 10
525.121315
 20
292.77584
 30
0.0
 40
2.0
 50
90.0
 51
155.803248
  0
ARC
  5
7EDDE
  8
61
 10
508.278426
 20
309.732762
 30
0.0
 40
2.0
 50
293.810147
 51
360.0
  0
ARC
  5
7EDDF
  8
51
 10
-595.327278
 20
407.386648
 30
0.0
 40
507.032791
 50
5.059524
 51
5.059524
  0
LINE
  5
7EDE0
  8
51
 10
-88.8
 20
380.022193
 30
0.0
 11
-88.8
 21
315.322193
 31
0.0
  0
LINE
  5
7EDE1
  8
63
 10
494.976098
 20
380.022193
 30
0.0
 11
892.67462
 21
380.022193
 31
0.0
  0
TEXT
  5
7EDE2
  8
0
  6
CONTINUOUS
 10
351.035074
 20
974.358918
 30
0.0
 40
2.5
  1
  
 50
21.66214
  0
TEXT
  5
7EDE3
  8
0
  6
CONTINUOUS
 10
595.035074
 20
986.358918
 30
0.0
 40
2.5
  1
  
 50
21.66214
  0
TEXT
  5
7EDE5
  8
0
  6
CONTINUOUS
 10
412.035074
 20
959.358918
 30
0.0
 40
2.5
  1
  
 50
21.66214
  0
TEXT
  5
7EDE6
  8
0
  6
CONTINUOUS
 10
433.035074
 20
1561.358918
 30
0.0
 40
2.5
  1
  
 50
21.66214
  0
TEXT
  5
7EDE7
  8
0
  6
CONTINUOUS
 10
677.035074
 20
1573.358918
 30
0.0
 40
2.5
  1
  
 50
21.66214
  0
TEXT
  5
7EDE8
  8
0
  6
CONTINUOUS
 10
405.295817
 20
1570.470837
 30
0.0
 40
2.5
  1
  
 50
21.66214
  0
INSERT
  5
7EDE9
  8
L32
  2
GEOTOL
 10
544.289574
 20
1296.889725
 30
0.0
  0
INSERT
  5
7EDEA
  8
L32
  2
GEOTOL
 10
75.260742
 20
1198.111918
 30
0.0
  0
LINE
  5
7EDEB
  8
44
 10
434.919435
 20
447.476592
 30
0.0
 11
360.919435
 21
447.476592
 31
0.0
  0
LINE
  5
7EDEC
  8
44
 10
357.919435
 20
380.022193
 30
0.0
 11
357.919435
 21
444.476592
 31
0.0
  0
LINE
  5
7EDED
  8
44
 10
357.919435
 20
380.022193
 30
0.0
 11
357.919435
 21
315.422628
 31
0.0
  0
ARC
  5
7EDEE
  8
44
 10
360.91592
 20
315.567792
 30
0.0
 40
3.0
 50
177.226485
 51
270.067002
  0
LINE
  5
7EDEF
  8
44
 10
434.919435
 20
312.567794
 30
0.0
 11
360.919429
 21
312.567794
 31
0.0
  0
ARC
  5
7EDF0
  8
41
 10
406.180662
 20
462.435899
 30
0.0
 40
22.256656
 50
329.582163
 51
357.702934
  0
LINE
  5
7EDF1
  8
41
 10
360.122036
 20
451.293445
 30
0.0
 11
425.373826
 21
451.167304
 31
0.0
  0
ARC
  5
7EDF2
  8
41
 10
360.622036
 20
445.314271
 30
0.0
 40
6.0
 50
95.0
 51
180.0
  0
LINE
  5
7EDF3
  8
41
 10
360.122036
 20
451.293445
 30
0.0
 11
360.099102
 21
451.291439
 31
0.0
  0
LINE
  5
7EDF4
  8
41
 10
435.419435
 20
453.297194
 30
0.0
 11
434.919435
 21
453.297194
 31
0.0
  0
LINE
  5
7EDF5
  8
41
 10
360.122036
 20
467.228232
 30
0.0
 11
360.099102
 21
467.226225
 31
0.0
  0
LINE
  5
7EDF6
  8
41
 10
428.3521
 20
472.903625
 30
0.0
 11
360.122036
 21
472.599336
 31
0.0
  0
LINE
  5
7EDF7
  8
41
 10
434.919435
 20
452.187492
 30
0.0
 11
434.919435
 21
451.289268
 31
0.0
  0
LINE
  5
7EDF8
  8
41
 10
435.419435
 20
452.187492
 30
0.0
 11
435.419435
 21
473.026986
 31
0.0
  0
LINE
  5
7EDF9
  8
41
 10
435.419435
 20
473.026986
 30
0.0
 11
434.919435
 21
473.018258
 31
0.0
  0
LINE
  5
7EDFA
  8
41
 10
360.122036
 20
451.293445
 30
0.0
 11
360.122036
 21
472.599336
 31
0.0
  0
LINE
  5
7EDFB
  8
41
 10
435.419435
 20
452.187492
 30
0.0
 11
434.919435
 21
452.187492
 31
0.0
  0
LINE
  5
7EDFC
  8
41
 10
429.595482
 20
472.925328
 30
0.0
 11
428.3521
 21
472.903625
 31
0.0
  0
LINE
  5
7EDFD
  8
41
 10
434.919435
 20
462.217626
 30
0.0
 11
434.919435
 21
452.187492
 31
0.0
  0
LINE
  5
7EDFE
  8
41
 10
434.919435
 20
473.018258
 30
0.0
 11
429.593196
 21
472.925288
 31
0.0
  0
LINE
  5
7EDFF
  8
41
 10
354.622036
 20
451.289268
 30
0.0
 11
354.622036
 21
459.683291
 31
0.0
  0
ARC
  5
7EE00
  8
41
 10
360.735236
 20
458.877251
 30
0.0
 40
6.16611
 50
95.921525
 51
172.48874
  0
LINE
  5
7EE01
  8
41
 10
435.419435
 20
287.018033
 30
0.0
 11
435.419435
 21
307.857527
 31
0.0
  0
LINE
  5
7EE02
  8
41
 10
360.122036
 20
287.445682
 30
0.0
 11
360.122036
 21
309.861275
 31
0.0
  0
LINE
  5
7EE03
  8
41
 10
435.419435
 20
287.018033
 30
0.0
 11
360.122036
 21
287.445682
 31
0.0
  0
LINE
  5
7EE04
  8
41
 10
360.122036
 20
293.926489
 30
0.0
 11
360.099102
 21
293.928495
 31
0.0
  0
ARC
  5
7EE05
  8
41
 10
360.622036
 20
299.905663
 30
0.0
 40
6.0
 50
180.0
 51
265.0
  0
LINE
  5
7EE06
  8
41
 10
435.419435
 20
307.857527
 30
0.0
 11
434.919435
 21
307.857527
 31
0.0
  0
LINE
  5
7EE07
  8
41
 10
360.122036
 20
309.861275
 30
0.0
 11
360.099102
 21
309.863281
 31
0.0
  0
ARC
  5
7EE08
  8
41
 10
360.622036
 20
315.84045
 30
0.0
 40
6.0
 50
180.0
 51
265.0
  0
LINE
  5
7EE09
  8
41
 10
360.122036
 20
309.861275
 30
0.0
 11
425.373826
 21
309.987416
 31
0.0
  0
ARC
  5
7EE0A
  8
41
 10
406.180662
 20
298.718821
 30
0.0
 40
22.256656
 50
2.297066
 51
30.417837
  0
LINE
  5
7EE0B
  8
42
 10
360.600753
 20
451.289268
 30
0.0
 11
360.600753
 21
309.865453
 31
0.0
  0
LINE
  5
7EE0C
  8
42
 10
425.373826
 20
309.987416
 30
0.0
 11
425.373826
 21
451.289268
 31
0.0
  0
LINE
  5
7EE0D
  8
41
 10
428.419435
 20
462.217626
 30
0.0
 11
428.419435
 21
299.610882
 31
0.0
  0
LINE
  5
7EE0E
  8
41
 10
434.919435
 20
451.289268
 30
0.0
 11
434.919435
 21
297.826761
 31
0.0
  0
LINE
  5
7EE0F
  8
41
 10
354.622036
 20
451.289268
 30
0.0
 11
354.622036
 21
299.905663
 31
0.0
  0
LINE
  5
7EE10
  8
43
  6
DASHDOT
 10
442.423687
 20
380.022193
 30
0.0
 11
346.001484
 21
380.022193
 31
0.0
  0
LINE
  5
7EE11
  8
14
 10
852.900279
 20
205.963821
 30
0.0
 11
852.900279
 21
131.963821
 31
0.0
  0
LINE
  5
7EE12
  8
14
 10
690.44588
 20
128.963821
 30
0.0
 11
849.900279
 21
128.963821
 31
0.0
  0
LINE
  5
7EE13
  8
14
 10
690.44588
 20
128.963821
 30
0.0
 11
530.846315
 21
128.963821
 31
0.0
  0
ARC
  5
7EE14
  8
14
 10
530.991479
 20
131.960307
 30
0.0
 40
3.0
 50
179.932998
 51
272.773515
  0
LINE
  5
7EE15
  8
14
 10
527.991481
 20
205.963821
 30
0.0
 11
527.991481
 21
131.963815
 31
0.0
  0
ARC
  5
7EE16
  8
11
 10
867.859586
 20
177.225049
 30
0.0
 40
22.256656
 50
92.297066
 51
120.417837
  0
LINE
  5
7EE17
  8
11
 10
856.717132
 20
131.166423
 30
0.0
 11
856.590991
 21
196.418212
 31
0.0
  0
ARC
  5
7EE18
  8
11
 10
850.737958
 20
131.666423
 30
0.0
 40
6.0
 50
270.0
 51
355.0
  0
LINE
  5
7EE19
  8
11
 10
856.717132
 20
131.166423
 30
0.0
 11
856.715126
 21
131.143488
 31
0.0
  0
LINE
  5
7EE1A
  8
11
 10
858.72088
 20
206.463821
 30
0.0
 11
858.72088
 21
205.963821
 31
0.0
  0
LINE
  5
7EE1B
  8
11
 10
872.651919
 20
131.166423
 30
0.0
 11
872.649912
 21
131.143488
 31
0.0
  0
LINE
  5
7EE1C
  8
11
 10
878.327312
 20
199.396486
 30
0.0
 11
878.023023
 21
131.166423
 31
0.0
  0
LINE
  5
7EE1D
  8
11
 10
857.611179
 20
205.963821
 30
0.0
 11
856.712955
 21
205.963821
 31
0.0
  0
LINE
  5
7EE1E
  8
11
 10
857.611179
 20
206.463821
 30
0.0
 11
878.450672
 21
206.463821
 31
0.0
  0
LINE
  5
7EE1F
  8
11
 10
878.450672
 20
206.463821
 30
0.0
 11
878.441945
 21
205.963821
 31
0.0
  0
LINE
  5
7EE20
  8
11
 10
856.717132
 20
131.166423
 30
0.0
 11
878.023023
 21
131.166423
 31
0.0
  0
LINE
  5
7EE21
  8
11
 10
857.611179
 20
206.463821
 30
0.0
 11
857.611179
 21
205.963821
 31
0.0
  0
LINE
  5
7EE22
  8
11
 10
878.349015
 20
200.639869
 30
0.0
 11
878.327312
 21
199.396486
 31
0.0
  0
LINE
  5
7EE23
  8
11
 10
867.641312
 20
205.963821
 30
0.0
 11
857.611179
 21
205.963821
 31
0.0
  0
LINE
  5
7EE24
  8
11
 10
878.441945
 20
205.963821
 30
0.0
 11
878.348975
 21
200.637582
 31
0.0
  0
LINE
  5
7EE25
  8
11
 10
856.712955
 20
125.666423
 30
0.0
 11
865.106978
 21
125.666423
 31
0.0
  0
ARC
  5
7EE26
  8
11
 10
864.300938
 20
131.779623
 30
0.0
 40
6.16611
 50
277.51126
 51
354.078475
  0
LINE
  5
7EE27
  8
11
 10
502.44172
 20
206.463821
 30
0.0
 11
523.281214
 21
206.463821
 31
0.0
  0
LINE
  5
7EE28
  8
11
 10
502.869369
 20
131.166423
 30
0.0
 11
525.284962
 21
131.166423
 31
0.0
  0
LINE
  5
7EE29
  8
11
 10
502.44172
 20
206.463821
 30
0.0
 11
502.869369
 21
131.166423
 31
0.0
  0
LINE
  5
7EE2A
  8
11
 10
509.350175
 20
131.166423
 30
0.0
 11
509.352182
 21
131.143488
 31
0.0
  0
ARC
  5
7EE2B
  8
11
 10
515.32935
 20
131.666423
 30
0.0
 40
6.0
 50
185.0
 51
270.0
  0
LINE
  5
7EE2C
  8
11
 10
523.281214
 20
206.463821
 30
0.0
 11
523.281214
 21
205.963821
 31
0.0
  0
LINE
  5
7EE2D
  8
11
 10
525.284962
 20
131.166423
 30
0.0
 11
525.286968
 21
131.143488
 31
0.0
  0
ARC
  5
7EE2E
  8
11
 10
531.264136
 20
131.666423
 30
0.0
 40
6.0
 50
185.0
 51
270.0
  0
LINE
  5
7EE2F
  8
11
 10
525.284962
 20
131.166423
 30
0.0
 11
525.411103
 21
196.418212
 31
0.0
  0
ARC
  5
7EE30
  8
11
 10
514.142508
 20
177.225049
 30
0.0
 40
22.256656
 50
59.582163
 51
87.702934
  0
LINE
  5
7EE31
  8
12
 10
856.712955
 20
131.645139
 30
0.0
 11
525.289139
 21
131.645139
 31
0.0
  0
LINE
  5
7EE32
  8
12
 10
525.411103
 20
196.418212
 30
0.0
 11
856.712955
 21
196.418212
 31
0.0
  0
LINE
  5
7EE33
  8
11
 10
867.641312
 20
199.463821
 30
0.0
 11
515.034569
 21
199.463821
 31
0.0
  0
LINE
  5
7EE34
  8
11
 10
856.712955
 20
205.963821
 30
0.0
 11
513.250448
 21
205.963821
 31
0.0
  0
LINE
  5
7EE35
  8
11
 10
856.712955
 20
125.666423
 30
0.0
 11
515.32935
 21
125.666423
 31
0.0
  0
LINE
  5
7EE36
  8
13
  6
DASHDOT
 10
690.44588
 20
213.468073
 30
0.0
 11
690.44588
 21
117.04587
 31
0.0
  0
LINE
  5
7EE37
  8
33
  6
DASHDOT
 10
938.468073
 20
380.022193
 30
0.0
 11
1031.423687
 21
380.022193
 31
0.0
  0
LINE
  5
7EE38
  8
31
 10
1026.269723
 20
451.289268
 30
0.0
 11
1026.269723
 21
299.905663
 31
0.0
  0
LINE
  5
7EE39
  8
31
 10
945.972325
 20
451.289268
 30
0.0
 11
945.972325
 21
297.826761
 31
0.0
  0
LINE
  5
7EE3A
  8
31
 10
952.472325
 20
462.217626
 30
0.0
 11
952.472325
 21
299.610882
 31
0.0
  0
LINE
  5
7EE3B
  8
32
 10
955.517934
 20
309.987416
 30
0.0
 11
955.517934
 21
451.289268
 31
0.0
  0
LINE
  5
7EE3C
  8
32
 10
1020.291007
 20
451.289268
 30
0.0
 11
1020.291007
 21
309.865453
 31
0.0
  0
ARC
  5
7EE3D
  8
31
 10
974.711097
 20
298.718821
 30
0.0
 40
22.256656
 50
149.582163
 51
177.702934
  0
LINE
  5
7EE3E
  8
31
 10
1020.769723
 20
309.861275
 30
0.0
 11
955.517934
 21
309.987416
 31
0.0
  0
ARC
  5
7EE3F
  8
31
 10
1020.269723
 20
315.84045
 30
0.0
 40
6.0
 50
275.0
 51
0.0
  0
LINE
  5
7EE40
  8
31
 10
1020.769723
 20
309.861275
 30
0.0
 11
1020.792658
 21
309.863281
 31
0.0
  0
LINE
  5
7EE41
  8
31
 10
945.472325
 20
307.857527
 30
0.0
 11
945.972325
 21
307.857527
 31
0.0
  0
ARC
  5
7EE42
  8
31
 10
1020.269723
 20
299.905663
 30
0.0
 40
6.0
 50
275.0
 51
0.0
  0
LINE
  5
7EE43
  8
31
 10
1020.769723
 20
293.926489
 30
0.0
 11
1020.792658
 21
293.928495
 31
0.0
  0
LINE
  5
7EE44
  8
31
 10
945.472325
 20
287.018033
 30
0.0
 11
1020.769723
 21
287.445682
 31
0.0
  0
LINE
  5
7EE45
  8
31
 10
1020.769723
 20
287.445682
 30
0.0
 11
1020.769723
 21
309.861275
 31
0.0
  0
LINE
  5
7EE46
  8
31
 10
945.472325
 20
287.018033
 30
0.0
 11
945.472325
 21
307.857527
 31
0.0
  0
ARC
  5
7EE47
  8
31
 10
1020.156524
 20
458.877251
 30
0.0
 40
6.16611
 50
7.51126
 51
84.078475
  0
LINE
  5
7EE48
  8
31
 10
1026.269723
 20
451.289268
 30
0.0
 11
1026.269723
 21
459.683291
 31
0.0
  0
LINE
  5
7EE49
  8
31
 10
945.972325
 20
473.018258
 30
0.0
 11
951.298564
 21
472.925288
 31
0.0
  0
LINE
  5
7EE4A
  8
31
 10
945.972325
 20
462.217626
 30
0.0
 11
945.972325
 21
452.187492
 31
0.0
  0
LINE
  5
7EE4B
  8
31
 10
951.296278
 20
472.925328
 30
0.0
 11
952.53966
 21
472.903625
 31
0.0
  0
LINE
  5
7EE4C
  8
31
 10
945.472325
 20
452.187492
 30
0.0
 11
945.972325
 21
452.187492
 31
0.0
  0
LINE
  5
7EE4D
  8
31
 10
1020.769723
 20
451.293445
 30
0.0
 11
1020.769723
 21
472.599336
 31
0.0
  0
LINE
  5
7EE4E
  8
31
 10
945.472325
 20
473.026986
 30
0.0
 11
945.972325
 21
473.018258
 31
0.0
  0
LINE
  5
7EE4F
  8
31
 10
945.472325
 20
452.187492
 30
0.0
 11
945.472325
 21
473.026986
 31
0.0
  0
LINE
  5
7EE50
  8
31
 10
945.972325
 20
452.187492
 30
0.0
 11
945.972325
 21
451.289268
 31
0.0
  0
LINE
  5
7EE51
  8
31
 10
952.53966
 20
472.903625
 30
0.0
 11
1020.769723
 21
472.599336
 31
0.0
  0
LINE
  5
7EE52
  8
31
 10
1020.769723
 20
467.228232
 30
0.0
 11
1020.792658
 21
467.226225
 31
0.0
  0
LINE
  5
7EE53
  8
31
 10
945.472325
 20
453.297194
 30
0.0
 11
945.972325
 21
453.297194
 31
0.0
  0
LINE
  5
7EE54
  8
31
 10
1020.769723
 20
451.293445
 30
0.0
 11
1020.792658
 21
451.291439
 31
0.0
  0
ARC
  5
7EE55
  8
31
 10
1020.269723
 20
445.314271
 30
0.0
 40
6.0
 50
0.0
 51
85.0
  0
LINE
  5
7EE56
  8
31
 10
1020.769723
 20
451.293445
 30
0.0
 11
955.517934
 21
451.167304
 31
0.0
  0
ARC
  5
7EE57
  8
31
 10
974.711097
 20
462.435899
 30
0.0
 40
22.256656
 50
182.297066
 51
210.417837
  0
LINE
  5
7EE58
  8
34
 10
945.972325
 20
312.567794
 30
0.0
 11
1019.972331
 21
312.567794
 31
0.0
  0
ARC
  5
7EE59
  8
34
 10
1019.97584
 20
315.567792
 30
0.0
 40
3.0
 50
269.932998
 51
2.773515
  0
LINE
  5
7EE5A
  8
34
 10
1022.972325
 20
380.022193
 30
0.0
 11
1022.972325
 21
315.422628
 31
0.0
  0
LINE
  5
7EE5B
  8
34
 10
1022.972325
 20
380.022193
 30
0.0
 11
1022.972325
 21
444.476592
 31
0.0
  0
LINE
  5
7EE5C
  8
34
 10
945.972325
 20
447.476592
 30
0.0
 11
1019.972325
 21
447.476592
 31
0.0
  0
LINE
  5
7EE5D
  8
21
 10
856.712955
 20
554.080565
 30
0.0
 11
513.250448
 21
554.080565
 31
0.0
  0
LINE
  5
7EE5E
  8
21
 10
867.641312
 20
560.580565
 30
0.0
 11
515.034569
 21
560.580565
 31
0.0
  0
LINE
  5
7EE5F
  8
22
 10
525.411103
 20
563.626174
 30
0.0
 11
856.712955
 21
563.626174
 31
0.0
  0
LINE
  5
7EE60
  8
22
 10
856.712955
 20
628.399247
 30
0.0
 11
525.289139
 21
628.399247
 31
0.0
  0
ARC
  5
7EE61
  8
21
 10
514.142508
 20
582.819338
 30
0.0
 40
22.256656
 50
272.297066
 51
300.417837
  0
LINE
  5
7EE62
  8
21
 10
525.284962
 20
628.877964
 30
0.0
 11
525.411103
 21
563.626174
 31
0.0
  0
LINE
  5
7EE63
  8
21
 10
525.284962
 20
628.877964
 30
0.0
 11
525.286968
 21
628.900898
 31
0.0
  0
LINE
  5
7EE64
  8
21
 10
523.281214
 20
553.580565
 30
0.0
 11
523.281214
 21
554.080565
 31
0.0
  0
LINE
  5
7EE65
  8
21
 10
509.350175
 20
628.877964
 30
0.0
 11
509.352182
 21
628.900898
 31
0.0
  0
LINE
  5
7EE66
  8
21
 10
502.44172
 20
553.580565
 30
0.0
 11
502.869369
 21
628.877964
 31
0.0
  0
LINE
  5
7EE67
  8
21
 10
502.869369
 20
628.877964
 30
0.0
 11
525.284962
 21
628.877964
 31
0.0
  0
LINE
  5
7EE68
  8
21
 10
502.44172
 20
553.580565
 30
0.0
 11
523.281214
 21
553.580565
 31
0.0
  0
LINE
  5
7EE69
  8
21
 10
878.441945
 20
554.080565
 30
0.0
 11
878.348975
 21
559.406804
 31
0.0
  0
LINE
  5
7EE6A
  8
21
 10
867.641312
 20
554.080565
 30
0.0
 11
857.611179
 21
554.080565
 31
0.0
  0
LINE
  5
7EE6B
  8
21
 10
878.349015
 20
559.404518
 30
0.0
 11
878.327312
 21
560.6479
 31
0.0
  0
LINE
  5
7EE6C
  8
21
 10
857.611179
 20
553.580565
 30
0.0
 11
857.611179
 21
554.080565
 31
0.0
  0
LINE
  5
7EE6D
  8
21
 10
856.717132
 20
628.877964
 30
0.0
 11
878.023023
 21
628.877964
 31
0.0
  0
LINE
  5
7EE6E
  8
21
 10
878.450672
 20
553.580565
 30
0.0
 11
878.441945
 21
554.080565
 31
0.0
  0
LINE
  5
7EE6F
  8
21
 10
857.611179
 20
553.580565
 30
0.0
 11
878.450672
 21
553.580565
 31
0.0
  0
LINE
  5
7EE70
  8
21
 10
857.611179
 20
554.080565
 30
0.0
 11
856.712955
 21
554.080565
 31
0.0
  0
LINE
  5
7EE71
  8
21
 10
878.327312
 20
560.6479
 30
0.0
 11
878.023023
 21
628.877964
 31
0.0
  0
LINE
  5
7EE72
  8
21
 10
872.651919
 20
628.877964
 30
0.0
 11
872.649912
 21
628.900898
 31
0.0
  0
LINE
  5
7EE73
  8
21
 10
858.72088
 20
553.580565
 30
0.0
 11
858.72088
 21
554.080565
 31
0.0
  0
LINE
  5
7EE74
  8
21
 10
856.717132
 20
628.877964
 30
0.0
 11
856.715126
 21
628.900898
 31
0.0
  0
LINE
  5
7EE75
  8
21
 10
856.717132
 20
628.877964
 30
0.0
 11
856.590991
 21
563.626174
 31
0.0
  0
ARC
  5
7EE76
  8
21
 10
867.859586
 20
582.819338
 30
0.0
 40
22.256656
 50
239.582163
 51
267.702934
  0
LINE
  5
7EE77
  8
24
 10
527.991481
 20
554.080565
 30
0.0
 11
527.991481
 21
628.080571
 31
0.0
  0
LINE
  5
7EE78
  8
24
 10
852.900279
 20
554.080565
 30
0.0
 11
852.900279
 21
628.080565
 31
0.0
  0
LINE
  5
7EE79
  8
23
  6
DASHDOT
 10
690.44588
 20
546.576313
 30
0.0
 11
690.44588
 21
642.998516
 31
0.0
  0
LINE
  5
7EE7A
  8
21
 10
856.712955
 20
634.377964
 30
0.0
 11
515.32935
 21
634.377964
 31
0.0
  0
ARC
  5
7EE7B
  8
21
 10
531.264136
 20
628.377964
 30
0.0
 40
6.0
 50
90.0
 51
175.0
  0
ARC
  5
7EE7C
  8
21
 10
515.32935
 20
628.377964
 30
0.0
 40
6.0
 50
90.0
 51
175.0
  0
ARC
  5
7EE7D
  8
21
 10
864.300938
 20
628.264764
 30
0.0
 40
6.16611
 50
5.921525
 51
82.48874
  0
LINE
  5
7EE7E
  8
21
 10
856.712955
 20
634.377964
 30
0.0
 11
865.106978
 21
634.377964
 31
0.0
  0
ARC
  5
7EE7F
  8
21
 10
850.737958
 20
628.377964
 30
0.0
 40
6.0
 50
5.0
 51
90.0
  0
ARC
  5
7EE80
  8
24
 10
530.991479
 20
628.08408
 30
0.0
 40
3.0
 50
87.226485
 51
180.067002
  0
LINE
  5
7EE81
  8
24
 10
690.44588
 20
631.080565
 30
0.0
 11
530.846315
 21
631.080565
 31
0.0
  0
LINE
  5
7EE82
  8
24
 10
690.44588
 20
631.080565
 30
0.0
 11
849.900279
 21
631.080565
 31
0.0
  0
TEXT
  5
7EE83
  8
L20
 10
24.0
 20
532.0
 30
0.0
 40
11.681623
  1
FIBOX EK-M 80 COVER
  0
ARC
  5
7EE84
  8
24
 10
849.900279
 20
628.080565
 30
0.0
 40
3.0
 50
0.0
 51
90.0
  0
ARC
  5
7EE85
  8
44
 10
360.919435
 20
444.476592
 30
0.0
 40
3.0
 50
90.0
 51
180.0
  0
ARC
  5
7EE86
  8
14
 10
849.900279
 20
131.963821
 30
0.0
 40
3.0
 50
270.0
 51
0.0
  0
ARC
  5
7EE87
  8
34
 10
1019.972325
 20
444.476592
 30
0.0
 40
3.0
 50
0.0
 51
90.0
  0
VIEWPORT
  5
1
 67
     1
  8
0
 10
210.0
 20
152.094241
 30
0.0
 40
420.0
 41
304.188482
 68
    -1
 69
     1
1001
ACAD
1000
MVIEW
1002
{
1070
    16
1010
0.0
1020
0.0
1030
0.0
1010
0.0
1020
0.0
1030
1.0
1040
0.0
1040
304.188482
1040
210.0
1040
152.094241
1040
50.0
1040
0.0
1040
0.0
1070
     0
1070
   100
1070
     1
1070
     1
1070
     1
1070
     0
1070
     0
1070
     0
1040
0.0
1040
0.0
1040
0.0
1040
1.0
1040
1.0
1040
0.0
1040
0.0
1070
     0
1002
{
1002
}
1002
}
  0
ENDSEC
  0
EOF
