  0
SECTION
  2
HEADER
  9
$ACADVER
  1
AC1009
  9
$INSBASE
 10
0.0
 20
0.0
 30
0.0
  9
$EXTMIN
 10
-421.351675
 20
215.896144
 30
0.0
  9
$EXTMAX
 10
585.368391
 20
570.148242
 30
0.0
  9
$LIMMIN
 10
0.0
 20
0.0
  9
$LIMMAX
 10
420.0
 20
297.0
  9
$ORTHOMODE
 70
     0
  9
$REGENMODE
 70
     1
  9
$FILLMODE
 70
     1
  9
$QTEXTMODE
 70
     0
  9
$MIRRTEXT
 70
     1
  9
$DRAGMODE
 70
     2
  9
$LTSCALE
 40
7.0
  9
$OSMODE
 70
     0
  9
$ATTMODE
 70
     1
  9
$TEXTSIZE
 40
3.5
  9
$TRACEWID
 40
0.05
  9
$TEXTSTYLE
  7
STANDARD
  9
$CLAYER
  8
1
  9
$CELTYPE
  6
BYLAYER
  9
$CECOLOR
 62
   256
  9
$DIMSCALE
 40
1.0
  9
$DIMASZ
 40
3.5
  9
$DIMEXO
 40
0.0
  9
$DIMDLI
 40
10.0
  9
$DIMRND
 40
0.0
  9
$DIMDLE
 40
0.0
  9
$DIMEXE
 40
2.0
  9
$DIMTP
 40
0.0
  9
$DIMTM
 40
0.0
  9
$DIMTXT
 40
3.5
  9
$DIMCEN
 40
2.5
  9
$DIMTSZ
 40
0.0
  9
$DIMTOL
 70
     0
  9
$DIMLIM
 70
     0
  9
$DIMTIH
 70
     0
  9
$DIMTOH
 70
     0
  9
$DIMSE1
 70
     0
  9
$DIMSE2
 70
     0
  9
$DIMTAD
 70
     1
  9
$DIMZIN
 70
     8
  9
$DIMBLK
  1

  9
$DIMASO
 70
     1
  9
$DIMSHO
 70
     1
  9
$DIMPOST
  1

  9
$DIMAPOST
  1

  9
$DIMALT
 70
     0
  9
$DIMALTD
 70
     2
  9
$DIMALTF
 40
25.4
  9
$DIMLFAC
 40
1.0
  9
$DIMTOFL
 70
     1
  9
$DIMTVP
 40
0.0
  9
$DIMTIX
 70
     0
  9
$DIMSOXD
 70
     0
  9
$DIMSAH
 70
     0
  9
$DIMBLK1
  1

  9
$DIMBLK2
  1

  9
$DIMSTYLE
  2
ACADUS
  9
$DIMCLRD
 70
   256
  9
$DIMCLRE
 70
   256
  9
$DIMCLRT
 70
     3
  9
$DIMTFAC
 40
1.0
  9
$DIMGAP
 40
2.0
  9
$LUNITS
 70
     2
  9
$LUPREC
 70
     1
  9
$SKETCHINC
 40
1.0
  9
$FILLETRAD
 40
0.0
  9
$AUNITS
 70
     0
  9
$AUPREC
 70
     2
  9
$MENU
  1
CAESAR
  9
$ELEVATION
 40
0.0
  9
$PELEVATION
 40
0.0
  9
$THICKNESS
 40
0.0
  9
$LIMCHECK
 70
     0
  9
$BLIPMODE
 70
     1
  9
$CHAMFERA
 40
5.0
  9
$CHAMFERB
 40
5.0
  9
$SKPOLY
 70
     0
  9
$TDCREATE
 40
2449496.446617
  9
$TDUPDATE
 40
2453059.652221
  9
$TDINDWG
 40
0.000055
  9
$TDUSRTIMER
 40
0.000055
  9
$USRTIMER
 70
     1
  9
$ANGBASE
 50
0.0
  9
$ANGDIR
 70
     0
  9
$PDMODE
 70
     0
  9
$PDSIZE
 40
0.0
  9
$PLINEWID
 40
0.0
  9
$COORDS
 70
     2
  9
$SPLFRAME
 70
     0
  9
$SPLINETYPE
 70
     6
  9
$SPLINESEGS
 70
     8
  9
$ATTDIA
 70
     0
  9
$ATTREQ
 70
     1
  9
$HANDLING
 70
     1
  9
$HANDSEED
  5
344F
  9
$SURFTAB1
 70
     6
  9
$SURFTAB2
 70
     6
  9
$SURFTYPE
 70
     6
  9
$SURFU
 70
     6
  9
$SURFV
 70
     6
  9
$UCSNAME
  2

  9
$UCSORG
 10
0.0
 20
0.0
 30
0.0
  9
$UCSXDIR
 10
1.0
 20
0.0
 30
0.0
  9
$UCSYDIR
 10
0.0
 20
1.0
 30
0.0
  9
$PUCSNAME
  2

  9
$PUCSORG
 10
0.0
 20
0.0
 30
0.0
  9
$PUCSXDIR
 10
1.0
 20
0.0
 30
0.0
  9
$PUCSYDIR
 10
0.0
 20
1.0
 30
0.0
  9
$USERI1
 70
     0
  9
$USERI2
 70
     0
  9
$USERI3
 70
     0
  9
$USERI4
 70
     0
  9
$USERI5
 70
     0
  9
$USERR1
 40
1.0
  9
$USERR2
 40
0.0
  9
$USERR3
 40
3.5
  9
$USERR4
 40
0.0
  9
$USERR5
 40
0.0
  9
$WORLDVIEW
 70
     1
  9
$SHADEDGE
 70
     3
  9
$SHADEDIF
 70
    70
  9
$TILEMODE
 70
     1
  9
$MAXACTVP
 70
    16
  9
$PLIMCHECK
 70
     0
  9
$PEXTMIN
 10
1.000000E+020
 20
1.000000E+020
 30
1.000000E+020
  9
$PEXTMAX
 10
-1.000000E+020
 20
-1.000000E+020
 30
-1.000000E+020
  9
$PLIMMIN
 10
0.0
 20
0.0
  9
$PLIMMAX
 10
420.0
 20
297.0
  9
$UNITMODE
 70
     0
  9
$VISRETAIN
 70
     0
  9
$PLINEGEN
 70
     0
  9
$PSLTSCALE
 70
     0
  0
ENDSEC
  0
SECTION
  2
TABLES
  0
TABLE
  2
VPORT
 70
     2
  0
VPORT
  2
*ACTIVE
 70
     0
 10
0.0
 20
0.0
 11
1.0
 21
1.0
 12
82.008361
 22
393.016541
 13
0.0
 23
0.0
 14
1.0
 24
1.0
 15
10.0
 25
10.0
 16
0.0
 26
0.0
 36
1.0
 17
0.0
 27
0.0
 37
0.0
 40
626.648823
 41
1.616838
 42
50.0
 43
0.0
 44
0.0
 50
0.0
 51
0.0
 71
     0
 72
   100
 73
     1
 74
     1
 75
     0
 76
     0
 77
     0
 78
     0
  0
ENDTAB
  0
TABLE
  2
LTYPE
 70
    10
  0
LTYPE
  2
CONTINUOUS
 70
     0
  3
Solid line
 72
    65
 73
     0
 40
0.0
  0
LTYPE
  2
BORDER
 70
     0
  3
__ __ . __ __ . __ __ . __ __ . __ __ . __ __ .
 72
    65
 73
     6
 40
1.75
 49
0.5
 49
-0.25
 49
0.5
 49
-0.25
 49
0.0
 49
-0.25
  0
LTYPE
  2
CENTER
 70
     0
  3
____ _ ____ _ ____ _ ____ _ ____ _ ____ _ ____ 
 72
    65
 73
     4
 40
2.0
 49
1.25
 49
-0.25
 49
0.25
 49
-0.25
  0
LTYPE
  2
DASHDOT
 70
     0
  3
__ . __ . __ . __ . __ . __ . __ . __ . __ . __
 72
    65
 73
     4
 40
1.0
 49
0.5
 49
-0.25
 49
0.0
 49
-0.25
  0
LTYPE
  2
DASHED
 70
     0
  3
__ __ __ __ __ __ __ __ __ __ __ __ __ __ __ __
 72
    65
 73
     2
 40
0.75
 49
0.5
 49
-0.25
  0
LTYPE
  2
DIVIDE
 70
     0
  3
____ . . ____ . . ____ . . ____ . . ____ . . __
 72
    65
 73
     6
 40
1.25
 49
0.5
 49
-0.25
 49
0.0
 49
-0.25
 49
0.0
 49
-0.25
  0
LTYPE
  2
DOT
 70
     0
  3
. . . . . . . . . . . . . . . . . . . . . . . .
 72
    65
 73
     2
 40
0.25
 49
0.0
 49
-0.25
  0
LTYPE
  2
HIDDEN
 70
     0
  3
__ __ __ __ __ __ __ __ __ __ __ __ __ __ __ __
 72
    65
 73
     2
 40
0.375
 49
0.25
 49
-0.125
  0
LTYPE
  2
PHANTOM
 70
     0
  3
______  __  __  ______  __  __  ______  __  __ 
 72
    65
 73
     6
 40
2.5
 49
1.25
 49
-0.25
 49
0.25
 49
-0.25
 49
0.25
 49
-0.25
  0
LTYPE
  2
DOTX2
 70
     0
  3
.  .  .  .  .  .  .  .  .  .  .  .  .  .  .  . 
 72
    65
 73
     2
 40
0.5
 49
0.0
 49
-0.5
  0
ENDTAB
  0
TABLE
  2
LAYER
 70
   123
  0
LAYER
  2
0
 70
     0
 62
     7
  6
CONTINUOUS
  0
LAYER
  2
L1
 70
     0
 62
     7
  6
CONTINUOUS
  0
LAYER
  2
L2
 70
     0
 62
     1
  6
CONTINUOUS
  0
LAYER
  2
L3
 70
     0
 62
     7
  6
DASHED
  0
LAYER
  2
L4
 70
     0
 62
     1
  6
DASHED
  0
LAYER
  2
L5
 70
     0
 62
     7
  6
CENTER
  0
LAYER
  2
L6
 70
     0
 62
     1
  6
CENTER
  0
LAYER
  2
L7
 70
     0
 62
     1
  6
PHANTOM
  0
LAYER
  2
VPORT
 70
     0
 62
     7
  6
CONTINUOUS
  0
LAYER
  2
L8
 70
     0
 62
     1
  6
CONTINUOUS
  0
LAYER
  2
L20
 70
     0
 62
     3
  6
CONTINUOUS
  0
LAYER
  2
L21
 70
     0
 62
     1
  6
CONTINUOUS
  0
LAYER
  2
L22
 70
     0
 62
     1
  6
CONTINUOUS
  0
LAYER
  2
L23
 70
     0
 62
     1
  6
CONTINUOUS
  0
LAYER
  2
L30
 70
     0
 62
     3
  6
CONTINUOUS
  0
LAYER
  2
L31
 70
     0
 62
     1
  6
CONTINUOUS
  0
LAYER
  2
L32
 70
     0
 62
     3
  6
CONTINUOUS
  0
LAYER
  2
L33
 70
     0
 62
     1
  6
CONTINUOUS
  0
LAYER
  2
L34
 70
     0
 62
     1
  6
DASHED
  0
LAYER
  2
L35
 70
     0
 62
     1
  6
CONTINUOUS
  0
LAYER
  2
L40
 70
     0
 62
     7
  6
CONTINUOUS
  0
LAYER
  2
L41
 70
     0
 62
     1
  6
CONTINUOUS
  0
LAYER
  2
L42
 70
     0
 62
     1
  6
CONTINUOUS
  0
LAYER
  2
L43
 70
     0
 62
     7
  6
CONTINUOUS
  0
LAYER
  2
L44
 70
     0
 62
     1
  6
DASHED
  0
LAYER
  2
L45
 70
     0
 62
     1
  6
CONTINUOUS
  0
LAYER
  2
L46
 70
     0
 62
     3
  6
CONTINUOUS
  0
LAYER
  2
L50
 70
     0
 62
     7
  6
CONTINUOUS
  0
LAYER
  2
L51
 70
     0
 62
     1
  6
CONTINUOUS
  0
LAYER
  2
L52
 70
     0
 62
     7
  6
CONTINUOUS
  0
LAYER
  2
L53
 70
     0
 62
     1
  6
CONTINUOUS
  0
LAYER
  2
L54
 70
     0
 62
     1
  6
DASHED
  0
LAYER
  2
L55
 70
     0
 62
     3
  6
CONTINUOUS
  0
LAYER
  2
L56
 70
     0
 62
     3
  6
CONTINUOUS
  0
LAYER
  2
L57
 70
     0
 62
     1
  6
CONTINUOUS
  0
LAYER
  2
L9
 70
     0
 62
     7
  6
HIDDEN
  0
LAYER
  2
L15
 70
     0
 62
     2
  6
CONTINUOUS
  0
LAYER
  2
L16
 70
     0
 62
     5
  6
DOTX2
  0
LAYER
  2
L24
 70
     0
 62
     1
  6
DASHED
  0
LAYER
  2
1
 70
     0
 62
     7
  6
CONTINUOUS
  0
LAYER
  2
2
 70
     0
 62
   130
  6
CONTINUOUS
  0
LAYER
  2
8
 70
     0
 62
   130
  6
CONTINUOUS
  0
LAYER
  2
11
 70
     0
 62
     7
  6
CONTINUOUS
  0
LAYER
  2
60
 70
     0
 62
   130
  6
CONTINUOUS
  0
LAYER
  2
63
 70
     0
 62
     1
  6
CENTER
  0
LAYER
  2
66
 70
     0
 62
   130
  6
CONTINUOUS
  0
LAYER
  2
69
 70
     0
 62
   130
  6
CONTINUOUS
  0
LAYER
  2
72
 70
     0
 62
   130
  6
CONTINUOUS
  0
LAYER
  2
75
 70
     0
 62
   130
  6
CONTINUOUS
  0
LAYER
  2
86
 70
     0
 62
   130
  6
CONTINUOUS
  0
LAYER
  2
89
 70
     0
 62
   130
  6
CONTINUOUS
  0
LAYER
  2
98
 70
     0
 62
   130
  6
CONTINUOUS
  0
LAYER
  2
DEFPOINTS
 70
     0
 62
   130
  6
CONTINUOUS
  0
LAYER
  2
MUOTOV
 70
     0
 62
     3
  6
CONTINUOUS
  0
LAYER
  2
KATKOV
 70
     0
 62
   130
  6
HIDDEN
  0
LAYER
  2
PIKATKOV
 70
     0
 62
     7
  6
DASHDOT
  0
LAYER
  2
MITAT
 70
     0
 62
   255
  6
CONTINUOUS
  0
LAYER
  2
LEIKV
 70
     0
 62
   130
  6
CONTINUOUS
  0
LAYER
  2
A1
 70
     0
 62
   130
  6
CONTINUOUS
  0
LAYER
  2
RA1
 70
     0
 62
   130
  6
CONTINUOUS
  0
LAYER
  2
TITEL
 70
     0
 62
   130
  6
CONTINUOUS
  0
LAYER
  2
TITEL1
 70
     0
 62
   130
  6
CONTINUOUS
  0
LAYER
  2
MUUTOS
 70
     0
 62
   130
  6
CONTINUOUS
  0
LAYER
  2
MUUTOS1
 70
     0
 62
   130
  6
CONTINUOUS
  0
LAYER
  2
MUUTOSTEXT
 70
     0
 62
     1
  6
CONTINUOUS
  0
LAYER
  2
MUUTOS2
 70
     0
 62
   130
  6
CONTINUOUS
  0
LAYER
  2
L36
 70
     0
 62
     7
  6
CONTINUOUS
  0
LAYER
  2
L37
 70
     0
 62
     1
  6
CONTINUOUS
  0
LAYER
  2
L38
 70
     0
 62
     1
  6
DASHDOT
  0
LAYER
  2
L58
 70
     0
 62
     1
  6
CONTINUOUS
  0
LAYER
  2
A2
 70
     0
 62
     5
  6
CONTINUOUS
  0
LAYER
  2
A3
 70
     0
 62
     4
  6
CONTINUOUS
  0
LAYER
  2
A4
 70
     0
 62
     1
  6
DASHED
  0
LAYER
  2
A5
 70
     0
 62
     2
  6
CONTINUOUS
  0
LAYER
  2
A6
 70
     0
 62
     8
  6
CONTINUOUS
  0
LAYER
  2
RA2
 70
     0
 62
     5
  6
CONTINUOUS
  0
LAYER
  2
RA4
 70
     0
 62
     1
  6
DASHED
  0
LAYER
  2
CAM-A1
 70
     0
 62
     7
  6
CONTINUOUS
  0
LAYER
  2
CAM-A2
 70
     0
 62
     1
  6
CONTINUOUS
  0
LAYER
  2
CAM-A3
 70
     0
 62
     1
  6
DASHED
  0
LAYER
  2
CAM-B1
 70
     0
 62
     7
  6
CONTINUOUS
  0
LAYER
  2
CAM-B2
 70
     0
 62
     1
  6
CONTINUOUS
  0
LAYER
  2
CAM-B3
 70
     0
 62
     1
  6
DASHED
  0
LAYER
  2
CAM-C1
 70
     0
 62
     7
  6
CONTINUOUS
  0
LAYER
  2
CAM-C2
 70
     0
 62
     1
  6
CONTINUOUS
  0
LAYER
  2
CAM-C3
 70
     0
 62
     1
  6
DASHED
  0
LAYER
  2
CAM-D1
 70
     0
 62
     7
  6
CONTINUOUS
  0
LAYER
  2
CAM-D2
 70
     0
 62
     1
  6
CONTINUOUS
  0
LAYER
  2
CAM-D3
 70
     0
 62
     1
  6
DASHED
  0
LAYER
  2
CAM-E1
 70
     0
 62
     7
  6
CONTINUOUS
  0
LAYER
  2
CAM-E2
 70
     0
 62
     1
  6
CONTINUOUS
  0
LAYER
  2
CAM-E3
 70
     0
 62
     1
  6
DASHED
  0
LAYER
  2
CAM-F1
 70
     0
 62
     7
  6
CONTINUOUS
  0
LAYER
  2
CAM-F2
 70
     0
 62
     1
  6
CONTINUOUS
  0
LAYER
  2
CAM-F3
 70
     0
 62
     1
  6
DASHED
  0
LAYER
  2
12
 70
     0
 62
     1
  6
CONTINUOUS
  0
LAYER
  2
13
 70
     0
 62
     1
  6
CENTER
  0
LAYER
  2
14
 70
     0
 62
     1
  6
DASHED
  0
LAYER
  2
15
 70
     0
 62
     2
  6
DASHED
  0
LAYER
  2
21
 70
     0
 62
     7
  6
CONTINUOUS
  0
LAYER
  2
22
 70
     0
 62
     1
  6
CONTINUOUS
  0
LAYER
  2
23
 70
     0
 62
     1
  6
CENTER
  0
LAYER
  2
24
 70
     0
 62
     1
  6
DASHED
  0
LAYER
  2
25
 70
     0
 62
     2
  6
DASHED
  0
LAYER
  2
31
 70
     0
 62
     7
  6
CONTINUOUS
  0
LAYER
  2
32
 70
     0
 62
     1
  6
CONTINUOUS
  0
LAYER
  2
33
 70
     0
 62
     1
  6
CENTER
  0
LAYER
  2
34
 70
     0
 62
     1
  6
DASHED
  0
LAYER
  2
35
 70
     0
 62
     2
  6
DASHED
  0
LAYER
  2
41
 70
     0
 62
     7
  6
CONTINUOUS
  0
LAYER
  2
42
 70
     0
 62
     1
  6
CONTINUOUS
  0
LAYER
  2
43
 70
     0
 62
     1
  6
CENTER
  0
LAYER
  2
44
 70
     0
 62
     1
  6
DASHED
  0
LAYER
  2
45
 70
     0
 62
     2
  6
DASHED
  0
LAYER
  2
51
 70
     0
 62
     7
  6
CONTINUOUS
  0
LAYER
  2
52
 70
     0
 62
     1
  6
CONTINUOUS
  0
LAYER
  2
53
 70
     0
 62
     1
  6
CENTER
  0
LAYER
  2
54
 70
     0
 62
     1
  6
DASHED
  0
LAYER
  2
55
 70
     0
 62
     2
  6
DASHED
  0
LAYER
  2
61
 70
     0
 62
     7
  6
CONTINUOUS
  0
LAYER
  2
62
 70
     0
 62
     1
  6
CONTINUOUS
  0
LAYER
  2
64
 70
     0
 62
     1
  6
DASHED
  0
LAYER
  2
65
 70
     0
 62
     2
  6
DASHED
  0
ENDTAB
  0
TABLE
  2
STYLE
 70
     8
  0
STYLE
  2
STANDARD
 70
     0
 40
0.0
 41
1.0
 50
0.0
 71
     0
 42
3.5
  3
CAEISO
  4

  0
STYLE
  2
COMPLEX
 70
     0
 40
5.0
 41
1.0
 50
0.0
 71
     0
 42
5.0
  3
ROMANS.SHX
  4

  0
STYLE
  2
SIMPLEX
 70
     0
 40
3.5
 41
0.8
 50
0.0
 71
     0
 42
3.5
  3
CAEISO
  4

  0
STYLE
  2
TXT
 70
     0
 40
0.0
 41
1.0
 50
0.0
 71
     0
 42
0.2
  3
TXT
  4

  0
STYLE
  2
USER
 70
     0
 40
0.0
 41
1.0
 50
0.0
 71
     0
 42
0.2
  3
KIRJAIN
  4

  0
STYLE
  2
ITALIC
 70
     0
 40
0.0
 41
1.0
 50
0.0
 71
     0
 42
0.2
  3
ITALIC
  4

  0
STYLE
  2
MONO
 70
     0
 40
0.0
 41
1.0
 50
0.0
 71
     0
 42
9.5
  3
MONOTXT
  4

  0
STYLE
  2
CAEISO
 70
     0
 40
0.0
 41
1.0
 50
0.0
 71
     0
 42
1.0
  3
CAEISO
  4

  0
ENDTAB
  0
TABLE
  2
VIEW
 70
     0
  0
ENDTAB
  0
TABLE
  2
UCS
 70
     0
  0
ENDTAB
  0
TABLE
  2
APPID
 70
     1
  0
APPID
  2
ACAD
 70
     0
  0
ENDTAB
  0
TABLE
  2
DIMSTYLE
 70
     5
  0
DIMSTYLE
  2
ACADUS
 70
     0
  3

  4

  5

  6

  7

 40
1.0
 41
0.18
 42
0.0625
 43
0.38
 44
0.18
 45
0.0
 46
0.0
 47
0.0
 48
0.0
140
0.18
141
0.09
142
0.0
143
25.4
144
1.0
145
0.0
146
1.0
147
0.09
 71
     0
 72
     0
 73
     1
 74
     1
 75
     0
 76
     0
 77
     0
 78
     0
170
     0
171
     2
172
     0
173
     0
174
     0
175
     0
176
     0
177
     0
178
     0
  0
DIMSTYLE
  2
NORDIC
 70
     0
  3

  4

  5

  6

  7

 40
1.0
 41
3.5
 42
1.0
 43
10.0
 44
2.0
 45
0.0
 46
0.0
 47
0.0
 48
0.0
140
3.5
141
2.5
142
0.0
143
25.4
144
1.0
145
0.0
146
1.0
147
2.0
 71
     0
 72
     0
 73
     0
 74
     0
 75
     0
 76
     0
 77
     1
 78
     8
170
     0
171
     2
172
     1
173
     0
174
     0
175
     0
176
     0
177
     0
178
     0
  0
DIMSTYLE
  2
RADIAL
 70
     0
  3

  4

  5

  6

  7

 40
1.0
 41
3.5
 42
1.0
 43
10.0
 44
2.0
 45
0.0
 46
0.0
 47
0.0
 48
0.0
140
3.5
141
2.5
142
0.0
143
25.4
144
1.0
145
0.0
146
1.0
147
2.0
 71
     0
 72
     0
 73
     0
 74
     1
 75
     0
 76
     0
 77
     1
 78
     8
170
     0
171
     2
172
     0
173
     0
174
     0
175
     0
176
     0
177
     0
178
     0
  0
DIMSTYLE
  2
NORTOL
 70
     0
  3

  4

  5

  6

  7

 40
1.0
 41
3.5
 42
1.0
 43
10.0
 44
2.0
 45
0.0
 46
0.0
 47
0.2
 48
0.1
140
3.5
141
2.5
142
0.0
143
25.4
144
1.0
145
0.7
146
0.71
147
2.0
 71
     1
 72
     0
 73
     0
 74
     0
 75
     0
 76
     0
 77
     0
 78
     8
170
     0
171
     2
172
     1
173
     0
174
     0
175
     0
176
     0
177
     0
178
     0
  0
DIMSTYLE
  2
RADTOL
 70
     0
  3

  4

  5

  6

  7

 40
1.0
 41
3.5
 42
1.0
 43
10.0
 44
2.0
 45
0.0
 46
0.0
 47
0.2
 48
0.1
140
3.5
141
2.5
142
0.0
143
25.4
144
1.0
145
0.7
146
0.7
147
2.0
 71
     1
 72
     0
 73
     0
 74
     1
 75
     0
 76
     0
 77
     0
 78
     8
170
     0
171
     2
172
     0
173
     0
174
     0
175
     0
176
     0
177
     0
178
     0
  0
ENDTAB
  0
ENDSEC
  0
SECTION
  2
BLOCKS
  0
BLOCK
  8
0
  2
$MODEL_SPACE
 70
     0
 10
0.0
 20
0.0
 30
0.0
  3
$MODEL_SPACE
  1

  0
ENDBLK
  5
343F
  8
0
  0
BLOCK
 67
     1
  8
0
  2
$PAPER_SPACE
 70
     0
 10
0.0
 20
0.0
 30
0.0
  3
$PAPER_SPACE
  1

  0
ENDBLK
  5
343D
 67
     1
  8
0
  0
ENDSEC
  0
SECTION
  2
ENTITIES
  0
TEXT
  5
3214
  8
0
  6
CONTINUOUS
 10
330.035074
 20
372.358918
 30
0.0
 40
2.5
  1
  
 50
21.66214
  0
LINE
  5
3215
  8
61
 10
103.740425
 20
486.022193
 30
0.0
 11
458.140431
 21
486.022193
 31
0.0
  0
LINE
  5
3216
  8
61
 10
92.940425
 20
475.222193
 30
0.0
 11
92.940425
 21
310.822193
 31
0.0
  0
LINE
  5
3217
  8
62
 10
113.396438
 20
480.059695
 30
0.0
 11
448.484413
 21
480.059695
 31
0.0
  0
LINE
  5
3218
  8
62
 10
98.848046
 20
465.593869
 30
0.0
 11
98.848046
 21
320.450517
 31
0.0
  0
LINE
  5
3219
  8
61
 10
115.450994
 20
478.389647
 30
0.0
 11
444.191524
 21
478.389647
 31
0.0
  0
LINE
  5
321A
  8
61
 10
100.494072
 20
463.546758
 30
0.0
 11
100.494072
 21
322.497628
 31
0.0
  0
LINE
  5
321B
  8
53
 10
-233.351675
 20
495.345233
 30
0.0
 11
-233.351675
 21
386.651105
 31
0.0
  0
LINE
  5
321C
  8
52
 10
-418.521659
 20
474.529842
 30
0.0
 11
-409.859323
 21
483.192177
 31
0.0
  0
ARC
  5
321D
  8
52
 10
-410.551675
 20
475.222193
 30
0.0
 40
8.0
 50
7.645696
 51
85.035187
  0
ARC
  5
321E
  8
52
 10
-410.551675
 20
475.222193
 30
0.0
 40
8.0
 50
184.964813
 51
262.354304
  0
LINE
  5
321F
  8
52
 10
-411.61605
 20
467.293315
 30
0.0
 11
-402.622797
 21
476.286568
 31
0.0
  0
LINE
  5
3220
  8
51
 10
-421.351675
 20
475.222193
 30
0.0
 11
-421.351675
 21
310.822199
 31
0.0
  0
LINE
  5
3221
  8
51
 10
-410.551675
 20
486.022193
 30
0.0
 11
-188.351675
 21
486.022193
 31
0.0
  0
ARC
  5
3222
  8
51
 10
-410.551675
 20
475.222193
 30
0.0
 40
10.8
 50
23.289549
 51
246.710451
  0
ARC
  5
3223
  8
51
 10
-410.551675
 20
310.822193
 30
0.0
 40
10.8
 50
113.289549
 51
336.710451
  0
LINE
  5
3224
  8
52
 10
-409.859323
 20
302.852209
 30
0.0
 11
-418.521659
 21
311.514545
 31
0.0
  0
LINE
  5
3225
  8
52
 10
-402.622797
 20
309.757818
 30
0.0
 11
-411.61605
 21
318.751071
 31
0.0
  0
ARC
  5
3226
  8
52
 10
-410.551675
 20
310.822193
 30
0.0
 40
8.0
 50
97.645696
 51
175.035187
  0
ARC
  5
3227
  8
52
 10
-410.551675
 20
310.822193
 30
0.0
 40
8.0
 50
274.964813
 51
352.354304
  0
LINE
  5
3228
  8
51
 10
-393.251675
 20
478.022193
 30
0.0
 11
-188.351675
 21
478.022193
 31
0.0
  0
LINE
  5
3229
  8
51
 10
-413.351675
 20
457.922193
 30
0.0
 11
-413.351675
 21
328.122184
 31
0.0
  0
LINE
  5
322A
  8
52
 10
-414.851675
 20
457.722193
 30
0.0
 11
-414.851675
 21
328.322193
 31
0.0
  0
LINE
  5
322B
  8
52
 10
-393.051675
 20
479.522193
 30
0.0
 11
-188.351675
 21
479.522193
 31
0.0
  0
LINE
  5
322C
  8
52
 10
-419.251675
 20
457.722193
 30
0.0
 11
-419.251675
 21
328.122193
 31
0.0
  0
LINE
  5
322D
  8
52
 10
-393.051675
 20
483.922193
 30
0.0
 11
-188.351675
 21
483.922193
 31
0.0
  0
ARC
  5
322E
  8
51
 10
-410.551675
 20
475.222193
 30
0.0
 40
14.5
 50
270.0
 51
0.0
  0
ARC
  5
322F
  8
52
 10
-410.551675
 20
475.222193
 30
0.0
 40
13.2
 50
270.0
 51
0.0
  0
ARC
  5
3230
  8
52
 10
-410.551675
 20
475.222193
 30
0.0
 40
8.8
 50
270.0
 51
0.0
  0
ARC
  5
3231
  8
51
 10
-410.551675
 20
457.922193
 30
0.0
 40
2.8
 50
90.0
 51
180.0
  0
ARC
  5
3232
  8
51
 10
-393.251675
 20
475.222193
 30
0.0
 40
2.8
 50
90.0
 51
180.0
  0
ARC
  5
3233
  8
52
 10
-393.051675
 20
475.222193
 30
0.0
 40
4.3
 50
90.0
 51
180.0
  0
ARC
  5
3234
  8
52
 10
-410.551675
 20
457.722193
 30
0.0
 40
4.3
 50
90.0
 51
180.0
  0
ARC
  5
3235
  8
52
 10
-393.051675
 20
475.222193
 30
0.0
 40
8.7
 50
90.0
 51
180.0
  0
ARC
  5
3236
  8
52
 10
-410.551675
 20
457.722193
 30
0.0
 40
8.7
 50
90.0
 51
180.0
  0
ARC
  5
3237
  8
52
 10
-393.051675
 20
310.822193
 30
0.0
 40
8.7
 50
180.0
 51
270.0
  0
ARC
  5
3238
  8
52
 10
-410.551675
 20
310.822193
 30
0.0
 40
8.8
 50
360.0
 51
90.0
  0
ARC
  5
3239
  8
52
 10
-410.551675
 20
328.322193
 30
0.0
 40
8.7
 50
180.0
 51
270.0
  0
ARC
  5
323A
  8
52
 10
-410.551675
 20
328.322193
 30
0.0
 40
4.3
 50
180.0
 51
270.0
  0
ARC
  5
323B
  8
51
 10
-410.551675
 20
310.822193
 30
0.0
 40
14.5
 50
0.534442
 51
90.0
  0
ARC
  5
323C
  8
52
 10
-410.551675
 20
310.822193
 30
0.0
 40
13.2
 50
360.0
 51
90.0
  0
ARC
  5
323D
  8
52
 10
-393.051675
 20
310.822193
 30
0.0
 40
4.3
 50
180.0
 51
270.0
  0
ARC
  5
323E
  8
51
 10
-393.253054
 20
311.022174
 30
0.0
 40
2.8
 50
180.0
 51
270.0
  0
ARC
  5
323F
  8
51
 10
-410.551675
 20
328.122193
 30
0.0
 40
2.8
 50
180.0
 51
270.0
  0
LINE
  5
3240
  8
62
 10
121.938198
 20
472.39187
 30
0.0
 11
439.776826
 21
472.39187
 31
0.0
  0
ARC
  5
3241
  8
62
 10
103.740425
 20
475.222193
 30
0.0
 40
18.0
 50
280.020436
 51
349.629223
  0
LINE
  5
3242
  8
21
 10
114.669415
 20
562.994054
 30
0.0
 11
456.05302
 21
562.994054
 31
0.0
  0
LINE
  5
3243
  8
21
 10
114.669415
 20
533.494054
 30
0.0
 11
468.931923
 21
533.494054
 31
0.0
  0
LINE
  5
3244
  8
21
 10
105.533049
 20
539.994054
 30
0.0
 11
456.347801
 21
539.994054
 31
0.0
  0
LINE
  5
3245
  8
22
 10
445.971267
 20
543.039663
 30
0.0
 11
115.909584
 21
543.039663
 31
0.0
  0
LINE
  5
3246
  8
22
 10
115.78762
 20
557.015337
 30
0.0
 11
446.093231
 21
557.015337
 31
0.0
  0
LINE
  5
3247
  8
63
  6
DASHDOT
 10
477.170731
 20
393.022193
 30
0.0
 11
82.411273
 21
393.022193
 31
0.0
  0
ARC
  5
3248
  8
62
 10
103.740425
 20
310.822193
 30
0.0
 40
18.0
 50
10.370777
 51
79.979564
  0
LINE
  5
3249
  8
61
 10
103.740425
 20
300.022193
 30
0.0
 11
458.140425
 21
300.022193
 31
0.0
  0
LINE
  5
324A
  8
62
 10
113.396438
 20
305.984692
 30
0.0
 11
448.484413
 21
305.984692
 31
0.0
  0
LINE
  5
324B
  8
61
 10
115.450994
 20
307.654739
 30
0.0
 11
446.42986
 21
307.654739
 31
0.0
  0
LINE
  5
324C
  8
62
 10
121.938198
 20
313.652516
 30
0.0
 11
439.90516
 21
313.652516
 31
0.0
  0
LINE
  5
324D
  8
62
 10
106.459415
 20
328.99703
 30
0.0
 11
106.459415
 21
457.004397
 31
0.0
  0
LINE
  5
324E
  8
62
 10
455.421436
 20
328.99703
 30
0.0
 11
455.421436
 21
457.004397
 31
0.0
  0
ARC
  5
324F
  8
62
 10
458.140425
 20
310.822193
 30
0.0
 40
18.0
 50
100.020436
 51
169.629223
  0
ARC
  5
3250
  8
62
 10
458.140425
 20
475.222193
 30
0.0
 40
18.0
 50
190.370777
 51
259.979564
  0
ARC
  5
3251
  8
61
 10
446.429857
 20
480.389647
 30
0.0
 40
2.0
 50
270.0
 51
336.189853
  0
ARC
  5
3252
  8
61
 10
463.386778
 20
463.546758
 30
0.0
 40
2.0
 50
114.196752
 51
180.0
  0
ARC
  5
3253
  8
61
 10
459.386778
 20
461.277782
 30
0.0
 40
2.0
 50
0.0
 51
95.107531
  0
ARC
  5
3254
  8
61
 10
444.189187
 20
476.389647
 30
0.0
 40
2.0
 50
355.216575
 51
90.0
  0
LINE
  5
3255
  8
61
 10
461.386778
 20
463.546758
 30
0.0
 11
461.386778
 21
322.497628
 31
0.0
  0
LINE
  5
3256
  8
62
 10
463.032805
 20
465.593869
 30
0.0
 11
463.032805
 21
320.450517
 31
0.0
  0
LINE
  5
3257
  8
61
 10
459.2048
 20
467.293315
 30
0.0
 11
450.211547
 21
476.286568
 31
0.0
  0
LINE
  5
3258
  8
61
 10
466.11041
 20
474.529842
 30
0.0
 11
457.448074
 21
483.192177
 31
0.0
  0
LINE
  5
3259
  8
61
 10
468.940425
 20
475.222193
 30
0.0
 11
468.940425
 21
310.822193
 31
0.0
  0
ARC
  5
325A
  8
61
 10
458.140425
 20
475.222193
 30
0.0
 40
10.8
 50
294.196752
 51
156.189853
  0
ARC
  5
325B
  8
61
 10
458.140425
 20
475.222193
 30
0.0
 40
12.0
 50
175.216575
 51
275.107531
  0
LINE
  5
325C
  8
61
 10
446.429857
 20
478.389647
 30
0.0
 11
444.653527
 21
478.389647
 31
0.0
  0
LINE
  5
325D
  8
53
  6
DASHDOT
 10
-38.100951
 20
393.022193
 30
0.0
 11
-421.0
 21
393.022193
 31
0.0
  0
ARC
  5
325E
  8
21
 10
457.239862
 20
562.232826
 30
0.0
 40
22.256656
 50
239.582163
 51
267.702934
  0
LINE
  5
325F
  8
21
 10
446.097408
 20
557.494054
 30
0.0
 11
445.971267
 21
543.039663
 31
0.0
  0
ARC
  5
3260
  8
21
 10
440.118234
 20
556.994054
 30
0.0
 40
6.0
 50
5.0
 51
90.0
  0
LINE
  5
3261
  8
21
 10
446.097408
 20
557.494054
 30
0.0
 11
446.095402
 21
557.516988
 31
0.0
  0
LINE
  5
3262
  8
21
 10
448.101156
 20
532.994054
 30
0.0
 11
448.101156
 21
533.494054
 31
0.0
  0
ARC
  5
3263
  8
21
 10
456.05302
 20
556.994054
 30
0.0
 40
6.0
 50
5.0
 51
90.0
  0
LINE
  5
3264
  8
21
 10
462.032195
 20
557.494054
 30
0.0
 11
462.030188
 21
557.516988
 31
0.0
  0
LINE
  5
3266
  8
21
 10
468.94065
 20
532.994054
 30
0.0
 11
468.513001
 21
557.494054
 31
0.0
  0
LINE
  5
3267
  8
21
 10
468.513001
 20
557.494054
 30
0.0
 11
446.097408
 21
557.494054
 31
0.0
  0
LINE
  5
3268
  8
21
 10
468.94065
 20
532.994054
 30
0.0
 11
448.101156
 21
532.994054
 31
0.0
  0
LINE
  5
3269
  8
52
 10
-48.18169
 20
311.514545
 30
0.0
 11
-56.844026
 21
302.852209
 31
0.0
  0
ARC
  5
326A
  8
52
 10
-56.151675
 20
310.822193
 30
0.0
 40
8.0
 50
187.645696
 51
265.035187
  0
ARC
  5
326B
  8
52
 10
-56.151675
 20
310.822193
 30
0.0
 40
8.0
 50
4.964813
 51
82.354304
  0
LINE
  5
326C
  8
52
 10
-55.0873
 20
318.751071
 30
0.0
 11
-64.080553
 21
309.757818
 31
0.0
  0
ARC
  5
326D
  8
51
 10
-56.151675
 20
310.822193
 30
0.0
 40
10.8
 50
203.289549
 51
66.710451
  0
ARC
  5
326E
  8
51
 10
-56.151675
 20
310.822193
 30
0.0
 40
14.5
 50
90.0
 51
179.465558
  0
ARC
  5
326F
  8
52
 10
-56.151675
 20
310.822193
 30
0.0
 40
13.2
 50
90.0
 51
180.0
  0
ARC
  5
3270
  8
52
 10
-56.151675
 20
310.822193
 30
0.0
 40
8.8
 50
90.0
 51
180.0
  0
ARC
  5
3271
  8
51
 10
-56.151675
 20
328.122193
 30
0.0
 40
2.8
 50
270.0
 51
0.0
  0
ARC
  5
3272
  8
51
 10
-73.450296
 20
311.022174
 30
0.0
 40
2.8
 50
270.0
 51
0.0
  0
ARC
  5
3273
  8
52
 10
-73.651675
 20
310.822193
 30
0.0
 40
4.3
 50
270.0
 51
0.0
  0
ARC
  5
3274
  8
52
 10
-56.151675
 20
328.322193
 30
0.0
 40
4.3
 50
270.0
 51
0.0
  0
ARC
  5
3275
  8
52
 10
-73.651675
 20
310.822193
 30
0.0
 40
8.7
 50
270.0
 51
0.0
  0
ARC
  5
3276
  8
52
 10
-56.151675
 20
328.322193
 30
0.0
 40
8.7
 50
270.0
 51
0.0
  0
ARC
  5
3277
  8
52
 10
-56.151675
 20
457.722193
 30
0.0
 40
8.7
 50
360.0
 51
90.0
  0
ARC
  5
3278
  8
52
 10
-73.651675
 20
475.222193
 30
0.0
 40
8.7
 50
360.0
 51
90.0
  0
ARC
  5
3279
  8
52
 10
-56.151675
 20
457.722193
 30
0.0
 40
4.3
 50
0.0
 51
90.0
  0
ARC
  5
327A
  8
52
 10
-73.651675
 20
475.222193
 30
0.0
 40
4.3
 50
360.0
 51
90.0
  0
ARC
  5
327B
  8
51
 10
-73.451675
 20
475.222193
 30
0.0
 40
2.8
 50
360.0
 51
90.0
  0
ARC
  5
327C
  8
51
 10
-56.151675
 20
457.922193
 30
0.0
 40
2.8
 50
0.0
 51
90.0
  0
ARC
  5
327D
  8
52
 10
-56.151675
 20
475.222193
 30
0.0
 40
8.8
 50
180.0
 51
270.0
  0
ARC
  5
327E
  8
52
 10
-56.151675
 20
475.222193
 30
0.0
 40
13.2
 50
180.0
 51
270.0
  0
ARC
  5
327F
  8
51
 10
-56.151675
 20
475.222193
 30
0.0
 40
14.5
 50
180.0
 51
270.0
  0
LINE
  5
3280
  8
52
 10
-73.651675
 20
483.922193
 30
0.0
 11
-188.351675
 21
483.922193
 31
0.0
  0
LINE
  5
3281
  8
52
 10
-47.451675
 20
457.722193
 30
0.0
 11
-47.451675
 21
328.122193
 31
0.0
  0
LINE
  5
3282
  8
52
 10
-73.651675
 20
479.522193
 30
0.0
 11
-188.351675
 21
479.522193
 31
0.0
  0
LINE
  5
3283
  8
52
 10
-51.851675
 20
457.722193
 30
0.0
 11
-51.851675
 21
328.322193
 31
0.0
  0
LINE
  5
3284
  8
51
 10
-53.351675
 20
457.922193
 30
0.0
 11
-53.351675
 21
328.122184
 31
0.0
  0
LINE
  5
3285
  8
51
 10
-73.451675
 20
478.022193
 30
0.0
 11
-188.351675
 21
478.022193
 31
0.0
  0
ARC
  5
3286
  8
51
 10
-56.151675
 20
475.222193
 30
0.0
 40
10.8
 50
293.289549
 51
156.710451
  0
LINE
  5
3287
  8
51
 10
-56.151675
 20
486.022193
 30
0.0
 11
-188.351675
 21
486.022193
 31
0.0
  0
LINE
  5
3288
  8
51
 10
-45.351675
 20
475.222193
 30
0.0
 11
-45.351675
 21
310.822199
 31
0.0
  0
LINE
  5
3289
  8
52
 10
-55.0873
 20
467.293315
 30
0.0
 11
-64.080553
 21
476.286568
 31
0.0
  0
ARC
  5
328A
  8
52
 10
-56.151675
 20
475.222193
 30
0.0
 40
8.0
 50
277.645696
 51
355.035187
  0
ARC
  5
328B
  8
52
 10
-56.151675
 20
475.222193
 30
0.0
 40
8.0
 50
94.964813
 51
172.354304
  0
LINE
  5
328C
  8
52
 10
-48.18169
 20
474.529842
 30
0.0
 11
-56.844026
 21
483.192177
 31
0.0
  0
LINE
  5
328D
  8
51
 10
-393.251675
 20
308.222193
 30
0.0
 11
-275.851675
 21
308.222193
 31
0.0
  0
LINE
  5
328E
  8
52
 10
-393.251675
 20
306.526847
 30
0.0
 11
-73.451675
 21
306.526847
 31
0.0
  0
LINE
  5
328F
  8
52
 10
-393.251675
 20
302.124492
 30
0.0
 11
-73.451675
 21
302.124492
 31
0.0
  0
LINE
  5
3290
  8
51
 10
-410.551675
 20
300.022193
 30
0.0
 11
-56.151675
 21
300.022193
 31
0.0
  0
LINE
  5
3291
  8
33
  6
DASHDOT
 10
585.368391
 20
393.022193
 30
0.0
 11
516.144898
 21
393.022193
 31
0.0
  0
LINE
  5
3292
  8
31
 10
534.755956
 20
300.021696
 30
0.0
 11
534.755956
 21
486.02269
 31
0.0
  0
LINE
  5
3293
  8
34
 10
561.931601
 20
457.633522
 30
0.0
 11
561.852862
 21
393.022193
 31
0.0
  0
ARC
  5
3294
  8
34
 10
558.934725
 20
457.496638
 30
0.0
 40
3.0
 50
357.226485
 51
90.067002
  0
LINE
  5
3295
  8
34
 10
534.755956
 20
460.498072
 30
0.0
 11
558.577302
 21
460.498072
 31
0.0
  0
LINE
  5
3296
  8
34
 10
534.755956
 20
325.546315
 30
0.0
 11
558.774289
 21
325.546315
 31
0.0
  0
LINE
  5
3297
  8
31
 10
540.079909
 20
300.114626
 30
0.0
 11
558.755956
 21
300.440617
 31
0.0
  0
LINE
  5
3298
  8
31
 10
558.755956
 20
307.571424
 30
0.0
 11
558.755956
 21
300.440617
 31
0.0
  0
CIRCLE
  5
3299
  8
61
 10
458.140425
 20
475.222193
 30
0.0
 40
8.0
  0
ARC
  5
329A
  8
61
 10
458.140425
 20
475.222193
 30
0.0
 40
10.0
 50
187.519679
 51
262.493404
  0
LINE
  5
329B
  8
61
 10
450.901149
 20
479.580562
 30
0.0
 11
448.539862
 21
475.490693
 31
0.0
  0
LINE
  5
329C
  8
61
 10
462.434235
 20
467.94444
 30
0.0
 11
458.410623
 21
465.621406
 31
0.0
  0
ARC
  5
329D
  8
61
 10
458.140425
 20
475.222193
 30
0.0
 40
8.45
 50
299.459771
 51
148.950175
  0
LINE
  5
329E
  8
61
 10
451.286673
 20
479.348459
 30
0.0
 11
449.007299
 21
475.400468
 31
0.0
  0
LINE
  5
329F
  8
61
 10
462.21292
 20
468.336255
 30
0.0
 11
458.320259
 21
466.088827
 31
0.0
  0
ARC
  5
32A0
  8
61
 10
458.140425
 20
475.222193
 30
0.0
 40
9.55
 50
188.743877
 51
261.268945
  0
ARC
  5
32A1
  8
61
 10
451.172362
 20
474.150468
 30
0.0
 40
2.5
 50
150.0
 51
188.743877
  0
ARC
  5
32A2
  8
61
 10
457.070259
 20
468.25389
 30
0.0
 40
2.5
 50
261.268945
 51
300.0
  0
ARC
  5
32A3
  8
61
 10
450.704925
 20
474.240693
 30
0.0
 40
2.5
 50
150.0
 51
187.519679
  0
ARC
  5
32A4
  8
61
 10
457.160623
 20
467.786469
 30
0.0
 40
2.5
 50
262.493404
 51
300.0
  0
ARC
  5
32A5
  8
61
 10
104.720228
 20
467.786469
 30
0.0
 40
2.5
 50
240.0
 51
277.506596
  0
ARC
  5
32A6
  8
61
 10
111.175925
 20
474.240693
 30
0.0
 40
2.5
 50
352.480321
 51
30.0
  0
ARC
  5
32A7
  8
61
 10
104.810591
 20
468.25389
 30
0.0
 40
2.5
 50
240.0
 51
278.731055
  0
ARC
  5
32A8
  8
61
 10
110.708489
 20
474.150468
 30
0.0
 40
2.5
 50
351.256123
 51
30.0
  0
ARC
  5
32A9
  8
61
 10
103.740425
 20
475.222193
 30
0.0
 40
9.55
 50
278.731055
 51
351.256123
  0
LINE
  5
32AA
  8
61
 10
99.667931
 20
468.336255
 30
0.0
 11
103.560591
 21
466.088827
 31
0.0
  0
LINE
  5
32AB
  8
61
 10
110.594178
 20
479.348459
 30
0.0
 11
112.873552
 21
475.400468
 31
0.0
  0
ARC
  5
32AC
  8
61
 10
103.740425
 20
475.222193
 30
0.0
 40
8.45
 50
31.049825
 51
240.540229
  0
LINE
  5
32AD
  8
61
 10
99.446615
 20
467.94444
 30
0.0
 11
103.470228
 21
465.621406
 31
0.0
  0
LINE
  5
32AE
  8
61
 10
110.979702
 20
479.580562
 30
0.0
 11
113.340989
 21
475.490693
 31
0.0
  0
ARC
  5
32AF
  8
61
 10
103.740425
 20
475.222193
 30
0.0
 40
10.0
 50
277.506596
 51
352.480321
  0
CIRCLE
  5
32B0
  8
61
 10
103.740425
 20
475.222193
 30
0.0
 40
8.0
  0
LINE
  5
32B1
  8
61
 10
115.450994
 20
478.389647
 30
0.0
 11
117.227323
 21
478.389647
 31
0.0
  0
ARC
  5
32B2
  8
61
 10
103.740425
 20
475.222193
 30
0.0
 40
12.0
 50
264.892469
 51
4.783425
  0
ARC
  5
32B3
  8
61
 10
103.740425
 20
475.222193
 30
0.0
 40
10.8
 50
23.810147
 51
245.803248
  0
LINE
  5
32B4
  8
61
 10
95.770441
 20
474.529842
 30
0.0
 11
104.432777
 21
483.192177
 31
0.0
  0
LINE
  5
32B5
  8
61
 10
102.67605
 20
467.293315
 30
0.0
 11
111.669303
 21
476.286568
 31
0.0
  0
ARC
  5
32B6
  8
61
 10
117.691664
 20
476.389647
 30
0.0
 40
2.0
 50
90.0
 51
184.783425
  0
ARC
  5
32B7
  8
61
 10
102.494072
 20
461.277782
 30
0.0
 40
2.0
 50
84.892469
 51
180.0
  0
ARC
  5
32B8
  8
61
 10
98.494072
 20
463.546758
 30
0.0
 40
2.0
 50
0.0
 51
65.803248
  0
ARC
  5
32B9
  8
61
 10
115.450994
 20
480.389647
 30
0.0
 40
2.0
 50
203.810147
 51
270.0
  0
ARC
  5
32BA
  8
61
 10
115.450994
 20
305.654739
 30
0.0
 40
2.0
 50
90.0
 51
156.189853
  0
ARC
  5
32BB
  8
61
 10
98.494072
 20
322.497628
 30
0.0
 40
2.0
 50
294.196752
 51
0.0
  0
ARC
  5
32BC
  8
61
 10
102.494072
 20
324.766604
 30
0.0
 40
2.0
 50
180.0
 51
275.107531
  0
ARC
  5
32BD
  8
61
 10
117.691664
 20
309.654739
 30
0.0
 40
2.0
 50
175.216575
 51
270.0
  0
LINE
  5
32BE
  8
61
 10
102.67605
 20
318.751071
 30
0.0
 11
111.669303
 21
309.757818
 31
0.0
  0
LINE
  5
32BF
  8
61
 10
95.770441
 20
311.514545
 30
0.0
 11
104.432777
 21
302.852209
 31
0.0
  0
ARC
  5
32C0
  8
61
 10
103.740425
 20
310.822193
 30
0.0
 40
10.8
 50
114.196752
 51
336.189853
  0
ARC
  5
32C1
  8
61
 10
103.740425
 20
310.822193
 30
0.0
 40
12.0
 50
355.216575
 51
95.107531
  0
LINE
  5
32C2
  8
61
 10
115.450994
 20
307.654739
 30
0.0
 11
117.227323
 21
307.654739
 31
0.0
  0
CIRCLE
  5
32C3
  8
61
 10
103.740425
 20
310.822193
 30
0.0
 40
8.0
  0
ARC
  5
32C4
  8
61
 10
103.740425
 20
310.822193
 30
0.0
 40
10.0
 50
7.519679
 51
82.493404
  0
LINE
  5
32C5
  8
61
 10
110.979702
 20
306.463824
 30
0.0
 11
113.340989
 21
310.553693
 31
0.0
  0
LINE
  5
32C6
  8
61
 10
99.446615
 20
318.099947
 30
0.0
 11
103.470228
 21
320.42298
 31
0.0
  0
ARC
  5
32C7
  8
61
 10
103.740425
 20
310.822193
 30
0.0
 40
8.45
 50
119.459771
 51
328.950175
  0
LINE
  5
32C8
  8
61
 10
110.594178
 20
306.695927
 30
0.0
 11
112.873552
 21
310.643918
 31
0.0
  0
LINE
  5
32C9
  8
61
 10
99.667931
 20
317.708131
 30
0.0
 11
103.560591
 21
319.95556
 31
0.0
  0
ARC
  5
32CA
  8
61
 10
103.740425
 20
310.822193
 30
0.0
 40
9.55
 50
8.743877
 51
81.268945
  0
ARC
  5
32CB
  8
61
 10
110.708489
 20
311.893918
 30
0.0
 40
2.5
 50
330.0
 51
8.743877
  0
ARC
  5
32CC
  8
61
 10
104.810591
 20
317.790496
 30
0.0
 40
2.5
 50
81.268945
 51
120.0
  0
ARC
  5
32CD
  8
61
 10
111.175925
 20
311.803693
 30
0.0
 40
2.5
 50
330.0
 51
7.519679
  0
ARC
  5
32CE
  8
61
 10
104.720228
 20
318.257917
 30
0.0
 40
2.5
 50
82.493404
 51
120.0
  0
ARC
  5
32CF
  8
61
 10
457.160623
 20
318.257917
 30
0.0
 40
2.5
 50
60.0
 51
97.506596
  0
ARC
  5
32D0
  8
61
 10
450.704925
 20
311.803693
 30
0.0
 40
2.5
 50
172.480321
 51
210.0
  0
ARC
  5
32D1
  8
61
 10
457.070259
 20
317.790496
 30
0.0
 40
2.5
 50
60.0
 51
98.731055
  0
ARC
  5
32D2
  8
61
 10
451.172362
 20
311.893918
 30
0.0
 40
2.5
 50
171.256123
 51
210.0
  0
ARC
  5
32D3
  8
61
 10
458.140425
 20
310.822193
 30
0.0
 40
9.55
 50
98.731055
 51
171.256123
  0
LINE
  5
32D4
  8
61
 10
462.21292
 20
317.708131
 30
0.0
 11
458.320259
 21
319.95556
 31
0.0
  0
LINE
  5
32D5
  8
61
 10
451.286673
 20
306.695927
 30
0.0
 11
449.007299
 21
310.643918
 31
0.0
  0
ARC
  5
32D6
  8
61
 10
458.140425
 20
310.822193
 30
0.0
 40
8.45
 50
211.049825
 51
60.540229
  0
LINE
  5
32D7
  8
61
 10
462.434235
 20
318.099947
 30
0.0
 11
458.410623
 21
320.42298
 31
0.0
  0
LINE
  5
32D8
  8
61
 10
450.901149
 20
306.463824
 30
0.0
 11
448.539862
 21
310.553693
 31
0.0
  0
ARC
  5
32D9
  8
61
 10
458.140425
 20
310.822193
 30
0.0
 40
10.0
 50
97.506596
 51
172.480321
  0
CIRCLE
  5
32DA
  8
61
 10
458.140425
 20
310.822193
 30
0.0
 40
8.0
  0
LINE
  5
32DB
  8
61
 10
446.429857
 20
307.654739
 30
0.0
 11
444.653527
 21
307.654739
 31
0.0
  0
ARC
  5
32DC
  8
61
 10
458.140425
 20
310.822193
 30
0.0
 40
12.0
 50
84.892469
 51
184.783425
  0
ARC
  5
32DD
  8
61
 10
458.140425
 20
310.822193
 30
0.0
 40
10.8
 50
203.810147
 51
65.803248
  0
LINE
  5
32DE
  8
61
 10
466.11041
 20
311.514545
 30
0.0
 11
457.448074
 21
302.852209
 31
0.0
  0
LINE
  5
32DF
  8
61
 10
459.2048
 20
318.751071
 30
0.0
 11
450.211547
 21
309.757818
 31
0.0
  0
ARC
  5
32E0
  8
61
 10
444.189187
 20
309.654739
 30
0.0
 40
2.0
 50
270.0
 51
4.783425
  0
ARC
  5
32E1
  8
61
 10
459.386778
 20
324.766604
 30
0.0
 40
2.0
 50
264.892469
 51
0.0
  0
ARC
  5
32E2
  8
61
 10
463.386778
 20
322.497628
 30
0.0
 40
2.0
 50
180.0
 51
245.803248
  0
ARC
  5
32E3
  8
61
 10
446.429857
 20
305.654739
 30
0.0
 40
2.0
 50
23.810147
 51
90.0
  0
LINE
  5
32E4
  8
31
 10
564.255956
 20
473.143788
 30
0.0
 11
564.255956
 21
393.022193
 31
0.0
  0
ARC
  5
32E7
  8
51
 10
-355.916129
 20
-198.505084
 30
0.0
 40
507.032791
 50
95.059524
 51
95.059524
  0
LINE
  5
32E8
  8
51
 10
-190.851675
 20
308.222193
 30
0.0
 11
-73.451675
 21
308.222193
 31
0.0
  0
LINE
  5
32E9
  8
31
 10
564.255956
 20
393.022193
 30
0.0
 11
564.255956
 21
312.900599
 31
0.0
  0
LINE
  5
32EA
  8
34
 10
561.852862
 20
393.022193
 30
0.0
 11
561.774287
 21
328.542659
 31
0.0
  0
LINE
  5
32EB
  8
31
 10
534.755956
 20
300.021696
 30
0.0
 11
540.079903
 21
300.114626
 31
0.0
  0
LINE
  5
32EC
  8
63
  6
DASHDOT
 10
280.940425
 20
292.352411
 30
0.0
 11
280.940425
 21
500.450934
 31
0.0
  0
ARC
  5
32ED
  8
51
 10
-257.153
 20
-1370.058126
 30
0.0
 40
1679.589442
 50
87.737677
 51
88.335008
  0
LINE
  5
32EE
  8
51
 10
-233.351675
 20
308.822193
 30
0.0
 11
-208.351675
 21
308.822193
 31
0.0
  0
LINE
  5
32EF
  8
51
 10
-233.351675
 20
308.822193
 30
0.0
 11
-258.351675
 21
308.822193
 31
0.0
  0
ARC
  5
32F0
  8
51
 10
-211.169939
 20
-1322.820102
 30
0.0
 40
1632.324323
 50
91.656344
 51
92.270971
  0
LINE
  5
32F1
  8
53
  6
DASHDOT
 10
-233.351675
 20
433.770274
 30
0.0
 11
-233.351675
 21
281.848268
 31
0.0
  0
ARC
  5
32F2
  8
21
 10
107.081432
 20
556.880854
 30
0.0
 40
6.16611
 50
97.51126
 51
174.078475
  0
LINE
  5
32F3
  8
24
 10
280.940425
 20
560.494054
 30
0.0
 11
122.14564
 21
560.494054
 31
0.0
  0
LINE
  5
32F4
  8
21
 10
114.669415
 20
562.994054
 30
0.0
 11
106.275392
 21
562.994054
 31
0.0
  0
LINE
  5
32F5
  8
21
 10
92.940425
 20
533.494054
 30
0.0
 11
93.033395
 21
538.820293
 31
0.0
  0
LINE
  5
32F6
  8
21
 10
100.940425
 20
533.494054
 30
0.0
 11
113.771191
 21
533.494054
 31
0.0
  0
LINE
  5
32F7
  8
21
 10
95.034523
 20
533.494054
 30
0.0
 11
92.940425
 21
533.494054
 31
0.0
  0
LINE
  5
32F8
  8
21
 10
100.940425
 20
533.494054
 30
0.0
 11
99.423569
 21
533.494054
 31
0.0
  0
LINE
  5
32F9
  8
21
 10
99.423569
 20
533.494054
 30
0.0
 11
95.034523
 21
533.494054
 31
0.0
  0
LINE
  5
32FA
  8
21
 10
93.033355
 20
538.818006
 30
0.0
 11
93.055059
 21
540.061389
 31
0.0
  0
LINE
  5
32FB
  8
21
 10
113.771191
 20
532.994054
 30
0.0
 11
113.771191
 21
533.494054
 31
0.0
  0
LINE
  5
32FC
  8
21
 10
92.931698
 20
532.994054
 30
0.0
 11
92.940425
 21
533.494054
 31
0.0
  0
LINE
  5
32FD
  8
21
 10
113.771191
 20
532.994054
 30
0.0
 11
92.931698
 21
532.994054
 31
0.0
  0
LINE
  5
32FE
  8
21
 10
113.771191
 20
533.494054
 30
0.0
 11
114.669415
 21
533.494054
 31
0.0
  0
LINE
  5
32FF
  8
21
 10
93.055059
 20
540.061389
 30
0.0
 11
93.359347
 21
557.494054
 31
0.0
  0
TEXT
  5
3300
  8
0
  6
CONTINUOUS
 10
330.76571
 20
977.068835
 30
0.0
 40
2.5
  1
  
 50
21.66214
  0
ARC
  5
3301
  8
34
 10
558.774289
 20
328.546315
 30
0.0
 40
3.0
 50
270.0
 51
359.930179
  0
LINE
  5
3302
  8
31
 10
534.255956
 20
300.012968
 30
0.0
 11
534.255956
 21
320.852462
 31
0.0
  0
LINE
  5
3303
  8
31
 10
558.755956
 20
300.440617
 30
0.0
 11
558.755956
 21
322.85621
 31
0.0
  0
LINE
  5
3304
  8
31
 10
534.255956
 20
300.012968
 30
0.0
 11
558.755956
 21
300.440617
 31
0.0
  0
LINE
  5
3305
  8
31
 10
558.755956
 20
306.921424
 30
0.0
 11
558.778891
 21
306.92343
 31
0.0
  0
ARC
  5
3306
  8
31
 10
558.255956
 20
312.900599
 30
0.0
 40
6.0
 50
275.0
 51
0.0
  0
LINE
  5
3307
  8
31
 10
534.255956
 20
320.852462
 30
0.0
 11
534.755956
 21
320.852462
 31
0.0
  0
LINE
  5
3308
  8
31
 10
558.755956
 20
322.85621
 30
0.0
 11
558.778891
 21
322.858217
 31
0.0
  0
ARC
  5
3309
  8
31
 10
558.255956
 20
328.835385
 30
0.0
 40
6.0
 50
275.0
 51
0.0
  0
LINE
  5
330A
  8
31
 10
558.755956
 20
322.85621
 30
0.0
 11
544.301565
 21
322.982352
 31
0.0
  0
ARC
  5
330B
  8
31
 10
563.494729
 20
311.713756
 30
0.0
 40
22.256656
 50
149.582163
 51
177.702934
  0
LINE
  5
330C
  8
32
 10
544.301565
 20
322.982352
 30
0.0
 11
544.301565
 21
393.022193
 31
0.0
  0
LINE
  5
330D
  8
32
 10
558.27724
 20
393.022193
 30
0.0
 11
558.27724
 21
322.860388
 31
0.0
  0
LINE
  5
330E
  8
31
 10
541.255956
 20
300.128783
 30
0.0
 11
541.255956
 21
300.135154
 31
0.0
  0
ARC
  5
330F
  8
31
 10
562.386795
 20
474.314535
 30
0.0
 40
21.148987
 50
182.3738
 51
211.225396
  0
LINE
  5
3310
  8
31
 10
558.755956
 20
463.188176
 30
0.0
 11
544.301565
 21
463.350771
 31
0.0
  0
LINE
  5
3311
  8
31
 10
558.755956
 20
463.188176
 30
0.0
 11
558.778891
 21
463.18617
 31
0.0
  0
LINE
  5
3312
  8
31
 10
534.255956
 20
465.191924
 30
0.0
 11
534.755956
 21
465.191924
 31
0.0
  0
ARC
  5
3313
  8
31
 10
558.255956
 20
473.143788
 30
0.0
 40
6.0
 50
0.0
 51
85.0
  0
LINE
  5
3314
  8
31
 10
558.755956
 20
479.122963
 30
0.0
 11
558.778891
 21
479.120956
 31
0.0
  0
LINE
  5
3315
  8
31
 10
534.255956
 20
486.031418
 30
0.0
 11
558.755956
 21
485.603769
 31
0.0
  0
LINE
  5
3316
  8
31
 10
558.755956
 20
485.603769
 30
0.0
 11
558.755956
 21
463.188176
 31
0.0
  0
LINE
  5
3317
  8
31
 10
534.255956
 20
486.031418
 30
0.0
 11
534.255956
 21
465.191924
 31
0.0
  0
LINE
  5
3318
  8
31
 10
534.755956
 20
486.02269
 30
0.0
 11
540.079903
 21
485.929761
 31
0.0
  0
LINE
  5
3319
  8
31
 10
558.755956
 20
478.472963
 30
0.0
 11
558.755956
 21
485.603769
 31
0.0
  0
LINE
  5
331A
  8
31
 10
540.079909
 20
485.92976
 30
0.0
 11
558.755956
 21
485.603769
 31
0.0
  0
ARC
  5
331B
  8
31
 10
558.255956
 20
457.209002
 30
0.0
 40
6.0
 50
0.0
 51
85.0
  0
LINE
  5
331C
  8
32
 10
544.301565
 20
463.350771
 30
0.0
 11
544.301565
 21
393.022193
 31
0.0
  0
LINE
  5
331D
  8
31
 10
541.255956
 20
485.915603
 30
0.0
 11
541.255956
 21
485.909233
 31
0.0
  0
LINE
  5
331E
  8
32
 10
558.27724
 20
393.022193
 30
0.0
 11
558.27724
 21
463.183999
 31
0.0
  0
LINE
  5
331F
  8
24
 10
118.440425
 20
533.494054
 30
0.0
 11
118.645773
 21
557.024597
 31
0.0
  0
LINE
  5
3320
  8
23
  6
DASHDOT
 10
280.940425
 20
528.494054
 30
0.0
 11
280.940425
 21
570.148242
 31
0.0
  0
ARC
  5
3321
  8
24
 10
122.14564
 20
556.994054
 30
0.0
 40
3.5
 50
90.0
 51
179.5
  0
LINE
  5
3322
  8
24
 10
443.440425
 20
533.494054
 30
0.0
 11
443.235077
 21
557.024597
 31
0.0
  0
ARC
  5
3323
  8
24
 10
439.735211
 20
556.994054
 30
0.0
 40
3.5
 50
0.5
 51
90.0
  0
LINE
  5
3324
  8
24
 10
280.940425
 20
560.494054
 30
0.0
 11
439.735211
 21
560.494054
 31
0.0
  0
LINE
  5
3325
  8
21
 10
115.783442
 20
557.494054
 30
0.0
 11
115.909584
 21
543.039663
 31
0.0
  0
ARC
  5
3326
  8
21
 10
104.640989
 20
562.232826
 30
0.0
 40
22.256656
 50
272.297066
 51
300.417837
  0
ARC
  5
3327
  8
21
 10
121.762617
 20
556.994054
 30
0.0
 40
6.0
 50
90.0
 51
175.0
  0
LINE
  5
3328
  8
21
 10
93.36785
 20
557.494054
 30
0.0
 11
115.783442
 21
557.494054
 31
0.0
  0
LINE
  5
3329
  8
11
 10
93.36785
 20
228.550332
 30
0.0
 11
115.783442
 21
228.550332
 31
0.0
  0
ARC
  5
332A
  8
11
 10
121.762617
 20
229.050332
 30
0.0
 40
6.0
 50
185.0
 51
270.0
  0
ARC
  5
332B
  8
11
 10
104.640989
 20
223.81156
 30
0.0
 40
22.256656
 50
59.582163
 51
87.702934
  0
LINE
  5
332C
  8
11
 10
115.783442
 20
228.550332
 30
0.0
 11
115.909584
 21
243.004724
 31
0.0
  0
LINE
  5
332D
  8
14
 10
280.940425
 20
225.550332
 30
0.0
 11
439.735211
 21
225.550332
 31
0.0
  0
ARC
  5
332E
  8
14
 10
439.735211
 20
229.050332
 30
0.0
 40
3.5
 50
270.0
 51
359.5
  0
LINE
  5
332F
  8
14
 10
443.440425
 20
252.550332
 30
0.0
 11
443.235077
 21
229.01979
 31
0.0
  0
ARC
  5
3330
  8
14
 10
122.14564
 20
229.050332
 30
0.0
 40
3.5
 50
180.5
 51
270.0
  0
LINE
  5
3331
  8
13
  6
DASHDOT
 10
280.940425
 20
257.550332
 30
0.0
 11
280.940425
 21
215.896144
 31
0.0
  0
LINE
  5
3332
  8
14
 10
118.440425
 20
252.550332
 30
0.0
 11
118.645773
 21
229.01979
 31
0.0
  0
LINE
  5
3333
  8
11
 10
93.055059
 20
245.982998
 30
0.0
 11
93.359347
 21
228.550332
 31
0.0
  0
LINE
  5
3334
  8
11
 10
113.771191
 20
252.550332
 30
0.0
 11
114.669415
 21
252.550332
 31
0.0
  0
LINE
  5
3335
  8
11
 10
113.771191
 20
253.050332
 30
0.0
 11
92.931698
 21
253.050332
 31
0.0
  0
LINE
  5
3336
  8
11
 10
92.931698
 20
253.050332
 30
0.0
 11
92.940425
 21
252.550332
 31
0.0
  0
LINE
  5
3337
  8
11
 10
113.771191
 20
253.050332
 30
0.0
 11
113.771191
 21
252.550332
 31
0.0
  0
LINE
  5
3338
  8
11
 10
93.033355
 20
247.22638
 30
0.0
 11
93.055059
 21
245.982998
 31
0.0
  0
LINE
  5
3339
  8
11
 10
99.423569
 20
252.550332
 30
0.0
 11
95.034523
 21
252.550332
 31
0.0
  0
LINE
  5
333A
  8
11
 10
100.940425
 20
252.550332
 30
0.0
 11
99.423569
 21
252.550332
 31
0.0
  0
LINE
  5
333B
  8
11
 10
95.034523
 20
252.550332
 30
0.0
 11
92.940425
 21
252.550332
 31
0.0
  0
LINE
  5
333C
  8
11
 10
100.940425
 20
252.550332
 30
0.0
 11
113.771191
 21
252.550332
 31
0.0
  0
LINE
  5
333D
  8
11
 10
92.940425
 20
252.550332
 30
0.0
 11
93.033395
 21
247.224094
 31
0.0
  0
LINE
  5
333E
  8
11
 10
114.669415
 20
223.050332
 30
0.0
 11
106.275392
 21
223.050332
 31
0.0
  0
LINE
  5
333F
  8
14
 10
280.940425
 20
225.550332
 30
0.0
 11
122.14564
 21
225.550332
 31
0.0
  0
ARC
  5
3340
  8
11
 10
107.081432
 20
229.163532
 30
0.0
 40
6.16611
 50
185.921525
 51
262.48874
  0
LINE
  5
3343
  8
11
 10
468.94065
 20
253.050332
 30
0.0
 11
448.101156
 21
253.050332
 31
0.0
  0
LINE
  5
3344
  8
11
 10
468.513001
 20
228.550332
 30
0.0
 11
446.097408
 21
228.550332
 31
0.0
  0
LINE
  5
3345
  8
11
 10
468.94065
 20
253.050332
 30
0.0
 11
468.513001
 21
228.550332
 31
0.0
  0
LINE
  5
3347
  8
11
 10
462.032195
 20
228.550332
 30
0.0
 11
462.030188
 21
228.527398
 31
0.0
  0
ARC
  5
3348
  8
11
 10
456.05302
 20
229.050332
 30
0.0
 40
6.0
 50
270.0
 51
355.0
  0
LINE
  5
3349
  8
11
 10
448.101156
 20
253.050332
 30
0.0
 11
448.101156
 21
252.550332
 31
0.0
  0
LINE
  5
334A
  8
11
 10
446.097408
 20
228.550332
 30
0.0
 11
446.095402
 21
228.527398
 31
0.0
  0
ARC
  5
334B
  8
11
 10
440.118234
 20
229.050332
 30
0.0
 40
6.0
 50
270.0
 51
355.0
  0
LINE
  5
334C
  8
11
 10
446.097408
 20
228.550332
 30
0.0
 11
445.971267
 21
243.004724
 31
0.0
  0
ARC
  5
334D
  8
11
 10
457.239862
 20
223.81156
 30
0.0
 40
22.256656
 50
92.297066
 51
120.417837
  0
LINE
  5
334E
  8
12
 10
115.78762
 20
229.029049
 30
0.0
 11
446.093231
 21
229.029049
 31
0.0
  0
LINE
  5
334F
  8
12
 10
445.971267
 20
243.004724
 30
0.0
 11
115.909584
 21
243.004724
 31
0.0
  0
LINE
  5
3350
  8
11
 10
105.533049
 20
246.050332
 30
0.0
 11
456.347801
 21
246.050332
 31
0.0
  0
LINE
  5
3351
  8
11
 10
114.669415
 20
252.550332
 30
0.0
 11
468.931923
 21
252.550332
 31
0.0
  0
LINE
  5
3352
  8
11
 10
114.669415
 20
223.050332
 30
0.0
 11
456.05302
 21
223.050332
 31
0.0
  0
LINE
  5
3353
  8
42
 10
3.603611
 20
393.022193
 30
0.0
 11
3.603611
 21
463.183999
 31
0.0
  0
LINE
  5
3354
  8
41
 10
20.624894
 20
485.915603
 30
0.0
 11
20.624894
 21
485.909233
 31
0.0
  0
LINE
  5
3355
  8
42
 10
17.579285
 20
463.350771
 30
0.0
 11
17.579285
 21
393.022193
 31
0.0
  0
ARC
  5
3356
  8
41
 10
3.624894
 20
457.209002
 30
0.0
 40
6.0
 50
95.0
 51
180.0
  0
LINE
  5
3357
  8
41
 10
21.800942
 20
485.92976
 30
0.0
 11
3.124894
 21
485.603769
 31
0.0
  0
LINE
  5
3358
  8
41
 10
3.124894
 20
478.472963
 30
0.0
 11
3.124894
 21
485.603769
 31
0.0
  0
LINE
  5
3359
  8
41
 10
27.124894
 20
486.02269
 30
0.0
 11
21.800947
 21
485.929761
 31
0.0
  0
LINE
  5
335A
  8
41
 10
27.624894
 20
486.031418
 30
0.0
 11
27.624894
 21
465.191924
 31
0.0
  0
LINE
  5
335B
  8
41
 10
3.124894
 20
485.603769
 30
0.0
 11
3.124894
 21
463.188176
 31
0.0
  0
LINE
  5
335C
  8
41
 10
27.624894
 20
486.031418
 30
0.0
 11
3.124894
 21
485.603769
 31
0.0
  0
LINE
  5
335D
  8
41
 10
3.124894
 20
479.122963
 30
0.0
 11
3.10196
 21
479.120956
 31
0.0
  0
ARC
  5
335E
  8
41
 10
3.624894
 20
473.143788
 30
0.0
 40
6.0
 50
95.0
 51
180.0
  0
LINE
  5
335F
  8
41
 10
27.624894
 20
465.191924
 30
0.0
 11
27.124894
 21
465.191924
 31
0.0
  0
LINE
  5
3360
  8
41
 10
3.124894
 20
463.188176
 30
0.0
 11
3.10196
 21
463.18617
 31
0.0
  0
LINE
  5
3361
  8
41
 10
3.124894
 20
463.188176
 30
0.0
 11
17.579285
 21
463.350771
 31
0.0
  0
ARC
  5
3362
  8
41
 10
-0.505944
 20
474.314535
 30
0.0
 40
21.148987
 50
328.774604
 51
357.6262
  0
LINE
  5
3363
  8
41
 10
20.624894
 20
300.128783
 30
0.0
 11
20.624894
 21
300.135154
 31
0.0
  0
LINE
  5
3364
  8
42
 10
3.603611
 20
393.022193
 30
0.0
 11
3.603611
 21
322.860388
 31
0.0
  0
LINE
  5
3365
  8
42
 10
17.579285
 20
322.982352
 30
0.0
 11
17.579285
 21
393.022193
 31
0.0
  0
ARC
  5
3366
  8
41
 10
-1.613878
 20
311.713756
 30
0.0
 40
22.256656
 50
2.297066
 51
30.417837
  0
LINE
  5
3367
  8
41
 10
3.124894
 20
322.85621
 30
0.0
 11
17.579285
 21
322.982352
 31
0.0
  0
ARC
  5
3368
  8
41
 10
3.624894
 20
328.835385
 30
0.0
 40
6.0
 50
180.0
 51
265.0
  0
LINE
  5
3369
  8
41
 10
3.124894
 20
322.85621
 30
0.0
 11
3.10196
 21
322.858217
 31
0.0
  0
LINE
  5
336A
  8
41
 10
27.624894
 20
320.852462
 30
0.0
 11
27.124894
 21
320.852462
 31
0.0
  0
ARC
  5
336B
  8
41
 10
3.624894
 20
312.900599
 30
0.0
 40
6.0
 50
180.0
 51
265.0
  0
LINE
  5
336C
  8
41
 10
3.124894
 20
306.921424
 30
0.0
 11
3.10196
 21
306.92343
 31
0.0
  0
LINE
  5
336D
  8
41
 10
27.624894
 20
300.012968
 30
0.0
 11
3.124894
 21
300.440617
 31
0.0
  0
LINE
  5
336E
  8
41
 10
3.124894
 20
300.440617
 30
0.0
 11
3.124894
 21
322.85621
 31
0.0
  0
LINE
  5
336F
  8
41
 10
27.624894
 20
300.012968
 30
0.0
 11
27.624894
 21
320.852462
 31
0.0
  0
ARC
  5
3370
  8
44
 10
3.106561
 20
328.546315
 30
0.0
 40
3.0
 50
180.069821
 51
270.0
  0
LINE
  5
3371
  8
41
 10
27.124894
 20
300.021696
 30
0.0
 11
21.800947
 21
300.114626
 31
0.0
  0
LINE
  5
3372
  8
44
 10
0.027988
 20
393.022193
 30
0.0
 11
0.106564
 21
328.542659
 31
0.0
  0
LINE
  5
3373
  8
41
 10
-2.375106
 20
393.022193
 30
0.0
 11
-2.375106
 21
312.900599
 31
0.0
  0
LINE
  5
3374
  8
41
 10
-2.375106
 20
473.143788
 30
0.0
 11
-2.375106
 21
393.022193
 31
0.0
  0
LINE
  5
3375
  8
41
 10
3.124894
 20
307.571424
 30
0.0
 11
3.124894
 21
300.440617
 31
0.0
  0
LINE
  5
3376
  8
41
 10
21.800942
 20
300.114626
 30
0.0
 11
3.124894
 21
300.440617
 31
0.0
  0
LINE
  5
3377
  8
44
 10
27.124894
 20
325.546315
 30
0.0
 11
3.106561
 21
325.546315
 31
0.0
  0
LINE
  5
3378
  8
44
 10
27.124894
 20
460.498072
 30
0.0
 11
3.303549
 21
460.498072
 31
0.0
  0
ARC
  5
3379
  8
44
 10
2.946125
 20
457.496638
 30
0.0
 40
3.0
 50
89.932998
 51
182.773515
  0
LINE
  5
337A
  8
44
 10
-0.05075
 20
457.633522
 30
0.0
 11
0.027988
 21
393.022193
 31
0.0
  0
LINE
  5
337B
  8
41
 10
27.124894
 20
300.021696
 30
0.0
 11
27.124894
 21
486.02269
 31
0.0
  0
LINE
  5
337C
  8
43
  6
DASHDOT
 10
-23.487541
 20
393.022193
 30
0.0
 11
45.735953
 21
393.022193
 31
0.0
  0
TEXT
  5
337D
  8
L20
 10
-326.0
 20
545.0
 30
0.0
 40
9.899495
  1
FIBOX EK-M 30 COVER
  0
LINE
  5
3384
  8
41
 10
20.624894
 20
312.605817
 30
0.0
 11
20.624894
 21
393.0
 31
0.0
  0
LINE
  5
3385
  8
41
 10
20.624894
 20
473.438569
 30
0.0
 11
20.624894
 21
393.044386
 31
0.0
  0
LINE
  5
3386
  8
31
 10
541.255956
 20
473.438569
 30
0.0
 11
541.255956
 21
393.044386
 31
0.0
  0
LINE
  5
3387
  8
31
 10
541.255956
 20
312.605817
 30
0.0
 11
541.255956
 21
393.0
 31
0.0
  0
VIEWPORT
  5
1
 67
     1
  8
0
 10
210.0
 20
152.094241
 30
0.0
 40
420.0
 41
304.188482
 68
    -1
 69
     1
1001
ACAD
1000
MVIEW
1002
{
1070
    16
1010
0.0
1020
0.0
1030
0.0
1010
0.0
1020
0.0
1030
1.0
1040
0.0
1040
304.188482
1040
210.0
1040
152.094241
1040
50.0
1040
0.0
1040
0.0
1070
     0
1070
   100
1070
     1
1070
     1
1070
     1
1070
     0
1070
     0
1070
     0
1040
0.0
1040
0.0
1040
0.0
1040
1.0
1040
1.0
1040
0.0
1040
0.0
1070
     0
1002
{
1002
}
1002
}
  0
ENDSEC
  0
EOF
