  0
SECTION
  2
HEADER
  9
$ACADVER
  1
AC1009
  9
$INSBASE
 10
0.0
 20
0.0
 30
0.0
  9
$EXTMIN
 10
-587.995337
 20
134.242145
 30
0.0
  9
$EXTMAX
 10
600.036496
 20
745.597271
 30
0.0
  9
$LIMMIN
 10
0.0
 20
0.0
  9
$LIMMAX
 10
420.0
 20
297.0
  9
$ORTHOMODE
 70
     1
  9
$REGENMODE
 70
     1
  9
$FILLMODE
 70
     1
  9
$QTEXTMODE
 70
     0
  9
$MIRRTEXT
 70
     1
  9
$DRAGMODE
 70
     2
  9
$LTSCALE
 40
7.0
  9
$OSMODE
 70
    37
  9
$ATTMODE
 70
     1
  9
$TEXTSIZE
 40
3.5
  9
$TRACEWID
 40
0.05
  9
$TEXTSTYLE
  7
STANDARD
  9
$CLAYER
  8
62
  9
$CELTYPE
  6
BYLAYER
  9
$CECOLOR
 62
   256
  9
$DIMSCALE
 40
1.0
  9
$DIMASZ
 40
3.5
  9
$DIMEXO
 40
0.0
  9
$DIMDLI
 40
10.0
  9
$DIMRND
 40
0.0
  9
$DIMDLE
 40
0.0
  9
$DIMEXE
 40
2.0
  9
$DIMTP
 40
0.0
  9
$DIMTM
 40
0.0
  9
$DIMTXT
 40
3.5
  9
$DIMCEN
 40
2.5
  9
$DIMTSZ
 40
0.0
  9
$DIMTOL
 70
     0
  9
$DIMLIM
 70
     0
  9
$DIMTIH
 70
     0
  9
$DIMTOH
 70
     0
  9
$DIMSE1
 70
     0
  9
$DIMSE2
 70
     0
  9
$DIMTAD
 70
     1
  9
$DIMZIN
 70
     8
  9
$DIMBLK
  1

  9
$DIMASO
 70
     1
  9
$DIMSHO
 70
     1
  9
$DIMPOST
  1

  9
$DIMAPOST
  1

  9
$DIMALT
 70
     0
  9
$DIMALTD
 70
     2
  9
$DIMALTF
 40
25.4
  9
$DIMLFAC
 40
1.0
  9
$DIMTOFL
 70
     1
  9
$DIMTVP
 40
0.0
  9
$DIMTIX
 70
     0
  9
$DIMSOXD
 70
     0
  9
$DIMSAH
 70
     0
  9
$DIMBLK1
  1

  9
$DIMBLK2
  1

  9
$DIMSTYLE
  2
ACADUS
  9
$DIMCLRD
 70
   256
  9
$DIMCLRE
 70
   256
  9
$DIMCLRT
 70
     3
  9
$DIMTFAC
 40
1.0
  9
$DIMGAP
 40
2.0
  9
$LUNITS
 70
     2
  9
$LUPREC
 70
     1
  9
$SKETCHINC
 40
1.0
  9
$FILLETRAD
 40
0.0
  9
$AUNITS
 70
     0
  9
$AUPREC
 70
     2
  9
$MENU
  1
CAESAR
  9
$ELEVATION
 40
0.0
  9
$PELEVATION
 40
0.0
  9
$THICKNESS
 40
0.0
  9
$LIMCHECK
 70
     0
  9
$BLIPMODE
 70
     1
  9
$CHAMFERA
 40
5.0
  9
$CHAMFERB
 40
5.0
  9
$SKPOLY
 70
     0
  9
$TDCREATE
 40
2449496.462772
  9
$TDUPDATE
 40
2453059.652455
  9
$TDINDWG
 40
0.002635
  9
$TDUSRTIMER
 40
0.002635
  9
$USRTIMER
 70
     1
  9
$ANGBASE
 50
0.0
  9
$ANGDIR
 70
     0
  9
$PDMODE
 70
     0
  9
$PDSIZE
 40
0.0
  9
$PLINEWID
 40
0.0
  9
$COORDS
 70
     2
  9
$SPLFRAME
 70
     0
  9
$SPLINETYPE
 70
     6
  9
$SPLINESEGS
 70
     8
  9
$ATTDIA
 70
     0
  9
$ATTREQ
 70
     1
  9
$HANDLING
 70
     1
  9
$HANDSEED
  5
5CC25
  9
$SURFTAB1
 70
     6
  9
$SURFTAB2
 70
     6
  9
$SURFTYPE
 70
     6
  9
$SURFU
 70
     6
  9
$SURFV
 70
     6
  9
$UCSNAME
  2

  9
$UCSORG
 10
230.518248
 20
439.919708
 30
0.0
  9
$UCSXDIR
 10
1.0
 20
0.0
 30
0.0
  9
$UCSYDIR
 10
0.0
 20
1.0
 30
0.0
  9
$PUCSNAME
  2

  9
$PUCSORG
 10
0.0
 20
0.0
 30
0.0
  9
$PUCSXDIR
 10
1.0
 20
0.0
 30
0.0
  9
$PUCSYDIR
 10
0.0
 20
1.0
 30
0.0
  9
$USERI1
 70
     0
  9
$USERI2
 70
     0
  9
$USERI3
 70
     0
  9
$USERI4
 70
     0
  9
$USERI5
 70
     0
  9
$USERR1
 40
1.0
  9
$USERR2
 40
0.0
  9
$USERR3
 40
3.5
  9
$USERR4
 40
0.0
  9
$USERR5
 40
0.0
  9
$WORLDVIEW
 70
     1
  9
$SHADEDGE
 70
     3
  9
$SHADEDIF
 70
    70
  9
$TILEMODE
 70
     1
  9
$MAXACTVP
 70
    16
  9
$PLIMCHECK
 70
     0
  9
$PEXTMIN
 10
1.000000E+020
 20
1.000000E+020
 30
1.000000E+020
  9
$PEXTMAX
 10
-1.000000E+020
 20
-1.000000E+020
 30
-1.000000E+020
  9
$PLIMMIN
 10
0.0
 20
0.0
  9
$PLIMMAX
 10
420.0
 20
297.0
  9
$UNITMODE
 70
     0
  9
$VISRETAIN
 70
     0
  9
$PLINEGEN
 70
     0
  9
$PSLTSCALE
 70
     0
  0
ENDSEC
  0
SECTION
  2
TABLES
  0
TABLE
  2
VPORT
 70
     2
  0
VPORT
  2
*ACTIVE
 70
     0
 10
0.0
 20
0.0
 11
1.0
 21
1.0
 12
6.020583
 22
439.922415
 13
0.0
 23
0.0
 14
1.0
 24
1.0
 15
10.0
 25
10.0
 16
0.0
 26
0.0
 36
1.0
 17
0.0
 27
0.0
 37
0.0
 40
739.5092
 41
1.616838
 42
50.0
 43
0.0
 44
0.0
 50
0.0
 51
0.0
 71
     0
 72
   100
 73
     1
 74
     1
 75
     0
 76
     0
 77
     0
 78
     0
  0
ENDTAB
  0
TABLE
  2
LTYPE
 70
    10
  0
LTYPE
  2
CONTINUOUS
 70
     0
  3
Solid line
 72
    65
 73
     0
 40
0.0
  0
LTYPE
  2
BORDER
 70
     0
  3
__ __ . __ __ . __ __ . __ __ . __ __ . __ __ .
 72
    65
 73
     6
 40
1.75
 49
0.5
 49
-0.25
 49
0.5
 49
-0.25
 49
0.0
 49
-0.25
  0
LTYPE
  2
CENTER
 70
     0
  3
____ _ ____ _ ____ _ ____ _ ____ _ ____ _ ____ 
 72
    65
 73
     4
 40
2.0
 49
1.25
 49
-0.25
 49
0.25
 49
-0.25
  0
LTYPE
  2
DASHDOT
 70
     0
  3
__ . __ . __ . __ . __ . __ . __ . __ . __ . __
 72
    65
 73
     4
 40
1.0
 49
0.5
 49
-0.25
 49
0.0
 49
-0.25
  0
LTYPE
  2
DASHED
 70
     0
  3
__ __ __ __ __ __ __ __ __ __ __ __ __ __ __ __
 72
    65
 73
     2
 40
0.75
 49
0.5
 49
-0.25
  0
LTYPE
  2
DIVIDE
 70
     0
  3
____ . . ____ . . ____ . . ____ . . ____ . . __
 72
    65
 73
     6
 40
1.25
 49
0.5
 49
-0.25
 49
0.0
 49
-0.25
 49
0.0
 49
-0.25
  0
LTYPE
  2
DOT
 70
     0
  3
. . . . . . . . . . . . . . . . . . . . . . . .
 72
    65
 73
     2
 40
0.25
 49
0.0
 49
-0.25
  0
LTYPE
  2
HIDDEN
 70
     0
  3
__ __ __ __ __ __ __ __ __ __ __ __ __ __ __ __
 72
    65
 73
     2
 40
0.375
 49
0.25
 49
-0.125
  0
LTYPE
  2
PHANTOM
 70
     0
  3
______  __  __  ______  __  __  ______  __  __ 
 72
    65
 73
     6
 40
2.5
 49
1.25
 49
-0.25
 49
0.25
 49
-0.25
 49
0.25
 49
-0.25
  0
LTYPE
  2
DOTX2
 70
     0
  3
.  .  .  .  .  .  .  .  .  .  .  .  .  .  .  . 
 72
    65
 73
     2
 40
0.5
 49
0.0
 49
-0.5
  0
ENDTAB
  0
TABLE
  2
LAYER
 70
   109
  0
LAYER
  2
0
 70
     0
 62
     7
  6
CONTINUOUS
  0
LAYER
  2
L1
 70
     0
 62
     7
  6
CONTINUOUS
  0
LAYER
  2
L2
 70
     0
 62
     1
  6
CONTINUOUS
  0
LAYER
  2
L3
 70
     0
 62
     7
  6
DASHED
  0
LAYER
  2
L4
 70
     0
 62
     1
  6
DASHED
  0
LAYER
  2
L5
 70
     0
 62
     7
  6
CENTER
  0
LAYER
  2
L6
 70
     0
 62
     1
  6
CENTER
  0
LAYER
  2
L7
 70
     0
 62
     1
  6
PHANTOM
  0
LAYER
  2
VPORT
 70
     0
 62
     7
  6
CONTINUOUS
  0
LAYER
  2
L8
 70
     0
 62
     1
  6
CONTINUOUS
  0
LAYER
  2
L20
 70
     0
 62
     3
  6
CONTINUOUS
  0
LAYER
  2
L21
 70
     0
 62
     1
  6
CONTINUOUS
  0
LAYER
  2
L22
 70
     0
 62
     1
  6
CONTINUOUS
  0
LAYER
  2
L23
 70
     0
 62
     1
  6
CONTINUOUS
  0
LAYER
  2
L30
 70
     0
 62
     3
  6
CONTINUOUS
  0
LAYER
  2
L31
 70
     0
 62
     1
  6
CONTINUOUS
  0
LAYER
  2
L32
 70
     0
 62
     3
  6
CONTINUOUS
  0
LAYER
  2
L33
 70
     0
 62
     1
  6
CONTINUOUS
  0
LAYER
  2
L34
 70
     0
 62
     1
  6
DASHED
  0
LAYER
  2
L35
 70
     0
 62
     1
  6
CONTINUOUS
  0
LAYER
  2
L40
 70
     0
 62
     7
  6
CONTINUOUS
  0
LAYER
  2
L41
 70
     0
 62
     1
  6
CONTINUOUS
  0
LAYER
  2
L42
 70
     0
 62
     1
  6
CONTINUOUS
  0
LAYER
  2
L43
 70
     0
 62
     7
  6
CONTINUOUS
  0
LAYER
  2
L44
 70
     0
 62
     1
  6
DASHED
  0
LAYER
  2
L45
 70
     0
 62
     1
  6
CONTINUOUS
  0
LAYER
  2
L46
 70
     0
 62
     3
  6
CONTINUOUS
  0
LAYER
  2
L50
 70
     0
 62
     7
  6
CONTINUOUS
  0
LAYER
  2
L51
 70
     0
 62
     1
  6
CONTINUOUS
  0
LAYER
  2
L52
 70
     0
 62
     7
  6
CONTINUOUS
  0
LAYER
  2
L53
 70
     0
 62
     1
  6
CONTINUOUS
  0
LAYER
  2
L54
 70
     0
 62
     1
  6
DASHED
  0
LAYER
  2
L55
 70
     0
 62
     3
  6
CONTINUOUS
  0
LAYER
  2
L56
 70
     0
 62
     3
  6
CONTINUOUS
  0
LAYER
  2
L57
 70
     0
 62
     1
  6
CONTINUOUS
  0
LAYER
  2
L9
 70
     0
 62
     7
  6
HIDDEN
  0
LAYER
  2
L15
 70
     0
 62
     2
  6
CONTINUOUS
  0
LAYER
  2
L16
 70
     0
 62
     5
  6
DOTX2
  0
LAYER
  2
L24
 70
     0
 62
     1
  6
DASHED
  0
LAYER
  2
L36
 70
     0
 62
     7
  6
CONTINUOUS
  0
LAYER
  2
L37
 70
     0
 62
     1
  6
CONTINUOUS
  0
LAYER
  2
L38
 70
     0
 62
     1
  6
CENTER
  0
LAYER
  2
L58
 70
     0
 62
     1
  6
CONTINUOUS
  0
LAYER
  2
A1
 70
     0
 62
     6
  6
CONTINUOUS
  0
LAYER
  2
A2
 70
     0
 62
     5
  6
CONTINUOUS
  0
LAYER
  2
A3
 70
     0
 62
     4
  6
CONTINUOUS
  0
LAYER
  2
A4
 70
     0
 62
     1
  6
DASHED
  0
LAYER
  2
A5
 70
     0
 62
     2
  6
CONTINUOUS
  0
LAYER
  2
A6
 70
     0
 62
     8
  6
CONTINUOUS
  0
LAYER
  2
DEFPOINTS
 70
     0
 62
    -7
  6
CONTINUOUS
  0
LAYER
  2
RA1
 70
     0
 62
     1
  6
CONTINUOUS
  0
LAYER
  2
TITEL
 70
     0
 62
     7
  6
CONTINUOUS
  0
LAYER
  2
TITEL1
 70
     0
 62
     1
  6
CONTINUOUS
  0
LAYER
  2
RA4
 70
     0
 62
     1
  6
DASHED
  0
LAYER
  2
L54-1
 70
     0
 62
     3
  6
CONTINUOUS
  0
LAYER
  2
L54-2
 70
     0
 62
     3
  6
CONTINUOUS
  0
LAYER
  2
L54-3
 70
     0
 62
     3
  6
CONTINUOUS
  0
LAYER
  2
L54-4
 70
     0
 62
     1
  6
DASHED
  0
LAYER
  2
L54-5
 70
     0
 62
     3
  6
CONTINUOUS
  0
LAYER
  2
RA2
 70
     0
 62
     5
  6
CONTINUOUS
  0
LAYER
  2
CAM-A1
 70
     0
 62
     7
  6
CONTINUOUS
  0
LAYER
  2
CAM-A2
 70
     0
 62
     1
  6
CONTINUOUS
  0
LAYER
  2
CAM-A3
 70
     0
 62
     1
  6
DASHED
  0
LAYER
  2
CAM-B1
 70
     0
 62
     7
  6
CONTINUOUS
  0
LAYER
  2
CAM-B2
 70
     0
 62
     1
  6
CONTINUOUS
  0
LAYER
  2
CAM-B3
 70
     0
 62
     1
  6
DASHED
  0
LAYER
  2
CAM-C1
 70
     0
 62
     7
  6
CONTINUOUS
  0
LAYER
  2
CAM-C2
 70
     0
 62
     1
  6
CONTINUOUS
  0
LAYER
  2
CAM-C3
 70
     0
 62
     1
  6
DASHED
  0
LAYER
  2
CAM-D1
 70
     0
 62
     7
  6
CONTINUOUS
  0
LAYER
  2
CAM-D2
 70
     0
 62
     1
  6
CONTINUOUS
  0
LAYER
  2
CAM-D3
 70
     0
 62
     1
  6
DASHED
  0
LAYER
  2
CAM-E1
 70
     0
 62
     7
  6
CONTINUOUS
  0
LAYER
  2
CAM-E2
 70
     0
 62
     1
  6
CONTINUOUS
  0
LAYER
  2
CAM-E3
 70
     0
 62
     1
  6
DASHED
  0
LAYER
  2
CAM-F1
 70
     0
 62
     7
  6
CONTINUOUS
  0
LAYER
  2
CAM-F2
 70
     0
 62
     1
  6
CONTINUOUS
  0
LAYER
  2
CAM-F3
 70
     0
 62
     1
  6
DASHED
  0
LAYER
  2
1
 70
     0
 62
     7
  6
CONTINUOUS
  0
LAYER
  2
11
 70
     0
 62
     7
  6
CONTINUOUS
  0
LAYER
  2
12
 70
     0
 62
     1
  6
CONTINUOUS
  0
LAYER
  2
13
 70
     0
 62
     1
  6
CENTER
  0
LAYER
  2
14
 70
     0
 62
     1
  6
DASHED
  0
LAYER
  2
15
 70
     0
 62
     2
  6
DASHED
  0
LAYER
  2
21
 70
     0
 62
     7
  6
CONTINUOUS
  0
LAYER
  2
22
 70
     0
 62
     1
  6
CONTINUOUS
  0
LAYER
  2
23
 70
     0
 62
     1
  6
CENTER
  0
LAYER
  2
24
 70
     0
 62
     1
  6
DASHED
  0
LAYER
  2
25
 70
     0
 62
     2
  6
DASHED
  0
LAYER
  2
31
 70
     0
 62
     7
  6
CONTINUOUS
  0
LAYER
  2
32
 70
     0
 62
     1
  6
CONTINUOUS
  0
LAYER
  2
33
 70
     0
 62
     1
  6
CENTER
  0
LAYER
  2
34
 70
     0
 62
     1
  6
DASHED
  0
LAYER
  2
35
 70
     0
 62
     2
  6
DASHED
  0
LAYER
  2
41
 70
     0
 62
     7
  6
CONTINUOUS
  0
LAYER
  2
42
 70
     0
 62
     1
  6
CONTINUOUS
  0
LAYER
  2
43
 70
     0
 62
     1
  6
CENTER
  0
LAYER
  2
44
 70
     0
 62
     1
  6
DASHED
  0
LAYER
  2
45
 70
     0
 62
     2
  6
DASHED
  0
LAYER
  2
51
 70
     0
 62
     7
  6
CONTINUOUS
  0
LAYER
  2
52
 70
     0
 62
     1
  6
CONTINUOUS
  0
LAYER
  2
53
 70
     0
 62
     1
  6
CENTER
  0
LAYER
  2
54
 70
     0
 62
     1
  6
DASHED
  0
LAYER
  2
55
 70
     0
 62
     2
  6
DASHED
  0
LAYER
  2
61
 70
     0
 62
     7
  6
CONTINUOUS
  0
LAYER
  2
62
 70
     0
 62
     1
  6
CONTINUOUS
  0
LAYER
  2
63
 70
     0
 62
     1
  6
CENTER
  0
LAYER
  2
64
 70
     0
 62
     1
  6
DASHED
  0
LAYER
  2
65
 70
     0
 62
     2
  6
DASHED
  0
ENDTAB
  0
TABLE
  2
STYLE
 70
     9
  0
STYLE
  2
STANDARD
 70
     0
 40
0.0
 41
1.0
 50
0.0
 71
     0
 42
3.5
  3
CAEISO
  4

  0
STYLE
  2
TXT
 70
     0
 40
0.0
 41
1.0
 50
0.0
 71
     0
 42
0.2
  3
ROMANS.SHX
  4

  0
STYLE
  2
USER
 70
     0
 40
0.0
 41
1.0
 50
0.0
 71
     0
 42
0.2
  3
KIRJAIN
  4

  0
STYLE
  2
SIMPLEX
 70
     0
 40
0.0
 41
0.8
 50
0.0
 71
     0
 42
2.5
  3
KIRJAIN
  4

  0
STYLE
  2
COMPLEX
 70
     0
 40
0.0
 41
1.0
 50
0.0
 71
     0
 42
0.2
  3
COMPLEX
  4

  0
STYLE
  2
ITALIC
 70
     0
 40
0.0
 41
1.0
 50
0.0
 71
     0
 42
0.2
  3
ITALIC
  4

  0
STYLE
  2
MONO
 70
     0
 40
0.0
 41
1.0
 50
0.0
 71
     0
 42
9.5
  3
MONOTXT
  4

  0
STYLE
  2
TKKISO
 70
     0
 40
0.0
 41
1.0
 50
0.0
 71
     0
 42
2.5
  3
CAEISO
  4

  0
STYLE
  2
CAEISO
 70
     0
 40
0.0
 41
1.0
 50
0.0
 71
     0
 42
1.0
  3
CAEISO
  4

  0
ENDTAB
  0
TABLE
  2
VIEW
 70
     0
  0
ENDTAB
  0
TABLE
  2
UCS
 70
     0
  0
ENDTAB
  0
TABLE
  2
APPID
 70
     1
  0
APPID
  2
ACAD
 70
     0
  0
ENDTAB
  0
TABLE
  2
DIMSTYLE
 70
     5
  0
DIMSTYLE
  2
ACADUS
 70
     0
  3

  4

  5

  6

  7

 40
1.0
 41
0.18
 42
0.0625
 43
0.38
 44
0.18
 45
0.0
 46
0.0
 47
0.0
 48
0.0
140
0.18
141
0.09
142
0.0
143
25.4
144
1.0
145
0.0
146
1.0
147
0.09
 71
     0
 72
     0
 73
     1
 74
     1
 75
     0
 76
     0
 77
     0
 78
     0
170
     0
171
     2
172
     0
173
     0
174
     0
175
     0
176
     0
177
     0
178
     0
  0
DIMSTYLE
  2
NORDIC
 70
     0
  3

  4

  5

  6

  7

 40
1.0
 41
3.5
 42
1.0
 43
10.0
 44
2.0
 45
0.0
 46
0.0
 47
0.0
 48
0.0
140
3.5
141
2.5
142
0.0
143
25.4
144
1.0
145
0.0
146
1.0
147
2.0
 71
     0
 72
     0
 73
     0
 74
     0
 75
     0
 76
     0
 77
     1
 78
     8
170
     0
171
     2
172
     1
173
     0
174
     0
175
     0
176
     0
177
     0
178
     0
  0
DIMSTYLE
  2
RADIAL
 70
     0
  3

  4

  5

  6

  7

 40
1.0
 41
3.5
 42
1.0
 43
10.0
 44
2.0
 45
0.0
 46
0.0
 47
0.0
 48
0.0
140
3.5
141
2.5
142
0.0
143
25.4
144
1.0
145
0.0
146
1.0
147
2.0
 71
     0
 72
     0
 73
     0
 74
     1
 75
     0
 76
     0
 77
     1
 78
     8
170
     0
171
     2
172
     0
173
     0
174
     0
175
     0
176
     0
177
     0
178
     0
  0
DIMSTYLE
  2
NORTOL
 70
     0
  3

  4

  5

  6

  7

 40
1.0
 41
3.5
 42
1.0
 43
10.0
 44
2.0
 45
0.0
 46
0.0
 47
0.2
 48
0.1
140
3.5
141
2.5
142
0.0
143
25.4
144
1.0
145
0.7
146
0.71
147
2.0
 71
     1
 72
     0
 73
     0
 74
     0
 75
     0
 76
     0
 77
     0
 78
     8
170
     0
171
     2
172
     1
173
     0
174
     0
175
     0
176
     0
177
     0
178
     0
  0
DIMSTYLE
  2
RADTOL
 70
     0
  3

  4

  5

  6

  7

 40
1.0
 41
3.5
 42
1.0
 43
10.0
 44
2.0
 45
0.0
 46
0.0
 47
0.2
 48
0.1
140
3.5
141
2.5
142
0.0
143
25.4
144
1.0
145
0.7
146
0.7
147
2.0
 71
     1
 72
     0
 73
     0
 74
     1
 75
     0
 76
     0
 77
     0
 78
     8
170
     0
171
     2
172
     0
173
     0
174
     0
175
     0
176
     0
177
     0
178
     0
  0
ENDTAB
  0
ENDSEC
  0
SECTION
  2
BLOCKS
  0
BLOCK
  8
0
  2
$MODEL_SPACE
 70
     0
 10
0.0
 20
0.0
 30
0.0
  3
$MODEL_SPACE
  1

  0
ENDBLK
  5
5CC15
  8
0
  0
BLOCK
 67
     1
  8
0
  2
$PAPER_SPACE
 70
     0
 10
0.0
 20
0.0
 30
0.0
  3
$PAPER_SPACE
  1

  0
ENDBLK
  5
5CC13
 67
     1
  8
0
  0
ENDSEC
  0
SECTION
  2
ENTITIES
  0
LINE
  5
2AB59
  8
61
 10
53.518248
 20
345.919708
 30
0.0
 11
230.518248
 21
345.919708
 31
0.0
  0
LINE
  5
2AB5A
  8
61
 10
41.518248
 20
357.919708
 30
0.0
 11
41.518248
 21
439.919708
 31
0.0
  0
ARC
  5
2AB5B
  8
61
 10
53.518248
 20
357.919708
 30
0.0
 40
12.0
 50
180.0
 51
270.0
  0
CIRCLE
  5
2AB5C
  8
61
 10
53.518248
 20
357.919708
 30
0.0
 40
10.125
  0
CIRCLE
  5
2AB5D
  8
61
 10
53.518248
 20
357.919708
 30
0.0
 40
6.75
  0
CIRCLE
  5
2AB5E
  8
61
 10
53.518248
 20
357.919708
 30
0.0
 40
3.5
  0
ARC
  5
2AB5F
  8
61
 10
53.518248
 20
357.919708
 30
0.0
 40
12.0
 50
0.0
 51
90.0
  0
LINE
  5
2AB60
  8
61
 10
71.018248
 20
352.419708
 30
0.0
 11
230.518248
 21
352.419708
 31
0.0
  0
LINE
  5
2AB61
  8
61
 10
71.143248
 20
350.419708
 30
0.0
 11
230.518248
 21
350.419708
 31
0.0
  0
LINE
  5
2AB62
  8
61
 10
46.018248
 20
375.444708
 30
0.0
 11
46.018248
 21
439.919708
 31
0.0
  0
LINE
  5
2AB63
  8
61
 10
48.018248
 20
375.319708
 30
0.0
 11
48.018248
 21
439.919708
 31
0.0
  0
LINE
  5
2AB64
  8
61
 10
53.518248
 20
369.919708
 30
0.0
 11
53.418248
 21
369.919708
 31
0.0
  0
LINE
  5
2AB65
  8
61
 10
53.518248
 20
368.044708
 30
0.0
 11
53.418248
 21
368.044708
 31
0.0
  0
LINE
  5
2AB66
  8
61
 10
65.518248
 20
357.919708
 30
0.0
 11
65.518248
 21
357.819708
 31
0.0
  0
LINE
  5
2AB67
  8
61
 10
63.643077
 20
357.978632
 30
0.0
 11
63.643077
 21
357.819708
 31
0.0
  0
ARC
  5
2AB68
  8
61
 10
53.418248
 20
375.319708
 30
0.0
 40
5.4
 50
180.0
 51
270.0
  0
ARC
  5
2AB69
  8
61
 10
53.418248
 20
375.444708
 30
0.0
 40
7.4
 50
180.0
 51
270.0
  0
ARC
  5
2AB6A
  8
61
 10
168.018248
 20
364.919708
 30
0.0
 40
5.0
 50
8.626927
 51
171.373073
  0
CIRCLE
  5
2AB6B
  8
61
 10
168.018248
 20
364.919708
 30
0.0
 40
2.4
  0
ARC
  5
2AB6C
  8
61
 10
168.018248
 20
364.919708
 30
0.0
 40
5.0
 50
188.626927
 51
351.373073
  0
ARC
  5
2AB6D
  8
61
 10
143.018248
 20
364.919708
 30
0.0
 40
5.0
 50
188.626927
 51
351.373073
  0
CIRCLE
  5
2AB6E
  8
61
 10
143.018248
 20
364.919708
 30
0.0
 40
2.4
  0
LINE
  5
2AB6F
  8
61
 10
147.961678
 20
365.669708
 30
0.0
 11
163.074818
 21
365.669708
 31
0.0
  0
LINE
  5
2AB70
  8
61
 10
147.961678
 20
364.169708
 30
0.0
 11
163.074818
 21
364.169708
 31
0.0
  0
ARC
  5
2AB71
  8
61
 10
143.018248
 20
364.919708
 30
0.0
 40
5.0
 50
8.626927
 51
171.373073
  0
LINE
  5
2AB72
  8
61
 10
67.268248
 20
407.363138
 30
0.0
 11
67.268248
 21
422.476278
 31
0.0
  0
LINE
  5
2AB73
  8
61
 10
68.768248
 20
407.363138
 30
0.0
 11
68.768248
 21
422.476278
 31
0.0
  0
ARC
  5
2AB74
  8
61
 10
68.018248
 20
427.419708
 30
0.0
 40
5.0
 50
98.626927
 51
261.373073
  0
LINE
  5
2AB75
  8
61
 10
68.768248
 20
432.363138
 30
0.0
 11
68.768248
 21
439.919708
 31
0.0
  0
LINE
  5
2AB76
  8
61
 10
67.268248
 20
432.363138
 30
0.0
 11
67.268248
 21
439.919708
 31
0.0
  0
CIRCLE
  5
2AB77
  8
61
 10
68.018248
 20
427.419708
 30
0.0
 40
2.4
  0
ARC
  5
2AB78
  8
61
 10
68.018248
 20
427.419708
 30
0.0
 40
5.0
 50
278.626927
 51
81.373073
  0
ARC
  5
2AB79
  8
61
 10
68.018248
 20
402.419708
 30
0.0
 40
5.0
 50
270.0
 51
81.373073
  0
CIRCLE
  5
2AB7A
  8
61
 10
68.018248
 20
402.419708
 30
0.0
 40
2.4
  0
ARC
  5
2AB7B
  8
61
 10
68.018248
 20
402.419708
 30
0.0
 40
5.0
 50
98.626927
 51
270.0
  0
ARC
  5
2AB7C
  8
61
 10
68.018248
 20
477.419708
 30
0.0
 40
5.0
 50
90.0
 51
261.373073
  0
CIRCLE
  5
2AB7D
  8
61
 10
68.018248
 20
477.419708
 30
0.0
 40
2.4
  0
ARC
  5
2AB7E
  8
61
 10
68.018248
 20
477.419708
 30
0.0
 40
5.0
 50
278.626927
 51
90.0
  0
ARC
  5
2AB7F
  8
61
 10
68.018248
 20
452.419708
 30
0.0
 40
5.0
 50
278.626927
 51
81.373073
  0
CIRCLE
  5
2AB80
  8
61
 10
68.018248
 20
452.419708
 30
0.0
 40
2.4
  0
LINE
  5
2AB81
  8
61
 10
67.268248
 20
447.476278
 30
0.0
 11
67.268248
 21
439.919708
 31
0.0
  0
LINE
  5
2AB82
  8
61
 10
68.768248
 20
447.476278
 30
0.0
 11
68.768248
 21
439.919708
 31
0.0
  0
ARC
  5
2AB83
  8
61
 10
68.018248
 20
452.419708
 30
0.0
 40
5.0
 50
98.626927
 51
261.373073
  0
LINE
  5
2AB84
  8
61
 10
68.768248
 20
472.476278
 30
0.0
 11
68.768248
 21
457.363138
 31
0.0
  0
LINE
  5
2AB85
  8
61
 10
67.268248
 20
472.476278
 30
0.0
 11
67.268248
 21
457.363138
 31
0.0
  0
ARC
  5
2AB86
  8
61
 10
143.018248
 20
514.919708
 30
0.0
 40
5.0
 50
188.626927
 51
351.373073
  0
LINE
  5
2AB87
  8
61
 10
147.961678
 20
515.669708
 30
0.0
 11
163.074818
 21
515.669708
 31
0.0
  0
LINE
  5
2AB88
  8
61
 10
147.961678
 20
514.169708
 30
0.0
 11
163.074818
 21
514.169708
 31
0.0
  0
CIRCLE
  5
2AB89
  8
61
 10
143.018248
 20
514.919708
 30
0.0
 40
2.4
  0
ARC
  5
2AB8A
  8
61
 10
143.018248
 20
514.919708
 30
0.0
 40
5.0
 50
8.626927
 51
171.373073
  0
ARC
  5
2AB8B
  8
61
 10
168.018248
 20
514.919708
 30
0.0
 40
5.0
 50
8.626927
 51
171.373073
  0
CIRCLE
  5
2AB8C
  8
61
 10
168.018248
 20
514.919708
 30
0.0
 40
2.4
  0
ARC
  5
2AB8D
  8
61
 10
168.018248
 20
514.919708
 30
0.0
 40
5.0
 50
188.626927
 51
351.373073
  0
ARC
  5
2AB8E
  8
61
 10
53.418248
 20
504.394708
 30
0.0
 40
7.4
 50
90.0
 51
180.0
  0
ARC
  5
2AB8F
  8
61
 10
71.043077
 20
522.019708
 30
0.0
 40
7.4
 50
90.0
 51
180.0
  0
ARC
  5
2AB90
  8
61
 10
53.418248
 20
504.519708
 30
0.0
 40
5.4
 50
90.0
 51
180.0
  0
ARC
  5
2AB91
  8
61
 10
70.918248
 20
522.019708
 30
0.0
 40
5.4
 50
90.0
 51
180.0
  0
LINE
  5
2AB92
  8
61
 10
63.643077
 20
521.860784
 30
0.0
 11
63.643077
 21
522.019708
 31
0.0
  0
LINE
  5
2AB93
  8
61
 10
65.518248
 20
521.919708
 30
0.0
 11
65.518248
 21
522.019708
 31
0.0
  0
LINE
  5
2AB94
  8
61
 10
53.518248
 20
511.794708
 30
0.0
 11
53.418248
 21
511.794708
 31
0.0
  0
LINE
  5
2AB95
  8
61
 10
53.518248
 20
509.919708
 30
0.0
 11
53.418248
 21
509.919708
 31
0.0
  0
LINE
  5
2AB96
  8
61
 10
48.018248
 20
504.519708
 30
0.0
 11
48.018248
 21
439.919708
 31
0.0
  0
LINE
  5
2AB97
  8
61
 10
46.018248
 20
504.394708
 30
0.0
 11
46.018248
 21
439.919708
 31
0.0
  0
LINE
  5
2AB98
  8
61
 10
71.043077
 20
529.419708
 30
0.0
 11
230.518248
 21
529.419708
 31
0.0
  0
LINE
  5
2AB99
  8
61
 10
70.918248
 20
527.419708
 30
0.0
 11
230.518248
 21
527.419708
 31
0.0
  0
ARC
  5
2AB9A
  8
61
 10
53.518248
 20
521.919708
 30
0.0
 40
12.0
 50
270.0
 51
360.0
  0
CIRCLE
  5
2AB9B
  8
61
 10
53.518248
 20
521.919708
 30
0.0
 40
3.5
  0
CIRCLE
  5
2AB9C
  8
61
 10
53.518248
 20
521.919708
 30
0.0
 40
6.75
  0
CIRCLE
  5
2AB9D
  8
61
 10
53.518248
 20
521.919708
 30
0.0
 40
10.125
  0
ARC
  5
2AB9E
  8
61
 10
53.518248
 20
521.919708
 30
0.0
 40
12.0
 50
90.0
 51
180.0
  0
LINE
  5
2AB9F
  8
61
 10
41.518248
 20
521.919708
 30
0.0
 11
41.518248
 21
439.919708
 31
0.0
  0
LINE
  5
2ABA0
  8
61
 10
53.518248
 20
533.919708
 30
0.0
 11
230.518248
 21
533.919708
 31
0.0
  0
LINE
  5
2ABA1
  8
61
 10
407.518248
 20
533.919708
 30
0.0
 11
230.518248
 21
533.919708
 31
0.0
  0
LINE
  5
2ABA2
  8
61
 10
419.518248
 20
521.919708
 30
0.0
 11
419.518248
 21
439.919708
 31
0.0
  0
ARC
  5
2ABA3
  8
61
 10
407.518248
 20
521.919708
 30
0.0
 40
12.0
 50
0.0
 51
90.0
  0
CIRCLE
  5
2ABA4
  8
61
 10
407.518248
 20
521.919708
 30
0.0
 40
10.125
  0
CIRCLE
  5
2ABA5
  8
61
 10
407.518248
 20
521.919708
 30
0.0
 40
6.75
  0
CIRCLE
  5
2ABA6
  8
61
 10
407.518248
 20
521.919708
 30
0.0
 40
3.5
  0
ARC
  5
2ABA7
  8
61
 10
407.518248
 20
521.919708
 30
0.0
 40
12.0
 50
180.0
 51
270.0
  0
LINE
  5
2ABA8
  8
61
 10
390.118248
 20
527.419708
 30
0.0
 11
230.518248
 21
527.419708
 31
0.0
  0
LINE
  5
2ABA9
  8
61
 10
389.99342
 20
529.419708
 30
0.0
 11
230.518248
 21
529.419708
 31
0.0
  0
LINE
  5
2ABAA
  8
61
 10
415.018248
 20
504.394708
 30
0.0
 11
415.018248
 21
439.919708
 31
0.0
  0
LINE
  5
2ABAB
  8
61
 10
413.018248
 20
504.519708
 30
0.0
 11
413.018248
 21
439.919708
 31
0.0
  0
LINE
  5
2ABAC
  8
61
 10
407.518248
 20
509.919708
 30
0.0
 11
407.618248
 21
509.919708
 31
0.0
  0
LINE
  5
2ABAD
  8
61
 10
407.518248
 20
511.794708
 30
0.0
 11
407.618248
 21
511.794708
 31
0.0
  0
LINE
  5
2ABAE
  8
61
 10
395.518248
 20
521.919708
 30
0.0
 11
395.518248
 21
522.019708
 31
0.0
  0
LINE
  5
2ABAF
  8
61
 10
397.39342
 20
521.860784
 30
0.0
 11
397.39342
 21
522.019708
 31
0.0
  0
ARC
  5
2ABB0
  8
61
 10
390.118248
 20
522.019708
 30
0.0
 40
5.4
 50
0.0
 51
90.0
  0
ARC
  5
2ABB1
  8
61
 10
407.618248
 20
504.519708
 30
0.0
 40
5.4
 50
0.0
 51
90.0
  0
ARC
  5
2ABB2
  8
61
 10
389.99342
 20
522.019708
 30
0.0
 40
7.4
 50
0.0
 51
90.0
  0
ARC
  5
2ABB3
  8
61
 10
407.618248
 20
504.394708
 30
0.0
 40
7.4
 50
0.0
 51
90.0
  0
ARC
  5
2ABB4
  8
61
 10
293.018248
 20
514.919708
 30
0.0
 40
5.0
 50
188.626927
 51
351.373073
  0
LINE
  5
2ABB5
  8
61
 10
288.074818
 20
515.669708
 30
0.0
 11
272.961678
 21
515.669708
 31
0.0
  0
LINE
  5
2ABB6
  8
61
 10
288.074818
 20
514.169708
 30
0.0
 11
272.961678
 21
514.169708
 31
0.0
  0
CIRCLE
  5
2ABB7
  8
61
 10
293.018248
 20
514.919708
 30
0.0
 40
2.4
  0
ARC
  5
2ABB8
  8
61
 10
293.018248
 20
514.919708
 30
0.0
 40
5.0
 50
8.626927
 51
171.373073
  0
ARC
  5
2ABB9
  8
61
 10
318.018248
 20
514.919708
 30
0.0
 40
5.0
 50
8.626927
 51
171.373073
  0
CIRCLE
  5
2ABBA
  8
61
 10
318.018248
 20
514.919708
 30
0.0
 40
2.4
  0
LINE
  5
2ABBB
  8
61
 10
313.074818
 20
514.169708
 30
0.0
 11
297.961678
 21
514.169708
 31
0.0
  0
LINE
  5
2ABBC
  8
61
 10
313.074818
 20
515.669708
 30
0.0
 11
297.961678
 21
515.669708
 31
0.0
  0
ARC
  5
2ABBD
  8
61
 10
318.018248
 20
514.919708
 30
0.0
 40
5.0
 50
188.626927
 51
351.373073
  0
LINE
  5
2ABBE
  8
61
 10
393.768248
 20
472.476278
 30
0.0
 11
393.768248
 21
457.363138
 31
0.0
  0
LINE
  5
2ABBF
  8
61
 10
392.268248
 20
472.476278
 30
0.0
 11
392.268248
 21
457.363138
 31
0.0
  0
ARC
  5
2ABC0
  8
61
 10
393.018248
 20
452.419708
 30
0.0
 40
5.0
 50
278.626927
 51
81.373073
  0
LINE
  5
2ABC1
  8
61
 10
392.268248
 20
447.476278
 30
0.0
 11
392.268248
 21
439.919708
 31
0.0
  0
LINE
  5
2ABC2
  8
61
 10
393.768248
 20
447.476278
 30
0.0
 11
393.768248
 21
439.919708
 31
0.0
  0
CIRCLE
  5
2ABC3
  8
61
 10
393.018248
 20
452.419708
 30
0.0
 40
2.4
  0
ARC
  5
2ABC4
  8
61
 10
393.018248
 20
452.419708
 30
0.0
 40
5.0
 50
98.626927
 51
261.373073
  0
ARC
  5
2ABC5
  8
61
 10
393.018248
 20
477.419708
 30
0.0
 40
5.0
 50
90.0
 51
261.373073
  0
CIRCLE
  5
2ABC6
  8
61
 10
393.018248
 20
477.419708
 30
0.0
 40
2.4
  0
ARC
  5
2ABC7
  8
61
 10
393.018248
 20
477.419708
 30
0.0
 40
5.0
 50
278.626927
 51
90.0
  0
ARC
  5
2ABC8
  8
61
 10
393.018248
 20
402.419708
 30
0.0
 40
5.0
 50
270.0
 51
81.373073
  0
CIRCLE
  5
2ABC9
  8
61
 10
393.018248
 20
402.419708
 30
0.0
 40
2.4
  0
ARC
  5
2ABCA
  8
61
 10
393.018248
 20
402.419708
 30
0.0
 40
5.0
 50
98.626927
 51
270.0
  0
ARC
  5
2ABCB
  8
61
 10
393.018248
 20
427.419708
 30
0.0
 40
5.0
 50
98.626927
 51
261.373073
  0
CIRCLE
  5
2ABCC
  8
61
 10
393.018248
 20
427.419708
 30
0.0
 40
2.4
  0
LINE
  5
2ABCD
  8
61
 10
393.768248
 20
432.363138
 30
0.0
 11
393.768248
 21
439.919708
 31
0.0
  0
LINE
  5
2ABCE
  8
61
 10
392.268248
 20
432.363138
 30
0.0
 11
392.268248
 21
439.919708
 31
0.0
  0
ARC
  5
2ABCF
  8
61
 10
393.018248
 20
427.419708
 30
0.0
 40
5.0
 50
278.626927
 51
81.373073
  0
LINE
  5
2ABD0
  8
61
 10
392.268248
 20
407.363138
 30
0.0
 11
392.268248
 21
422.476278
 31
0.0
  0
LINE
  5
2ABD1
  8
61
 10
393.768248
 20
407.363138
 30
0.0
 11
393.768248
 21
422.476278
 31
0.0
  0
ARC
  5
2ABD2
  8
61
 10
318.018248
 20
364.919708
 30
0.0
 40
5.0
 50
8.626927
 51
171.373073
  0
LINE
  5
2ABD3
  8
61
 10
313.074818
 20
364.169708
 30
0.0
 11
297.961678
 21
364.169708
 31
0.0
  0
LINE
  5
2ABD4
  8
61
 10
313.074818
 20
365.669708
 30
0.0
 11
297.961678
 21
365.669708
 31
0.0
  0
CIRCLE
  5
2ABD5
  8
61
 10
318.018248
 20
364.919708
 30
0.0
 40
2.4
  0
ARC
  5
2ABD6
  8
61
 10
318.018248
 20
364.919708
 30
0.0
 40
5.0
 50
188.626927
 51
351.373073
  0
ARC
  5
2ABD7
  8
61
 10
293.018248
 20
364.919708
 30
0.0
 40
5.0
 50
188.626927
 51
351.373073
  0
CIRCLE
  5
2ABD8
  8
61
 10
293.018248
 20
364.919708
 30
0.0
 40
2.4
  0
ARC
  5
2ABD9
  8
61
 10
293.018248
 20
364.919708
 30
0.0
 40
5.0
 50
8.626927
 51
171.373073
  0
ARC
  5
2ABDA
  8
61
 10
407.618248
 20
375.444708
 30
0.0
 40
7.4
 50
270.0
 51
0.0
  0
ARC
  5
2ABDB
  8
61
 10
389.99342
 20
357.819708
 30
0.0
 40
7.4
 50
270.0
 51
0.0
  0
ARC
  5
2ABDC
  8
61
 10
407.618248
 20
375.319708
 30
0.0
 40
5.4
 50
270.0
 51
0.0
  0
ARC
  5
2ABDD
  8
61
 10
390.118248
 20
357.819708
 30
0.0
 40
5.4
 50
270.0
 51
360.0
  0
LINE
  5
2ABDE
  8
61
 10
397.39342
 20
357.978632
 30
0.0
 11
397.39342
 21
357.819708
 31
0.0
  0
LINE
  5
2ABDF
  8
61
 10
395.518248
 20
357.919708
 30
0.0
 11
395.518248
 21
357.819708
 31
0.0
  0
LINE
  5
2ABE0
  8
61
 10
407.518248
 20
368.044708
 30
0.0
 11
407.618248
 21
368.044708
 31
0.0
  0
LINE
  5
2ABE1
  8
61
 10
407.518248
 20
369.919708
 30
0.0
 11
407.618248
 21
369.919708
 31
0.0
  0
LINE
  5
2ABE2
  8
61
 10
413.018248
 20
375.319708
 30
0.0
 11
413.018248
 21
439.919708
 31
0.0
  0
LINE
  5
2ABE3
  8
61
 10
415.018248
 20
375.444708
 30
0.0
 11
415.018248
 21
439.919708
 31
0.0
  0
LINE
  5
2ABE4
  8
61
 10
389.99342
 20
350.419708
 30
0.0
 11
230.518248
 21
350.419708
 31
0.0
  0
LINE
  5
2ABE5
  8
61
 10
390.118248
 20
352.419708
 30
0.0
 11
230.518248
 21
352.419708
 31
0.0
  0
ARC
  5
2ABE6
  8
61
 10
407.518248
 20
357.919708
 30
0.0
 40
12.0
 50
90.0
 51
180.0
  0
CIRCLE
  5
2ABE7
  8
61
 10
407.518248
 20
357.919708
 30
0.0
 40
3.5
  0
CIRCLE
  5
2ABE8
  8
61
 10
407.518248
 20
357.919708
 30
0.0
 40
6.75
  0
CIRCLE
  5
2ABE9
  8
61
 10
407.518248
 20
357.919708
 30
0.0
 40
10.125
  0
ARC
  5
2ABEA
  8
61
 10
407.518248
 20
357.919708
 30
0.0
 40
12.0
 50
270.0
 51
0.0
  0
LINE
  5
2ABEB
  8
61
 10
419.518248
 20
357.919708
 30
0.0
 11
419.518248
 21
439.919708
 31
0.0
  0
LINE
  5
2ABEC
  8
61
 10
407.518248
 20
345.919708
 30
0.0
 11
230.518248
 21
345.919708
 31
0.0
  0
LINE
  5
2AC12
  8
61
 10
65.518248
 20
357.81971
 30
0.0
 11
65.53349
 21
357.36901
 31
0.0
  0
LINE
  5
2AC13
  8
34
 10
505.0
 20
397.419708
 30
0.0
 11
500.0
 21
397.419708
 31
0.0
  0
LINE
  5
2AC14
  8
34
 10
505.5
 20
397.919708
 30
0.0
 11
505.5
 21
400.019708
 31
0.0
  0
ARC
  5
2AC15
  8
34
 10
500.0
 20
395.419708
 30
0.0
 40
2.0
 50
90.0
 51
180.0
  0
ARC
  5
2AC16
  8
34
 10
500.0
 20
409.419708
 30
0.0
 40
2.0
 50
180.0
 51
270.0
  0
LINE
  5
2AC17
  8
34
 10
505.5
 20
406.919708
 30
0.0
 11
505.5
 21
404.819708
 31
0.0
  0
LINE
  5
2AC18
  8
34
 10
505.0
 20
407.419708
 30
0.0
 11
500.0
 21
407.419708
 31
0.0
  0
LINE
  5
2AC19
  8
62
 10
59.887804
 20
347.825927
 30
0.0
 11
59.887804
 21
347.825927
 31
0.0
  0
LINE
  5
2AC95
  8
63
 10
230.518248
 20
544.802562
 30
0.0
 11
230.518248
 21
439.919708
 31
0.0
  0
LINE
  5
2AC96
  8
63
  6
DASHDOT
 10
230.518248
 20
337.0
 30
0.0
 11
230.518248
 21
439.919708
 31
0.0
  0
LINE
  5
2AC97
  8
63
  6
DASHDOT
 10
35.0
 20
439.919708
 30
0.0
 11
427.0
 21
439.919708
 31
0.0
  0
ARC
  5
2AC98
  8
34
 10
505.0
 20
406.919708
 30
0.0
 40
0.5
 50
0.0
 51
90.0
  0
ARC
  5
2AC99
  8
34
 10
505.0
 20
397.919708
 30
0.0
 40
0.5
 50
270.0
 51
0.0
  0
CIRCLE
  5
2AC9A
  8
61
 10
385.518248
 20
499.919708
 30
0.0
 40
3.0
  0
CIRCLE
  5
2AC9B
  8
61
 10
385.518248
 20
499.919708
 30
0.0
 40
6.0
  0
CIRCLE
  5
2AC9C
  8
61
 10
385.518248
 20
379.919708
 30
0.0
 40
3.0
  0
CIRCLE
  5
2AC9D
  8
61
 10
385.518248
 20
379.919708
 30
0.0
 40
6.0
  0
CIRCLE
  5
2AC9E
  8
61
 10
75.584816
 20
499.919708
 30
0.0
 40
6.0
  0
CIRCLE
  5
2AC9F
  8
61
 10
75.584816
 20
499.919708
 30
0.0
 40
3.0
  0
CIRCLE
  5
2ACA0
  8
61
 10
75.584816
 20
379.919708
 30
0.0
 40
6.0
  0
CIRCLE
  5
2ACA1
  8
61
 10
75.584816
 20
379.919708
 30
0.0
 40
3.0
  0
ARC
  5
2ACCB
  8
34
 10
499.0
 20
372.814825
 30
0.0
 40
1.0
 50
91.0
 51
180.0
  0
ARC
  5
2ACCC
  8
34
 10
499.0
 20
387.024591
 30
0.0
 40
1.0
 50
180.0
 51
269.0
  0
ARC
  5
2ACCD
  8
34
 10
505.0
 20
385.419708
 30
0.0
 40
0.5
 50
0.0
 51
90.0
  0
ARC
  5
2ACCE
  8
34
 10
505.0
 20
374.419708
 30
0.0
 40
0.5
 50
270.0
 51
0.0
  0
LINE
  5
2ACCF
  8
34
 10
505.5
 20
383.969708
 30
0.0
 11
505.5
 21
385.419708
 31
0.0
  0
LINE
  5
2ACD0
  8
34
 10
505.5
 20
375.869708
 30
0.0
 11
505.5
 21
374.419708
 31
0.0
  0
LINE
  5
2ACD1
  8
34
 10
498.982548
 20
373.814673
 30
0.0
 11
505.0
 21
373.919708
 31
0.0
  0
LINE
  5
2ACD2
  8
34
 10
505.5
 20
379.919708
 30
0.0
 11
505.5
 21
374.419708
 31
0.0
  0
LINE
  5
2ACD3
  8
34
 10
505.5
 20
379.919708
 30
0.0
 11
505.5
 21
383.969708
 31
0.0
  0
LINE
  5
2ACD4
  8
34
 10
498.982548
 20
386.024743
 30
0.0
 11
505.0
 21
385.919708
 31
0.0
  0
ARC
  5
2ACD5
  8
61
 10
71.018248
 20
357.919708
 30
0.0
 40
5.5
 50
180.0
 51
270.0
  0
ARC
  5
2ACD6
  8
61
 10
71.143248
 20
357.919708
 30
0.0
 40
7.5
 50
180.0
 51
270.0
  0
LINE
  5
2ACD8
  8
53
  6
DASHDOT
 10
-384.927368
 20
546.420777
 30
0.0
 11
-384.927368
 21
337.866652
 31
0.0
  0
LINE
  5
2ACD9
  8
53
  6
DASHDOT
 10
-179.076302
 20
439.919708
 30
0.0
 11
-587.995337
 21
439.919708
 31
0.0
  0
LINE
  5
2ACDA
  8
53
  6
DASHDOT
 10
-463.514902
 20
439.919708
 30
0.0
 11
-461.445616
 21
439.919708
 31
0.0
  0
LINE
  5
2ACDB
  8
53
  6
DASHDOT
 10
-384.927368
 20
423.009203
 30
0.0
 11
-384.927368
 21
439.919708
 31
0.0
  0
LINE
  5
2ACDC
  8
52
 10
-555.557812
 20
347.825927
 30
0.0
 11
-555.557812
 21
347.825927
 31
0.0
  0
LINE
  5
2ACDD
  8
51
 10
-561.927368
 20
533.919708
 30
0.0
 11
-384.927368
 21
533.919708
 31
0.0
  0
LINE
  5
2ACDE
  8
51
 10
-573.927368
 20
521.919708
 30
0.0
 11
-573.927368
 21
439.919708
 31
0.0
  0
ARC
  5
2ACDF
  8
51
 10
-561.927368
 20
521.919708
 30
0.0
 40
12.0
 50
90.0
 51
180.0
  0
ARC
  5
2ACE0
  8
51
 10
-561.927368
 20
357.919708
 30
0.0
 40
12.0
 50
180.0
 51
270.0
  0
LINE
  5
2ACE1
  8
51
 10
-573.927368
 20
357.919708
 30
0.0
 11
-573.927368
 21
439.919708
 31
0.0
  0
LINE
  5
2ACE2
  8
51
 10
-561.927368
 20
345.919708
 30
0.0
 11
-384.927368
 21
345.919708
 31
0.0
  0
ARC
  5
2ACE3
  8
51
 10
-569.927368
 20
364.084122
 30
0.0
 40
0.5
 50
324.049432
 51
0.0
  0
CIRCLE
  5
2ACE4
  8
51
 10
-561.927368
 20
357.919708
 30
0.0
 40
3.5
  0
CIRCLE
  5
2ACE5
  8
51
 10
-561.927368
 20
357.919708
 30
0.0
 40
7.5
  0
CIRCLE
  5
2ACE6
  8
51
 10
-537.927368
 20
379.919708
 30
0.0
 40
5.75
  0
CIRCLE
  5
2ACE7
  8
51
 10
-537.927368
 20
379.919708
 30
0.0
 40
6.5
  0
CIRCLE
  5
2ACE8
  8
51
 10
-545.427368
 20
402.419708
 30
0.0
 40
3.5
  0
CIRCLE
  5
2ACE9
  8
51
 10
-545.427368
 20
402.419708
 30
0.0
 40
4.25
  0
CIRCLE
  5
2ACEA
  8
51
 10
-545.427368
 20
427.419708
 30
0.0
 40
4.25
  0
CIRCLE
  5
2ACEB
  8
51
 10
-545.427368
 20
427.419708
 30
0.0
 40
3.5
  0
CIRCLE
  5
2ACEC
  8
51
 10
-472.427368
 20
364.919708
 30
0.0
 40
4.25
  0
CIRCLE
  5
2ACED
  8
51
 10
-472.427368
 20
364.919708
 30
0.0
 40
3.5
  0
CIRCLE
  5
2ACEE
  8
51
 10
-447.427368
 20
364.919708
 30
0.0
 40
3.5
  0
CIRCLE
  5
2ACEF
  8
51
 10
-447.427368
 20
364.919708
 30
0.0
 40
4.25
  0
LINE
  5
2ACF0
  8
51
 10
-569.427368
 20
364.084122
 30
0.0
 11
-569.427368
 21
439.919708
 31
0.0
  0
LINE
  5
2ACF1
  8
51
 10
-571.427368
 20
365.904068
 30
0.0
 11
-571.427368
 21
439.919708
 31
0.0
  0
LINE
  5
2ACF2
  8
51
 10
-555.762954
 20
350.419708
 30
0.0
 11
-384.927368
 21
350.419708
 31
0.0
  0
LINE
  5
2ACF3
  8
51
 10
-553.943008
 20
348.419708
 30
0.0
 11
-384.927368
 21
348.419708
 31
0.0
  0
ARC
  5
2ACF4
  8
51
 10
-561.927368
 20
357.919708
 30
0.0
 40
12.0
 50
180.0
 51
304.771944
  0
ARC
  5
2ACF5
  8
51
 10
-562.081041
 20
358.09137
 30
0.0
 40
9.82954
 50
241.100183
 51
307.799623
  0
ARC
  5
2ACF6
  8
51
 10
-562.48194
 20
357.365136
 30
0.0
 40
9.0
 50
208.899817
 51
241.100183
  0
ARC
  5
2ACF7
  8
51
 10
-561.755706
 20
357.766035
 30
0.0
 40
9.82954
 50
142.200377
 51
208.899817
  0
ARC
  5
2ACF8
  8
51
 10
-561.927368
 20
357.919708
 30
0.0
 40
12.0
 50
145.228056
 51
270.0
  0
ARC
  5
2ACF9
  8
51
 10
-561.755706
 20
522.073381
 30
0.0
 40
9.82954
 50
151.100183
 51
217.799623
  0
LINE
  5
2ACFA
  8
51
 10
-569.427368
 20
515.755294
 30
0.0
 11
-569.427368
 21
439.919708
 31
0.0
  0
CIRCLE
  5
2ACFB
  8
51
 10
-447.427368
 20
514.919708
 30
0.0
 40
4.25
  0
CIRCLE
  5
2ACFC
  8
51
 10
-447.427368
 20
514.919708
 30
0.0
 40
3.5
  0
CIRCLE
  5
2ACFD
  8
51
 10
-472.427368
 20
514.919708
 30
0.0
 40
3.5
  0
CIRCLE
  5
2ACFE
  8
51
 10
-472.427368
 20
514.919708
 30
0.0
 40
4.25
  0
CIRCLE
  5
2ACFF
  8
51
 10
-545.427368
 20
452.419708
 30
0.0
 40
3.5
  0
CIRCLE
  5
2AD00
  8
51
 10
-545.427368
 20
452.419708
 30
0.0
 40
4.25
  0
CIRCLE
  5
2AD01
  8
51
 10
-545.427368
 20
477.419708
 30
0.0
 40
4.25
  0
CIRCLE
  5
2AD02
  8
51
 10
-545.427368
 20
477.419708
 30
0.0
 40
3.5
  0
CIRCLE
  5
2AD03
  8
51
 10
-537.927368
 20
499.919708
 30
0.0
 40
6.5
  0
CIRCLE
  5
2AD04
  8
51
 10
-537.927368
 20
499.919708
 30
0.0
 40
5.75
  0
CIRCLE
  5
2AD05
  8
51
 10
-561.927368
 20
521.919708
 30
0.0
 40
7.5
  0
CIRCLE
  5
2AD06
  8
51
 10
-561.927368
 20
521.919708
 30
0.0
 40
3.5
  0
ARC
  5
2AD07
  8
51
 10
-569.927368
 20
515.755294
 30
0.0
 40
0.5
 50
0.0
 51
35.950568
  0
LINE
  5
2AD08
  8
51
 10
-553.943008
 20
531.419708
 30
0.0
 11
-384.927368
 21
531.419708
 31
0.0
  0
LINE
  5
2AD09
  8
51
 10
-555.762954
 20
529.419708
 30
0.0
 11
-384.927368
 21
529.419708
 31
0.0
  0
ARC
  5
2AD0A
  8
51
 10
-561.927368
 20
521.919708
 30
0.0
 40
12.0
 50
55.228056
 51
180.0
  0
ARC
  5
2AD0B
  8
51
 10
-562.081041
 20
521.748046
 30
0.0
 40
9.82954
 50
52.200377
 51
118.899817
  0
ARC
  5
2AD0C
  8
51
 10
-562.48194
 20
522.47428
 30
0.0
 40
9.0
 50
118.899817
 51
151.100183
  0
ARC
  5
2AD0D
  8
51
 10
-561.927368
 20
521.919708
 30
0.0
 40
12.0
 50
90.0
 51
214.771944
  0
LINE
  5
2AD0E
  8
51
 10
-571.427368
 20
513.935348
 30
0.0
 11
-571.427368
 21
439.919708
 31
0.0
  0
ARC
  5
2AD0F
  8
61
 10
193.018248
 20
514.919708
 30
0.0
 40
5.0
 50
8.626927
 51
171.373073
  0
CIRCLE
  5
2AD10
  8
61
 10
193.018248
 20
514.919708
 30
0.0
 40
2.4
  0
ARC
  5
2AD11
  8
61
 10
193.018248
 20
514.919708
 30
0.0
 40
5.0
 50
188.626927
 51
351.373073
  0
ARC
  5
2AD12
  8
61
 10
218.018248
 20
514.919708
 30
0.0
 40
5.0
 50
8.626927
 51
171.373073
  0
CIRCLE
  5
2AD13
  8
61
 10
218.018248
 20
514.919708
 30
0.0
 40
2.4
  0
ARC
  5
2AD14
  8
61
 10
218.018248
 20
514.919708
 30
0.0
 40
5.0
 50
188.626927
 51
351.373073
  0
ARC
  5
2AD15
  8
61
 10
243.018248
 20
514.919708
 30
0.0
 40
5.0
 50
8.626927
 51
171.373073
  0
CIRCLE
  5
2AD16
  8
61
 10
243.018248
 20
514.919708
 30
0.0
 40
2.4
  0
ARC
  5
2AD17
  8
61
 10
243.018248
 20
514.919708
 30
0.0
 40
5.0
 50
188.626927
 51
351.373073
  0
ARC
  5
2AD18
  8
61
 10
268.018248
 20
514.919708
 30
0.0
 40
5.0
 50
188.626927
 51
351.373073
  0
CIRCLE
  5
2AD19
  8
61
 10
268.018248
 20
514.919708
 30
0.0
 40
2.4
  0
ARC
  5
2AD1A
  8
61
 10
268.018248
 20
514.919708
 30
0.0
 40
5.0
 50
8.626927
 51
171.373073
  0
LINE
  5
2AD1B
  8
61
 10
188.074818
 20
515.669708
 30
0.0
 11
172.961678
 21
515.669708
 31
0.0
  0
LINE
  5
2AD1C
  8
61
 10
188.074818
 20
514.169708
 30
0.0
 11
172.961678
 21
514.169708
 31
0.0
  0
LINE
  5
2AD1D
  8
61
 10
213.074818
 20
514.169708
 30
0.0
 11
197.961678
 21
514.169708
 31
0.0
  0
LINE
  5
2AD1E
  8
61
 10
213.074818
 20
515.669708
 30
0.0
 11
197.961678
 21
515.669708
 31
0.0
  0
LINE
  5
2AD1F
  8
61
 10
238.074818
 20
515.669708
 30
0.0
 11
222.961678
 21
515.669708
 31
0.0
  0
LINE
  5
2AD20
  8
61
 10
238.074818
 20
514.169708
 30
0.0
 11
222.961678
 21
514.169708
 31
0.0
  0
LINE
  5
2AD21
  8
61
 10
263.074818
 20
514.169708
 30
0.0
 11
247.961678
 21
514.169708
 31
0.0
  0
LINE
  5
2AD22
  8
61
 10
263.074818
 20
515.669708
 30
0.0
 11
247.961678
 21
515.669708
 31
0.0
  0
LINE
  5
2AD23
  8
61
 10
238.074818
 20
364.169708
 30
0.0
 11
222.961678
 21
364.169708
 31
0.0
  0
LINE
  5
2AD24
  8
61
 10
238.074818
 20
365.669708
 30
0.0
 11
222.961678
 21
365.669708
 31
0.0
  0
LINE
  5
2AD25
  8
61
 10
213.074818
 20
365.669708
 30
0.0
 11
197.961678
 21
365.669708
 31
0.0
  0
LINE
  5
2AD26
  8
61
 10
213.074818
 20
364.169708
 30
0.0
 11
197.961678
 21
364.169708
 31
0.0
  0
LINE
  5
2AD27
  8
61
 10
188.074818
 20
364.169708
 30
0.0
 11
172.961678
 21
364.169708
 31
0.0
  0
LINE
  5
2AD28
  8
61
 10
188.074818
 20
365.669708
 30
0.0
 11
172.961678
 21
365.669708
 31
0.0
  0
ARC
  5
2AD29
  8
61
 10
218.018248
 20
364.919708
 30
0.0
 40
5.0
 50
188.626927
 51
351.373073
  0
CIRCLE
  5
2AD2A
  8
61
 10
218.018248
 20
364.919708
 30
0.0
 40
2.4
  0
ARC
  5
2AD2B
  8
61
 10
218.018248
 20
364.919708
 30
0.0
 40
5.0
 50
8.626927
 51
171.373073
  0
ARC
  5
2AD2C
  8
61
 10
193.018248
 20
364.919708
 30
0.0
 40
5.0
 50
188.626927
 51
351.373073
  0
CIRCLE
  5
2AD2D
  8
61
 10
193.018248
 20
364.919708
 30
0.0
 40
2.4
  0
ARC
  5
2AD2E
  8
61
 10
193.018248
 20
364.919708
 30
0.0
 40
5.0
 50
8.626927
 51
171.373073
  0
LINE
  5
2AD2F
  8
61
 10
263.074818
 20
365.669708
 30
0.0
 11
247.961678
 21
365.669708
 31
0.0
  0
LINE
  5
2AD30
  8
61
 10
263.074818
 20
364.169708
 30
0.0
 11
247.961678
 21
364.169708
 31
0.0
  0
ARC
  5
2AD31
  8
61
 10
268.018248
 20
364.919708
 30
0.0
 40
5.0
 50
8.626927
 51
171.373073
  0
CIRCLE
  5
2AD32
  8
61
 10
268.018248
 20
364.919708
 30
0.0
 40
2.4
  0
ARC
  5
2AD33
  8
61
 10
268.018248
 20
364.919708
 30
0.0
 40
5.0
 50
188.626927
 51
351.373073
  0
ARC
  5
2AD34
  8
61
 10
243.018248
 20
364.919708
 30
0.0
 40
5.0
 50
188.626927
 51
351.373073
  0
CIRCLE
  5
2AD35
  8
61
 10
243.018248
 20
364.919708
 30
0.0
 40
2.4
  0
ARC
  5
2AD36
  8
61
 10
243.018248
 20
364.919708
 30
0.0
 40
5.0
 50
8.626927
 51
171.373073
  0
LINE
  5
2AD37
  8
61
 10
288.074818
 20
364.169708
 30
0.0
 11
272.961678
 21
364.169708
 31
0.0
  0
LINE
  5
2AD38
  8
61
 10
288.074818
 20
365.669708
 30
0.0
 11
272.961678
 21
365.669708
 31
0.0
  0
CIRCLE
  5
2AD39
  8
51
 10
-422.427368
 20
514.919708
 30
0.0
 40
4.25
  0
CIRCLE
  5
2AD3A
  8
51
 10
-422.427368
 20
514.919708
 30
0.0
 40
3.5
  0
CIRCLE
  5
2AD3B
  8
51
 10
-397.427368
 20
514.919708
 30
0.0
 40
3.5
  0
CIRCLE
  5
2AD3C
  8
51
 10
-397.427368
 20
514.919708
 30
0.0
 40
4.25
  0
CIRCLE
  5
2AD3D
  8
51
 10
-397.427368
 20
364.919708
 30
0.0
 40
4.25
  0
CIRCLE
  5
2AD3E
  8
51
 10
-397.427368
 20
364.919708
 30
0.0
 40
3.5
  0
CIRCLE
  5
2AD3F
  8
51
 10
-422.427368
 20
364.919708
 30
0.0
 40
3.5
  0
CIRCLE
  5
2AD40
  8
51
 10
-422.427368
 20
364.919708
 30
0.0
 40
4.25
  0
LINE
  5
2AD66
  8
31
 10
493.5
 20
455.803683
 30
0.0
 11
495.0
 21
456.669708
 31
0.0
  0
LINE
  5
2AD67
  8
31
 10
493.5
 20
449.035733
 30
0.0
 11
495.0
 21
448.169708
 31
0.0
  0
LINE
  5
2AD68
  8
31
 10
493.5
 20
455.803683
 30
0.0
 11
493.5
 21
449.035733
 31
0.0
  0
LINE
  5
2AD69
  8
31
 10
493.5
 20
480.803683
 30
0.0
 11
493.5
 21
474.035733
 31
0.0
  0
LINE
  5
2AD6A
  8
31
 10
493.5
 20
474.035733
 30
0.0
 11
495.0
 21
473.169708
 31
0.0
  0
LINE
  5
2AD6B
  8
31
 10
493.5
 20
480.803683
 30
0.0
 11
495.0
 21
481.669708
 31
0.0
  0
LINE
  5
2AD6C
  8
31
 10
493.5
 20
505.553683
 30
0.0
 11
495.0
 21
506.419708
 31
0.0
  0
LINE
  5
2AD6D
  8
31
 10
493.5
 20
494.285733
 30
0.0
 11
495.0
 21
493.419708
 31
0.0
  0
LINE
  5
2AD6E
  8
31
 10
493.5
 20
505.553683
 30
0.0
 11
493.5
 21
494.285733
 31
0.0
  0
ARC
  5
2AD6F
  8
31
 10
595.0
 20
528.437011
 30
0.0
 40
1.0
 50
0.0
 51
89.0
  0
LINE
  5
2AD70
  8
31
 10
593.000457
 20
529.472065
 30
0.0
 11
595.017452
 21
529.436858
 31
0.0
  0
LINE
  5
2AD71
  8
31
 10
493.0
 20
513.919708
 30
0.0
 11
495.0
 21
513.884798
 31
0.0
  0
LINE
  5
2AD72
  8
31
 10
493.0
 20
529.919708
 30
0.0
 11
495.0
 21
529.954618
 31
0.0
  0
LINE
  5
2AD73
  8
31
 10
596.0
 20
528.437011
 30
0.0
 11
596.0
 21
439.919708
 31
0.0
  0
LINE
  5
2AD74
  8
31
 10
493.0
 20
529.919708
 30
0.0
 11
493.0
 21
513.919708
 31
0.0
  0
LINE
  5
2AD75
  8
31
 10
495.0
 20
531.638738
 30
0.0
 11
593.0
 21
533.919708
 31
0.0
  0
LINE
  5
2AD76
  8
31
 10
495.0
 20
348.200678
 30
0.0
 11
585.8
 21
346.087289
 31
0.0
  0
LINE
  5
2AD77
  8
31
 10
493.0
 20
349.919708
 30
0.0
 11
493.0
 21
365.919708
 31
0.0
  0
LINE
  5
2AD78
  8
31
 10
596.0
 20
351.402405
 30
0.0
 11
596.0
 21
439.919708
 31
0.0
  0
LINE
  5
2AD79
  8
31
 10
493.0
 20
349.919708
 30
0.0
 11
495.0
 21
349.884798
 31
0.0
  0
LINE
  5
2AD7A
  8
31
 10
493.0
 20
365.919708
 30
0.0
 11
495.0
 21
365.954618
 31
0.0
  0
LINE
  5
2AD7B
  8
31
 10
593.0
 20
350.367343
 30
0.0
 11
595.017452
 21
350.402558
 31
0.0
  0
ARC
  5
2AD7C
  8
31
 10
595.0
 20
351.402405
 30
0.0
 40
1.0
 50
271.0
 51
0.0
  0
LINE
  5
2AD7D
  8
31
 10
493.5
 20
374.285733
 30
0.0
 11
493.5
 21
385.553683
 31
0.0
  0
LINE
  5
2AD7E
  8
31
 10
493.5
 20
385.553683
 30
0.0
 11
495.0
 21
386.419708
 31
0.0
  0
LINE
  5
2AD7F
  8
31
 10
493.5
 20
374.285733
 30
0.0
 11
495.0
 21
373.419708
 31
0.0
  0
LINE
  5
2AD80
  8
31
 10
493.5
 20
399.035733
 30
0.0
 11
495.0
 21
398.169708
 31
0.0
  0
LINE
  5
2AD81
  8
31
 10
493.5
 20
405.803683
 30
0.0
 11
495.0
 21
406.669708
 31
0.0
  0
LINE
  5
2AD82
  8
31
 10
493.5
 20
399.035733
 30
0.0
 11
493.5
 21
405.803683
 31
0.0
  0
LINE
  5
2AD83
  8
31
 10
493.5
 20
424.035733
 30
0.0
 11
493.5
 21
430.803683
 31
0.0
  0
LINE
  5
2AD84
  8
31
 10
493.5
 20
430.803683
 30
0.0
 11
495.0
 21
431.669708
 31
0.0
  0
LINE
  5
2AD85
  8
31
 10
493.5
 20
424.035733
 30
0.0
 11
495.0
 21
423.169708
 31
0.0
  0
ARC
  5
2AE2A
  8
34
 10
595.1
 20
510.617064
 30
0.0
 40
0.9
 50
270.5
 51
0.0
  0
LINE
  5
2AE2B
  8
31
 10
596.0
 20
510.617064
 30
0.0
 11
596.0
 21
510.845587
 31
0.0
  0
LINE
  5
2AE2C
  8
34
 10
498.0
 20
505.895717
 30
0.0
 11
498.0
 21
456.005416
 31
0.0
  0
LINE
  5
2AE2D
  8
34
 10
595.107854
 20
509.717098
 30
0.0
 11
500.97382
 21
508.895603
 31
0.0
  0
LINE
  5
2AE2E
  8
31
 10
495.0
 20
531.638738
 30
0.0
 11
593.0
 21
533.919708
 31
0.0
  0
LINE
  5
2AE2F
  8
31
 10
593.0
 20
533.919708
 30
0.0
 11
593.0
 21
345.919708
 31
0.0
  0
LINE
  5
2AE30
  8
31
 10
493.0
 20
529.919708
 30
0.0
 11
493.0
 21
518.419708
 31
0.0
  0
LINE
  5
2AE31
  8
31
 10
495.0
 20
531.638738
 30
0.0
 11
495.0
 21
529.954618
 31
0.0
  0
LINE
  5
2AE32
  8
31
 10
493.0
 20
529.919708
 30
0.0
 11
495.0
 21
529.954618
 31
0.0
  0
LINE
  5
2AE33
  8
31
 10
493.0
 20
513.919708
 30
0.0
 11
495.0
 21
513.884798
 31
0.0
  0
LINE
  5
2AE34
  8
31
 10
593.000457
 20
529.472065
 30
0.0
 11
595.017452
 21
529.436858
 31
0.0
  0
ARC
  5
2AE35
  8
31
 10
595.0
 20
528.437011
 30
0.0
 40
1.0
 50
0.0
 51
89.0
  0
LINE
  5
2AE36
  8
31
 10
493.5
 20
505.553683
 30
0.0
 11
493.5
 21
494.285733
 31
0.0
  0
LINE
  5
2AE37
  8
31
 10
493.5
 20
494.285733
 30
0.0
 11
495.0
 21
493.419708
 31
0.0
  0
LINE
  5
2AE38
  8
31
 10
493.5
 20
505.553683
 30
0.0
 11
495.0
 21
506.419708
 31
0.0
  0
LINE
  5
2AE39
  8
31
 10
495.0
 20
531.638738
 30
0.0
 11
495.0
 21
455.532203
 31
0.0
  0
ARC
  5
2AE3A
  8
34
 10
501.0
 20
456.005416
 30
0.0
 40
3.0
 50
180.0
 51
197.668179
  0
LINE
  5
2AE3B
  8
31
 10
493.0
 20
518.419708
 30
0.0
 11
493.0
 21
513.919708
 31
0.0
  0
ARC
  5
2AE3C
  8
31
 10
498.0
 20
455.532203
 30
0.0
 40
3.0
 50
180.0
 51
198.194872
  0
LINE
  5
2AE3D
  8
31
 10
495.0
 20
455.532203
 30
0.0
 11
495.0
 21
439.919708
 31
0.0
  0
ARC
  5
2AE3E
  8
34
 10
450.5
 20
439.919708
 30
0.0
 40
47.0
 50
360.0
 51
18.194872
  0
ARC
  5
2AE3F
  8
34
 10
450.5
 20
439.919708
 30
0.0
 40
50.0
 50
360.0
 51
17.668179
  0
LINE
  5
2AE40
  8
34
 10
497.5
 20
439.919708
 30
0.0
 11
500.5
 21
439.919708
 31
0.0
  0
LINE
  5
2AE41
  8
34
 10
596.0
 20
370.114532
 30
0.0
 11
499.982547
 21
370.952464
 31
0.0
  0
LINE
  5
2AE42
  8
34
 10
498.0
 20
372.952388
 30
0.0
 11
498.0
 21
423.834
 31
0.0
  0
ARC
  5
2AE43
  8
34
 10
450.5
 20
439.919708
 30
0.0
 40
50.0
 50
342.331821
 51
0.0
  0
ARC
  5
2AE44
  8
34
 10
450.5
 20
439.919708
 30
0.0
 40
47.0
 50
341.805128
 51
0.0
  0
ARC
  5
2AE45
  8
34
 10
501.0
 20
423.834
 30
0.0
 40
3.0
 50
162.331821
 51
180.0
  0
ARC
  5
2AE46
  8
34
 10
501.0
 20
505.895717
 30
0.0
 40
3.0
 50
90.5
 51
180.0
  0
LINE
  5
2AE47
  8
31
 10
593.0
 20
345.919708
 30
0.0
 11
593.0
 21
350.367343
 31
0.0
  0
ARC
  5
2AE48
  8
34
 10
500.0
 20
372.952388
 30
0.0
 40
2.0
 50
180.0
 51
269.5
  0
LINE
  5
2AE74
  8
11
 10
63.242977
 20
245.242145
 30
0.0
 11
65.349925
 21
154.492145
 31
0.0
  0
LINE
  5
2AE75
  8
11
 10
74.518248
 20
148.842145
 30
0.0
 11
53.518248
 21
148.842145
 31
0.0
  0
LINE
  5
2AE76
  8
11
 10
74.518248
 20
152.202145
 30
0.0
 11
53.518248
 21
152.202145
 31
0.0
  0
LINE
  5
2AE77
  8
11
 10
88.518248
 20
148.842145
 30
0.0
 11
80.518248
 21
148.842145
 31
0.0
  0
LINE
  5
2AE78
  8
11
 10
88.518248
 20
152.202145
 30
0.0
 11
80.518248
 21
152.202145
 31
0.0
  0
LINE
  5
2AE79
  8
11
 10
102.518248
 20
148.842145
 30
0.0
 11
94.518248
 21
148.842145
 31
0.0
  0
LINE
  5
2AE7A
  8
11
 10
102.518248
 20
152.202145
 30
0.0
 11
94.518248
 21
152.202145
 31
0.0
  0
LINE
  5
2AE7B
  8
11
 10
116.518248
 20
148.842145
 30
0.0
 11
108.518248
 21
148.842145
 31
0.0
  0
LINE
  5
2AE7C
  8
11
 10
116.518248
 20
152.202145
 30
0.0
 11
108.518248
 21
152.202145
 31
0.0
  0
LINE
  5
2AE7D
  8
11
 10
74.518248
 20
152.202145
 30
0.0
 11
74.518248
 21
148.842145
 31
0.0
  0
LINE
  5
2AE7E
  8
11
 10
80.518248
 20
152.202145
 30
0.0
 11
80.518248
 21
148.842145
 31
0.0
  0
LINE
  5
2AE7F
  8
11
 10
88.518248
 20
152.202145
 30
0.0
 11
88.518248
 21
148.842145
 31
0.0
  0
LINE
  5
2AE80
  8
11
 10
94.518248
 20
152.202145
 30
0.0
 11
94.518248
 21
148.842145
 31
0.0
  0
LINE
  5
2AE81
  8
11
 10
102.518248
 20
152.202145
 30
0.0
 11
102.518248
 21
148.842145
 31
0.0
  0
LINE
  5
2AE82
  8
11
 10
108.518248
 20
152.202145
 30
0.0
 11
108.518248
 21
148.842145
 31
0.0
  0
LINE
  5
2AE83
  8
11
 10
116.518248
 20
152.202145
 30
0.0
 11
116.518248
 21
148.842145
 31
0.0
  0
LINE
  5
2AE84
  8
11
 10
122.518248
 20
152.202145
 30
0.0
 11
122.518248
 21
148.842145
 31
0.0
  0
LINE
  5
2AE85
  8
11
 10
230.518248
 20
154.492145
 30
0.0
 11
53.518248
 21
154.492145
 31
0.0
  0
LINE
  5
2AE86
  8
11
 10
230.518248
 20
152.202145
 30
0.0
 11
122.518248
 21
152.202145
 31
0.0
  0
LINE
  5
2AE87
  8
11
 10
230.518248
 20
148.842145
 30
0.0
 11
122.518248
 21
148.842145
 31
0.0
  0
LINE
  5
2AE88
  8
11
 10
81.152223
 20
246.742145
 30
0.0
 11
69.884274
 21
246.742145
 31
0.0
  0
LINE
  5
2AE89
  8
11
 10
69.884274
 20
246.742145
 30
0.0
 11
69.018248
 21
245.242145
 31
0.0
  0
LINE
  5
2AE8A
  8
11
 10
81.152223
 20
246.742145
 30
0.0
 11
82.018248
 21
245.242145
 31
0.0
  0
LINE
  5
2AE8B
  8
11
 10
221.402223
 20
246.742145
 30
0.0
 11
222.268248
 21
245.242145
 31
0.0
  0
LINE
  5
2AE8C
  8
11
 10
214.634274
 20
246.742145
 30
0.0
 11
213.768248
 21
245.242145
 31
0.0
  0
LINE
  5
2AE8D
  8
11
 10
221.402223
 20
246.742145
 30
0.0
 11
214.634274
 21
246.742145
 31
0.0
  0
LINE
  5
2AE8E
  8
11
 10
196.402223
 20
246.742145
 30
0.0
 11
197.268248
 21
245.242145
 31
0.0
  0
LINE
  5
2AE8F
  8
11
 10
189.634274
 20
246.742145
 30
0.0
 11
188.768248
 21
245.242145
 31
0.0
  0
LINE
  5
2AE90
  8
11
 10
196.402223
 20
246.742145
 30
0.0
 11
189.634274
 21
246.742145
 31
0.0
  0
LINE
  5
2AE91
  8
11
 10
121.402223
 20
246.742145
 30
0.0
 11
122.268248
 21
245.242145
 31
0.0
  0
LINE
  5
2AE92
  8
11
 10
114.634274
 20
246.742145
 30
0.0
 11
113.768248
 21
245.242145
 31
0.0
  0
LINE
  5
2AE93
  8
11
 10
121.402223
 20
246.742145
 30
0.0
 11
114.634274
 21
246.742145
 31
0.0
  0
LINE
  5
2AE94
  8
11
 10
96.402223
 20
246.742145
 30
0.0
 11
89.634274
 21
246.742145
 31
0.0
  0
LINE
  5
2AE95
  8
11
 10
89.634274
 20
246.742145
 30
0.0
 11
88.768248
 21
245.242145
 31
0.0
  0
LINE
  5
2AE96
  8
11
 10
96.402223
 20
246.742145
 30
0.0
 11
97.268248
 21
245.242145
 31
0.0
  0
LINE
  5
2AE98
  8
11
 10
45.518248
 20
247.242145
 30
0.0
 11
45.483338
 21
245.242145
 31
0.0
  0
LINE
  5
2AE99
  8
11
 10
61.518248
 20
247.242145
 30
0.0
 11
61.553158
 21
245.242145
 31
0.0
  0
LINE
  5
2AE9A
  8
11
 10
230.518248
 20
245.242145
 30
0.0
 11
43.793519
 21
245.242145
 31
0.0
  0
ARC
  5
2AE9B
  8
11
 10
47.000945
 20
145.242145
 30
0.0
 40
1.0
 50
181.0
 51
270.0
  0
LINE
  5
2AE9C
  8
11
 10
45.965883
 20
147.242145
 30
0.0
 11
46.001098
 21
145.224693
 31
0.0
  0
LINE
  5
2AE9D
  8
11
 10
230.518248
 20
144.242145
 30
0.0
 11
67.542004
 21
144.242145
 31
0.0
  0
LINE
  5
2AE9E
  8
11
 10
61.518248
 20
247.242145
 30
0.0
 11
45.518248
 21
247.242145
 31
0.0
  0
LINE
  5
2AE9F
  8
11
 10
43.793519
 20
245.242145
 30
0.0
 11
41.686572
 21
154.492145
 31
0.0
  0
LINE
  5
2AEA0
  8
11
 10
230.518248
 20
147.242145
 30
0.0
 11
53.518248
 21
147.242145
 31
0.0
  0
LINE
  5
2AEA1
  8
13
 10
230.518248
 20
255.242145
 30
0.0
 11
230.518248
 21
134.242145
 31
0.0
  0
LINE
  5
2AF17
  8
11
 10
41.843753
 20
161.262209
 30
0.0
 11
41.686572
 21
154.492145
 31
0.0
  0
LINE
  5
2AF18
  8
11
 10
67.542004
 20
144.242145
 30
0.0
 11
47.000941
 21
144.242145
 31
0.0
  0
LINE
  5
2AF19
  8
11
 10
45.965883
 20
147.242145
 30
0.0
 11
46.001098
 21
145.224693
 31
0.0
  0
ARC
  5
2AF1A
  8
11
 10
47.000945
 20
145.242145
 30
0.0
 40
1.0
 50
181.0
 51
270.0
  0
LINE
  5
2AF1B
  8
11
 10
41.518248
 20
147.242145
 30
0.0
 11
45.965883
 21
147.242145
 31
0.0
  0
LINE
  5
2AF1C
  8
11
 10
41.518248
 20
147.242145
 30
0.0
 11
41.518248
 21
148.879725
 31
0.0
  0
LINE
  5
2AF1D
  8
11
 10
47.000945
 20
144.242145
 30
0.0
 11
47.000945
 21
144.242145
 31
0.0
  0
LINE
  5
2AF1E
  8
11
 10
45.965883
 20
147.242145
 30
0.0
 11
41.518248
 21
147.242145
 31
0.0
  0
LINE
  5
2AF1F
  8
11
 10
41.518248
 20
152.854566
 30
0.0
 11
41.518248
 21
154.492145
 31
0.0
  0
LINE
  5
2AF20
  8
11
 10
41.518248
 20
148.879725
 30
0.0
 11
41.518248
 21
152.854566
 31
0.0
  0
LINE
  5
2AF3D
  8
11
 10
64.634274
 20
246.742145
 30
0.0
 11
63.768248
 21
245.242145
 31
0.0
  0
LINE
  5
2AF3E
  8
11
 10
71.402223
 20
246.742145
 30
0.0
 11
64.634274
 21
246.742145
 31
0.0
  0
LINE
  5
2AF68
  8
31
 10
587.398985
 20
346.050073
 30
0.0
 11
591.359079
 21
345.957901
 31
0.0
  0
LINE
  5
2AF69
  8
31
 10
585.8
 20
357.919708
 30
0.0
 11
585.8
 21
521.919708
 31
0.0
  0
LINE
  5
2AF6A
  8
31
 10
585.8
 20
346.087289
 30
0.0
 11
587.398985
 21
346.050073
 31
0.0
  0
LINE
  5
2AF6B
  8
31
 10
591.359079
 20
345.957901
 30
0.0
 11
593.0
 21
345.919708
 31
0.0
  0
LINE
  5
2AF6C
  8
31
 10
495.0
 20
348.200678
 30
0.0
 11
495.0
 21
355.202573
 31
0.0
  0
LINE
  5
2AF6D
  8
31
 10
495.0
 20
355.202573
 30
0.0
 11
495.0
 21
425.803683
 31
0.0
  0
LINE
  5
2AF6E
  8
31
 10
495.0
 20
425.803683
 30
0.0
 11
495.0
 21
439.919708
 31
0.0
  0
ARC
  5
2AF6F
  8
11
 10
67.542004
 20
146.242145
 30
0.0
 40
2.0
 50
181.33
 51
270.0
  0
LINE
  5
2AF70
  8
11
 10
65.518248
 20
147.242145
 30
0.0
 11
65.542543
 21
146.195724
 31
0.0
  0
LINE
  5
2AF72
  8
61
 10
65.894773
 20
355.919708
 30
0.0
 11
230.518248
 21
355.919708
 31
0.0
  0
LINE
  5
2AF73
  8
61
 10
395.172949
 20
355.919708
 30
0.0
 11
230.518248
 21
355.919708
 31
0.0
  0
LINE
  5
2AF74
  8
61
 10
65.863547
 20
523.919708
 30
0.0
 11
230.518248
 21
523.919708
 31
0.0
  0
LINE
  5
2AF75
  8
61
 10
395.172949
 20
523.919708
 30
0.0
 11
230.518248
 21
523.919708
 31
0.0
  0
LINE
  5
2AF76
  8
34
 10
505.5
 20
400.019708
 30
0.0
 11
505.5
 21
402.419708
 31
0.0
  0
LINE
  5
2AF77
  8
34
 10
505.5
 20
404.819708
 30
0.0
 11
505.5
 21
402.419708
 31
0.0
  0
LINE
  5
2AF79
  8
11
 10
395.518248
 20
147.242145
 30
0.0
 11
395.493953
 21
146.195724
 31
0.0
  0
ARC
  5
2AF7A
  8
11
 10
393.494492
 20
146.242145
 30
0.0
 40
2.0
 50
270.0
 51
358.67
  0
LINE
  5
2AF7B
  8
11
 10
389.634274
 20
246.742145
 30
0.0
 11
396.402223
 21
246.742145
 31
0.0
  0
LINE
  5
2AF7C
  8
11
 10
396.402223
 20
246.742145
 30
0.0
 11
397.268248
 21
245.242145
 31
0.0
  0
LINE
  5
2AF7D
  8
11
 10
419.518248
 20
148.879725
 30
0.0
 11
419.518248
 21
152.854566
 31
0.0
  0
LINE
  5
2AF7E
  8
11
 10
419.518248
 20
152.854566
 30
0.0
 11
419.518248
 21
154.492145
 31
0.0
  0
LINE
  5
2AF7F
  8
11
 10
415.070613
 20
147.242145
 30
0.0
 11
419.518248
 21
147.242145
 31
0.0
  0
LINE
  5
2AF80
  8
11
 10
414.035551
 20
144.242145
 30
0.0
 11
414.035551
 21
144.242145
 31
0.0
  0
LINE
  5
2AF81
  8
11
 10
419.518248
 20
147.242145
 30
0.0
 11
419.518248
 21
148.879725
 31
0.0
  0
LINE
  5
2AF82
  8
11
 10
419.518248
 20
147.242145
 30
0.0
 11
415.070613
 21
147.242145
 31
0.0
  0
ARC
  5
2AF83
  8
11
 10
414.035551
 20
145.242145
 30
0.0
 40
1.0
 50
270.0
 51
359.0
  0
LINE
  5
2AF84
  8
11
 10
415.070613
 20
147.242145
 30
0.0
 11
415.035399
 21
145.224693
 31
0.0
  0
LINE
  5
2AF85
  8
11
 10
393.494492
 20
144.242145
 30
0.0
 11
414.035556
 21
144.242145
 31
0.0
  0
LINE
  5
2AF86
  8
11
 10
419.192744
 20
161.262209
 30
0.0
 11
419.349925
 21
154.492145
 31
0.0
  0
LINE
  5
2AF88
  8
11
 10
230.518248
 20
147.242145
 30
0.0
 11
407.518248
 21
147.242145
 31
0.0
  0
LINE
  5
2AF89
  8
11
 10
417.242977
 20
245.242145
 30
0.0
 11
419.349925
 21
154.492145
 31
0.0
  0
LINE
  5
2AF8A
  8
11
 10
399.518248
 20
247.242145
 30
0.0
 11
415.518248
 21
247.242145
 31
0.0
  0
LINE
  5
2AF8B
  8
11
 10
230.518248
 20
144.242145
 30
0.0
 11
393.494492
 21
144.242145
 31
0.0
  0
LINE
  5
2AF8C
  8
11
 10
415.070613
 20
147.242145
 30
0.0
 11
415.035399
 21
145.224693
 31
0.0
  0
ARC
  5
2AF8D
  8
11
 10
414.035551
 20
145.242145
 30
0.0
 40
1.0
 50
270.0
 51
359.0
  0
LINE
  5
2AF8E
  8
11
 10
230.518248
 20
245.242145
 30
0.0
 11
417.242977
 21
245.242145
 31
0.0
  0
LINE
  5
2AF8F
  8
11
 10
399.518248
 20
247.242145
 30
0.0
 11
399.483338
 21
245.242145
 31
0.0
  0
LINE
  5
2AF90
  8
11
 10
415.518248
 20
247.242145
 30
0.0
 11
415.553158
 21
245.242145
 31
0.0
  0
LINE
  5
2AF92
  8
11
 10
364.634274
 20
246.742145
 30
0.0
 11
363.768248
 21
245.242145
 31
0.0
  0
LINE
  5
2AF93
  8
11
 10
371.402223
 20
246.742145
 30
0.0
 11
372.268248
 21
245.242145
 31
0.0
  0
LINE
  5
2AF94
  8
11
 10
364.634274
 20
246.742145
 30
0.0
 11
371.402223
 21
246.742145
 31
0.0
  0
LINE
  5
2AF95
  8
11
 10
339.634274
 20
246.742145
 30
0.0
 11
346.402223
 21
246.742145
 31
0.0
  0
LINE
  5
2AF96
  8
11
 10
346.402223
 20
246.742145
 30
0.0
 11
347.268248
 21
245.242145
 31
0.0
  0
LINE
  5
2AF97
  8
11
 10
339.634274
 20
246.742145
 30
0.0
 11
338.768248
 21
245.242145
 31
0.0
  0
LINE
  5
2AF98
  8
11
 10
264.634274
 20
246.742145
 30
0.0
 11
271.402223
 21
246.742145
 31
0.0
  0
LINE
  5
2AF99
  8
11
 10
271.402223
 20
246.742145
 30
0.0
 11
272.268248
 21
245.242145
 31
0.0
  0
LINE
  5
2AF9A
  8
11
 10
264.634274
 20
246.742145
 30
0.0
 11
263.768248
 21
245.242145
 31
0.0
  0
LINE
  5
2AF9B
  8
11
 10
239.634274
 20
246.742145
 30
0.0
 11
246.402223
 21
246.742145
 31
0.0
  0
LINE
  5
2AF9C
  8
11
 10
246.402223
 20
246.742145
 30
0.0
 11
247.268248
 21
245.242145
 31
0.0
  0
LINE
  5
2AF9D
  8
11
 10
239.634274
 20
246.742145
 30
0.0
 11
238.768248
 21
245.242145
 31
0.0
  0
LINE
  5
2AF9E
  8
11
 10
379.884274
 20
246.742145
 30
0.0
 11
379.018248
 21
245.242145
 31
0.0
  0
LINE
  5
2AF9F
  8
11
 10
391.152223
 20
246.742145
 30
0.0
 11
392.018248
 21
245.242145
 31
0.0
  0
LINE
  5
2AFA0
  8
11
 10
379.884274
 20
246.742145
 30
0.0
 11
391.152223
 21
246.742145
 31
0.0
  0
LINE
  5
2AFA1
  8
11
 10
230.518248
 20
148.842145
 30
0.0
 11
338.518248
 21
148.842145
 31
0.0
  0
LINE
  5
2AFA2
  8
11
 10
230.518248
 20
152.202145
 30
0.0
 11
338.518248
 21
152.202145
 31
0.0
  0
LINE
  5
2AFA3
  8
11
 10
230.518248
 20
154.492145
 30
0.0
 11
407.518248
 21
154.492145
 31
0.0
  0
LINE
  5
2AFA4
  8
11
 10
338.518248
 20
152.202145
 30
0.0
 11
338.518248
 21
148.842145
 31
0.0
  0
LINE
  5
2AFA5
  8
11
 10
344.518248
 20
152.202145
 30
0.0
 11
344.518248
 21
148.842145
 31
0.0
  0
LINE
  5
2AFA6
  8
11
 10
352.518248
 20
152.202145
 30
0.0
 11
352.518248
 21
148.842145
 31
0.0
  0
LINE
  5
2AFA7
  8
11
 10
358.518248
 20
152.202145
 30
0.0
 11
358.518248
 21
148.842145
 31
0.0
  0
LINE
  5
2AFA8
  8
11
 10
366.518248
 20
152.202145
 30
0.0
 11
366.518248
 21
148.842145
 31
0.0
  0
LINE
  5
2AFA9
  8
11
 10
372.518248
 20
152.202145
 30
0.0
 11
372.518248
 21
148.842145
 31
0.0
  0
LINE
  5
2AFAA
  8
11
 10
380.518248
 20
152.202145
 30
0.0
 11
380.518248
 21
148.842145
 31
0.0
  0
LINE
  5
2AFAB
  8
11
 10
386.518248
 20
152.202145
 30
0.0
 11
386.518248
 21
148.842145
 31
0.0
  0
LINE
  5
2AFAC
  8
11
 10
344.518248
 20
152.202145
 30
0.0
 11
352.518248
 21
152.202145
 31
0.0
  0
LINE
  5
2AFAD
  8
11
 10
344.518248
 20
148.842145
 30
0.0
 11
352.518248
 21
148.842145
 31
0.0
  0
LINE
  5
2AFAE
  8
11
 10
358.518248
 20
152.202145
 30
0.0
 11
366.518248
 21
152.202145
 31
0.0
  0
LINE
  5
2AFAF
  8
11
 10
358.518248
 20
148.842145
 30
0.0
 11
366.518248
 21
148.842145
 31
0.0
  0
LINE
  5
2AFB0
  8
11
 10
372.518248
 20
152.202145
 30
0.0
 11
380.518248
 21
152.202145
 31
0.0
  0
LINE
  5
2AFB1
  8
11
 10
372.518248
 20
148.842145
 30
0.0
 11
380.518248
 21
148.842145
 31
0.0
  0
LINE
  5
2AFB2
  8
11
 10
386.518248
 20
152.202145
 30
0.0
 11
407.518248
 21
152.202145
 31
0.0
  0
LINE
  5
2AFB3
  8
11
 10
386.518248
 20
148.842145
 30
0.0
 11
407.518248
 21
148.842145
 31
0.0
  0
LINE
  5
2AFB4
  8
11
 10
397.793519
 20
245.242145
 30
0.0
 11
395.686572
 21
154.492145
 31
0.0
  0
LINE
  5
2AFB5
  8
14
 10
95.418248
 20
234.892145
 30
0.0
 11
93.018248
 21
234.892145
 31
0.0
  0
LINE
  5
2AFB6
  8
14
 10
90.618248
 20
234.892145
 30
0.0
 11
93.018248
 21
234.892145
 31
0.0
  0
LINE
  5
2AFB7
  8
14
 10
81.623283
 20
241.409598
 30
0.0
 11
81.518248
 21
235.392145
 31
0.0
  0
LINE
  5
2AFB8
  8
14
 10
75.518248
 20
234.892145
 30
0.0
 11
79.568248
 21
234.892145
 31
0.0
  0
LINE
  5
2AFB9
  8
14
 10
75.518248
 20
234.892145
 30
0.0
 11
70.018248
 21
234.892145
 31
0.0
  0
LINE
  5
2AFBA
  8
14
 10
69.413213
 20
241.409598
 30
0.0
 11
69.518248
 21
235.392145
 31
0.0
  0
LINE
  5
2AFBB
  8
14
 10
71.468248
 20
234.892145
 30
0.0
 11
70.018248
 21
234.892145
 31
0.0
  0
LINE
  5
2AFBC
  8
14
 10
79.568248
 20
234.892145
 30
0.0
 11
81.018248
 21
234.892145
 31
0.0
  0
ARC
  5
2AFBD
  8
14
 10
70.018248
 20
235.392145
 30
0.0
 40
0.5
 50
180.0
 51
270.0
  0
ARC
  5
2AFBE
  8
14
 10
81.018248
 20
235.392145
 30
0.0
 40
0.5
 50
270.0
 51
360.0
  0
ARC
  5
2AFBF
  8
14
 10
88.518248
 20
235.392145
 30
0.0
 40
0.5
 50
180.0
 51
270.0
  0
ARC
  5
2AFC0
  8
14
 10
97.518248
 20
235.392145
 30
0.0
 40
0.5
 50
270.0
 51
0.0
  0
LINE
  5
2AFC1
  8
14
 10
98.018248
 20
235.392145
 30
0.0
 11
98.018248
 21
240.392145
 31
0.0
  0
LINE
  5
2AFC2
  8
14
 10
97.518248
 20
234.892145
 30
0.0
 11
95.418248
 21
234.892145
 31
0.0
  0
ARC
  5
2AFC3
  8
14
 10
100.018248
 20
240.392145
 30
0.0
 40
2.0
 50
90.0
 51
180.0
  0
ARC
  5
2AFC4
  8
14
 10
86.018248
 20
240.392145
 30
0.0
 40
2.0
 50
0.0
 51
90.0
  0
LINE
  5
2AFC5
  8
14
 10
88.518248
 20
234.892145
 30
0.0
 11
90.618248
 21
234.892145
 31
0.0
  0
LINE
  5
2AFC6
  8
14
 10
88.018248
 20
235.392145
 30
0.0
 11
88.018248
 21
240.392145
 31
0.0
  0
ARC
  5
2AFC7
  8
14
 10
82.623131
 20
241.392145
 30
0.0
 40
1.0
 50
90.0
 51
179.0
  0
ARC
  5
2AFC8
  8
14
 10
68.413365
 20
241.392145
 30
0.0
 40
1.0
 50
1.0
 51
90.0
  0
LINE
  5
2AFC9
  8
14
 10
65.713072
 20
144.392145
 30
0.0
 11
66.551004
 21
240.409598
 31
0.0
  0
ARC
  5
2AFCA
  8
14
 10
68.550928
 20
240.392145
 30
0.0
 40
2.0
 50
90.0
 51
179.5
  0
LINE
  5
2AFCB
  8
14
 10
68.550928
 20
242.392145
 30
0.0
 11
214.43254
 21
242.392145
 31
0.0
  0
ARC
  5
2AFCC
  8
14
 10
230.518248
 20
289.892145
 30
0.0
 40
50.0
 50
252.331821
 51
270.0
  0
ARC
  5
2AFCD
  8
14
 10
230.518248
 20
289.892145
 30
0.0
 40
47.0
 50
251.805128
 51
270.0
  0
ARC
  5
2AFCE
  8
14
 10
230.518248
 20
289.892145
 30
0.0
 40
47.0
 50
270.0
 51
288.194872
  0
ARC
  5
2AFCF
  8
14
 10
230.518248
 20
289.892145
 30
0.0
 40
50.0
 50
270.0
 51
287.668179
  0
ARC
  5
2AFD0
  8
14
 10
214.43254
 20
239.392145
 30
0.0
 40
3.0
 50
72.331821
 51
90.0
  0
LINE
  5
2AFD1
  8
14
 10
391.494257
 20
242.392145
 30
0.0
 11
246.603956
 21
242.392145
 31
0.0
  0
ARC
  5
2AFD2
  8
14
 10
391.494257
 20
239.392145
 30
0.0
 40
3.0
 50
0.5
 51
90.0
  0
LINE
  5
2AFD3
  8
14
 10
395.315639
 20
145.284291
 30
0.0
 11
394.494143
 21
239.418325
 31
0.0
  0
LINE
  5
2AFD4
  8
11
 10
396.215604
 20
144.392145
 30
0.0
 11
396.444128
 21
144.392145
 31
0.0
  0
ARC
  5
2AFD5
  8
14
 10
396.215604
 20
145.292145
 30
0.0
 40
0.9
 50
180.5
 51
270.0
  0
LINE
  5
2B24D
  8
31
 10
495.0
 20
366.482522
 30
0.0
 11
585.75
 21
368.594747
 31
0.0
  0
LINE
  5
2B24E
  8
31
 10
495.0
 20
513.356894
 30
0.0
 11
585.75
 21
511.244669
 31
0.0
  0
CIRCLE
  5
2B24F
  8
51
 10
-347.427368
 20
364.919708
 30
0.0
 40
4.25
  0
CIRCLE
  5
2B250
  8
51
 10
-347.427368
 20
364.919708
 30
0.0
 40
3.5
  0
CIRCLE
  5
2B251
  8
51
 10
-347.427368
 20
514.919708
 30
0.0
 40
3.5
  0
CIRCLE
  5
2B252
  8
51
 10
-347.427368
 20
514.919708
 30
0.0
 40
4.25
  0
LINE
  5
2B253
  8
51
 10
-198.427368
 20
513.935348
 30
0.0
 11
-198.427368
 21
439.919708
 31
0.0
  0
ARC
  5
2B254
  8
51
 10
-207.927368
 20
521.919708
 30
0.0
 40
12.0
 50
325.228056
 51
90.0
  0
ARC
  5
2B255
  8
51
 10
-207.372796
 20
522.47428
 30
0.0
 40
9.0
 50
28.899817
 51
61.100183
  0
ARC
  5
2B256
  8
51
 10
-207.773695
 20
521.748046
 30
0.0
 40
9.82954
 50
61.100183
 51
127.799623
  0
ARC
  5
2B257
  8
51
 10
-207.927368
 20
521.919708
 30
0.0
 40
12.0
 50
360.0
 51
124.771944
  0
ARC
  5
2B258
  8
51
 10
-199.927368
 20
515.755294
 30
0.0
 40
0.5
 50
144.049432
 51
180.0
  0
CIRCLE
  5
2B259
  8
51
 10
-207.927368
 20
521.919708
 30
0.0
 40
3.5
  0
CIRCLE
  5
2B25A
  8
51
 10
-207.927368
 20
521.919708
 30
0.0
 40
7.5
  0
CIRCLE
  5
2B25B
  8
51
 10
-229.927368
 20
499.919708
 30
0.0
 40
5.75
  0
CIRCLE
  5
2B25C
  8
51
 10
-229.927368
 20
499.919708
 30
0.0
 40
6.5
  0
CIRCLE
  5
2B25D
  8
51
 10
-222.427368
 20
477.419708
 30
0.0
 40
3.5
  0
CIRCLE
  5
2B25E
  8
51
 10
-222.427368
 20
477.419708
 30
0.0
 40
4.25
  0
CIRCLE
  5
2B25F
  8
51
 10
-222.427368
 20
452.419708
 30
0.0
 40
4.25
  0
CIRCLE
  5
2B260
  8
51
 10
-222.427368
 20
452.419708
 30
0.0
 40
3.5
  0
CIRCLE
  5
2B261
  8
51
 10
-297.427368
 20
514.919708
 30
0.0
 40
4.25
  0
CIRCLE
  5
2B262
  8
51
 10
-297.427368
 20
514.919708
 30
0.0
 40
3.5
  0
CIRCLE
  5
2B263
  8
51
 10
-322.427368
 20
514.919708
 30
0.0
 40
3.5
  0
CIRCLE
  5
2B264
  8
51
 10
-322.427368
 20
514.919708
 30
0.0
 40
4.25
  0
LINE
  5
2B265
  8
51
 10
-200.427368
 20
515.755294
 30
0.0
 11
-200.427368
 21
439.919708
 31
0.0
  0
ARC
  5
2B266
  8
51
 10
-208.09903
 20
522.073381
 30
0.0
 40
9.82954
 50
322.200377
 51
28.899817
  0
ARC
  5
2B267
  8
51
 10
-207.927368
 20
357.919708
 30
0.0
 40
12.0
 50
270.0
 51
34.771944
  0
ARC
  5
2B268
  8
51
 10
-208.09903
 20
357.766035
 30
0.0
 40
9.82954
 50
331.100183
 51
37.799623
  0
ARC
  5
2B269
  8
51
 10
-207.372796
 20
357.365136
 30
0.0
 40
9.0
 50
298.899817
 51
331.100183
  0
ARC
  5
2B26A
  8
51
 10
-207.773695
 20
358.09137
 30
0.0
 40
9.82954
 50
232.200377
 51
298.899817
  0
ARC
  5
2B26B
  8
51
 10
-207.927368
 20
357.919708
 30
0.0
 40
12.0
 50
235.228056
 51
0.0
  0
LINE
  5
2B26C
  8
51
 10
-198.427368
 20
365.904068
 30
0.0
 11
-198.427368
 21
439.919708
 31
0.0
  0
LINE
  5
2B26D
  8
51
 10
-200.427368
 20
364.084122
 30
0.0
 11
-200.427368
 21
439.919708
 31
0.0
  0
CIRCLE
  5
2B26E
  8
51
 10
-322.427368
 20
364.919708
 30
0.0
 40
4.25
  0
CIRCLE
  5
2B26F
  8
51
 10
-322.427368
 20
364.919708
 30
0.0
 40
3.5
  0
CIRCLE
  5
2B270
  8
51
 10
-297.427368
 20
364.919708
 30
0.0
 40
3.5
  0
CIRCLE
  5
2B271
  8
51
 10
-297.427368
 20
364.919708
 30
0.0
 40
4.25
  0
CIRCLE
  5
2B272
  8
51
 10
-222.427368
 20
427.419708
 30
0.0
 40
3.5
  0
CIRCLE
  5
2B273
  8
51
 10
-222.427368
 20
427.419708
 30
0.0
 40
4.25
  0
CIRCLE
  5
2B274
  8
51
 10
-222.427368
 20
402.419708
 30
0.0
 40
4.25
  0
CIRCLE
  5
2B275
  8
51
 10
-222.427368
 20
402.419708
 30
0.0
 40
3.5
  0
CIRCLE
  5
2B276
  8
51
 10
-229.927368
 20
379.919708
 30
0.0
 40
6.5
  0
CIRCLE
  5
2B277
  8
51
 10
-229.927368
 20
379.919708
 30
0.0
 40
5.75
  0
CIRCLE
  5
2B278
  8
51
 10
-207.927368
 20
357.919708
 30
0.0
 40
7.5
  0
CIRCLE
  5
2B279
  8
51
 10
-207.927368
 20
357.919708
 30
0.0
 40
3.5
  0
ARC
  5
2B27A
  8
51
 10
-199.927368
 20
364.084122
 30
0.0
 40
0.5
 50
180.0
 51
215.950568
  0
LINE
  5
2B27B
  8
51
 10
-195.927368
 20
357.919708
 30
0.0
 11
-195.927368
 21
439.919708
 31
0.0
  0
ARC
  5
2B27C
  8
51
 10
-207.927368
 20
357.919708
 30
0.0
 40
12.0
 50
270.0
 51
0.0
  0
ARC
  5
2B27D
  8
51
 10
-207.927368
 20
521.919708
 30
0.0
 40
12.0
 50
360.0
 51
90.0
  0
LINE
  5
2B27E
  8
51
 10
-195.927368
 20
521.919708
 30
0.0
 11
-195.927368
 21
439.919708
 31
0.0
  0
LINE
  5
2B27F
  8
52
 10
-214.296924
 20
347.825927
 30
0.0
 11
-214.296924
 21
347.825927
 31
0.0
  0
LINE
  5
2B280
  8
53
  6
DASHDOT
 10
-306.339834
 20
439.919708
 30
0.0
 11
-308.40912
 21
439.919708
 31
0.0
  0
CIRCLE
  5
2B281
  8
51
 10
-372.427368
 20
364.919708
 30
0.0
 40
3.5
  0
CIRCLE
  5
2B282
  8
51
 10
-372.427368
 20
364.919708
 30
0.0
 40
4.25
  0
LINE
  5
2B283
  8
51
 10
-215.911728
 20
348.419708
 30
0.0
 11
-384.927368
 21
348.419708
 31
0.0
  0
LINE
  5
2B284
  8
51
 10
-214.091782
 20
350.419708
 30
0.0
 11
-384.927368
 21
350.419708
 31
0.0
  0
LINE
  5
2B285
  8
51
 10
-207.927368
 20
345.919708
 30
0.0
 11
-384.927368
 21
345.919708
 31
0.0
  0
CIRCLE
  5
2B286
  8
51
 10
-372.427368
 20
514.919708
 30
0.0
 40
4.25
  0
CIRCLE
  5
2B287
  8
51
 10
-372.427368
 20
514.919708
 30
0.0
 40
3.5
  0
LINE
  5
2B288
  8
51
 10
-214.091782
 20
529.419708
 30
0.0
 11
-384.927368
 21
529.419708
 31
0.0
  0
LINE
  5
2B289
  8
51
 10
-215.911728
 20
531.419708
 30
0.0
 11
-384.927368
 21
531.419708
 31
0.0
  0
LINE
  5
2B28A
  8
51
 10
-207.927368
 20
533.919708
 30
0.0
 11
-384.927368
 21
533.919708
 31
0.0
  0
ARC
  5
2B28B
  8
24
 10
396.215604
 20
734.547271
 30
0.0
 40
0.9
 50
90.0
 51
179.5
  0
LINE
  5
2B28C
  8
21
 10
396.215604
 20
735.447271
 30
0.0
 11
396.444128
 21
735.447271
 31
0.0
  0
LINE
  5
2B28D
  8
24
 10
395.315639
 20
734.555125
 30
0.0
 11
394.494143
 21
640.421091
 31
0.0
  0
ARC
  5
2B28E
  8
24
 10
391.494257
 20
640.447271
 30
0.0
 40
3.0
 50
270.0
 51
359.5
  0
LINE
  5
2B28F
  8
24
 10
391.494257
 20
637.447271
 30
0.0
 11
246.603956
 21
637.447271
 31
0.0
  0
ARC
  5
2B290
  8
24
 10
214.43254
 20
640.447271
 30
0.0
 40
3.0
 50
270.0
 51
287.668179
  0
ARC
  5
2B291
  8
24
 10
230.518248
 20
589.947271
 30
0.0
 40
50.0
 50
72.331821
 51
90.0
  0
ARC
  5
2B292
  8
24
 10
230.518248
 20
589.947271
 30
0.0
 40
47.0
 50
71.805128
 51
90.0
  0
ARC
  5
2B293
  8
24
 10
230.518248
 20
589.947271
 30
0.0
 40
47.0
 50
90.0
 51
108.194872
  0
ARC
  5
2B294
  8
24
 10
230.518248
 20
589.947271
 30
0.0
 40
50.0
 50
90.0
 51
107.668179
  0
LINE
  5
2B295
  8
24
 10
68.550928
 20
637.447271
 30
0.0
 11
214.43254
 21
637.447271
 31
0.0
  0
ARC
  5
2B296
  8
24
 10
68.550928
 20
639.447271
 30
0.0
 40
2.0
 50
180.5
 51
270.0
  0
LINE
  5
2B297
  8
24
 10
65.713072
 20
735.447271
 30
0.0
 11
66.551004
 21
639.429818
 31
0.0
  0
ARC
  5
2B298
  8
24
 10
68.413365
 20
638.447271
 30
0.0
 40
1.0
 50
270.0
 51
359.0
  0
ARC
  5
2B299
  8
24
 10
82.623131
 20
638.447271
 30
0.0
 40
1.0
 50
181.0
 51
270.0
  0
LINE
  5
2B29A
  8
24
 10
88.018248
 20
644.447271
 30
0.0
 11
88.018248
 21
639.447271
 31
0.0
  0
LINE
  5
2B29B
  8
24
 10
88.518248
 20
644.947271
 30
0.0
 11
90.618248
 21
644.947271
 31
0.0
  0
ARC
  5
2B29C
  8
24
 10
86.018248
 20
639.447271
 30
0.0
 40
2.0
 50
270.0
 51
0.0
  0
ARC
  5
2B29D
  8
24
 10
100.018248
 20
639.447271
 30
0.0
 40
2.0
 50
180.0
 51
270.0
  0
LINE
  5
2B29E
  8
24
 10
97.518248
 20
644.947271
 30
0.0
 11
95.418248
 21
644.947271
 31
0.0
  0
LINE
  5
2B29F
  8
24
 10
98.018248
 20
644.447271
 30
0.0
 11
98.018248
 21
639.447271
 31
0.0
  0
ARC
  5
2B2A0
  8
24
 10
97.518248
 20
644.447271
 30
0.0
 40
0.5
 50
0.0
 51
90.0
  0
ARC
  5
2B2A1
  8
24
 10
88.518248
 20
644.447271
 30
0.0
 40
0.5
 50
90.0
 51
180.0
  0
ARC
  5
2B2A2
  8
24
 10
81.018248
 20
644.447271
 30
0.0
 40
0.5
 50
0.0
 51
90.0
  0
ARC
  5
2B2A3
  8
24
 10
70.018248
 20
644.447271
 30
0.0
 40
0.5
 50
90.0
 51
180.0
  0
LINE
  5
2B2A4
  8
24
 10
79.568248
 20
644.947271
 30
0.0
 11
81.018248
 21
644.947271
 31
0.0
  0
LINE
  5
2B2A5
  8
24
 10
71.468248
 20
644.947271
 30
0.0
 11
70.018248
 21
644.947271
 31
0.0
  0
LINE
  5
2B2A6
  8
24
 10
69.413213
 20
638.429818
 30
0.0
 11
69.518248
 21
644.447271
 31
0.0
  0
LINE
  5
2B2A7
  8
24
 10
75.518248
 20
644.947271
 30
0.0
 11
70.018248
 21
644.947271
 31
0.0
  0
LINE
  5
2B2A8
  8
24
 10
75.518248
 20
644.947271
 30
0.0
 11
79.568248
 21
644.947271
 31
0.0
  0
LINE
  5
2B2A9
  8
24
 10
81.623283
 20
638.429818
 30
0.0
 11
81.518248
 21
644.447271
 31
0.0
  0
LINE
  5
2B2AA
  8
24
 10
90.618248
 20
644.947271
 30
0.0
 11
93.018248
 21
644.947271
 31
0.0
  0
LINE
  5
2B2AB
  8
24
 10
95.418248
 20
644.947271
 30
0.0
 11
93.018248
 21
644.947271
 31
0.0
  0
LINE
  5
2B2AC
  8
21
 10
397.793519
 20
634.597271
 30
0.0
 11
395.686572
 21
725.347271
 31
0.0
  0
LINE
  5
2B2AD
  8
21
 10
386.518248
 20
730.997271
 30
0.0
 11
407.518248
 21
730.997271
 31
0.0
  0
LINE
  5
2B2AE
  8
21
 10
386.518248
 20
727.637271
 30
0.0
 11
407.518248
 21
727.637271
 31
0.0
  0
LINE
  5
2B2AF
  8
21
 10
372.518248
 20
730.997271
 30
0.0
 11
380.518248
 21
730.997271
 31
0.0
  0
LINE
  5
2B2B0
  8
21
 10
372.518248
 20
727.637271
 30
0.0
 11
380.518248
 21
727.637271
 31
0.0
  0
LINE
  5
2B2B1
  8
21
 10
358.518248
 20
730.997271
 30
0.0
 11
366.518248
 21
730.997271
 31
0.0
  0
LINE
  5
2B2B2
  8
21
 10
358.518248
 20
727.637271
 30
0.0
 11
366.518248
 21
727.637271
 31
0.0
  0
LINE
  5
2B2B3
  8
21
 10
344.518248
 20
730.997271
 30
0.0
 11
352.518248
 21
730.997271
 31
0.0
  0
LINE
  5
2B2B4
  8
21
 10
344.518248
 20
727.637271
 30
0.0
 11
352.518248
 21
727.637271
 31
0.0
  0
LINE
  5
2B2B5
  8
21
 10
386.518248
 20
727.637271
 30
0.0
 11
386.518248
 21
730.997271
 31
0.0
  0
LINE
  5
2B2B6
  8
21
 10
380.518248
 20
727.637271
 30
0.0
 11
380.518248
 21
730.997271
 31
0.0
  0
LINE
  5
2B2B7
  8
21
 10
372.518248
 20
727.637271
 30
0.0
 11
372.518248
 21
730.997271
 31
0.0
  0
LINE
  5
2B2B8
  8
21
 10
366.518248
 20
727.637271
 30
0.0
 11
366.518248
 21
730.997271
 31
0.0
  0
LINE
  5
2B2B9
  8
21
 10
358.518248
 20
727.637271
 30
0.0
 11
358.518248
 21
730.997271
 31
0.0
  0
LINE
  5
2B2BA
  8
21
 10
352.518248
 20
727.637271
 30
0.0
 11
352.518248
 21
730.997271
 31
0.0
  0
LINE
  5
2B2BB
  8
21
 10
344.518248
 20
727.637271
 30
0.0
 11
344.518248
 21
730.997271
 31
0.0
  0
LINE
  5
2B2BC
  8
21
 10
338.518248
 20
727.637271
 30
0.0
 11
338.518248
 21
730.997271
 31
0.0
  0
LINE
  5
2B2BD
  8
21
 10
230.518248
 20
725.347271
 30
0.0
 11
407.518248
 21
725.347271
 31
0.0
  0
LINE
  5
2B2BE
  8
21
 10
230.518248
 20
727.637271
 30
0.0
 11
338.518248
 21
727.637271
 31
0.0
  0
LINE
  5
2B2BF
  8
21
 10
230.518248
 20
730.997271
 30
0.0
 11
338.518248
 21
730.997271
 31
0.0
  0
LINE
  5
2B2C0
  8
21
 10
379.884274
 20
633.097271
 30
0.0
 11
391.152223
 21
633.097271
 31
0.0
  0
LINE
  5
2B2C1
  8
21
 10
391.152223
 20
633.097271
 30
0.0
 11
392.018248
 21
634.597271
 31
0.0
  0
LINE
  5
2B2C2
  8
21
 10
379.884274
 20
633.097271
 30
0.0
 11
379.018248
 21
634.597271
 31
0.0
  0
LINE
  5
2B2C3
  8
21
 10
239.634274
 20
633.097271
 30
0.0
 11
238.768248
 21
634.597271
 31
0.0
  0
LINE
  5
2B2C4
  8
21
 10
246.402223
 20
633.097271
 30
0.0
 11
247.268248
 21
634.597271
 31
0.0
  0
LINE
  5
2B2C5
  8
21
 10
239.634274
 20
633.097271
 30
0.0
 11
246.402223
 21
633.097271
 31
0.0
  0
LINE
  5
2B2C6
  8
21
 10
314.634274
 20
633.097271
 30
0.0
 11
313.768248
 21
634.597271
 31
0.0
  0
LINE
  5
2B2C7
  8
21
 10
321.402223
 20
633.097271
 30
0.0
 11
322.268248
 21
634.597271
 31
0.0
  0
LINE
  5
2B2C8
  8
21
 10
314.634274
 20
633.097271
 30
0.0
 11
321.402223
 21
633.097271
 31
0.0
  0
LINE
  5
2B2C9
  8
21
 10
339.634274
 20
633.097271
 30
0.0
 11
338.768248
 21
634.597271
 31
0.0
  0
LINE
  5
2B2CA
  8
21
 10
346.402223
 20
633.097271
 30
0.0
 11
347.268248
 21
634.597271
 31
0.0
  0
LINE
  5
2B2CB
  8
21
 10
339.634274
 20
633.097271
 30
0.0
 11
346.402223
 21
633.097271
 31
0.0
  0
LINE
  5
2B2CC
  8
21
 10
364.634274
 20
633.097271
 30
0.0
 11
371.402223
 21
633.097271
 31
0.0
  0
LINE
  5
2B2CD
  8
21
 10
371.402223
 20
633.097271
 30
0.0
 11
372.268248
 21
634.597271
 31
0.0
  0
LINE
  5
2B2CE
  8
21
 10
364.634274
 20
633.097271
 30
0.0
 11
363.768248
 21
634.597271
 31
0.0
  0
LINE
  5
2B2D0
  8
21
 10
415.518248
 20
632.597271
 30
0.0
 11
415.553158
 21
634.597271
 31
0.0
  0
LINE
  5
2B2D1
  8
21
 10
399.518248
 20
632.597271
 30
0.0
 11
399.483338
 21
634.597271
 31
0.0
  0
LINE
  5
2B2D2
  8
21
 10
230.518248
 20
634.597271
 30
0.0
 11
417.242977
 21
634.597271
 31
0.0
  0
ARC
  5
2B2D3
  8
21
 10
414.035551
 20
734.597271
 30
0.0
 40
1.0
 50
1.0
 51
90.0
  0
LINE
  5
2B2D4
  8
21
 10
415.070613
 20
732.597271
 30
0.0
 11
415.035399
 21
734.614723
 31
0.0
  0
LINE
  5
2B2D5
  8
21
 10
230.518248
 20
735.597271
 30
0.0
 11
393.494492
 21
735.597271
 31
0.0
  0
LINE
  5
2B2D6
  8
21
 10
399.518248
 20
632.597271
 30
0.0
 11
415.518248
 21
632.597271
 31
0.0
  0
LINE
  5
2B2D7
  8
21
 10
417.242977
 20
634.597271
 30
0.0
 11
419.349925
 21
725.347271
 31
0.0
  0
LINE
  5
2B2D8
  8
21
 10
230.518248
 20
732.597271
 30
0.0
 11
407.518248
 21
732.597271
 31
0.0
  0
LINE
  5
2B2D9
  8
23
 10
230.518248
 20
624.597271
 30
0.0
 11
230.518248
 21
745.597271
 31
0.0
  0
LINE
  5
2B2DA
  8
21
 10
419.192744
 20
718.577207
 30
0.0
 11
419.349925
 21
725.347271
 31
0.0
  0
LINE
  5
2B2DB
  8
21
 10
393.494492
 20
735.597271
 30
0.0
 11
414.035556
 21
735.597271
 31
0.0
  0
LINE
  5
2B2DC
  8
21
 10
415.070613
 20
732.597271
 30
0.0
 11
415.035399
 21
734.614723
 31
0.0
  0
ARC
  5
2B2DD
  8
21
 10
414.035551
 20
734.597271
 30
0.0
 40
1.0
 50
1.0
 51
90.0
  0
LINE
  5
2B2DE
  8
21
 10
419.518248
 20
732.597271
 30
0.0
 11
415.070613
 21
732.597271
 31
0.0
  0
LINE
  5
2B2DF
  8
21
 10
419.518248
 20
732.597271
 30
0.0
 11
419.518248
 21
730.959691
 31
0.0
  0
LINE
  5
2B2E0
  8
21
 10
414.035551
 20
735.597271
 30
0.0
 11
414.035551
 21
735.597271
 31
0.0
  0
LINE
  5
2B2E1
  8
21
 10
415.070613
 20
732.597271
 30
0.0
 11
419.518248
 21
732.597271
 31
0.0
  0
LINE
  5
2B2E2
  8
21
 10
419.518248
 20
726.98485
 30
0.0
 11
419.518248
 21
725.347271
 31
0.0
  0
LINE
  5
2B2E3
  8
21
 10
419.518248
 20
730.959691
 30
0.0
 11
419.518248
 21
726.98485
 31
0.0
  0
LINE
  5
2B2E4
  8
21
 10
396.402223
 20
633.097271
 30
0.0
 11
397.268248
 21
634.597271
 31
0.0
  0
LINE
  5
2B2E5
  8
21
 10
389.634274
 20
633.097271
 30
0.0
 11
396.402223
 21
633.097271
 31
0.0
  0
ARC
  5
2B2E6
  8
21
 10
393.494492
 20
733.597271
 30
0.0
 40
2.0
 50
1.33
 51
90.0
  0
LINE
  5
2B2E7
  8
21
 10
395.518248
 20
732.597271
 30
0.0
 11
395.493953
 21
733.643692
 31
0.0
  0
LINE
  5
2B2EA
  8
21
 10
65.518248
 20
732.597271
 30
0.0
 11
65.542543
 21
733.643692
 31
0.0
  0
ARC
  5
2B2EB
  8
21
 10
67.542004
 20
733.597271
 30
0.0
 40
2.0
 50
90.0
 51
178.67
  0
LINE
  5
2B2EC
  8
21
 10
71.402223
 20
633.097271
 30
0.0
 11
64.634274
 21
633.097271
 31
0.0
  0
LINE
  5
2B2ED
  8
21
 10
64.634274
 20
633.097271
 30
0.0
 11
63.768248
 21
634.597271
 31
0.0
  0
LINE
  5
2B2EE
  8
21
 10
41.518248
 20
730.959691
 30
0.0
 11
41.518248
 21
726.98485
 31
0.0
  0
LINE
  5
2B2EF
  8
21
 10
41.518248
 20
726.98485
 30
0.0
 11
41.518248
 21
725.347271
 31
0.0
  0
LINE
  5
2B2F0
  8
21
 10
45.965883
 20
732.597271
 30
0.0
 11
41.518248
 21
732.597271
 31
0.0
  0
LINE
  5
2B2F1
  8
21
 10
47.000945
 20
735.597271
 30
0.0
 11
47.000945
 21
735.597271
 31
0.0
  0
LINE
  5
2B2F2
  8
21
 10
41.518248
 20
732.597271
 30
0.0
 11
41.518248
 21
730.959691
 31
0.0
  0
LINE
  5
2B2F3
  8
21
 10
41.518248
 20
732.597271
 30
0.0
 11
45.965883
 21
732.597271
 31
0.0
  0
ARC
  5
2B2F4
  8
21
 10
47.000945
 20
734.597271
 30
0.0
 40
1.0
 50
90.0
 51
179.0
  0
LINE
  5
2B2F5
  8
21
 10
45.965883
 20
732.597271
 30
0.0
 11
46.001098
 21
734.614723
 31
0.0
  0
LINE
  5
2B2F6
  8
21
 10
67.542004
 20
735.597271
 30
0.0
 11
47.000941
 21
735.597271
 31
0.0
  0
LINE
  5
2B2F7
  8
21
 10
41.843753
 20
718.577207
 30
0.0
 11
41.686572
 21
725.347271
 31
0.0
  0
LINE
  5
2B2F9
  8
21
 10
230.518248
 20
732.597271
 30
0.0
 11
53.518248
 21
732.597271
 31
0.0
  0
LINE
  5
2B2FA
  8
21
 10
43.793519
 20
634.597271
 30
0.0
 11
41.686572
 21
725.347271
 31
0.0
  0
LINE
  5
2B2FB
  8
21
 10
61.518248
 20
632.597271
 30
0.0
 11
45.518248
 21
632.597271
 31
0.0
  0
LINE
  5
2B2FC
  8
21
 10
230.518248
 20
735.597271
 30
0.0
 11
67.542004
 21
735.597271
 31
0.0
  0
LINE
  5
2B2FD
  8
21
 10
45.965883
 20
732.597271
 30
0.0
 11
46.001098
 21
734.614723
 31
0.0
  0
ARC
  5
2B2FE
  8
21
 10
47.000945
 20
734.597271
 30
0.0
 40
1.0
 50
90.0
 51
179.0
  0
LINE
  5
2B2FF
  8
21
 10
230.518248
 20
634.597271
 30
0.0
 11
43.793519
 21
634.597271
 31
0.0
  0
LINE
  5
2B300
  8
21
 10
61.518248
 20
632.597271
 30
0.0
 11
61.553158
 21
634.597271
 31
0.0
  0
LINE
  5
2B301
  8
21
 10
45.518248
 20
632.597271
 30
0.0
 11
45.483338
 21
634.597271
 31
0.0
  0
LINE
  5
2B303
  8
21
 10
96.402223
 20
633.097271
 30
0.0
 11
97.268248
 21
634.597271
 31
0.0
  0
LINE
  5
2B304
  8
21
 10
89.634274
 20
633.097271
 30
0.0
 11
88.768248
 21
634.597271
 31
0.0
  0
LINE
  5
2B305
  8
21
 10
96.402223
 20
633.097271
 30
0.0
 11
89.634274
 21
633.097271
 31
0.0
  0
LINE
  5
2B306
  8
21
 10
121.402223
 20
633.097271
 30
0.0
 11
114.634274
 21
633.097271
 31
0.0
  0
LINE
  5
2B307
  8
21
 10
114.634274
 20
633.097271
 30
0.0
 11
113.768248
 21
634.597271
 31
0.0
  0
LINE
  5
2B308
  8
21
 10
121.402223
 20
633.097271
 30
0.0
 11
122.268248
 21
634.597271
 31
0.0
  0
LINE
  5
2B309
  8
21
 10
196.402223
 20
633.097271
 30
0.0
 11
189.634274
 21
633.097271
 31
0.0
  0
LINE
  5
2B30A
  8
21
 10
189.634274
 20
633.097271
 30
0.0
 11
188.768248
 21
634.597271
 31
0.0
  0
LINE
  5
2B30B
  8
21
 10
196.402223
 20
633.097271
 30
0.0
 11
197.268248
 21
634.597271
 31
0.0
  0
LINE
  5
2B30C
  8
21
 10
221.402223
 20
633.097271
 30
0.0
 11
214.634274
 21
633.097271
 31
0.0
  0
LINE
  5
2B30D
  8
21
 10
214.634274
 20
633.097271
 30
0.0
 11
213.768248
 21
634.597271
 31
0.0
  0
LINE
  5
2B30E
  8
21
 10
221.402223
 20
633.097271
 30
0.0
 11
222.268248
 21
634.597271
 31
0.0
  0
LINE
  5
2B30F
  8
21
 10
81.152223
 20
633.097271
 30
0.0
 11
82.018248
 21
634.597271
 31
0.0
  0
LINE
  5
2B310
  8
21
 10
69.884274
 20
633.097271
 30
0.0
 11
69.018248
 21
634.597271
 31
0.0
  0
LINE
  5
2B311
  8
21
 10
81.152223
 20
633.097271
 30
0.0
 11
69.884274
 21
633.097271
 31
0.0
  0
LINE
  5
2B312
  8
21
 10
230.518248
 20
730.997271
 30
0.0
 11
122.518248
 21
730.997271
 31
0.0
  0
LINE
  5
2B313
  8
21
 10
230.518248
 20
727.637271
 30
0.0
 11
122.518248
 21
727.637271
 31
0.0
  0
LINE
  5
2B314
  8
21
 10
230.518248
 20
725.347271
 30
0.0
 11
53.518248
 21
725.347271
 31
0.0
  0
LINE
  5
2B315
  8
21
 10
122.518248
 20
727.637271
 30
0.0
 11
122.518248
 21
730.997271
 31
0.0
  0
LINE
  5
2B316
  8
21
 10
116.518248
 20
727.637271
 30
0.0
 11
116.518248
 21
730.997271
 31
0.0
  0
LINE
  5
2B317
  8
21
 10
108.518248
 20
727.637271
 30
0.0
 11
108.518248
 21
730.997271
 31
0.0
  0
LINE
  5
2B318
  8
21
 10
102.518248
 20
727.637271
 30
0.0
 11
102.518248
 21
730.997271
 31
0.0
  0
LINE
  5
2B319
  8
21
 10
94.518248
 20
727.637271
 30
0.0
 11
94.518248
 21
730.997271
 31
0.0
  0
LINE
  5
2B31A
  8
21
 10
88.518248
 20
727.637271
 30
0.0
 11
88.518248
 21
730.997271
 31
0.0
  0
LINE
  5
2B31B
  8
21
 10
80.518248
 20
727.637271
 30
0.0
 11
80.518248
 21
730.997271
 31
0.0
  0
LINE
  5
2B31C
  8
21
 10
74.518248
 20
727.637271
 30
0.0
 11
74.518248
 21
730.997271
 31
0.0
  0
LINE
  5
2B31D
  8
21
 10
116.518248
 20
727.637271
 30
0.0
 11
108.518248
 21
727.637271
 31
0.0
  0
LINE
  5
2B31E
  8
21
 10
116.518248
 20
730.997271
 30
0.0
 11
108.518248
 21
730.997271
 31
0.0
  0
LINE
  5
2B31F
  8
21
 10
102.518248
 20
727.637271
 30
0.0
 11
94.518248
 21
727.637271
 31
0.0
  0
LINE
  5
2B320
  8
21
 10
102.518248
 20
730.997271
 30
0.0
 11
94.518248
 21
730.997271
 31
0.0
  0
LINE
  5
2B321
  8
21
 10
88.518248
 20
727.637271
 30
0.0
 11
80.518248
 21
727.637271
 31
0.0
  0
LINE
  5
2B322
  8
21
 10
88.518248
 20
730.997271
 30
0.0
 11
80.518248
 21
730.997271
 31
0.0
  0
LINE
  5
2B323
  8
21
 10
74.518248
 20
727.637271
 30
0.0
 11
53.518248
 21
727.637271
 31
0.0
  0
LINE
  5
2B324
  8
21
 10
74.518248
 20
730.997271
 30
0.0
 11
53.518248
 21
730.997271
 31
0.0
  0
LINE
  5
2B325
  8
21
 10
63.242977
 20
634.597271
 30
0.0
 11
65.349925
 21
725.347271
 31
0.0
  0
LINE
  5
2B326
  8
41
 10
-33.963504
 20
513.356894
 30
0.0
 11
-124.713504
 21
511.244669
 31
0.0
  0
LINE
  5
2B327
  8
41
 10
-33.963504
 20
366.482522
 30
0.0
 11
-124.713504
 21
368.594747
 31
0.0
  0
LINE
  5
2B328
  8
44
 10
-44.463504
 20
404.819708
 30
0.0
 11
-44.463504
 21
402.419708
 31
0.0
  0
LINE
  5
2B329
  8
44
 10
-44.463504
 20
400.019708
 30
0.0
 11
-44.463504
 21
402.419708
 31
0.0
  0
LINE
  5
2B32A
  8
41
 10
-33.963504
 20
425.803683
 30
0.0
 11
-33.963504
 21
439.919708
 31
0.0
  0
LINE
  5
2B32B
  8
41
 10
-33.963504
 20
355.202573
 30
0.0
 11
-33.963504
 21
425.803683
 31
0.0
  0
LINE
  5
2B32C
  8
41
 10
-33.963504
 20
348.200678
 30
0.0
 11
-33.963504
 21
355.202573
 31
0.0
  0
LINE
  5
2B32D
  8
41
 10
-130.322583
 20
345.957901
 30
0.0
 11
-131.963504
 21
345.919708
 31
0.0
  0
LINE
  5
2B32E
  8
41
 10
-124.763504
 20
346.087289
 30
0.0
 11
-126.362488
 21
346.050073
 31
0.0
  0
LINE
  5
2B32F
  8
41
 10
-124.763504
 20
357.919708
 30
0.0
 11
-124.763504
 21
521.919708
 31
0.0
  0
LINE
  5
2B330
  8
41
 10
-126.362488
 20
346.050073
 30
0.0
 11
-130.322583
 21
345.957901
 31
0.0
  0
ARC
  5
2B331
  8
44
 10
-38.963504
 20
372.952388
 30
0.0
 40
2.0
 50
270.5
 51
360.0
  0
LINE
  5
2B332
  8
41
 10
-131.963504
 20
345.919708
 30
0.0
 11
-131.963504
 21
350.367343
 31
0.0
  0
ARC
  5
2B333
  8
44
 10
-39.963504
 20
505.895717
 30
0.0
 40
3.0
 50
0.0
 51
89.5
  0
ARC
  5
2B334
  8
44
 10
-39.963504
 20
423.834
 30
0.0
 40
3.0
 50
0.0
 51
17.668179
  0
ARC
  5
2B335
  8
44
 10
10.536496
 20
439.919708
 30
0.0
 40
47.0
 50
180.0
 51
198.194872
  0
ARC
  5
2B336
  8
44
 10
10.536496
 20
439.919708
 30
0.0
 40
50.0
 50
180.0
 51
197.668179
  0
LINE
  5
2B337
  8
44
 10
-36.963504
 20
372.952388
 30
0.0
 11
-36.963504
 21
423.834
 31
0.0
  0
LINE
  5
2B338
  8
44
 10
-134.963504
 20
370.114532
 30
0.0
 11
-38.946051
 21
370.952464
 31
0.0
  0
LINE
  5
2B339
  8
44
 10
-36.463504
 20
439.919708
 30
0.0
 11
-39.463504
 21
439.919708
 31
0.0
  0
ARC
  5
2B33A
  8
44
 10
10.536496
 20
439.919708
 30
0.0
 40
50.0
 50
162.331821
 51
180.0
  0
ARC
  5
2B33B
  8
44
 10
10.536496
 20
439.919708
 30
0.0
 40
47.0
 50
161.805128
 51
180.0
  0
LINE
  5
2B33C
  8
41
 10
-33.963504
 20
455.532203
 30
0.0
 11
-33.963504
 21
439.919708
 31
0.0
  0
ARC
  5
2B33D
  8
41
 10
-36.963504
 20
455.532203
 30
0.0
 40
3.0
 50
341.805128
 51
0.0
  0
LINE
  5
2B33E
  8
41
 10
-31.963504
 20
518.419708
 30
0.0
 11
-31.963504
 21
513.919708
 31
0.0
  0
ARC
  5
2B33F
  8
44
 10
-39.963504
 20
456.005416
 30
0.0
 40
3.0
 50
342.331821
 51
0.0
  0
LINE
  5
2B340
  8
41
 10
-33.963504
 20
531.638738
 30
0.0
 11
-33.963504
 21
455.532203
 31
0.0
  0
LINE
  5
2B341
  8
41
 10
-32.463504
 20
505.553683
 30
0.0
 11
-33.963504
 21
506.419708
 31
0.0
  0
LINE
  5
2B342
  8
41
 10
-32.463504
 20
494.285733
 30
0.0
 11
-33.963504
 21
493.419708
 31
0.0
  0
LINE
  5
2B343
  8
41
 10
-32.463504
 20
505.553683
 30
0.0
 11
-32.463504
 21
494.285733
 31
0.0
  0
ARC
  5
2B344
  8
41
 10
-133.963504
 20
528.437011
 30
0.0
 40
1.0
 50
91.0
 51
180.0
  0
LINE
  5
2B345
  8
41
 10
-131.963961
 20
529.472065
 30
0.0
 11
-133.980956
 21
529.436858
 31
0.0
  0
LINE
  5
2B346
  8
41
 10
-31.963504
 20
513.919708
 30
0.0
 11
-33.963504
 21
513.884798
 31
0.0
  0
LINE
  5
2B347
  8
41
 10
-31.963504
 20
529.919708
 30
0.0
 11
-33.963504
 21
529.954618
 31
0.0
  0
LINE
  5
2B348
  8
41
 10
-33.963504
 20
531.638738
 30
0.0
 11
-33.963504
 21
529.954618
 31
0.0
  0
LINE
  5
2B349
  8
41
 10
-31.963504
 20
529.919708
 30
0.0
 11
-31.963504
 21
518.419708
 31
0.0
  0
LINE
  5
2B34A
  8
41
 10
-131.963504
 20
533.919708
 30
0.0
 11
-131.963504
 21
345.919708
 31
0.0
  0
LINE
  5
2B34B
  8
41
 10
-33.963504
 20
531.638738
 30
0.0
 11
-131.963504
 21
533.919708
 31
0.0
  0
LINE
  5
2B34C
  8
44
 10
-134.071358
 20
509.717098
 30
0.0
 11
-39.937324
 21
508.895603
 31
0.0
  0
LINE
  5
2B34D
  8
44
 10
-36.963504
 20
505.895717
 30
0.0
 11
-36.963504
 21
456.005416
 31
0.0
  0
LINE
  5
2B34E
  8
41
 10
-134.963504
 20
510.617064
 30
0.0
 11
-134.963504
 21
510.845587
 31
0.0
  0
ARC
  5
2B34F
  8
44
 10
-134.063504
 20
510.617064
 30
0.0
 40
0.9
 50
180.0
 51
269.5
  0
LINE
  5
2B350
  8
41
 10
-32.463504
 20
424.035733
 30
0.0
 11
-33.963504
 21
423.169708
 31
0.0
  0
LINE
  5
2B351
  8
41
 10
-32.463504
 20
430.803683
 30
0.0
 11
-33.963504
 21
431.669708
 31
0.0
  0
LINE
  5
2B352
  8
41
 10
-32.463504
 20
424.035733
 30
0.0
 11
-32.463504
 21
430.803683
 31
0.0
  0
LINE
  5
2B353
  8
41
 10
-32.463504
 20
399.035733
 30
0.0
 11
-32.463504
 21
405.803683
 31
0.0
  0
LINE
  5
2B354
  8
41
 10
-32.463504
 20
405.803683
 30
0.0
 11
-33.963504
 21
406.669708
 31
0.0
  0
LINE
  5
2B355
  8
41
 10
-32.463504
 20
399.035733
 30
0.0
 11
-33.963504
 21
398.169708
 31
0.0
  0
LINE
  5
2B356
  8
41
 10
-32.463504
 20
374.285733
 30
0.0
 11
-33.963504
 21
373.419708
 31
0.0
  0
LINE
  5
2B357
  8
41
 10
-32.463504
 20
385.553683
 30
0.0
 11
-33.963504
 21
386.419708
 31
0.0
  0
LINE
  5
2B358
  8
41
 10
-32.463504
 20
374.285733
 30
0.0
 11
-32.463504
 21
385.553683
 31
0.0
  0
ARC
  5
2B359
  8
41
 10
-133.963504
 20
351.402405
 30
0.0
 40
1.0
 50
180.0
 51
269.0
  0
LINE
  5
2B35A
  8
41
 10
-131.963504
 20
350.367343
 30
0.0
 11
-133.980956
 21
350.402558
 31
0.0
  0
LINE
  5
2B35B
  8
41
 10
-31.963504
 20
365.919708
 30
0.0
 11
-33.963504
 21
365.954618
 31
0.0
  0
LINE
  5
2B35C
  8
41
 10
-31.963504
 20
349.919708
 30
0.0
 11
-33.963504
 21
349.884798
 31
0.0
  0
LINE
  5
2B35D
  8
41
 10
-134.963504
 20
351.402405
 30
0.0
 11
-134.963504
 21
439.919708
 31
0.0
  0
LINE
  5
2B35E
  8
41
 10
-31.963504
 20
349.919708
 30
0.0
 11
-31.963504
 21
365.919708
 31
0.0
  0
LINE
  5
2B35F
  8
41
 10
-33.963504
 20
348.200678
 30
0.0
 11
-124.763504
 21
346.087289
 31
0.0
  0
LINE
  5
2B360
  8
41
 10
-33.963504
 20
531.638738
 30
0.0
 11
-131.963504
 21
533.919708
 31
0.0
  0
LINE
  5
2B361
  8
41
 10
-31.963504
 20
529.919708
 30
0.0
 11
-31.963504
 21
513.919708
 31
0.0
  0
LINE
  5
2B362
  8
43
  6
DASHDOT
 10
-23.963504
 20
439.919708
 30
0.0
 11
-139.0
 21
439.919708
 31
0.0
  0
LINE
  5
2B363
  8
41
 10
-134.963504
 20
528.437011
 30
0.0
 11
-134.963504
 21
439.919708
 31
0.0
  0
LINE
  5
2B364
  8
41
 10
-31.963504
 20
529.919708
 30
0.0
 11
-33.963504
 21
529.954618
 31
0.0
  0
LINE
  5
2B365
  8
41
 10
-31.963504
 20
513.919708
 30
0.0
 11
-33.963504
 21
513.884798
 31
0.0
  0
LINE
  5
2B366
  8
41
 10
-131.963961
 20
529.472065
 30
0.0
 11
-133.980956
 21
529.436858
 31
0.0
  0
ARC
  5
2B367
  8
41
 10
-133.963504
 20
528.437011
 30
0.0
 40
1.0
 50
91.0
 51
180.0
  0
LINE
  5
2B368
  8
41
 10
-32.463504
 20
505.553683
 30
0.0
 11
-32.463504
 21
494.285733
 31
0.0
  0
LINE
  5
2B369
  8
41
 10
-32.463504
 20
494.285733
 30
0.0
 11
-33.963504
 21
493.419708
 31
0.0
  0
LINE
  5
2B36A
  8
41
 10
-32.463504
 20
505.553683
 30
0.0
 11
-33.963504
 21
506.419708
 31
0.0
  0
LINE
  5
2B36B
  8
41
 10
-32.463504
 20
480.803683
 30
0.0
 11
-33.963504
 21
481.669708
 31
0.0
  0
LINE
  5
2B36C
  8
41
 10
-32.463504
 20
474.035733
 30
0.0
 11
-33.963504
 21
473.169708
 31
0.0
  0
LINE
  5
2B36D
  8
41
 10
-32.463504
 20
480.803683
 30
0.0
 11
-32.463504
 21
474.035733
 31
0.0
  0
LINE
  5
2B36E
  8
41
 10
-32.463504
 20
455.803683
 30
0.0
 11
-32.463504
 21
449.035733
 31
0.0
  0
LINE
  5
2B36F
  8
41
 10
-32.463504
 20
449.035733
 30
0.0
 11
-33.963504
 21
448.169708
 31
0.0
  0
LINE
  5
2B370
  8
41
 10
-32.463504
 20
455.803683
 30
0.0
 11
-33.963504
 21
456.669708
 31
0.0
  0
LINE
  5
2B371
  8
44
 10
-37.946051
 20
386.024743
 30
0.0
 11
-43.963504
 21
385.919708
 31
0.0
  0
LINE
  5
2B372
  8
44
 10
-44.463504
 20
379.919708
 30
0.0
 11
-44.463504
 21
383.969708
 31
0.0
  0
LINE
  5
2B373
  8
44
 10
-44.463504
 20
379.919708
 30
0.0
 11
-44.463504
 21
374.419708
 31
0.0
  0
LINE
  5
2B374
  8
44
 10
-37.946051
 20
373.814673
 30
0.0
 11
-43.963504
 21
373.919708
 31
0.0
  0
LINE
  5
2B375
  8
44
 10
-44.463504
 20
375.869708
 30
0.0
 11
-44.463504
 21
374.419708
 31
0.0
  0
LINE
  5
2B376
  8
44
 10
-44.463504
 20
383.969708
 30
0.0
 11
-44.463504
 21
385.419708
 31
0.0
  0
ARC
  5
2B377
  8
44
 10
-43.963504
 20
374.419708
 30
0.0
 40
0.5
 50
180.0
 51
270.0
  0
ARC
  5
2B378
  8
44
 10
-43.963504
 20
385.419708
 30
0.0
 40
0.5
 50
90.0
 51
180.0
  0
ARC
  5
2B379
  8
44
 10
-37.963504
 20
387.024591
 30
0.0
 40
1.0
 50
271.0
 51
0.0
  0
ARC
  5
2B37A
  8
44
 10
-37.963504
 20
372.814825
 30
0.0
 40
1.0
 50
0.0
 51
89.0
  0
ARC
  5
2B37B
  8
44
 10
-43.963504
 20
397.919708
 30
0.0
 40
0.5
 50
180.0
 51
270.0
  0
ARC
  5
2B37C
  8
44
 10
-43.963504
 20
406.919708
 30
0.0
 40
0.5
 50
90.0
 51
180.0
  0
LINE
  5
2B37D
  8
44
 10
-43.963504
 20
407.419708
 30
0.0
 11
-38.963504
 21
407.419708
 31
0.0
  0
LINE
  5
2B37E
  8
44
 10
-44.463504
 20
406.919708
 30
0.0
 11
-44.463504
 21
404.819708
 31
0.0
  0
ARC
  5
2B37F
  8
44
 10
-38.963504
 20
409.419708
 30
0.0
 40
2.0
 50
270.0
 51
360.0
  0
ARC
  5
2B380
  8
44
 10
-38.963504
 20
395.419708
 30
0.0
 40
2.0
 50
0.0
 51
90.0
  0
LINE
  5
2B381
  8
44
 10
-44.463504
 20
397.919708
 30
0.0
 11
-44.463504
 21
400.019708
 31
0.0
  0
LINE
  5
2B382
  8
44
 10
-43.963504
 20
397.419708
 30
0.0
 11
-38.963504
 21
397.419708
 31
0.0
  0
LINE
  5
2B383
  8
33
  6
DASHDOT
 10
485.0
 20
439.919708
 30
0.0
 11
600.036496
 21
439.919708
 31
0.0
  0
CIRCLE
  5
2B385
  8
51
 10
-522.427368
 20
514.919708
 30
0.0
 40
4.25
  0
CIRCLE
  5
2B386
  8
51
 10
-522.427368
 20
514.919708
 30
0.0
 40
3.5
  0
CIRCLE
  5
2B387
  8
51
 10
-497.427368
 20
514.919708
 30
0.0
 40
3.5
  0
CIRCLE
  5
2B388
  8
51
 10
-497.427368
 20
514.919708
 30
0.0
 40
4.25
  0
CIRCLE
  5
2B389
  8
51
 10
-497.427368
 20
364.919708
 30
0.0
 40
4.25
  0
CIRCLE
  5
2B38A
  8
51
 10
-497.427368
 20
364.919708
 30
0.0
 40
3.5
  0
CIRCLE
  5
2B38B
  8
51
 10
-522.427368
 20
364.919708
 30
0.0
 40
3.5
  0
CIRCLE
  5
2B38C
  8
51
 10
-522.427368
 20
364.919708
 30
0.0
 40
4.25
  0
LINE
  5
2B38D
  8
53
 10
-513.514902
 20
439.919708
 30
0.0
 11
-511.445616
 21
439.919708
 31
0.0
  0
LINE
  5
2B38E
  8
53
 10
-256.339834
 20
439.919708
 30
0.0
 11
-258.40912
 21
439.919708
 31
0.0
  0
CIRCLE
  5
2B38F
  8
51
 10
-247.427368
 20
364.919708
 30
0.0
 40
4.25
  0
CIRCLE
  5
2B390
  8
51
 10
-247.427368
 20
364.919708
 30
0.0
 40
3.5
  0
CIRCLE
  5
2B391
  8
51
 10
-272.427368
 20
364.919708
 30
0.0
 40
3.5
  0
CIRCLE
  5
2B392
  8
51
 10
-272.427368
 20
364.919708
 30
0.0
 40
4.25
  0
CIRCLE
  5
2B393
  8
51
 10
-272.427368
 20
514.919708
 30
0.0
 40
4.25
  0
CIRCLE
  5
2B394
  8
51
 10
-272.427368
 20
514.919708
 30
0.0
 40
3.5
  0
CIRCLE
  5
2B395
  8
51
 10
-247.427368
 20
514.919708
 30
0.0
 40
3.5
  0
CIRCLE
  5
2B396
  8
51
 10
-247.427368
 20
514.919708
 30
0.0
 40
4.25
  0
LINE
  5
2B398
  8
61
 10
338.074818
 20
365.669708
 30
0.0
 11
322.961678
 21
365.669708
 31
0.0
  0
LINE
  5
2B399
  8
61
 10
338.074818
 20
364.169708
 30
0.0
 11
322.961678
 21
364.169708
 31
0.0
  0
ARC
  5
2B39A
  8
61
 10
343.018248
 20
364.919708
 30
0.0
 40
5.0
 50
8.626927
 51
171.373073
  0
CIRCLE
  5
2B39B
  8
61
 10
343.018248
 20
364.919708
 30
0.0
 40
2.4
  0
ARC
  5
2B39C
  8
61
 10
343.018248
 20
364.919708
 30
0.0
 40
5.0
 50
188.626927
 51
351.373073
  0
ARC
  5
2B39D
  8
61
 10
368.018248
 20
364.919708
 30
0.0
 40
5.0
 50
188.626927
 51
360.0
  0
CIRCLE
  5
2B39E
  8
61
 10
368.018248
 20
364.919708
 30
0.0
 40
2.4
  0
LINE
  5
2B39F
  8
61
 10
363.074818
 20
365.669708
 30
0.0
 11
347.961678
 21
365.669708
 31
0.0
  0
LINE
  5
2B3A0
  8
61
 10
363.074818
 20
364.169708
 30
0.0
 11
347.961678
 21
364.169708
 31
0.0
  0
ARC
  5
2B3A1
  8
61
 10
368.018248
 20
364.919708
 30
0.0
 40
5.0
 50
360.0
 51
171.373073
  0
ARC
  5
2B3A2
  8
61
 10
368.018248
 20
514.919708
 30
0.0
 40
5.0
 50
188.626927
 51
0.0
  0
LINE
  5
2B3A3
  8
61
 10
363.074818
 20
515.669708
 30
0.0
 11
347.961678
 21
515.669708
 31
0.0
  0
LINE
  5
2B3A4
  8
61
 10
363.074818
 20
514.169708
 30
0.0
 11
347.961678
 21
514.169708
 31
0.0
  0
CIRCLE
  5
2B3A5
  8
61
 10
368.018248
 20
514.919708
 30
0.0
 40
2.4
  0
ARC
  5
2B3A6
  8
61
 10
368.018248
 20
514.919708
 30
0.0
 40
5.0
 50
0.0
 51
171.373073
  0
ARC
  5
2B3A7
  8
61
 10
343.018248
 20
514.919708
 30
0.0
 40
5.0
 50
8.626927
 51
171.373073
  0
CIRCLE
  5
2B3A8
  8
61
 10
343.018248
 20
514.919708
 30
0.0
 40
2.4
  0
LINE
  5
2B3A9
  8
61
 10
338.074818
 20
514.169708
 30
0.0
 11
322.961678
 21
514.169708
 31
0.0
  0
LINE
  5
2B3AA
  8
61
 10
338.074818
 20
515.669708
 30
0.0
 11
322.961678
 21
515.669708
 31
0.0
  0
ARC
  5
2B3AB
  8
61
 10
343.018248
 20
514.919708
 30
0.0
 40
5.0
 50
188.626927
 51
351.373073
  0
TEXT
  5
2B3AC
  8
L20
 10
-551.0
 20
663.0
 30
0.0
 40
21.0
  1
FIBOX EK-M 188x378x100 BASE
  0
LINE
  5
2B3AD
  8
61
 10
138.074818
 20
365.669708
 30
0.0
 11
122.961678
 21
365.669708
 31
0.0
  0
LINE
  5
2B3AE
  8
61
 10
138.074818
 20
364.169708
 30
0.0
 11
122.961678
 21
364.169708
 31
0.0
  0
LINE
  5
2B3AF
  8
61
 10
138.074818
 20
514.169708
 30
0.0
 11
122.961678
 21
514.169708
 31
0.0
  0
LINE
  5
2B3B0
  8
61
 10
138.074818
 20
515.669708
 30
0.0
 11
122.961678
 21
515.669708
 31
0.0
  0
ARC
  5
2B3B1
  8
61
 10
118.018248
 20
514.919708
 30
0.0
 40
5.0
 50
188.626927
 51
351.373073
  0
CIRCLE
  5
2B3B2
  8
61
 10
118.018248
 20
514.919708
 30
0.0
 40
2.4
  0
ARC
  5
2B3B3
  8
61
 10
118.018248
 20
514.919708
 30
0.0
 40
5.0
 50
8.626927
 51
171.373073
  0
ARC
  5
2B3B4
  8
61
 10
93.018248
 20
514.919708
 30
0.0
 40
5.0
 50
8.626927
 51
180.0
  0
CIRCLE
  5
2B3B5
  8
61
 10
93.018248
 20
514.919708
 30
0.0
 40
2.4
  0
LINE
  5
2B3B6
  8
61
 10
97.961678
 20
514.169708
 30
0.0
 11
113.074818
 21
514.169708
 31
0.0
  0
LINE
  5
2B3B7
  8
61
 10
97.961678
 20
515.669708
 30
0.0
 11
113.074818
 21
515.669708
 31
0.0
  0
ARC
  5
2B3B8
  8
61
 10
93.018248
 20
514.919708
 30
0.0
 40
5.0
 50
180.0
 51
351.373073
  0
LINE
  5
2B3BA
  8
61
 10
97.961678
 20
364.169708
 30
0.0
 11
113.074818
 21
364.169708
 31
0.0
  0
LINE
  5
2B3BB
  8
61
 10
97.961678
 20
365.669708
 30
0.0
 11
113.074818
 21
365.669708
 31
0.0
  0
CIRCLE
  5
2B3BC
  8
61
 10
93.018248
 20
364.919708
 30
0.0
 40
2.4
  0
CIRCLE
  5
2B3BD
  8
61
 10
118.018248
 20
364.919708
 30
0.0
 40
2.4
  0
ARC
  5
2B3BE
  8
61
 10
118.018248
 20
364.919708
 30
0.0
 40
5.0
 50
8.626927
 51
171.373073
  0
ARC
  5
2B3BF
  8
61
 10
118.018248
 20
364.919708
 30
0.0
 40
5.0
 50
188.626927
 51
351.373073
  0
ARC
  5
2B3C1
  8
61
 10
93.018248
 20
364.919708
 30
0.0
 40
5.0
 50
8.626927
 51
351.373073
  0
LINE
  5
2B3C2
  8
21
 10
289.634274
 20
633.097271
 30
0.0
 11
296.402223
 21
633.097271
 31
0.0
  0
LINE
  5
2B3C3
  8
21
 10
296.402223
 20
633.097271
 30
0.0
 11
297.268248
 21
634.597271
 31
0.0
  0
LINE
  5
2B3C4
  8
21
 10
289.634274
 20
633.097271
 30
0.0
 11
288.768248
 21
634.597271
 31
0.0
  0
LINE
  5
2B3C5
  8
21
 10
264.634274
 20
633.097271
 30
0.0
 11
271.402223
 21
633.097271
 31
0.0
  0
LINE
  5
2B3C6
  8
21
 10
271.402223
 20
633.097271
 30
0.0
 11
272.268248
 21
634.597271
 31
0.0
  0
LINE
  5
2B3C7
  8
21
 10
264.634274
 20
633.097271
 30
0.0
 11
263.768248
 21
634.597271
 31
0.0
  0
LINE
  5
2B3C8
  8
21
 10
139.634274
 20
633.097271
 30
0.0
 11
138.768248
 21
634.597271
 31
0.0
  0
LINE
  5
2B3C9
  8
21
 10
146.402223
 20
633.097271
 30
0.0
 11
147.268248
 21
634.597271
 31
0.0
  0
LINE
  5
2B3CA
  8
21
 10
139.634274
 20
633.097271
 30
0.0
 11
146.402223
 21
633.097271
 31
0.0
  0
LINE
  5
2B3CB
  8
21
 10
164.634274
 20
633.097271
 30
0.0
 11
163.768248
 21
634.597271
 31
0.0
  0
LINE
  5
2B3CC
  8
21
 10
171.402223
 20
633.097271
 30
0.0
 11
172.268248
 21
634.597271
 31
0.0
  0
LINE
  5
2B3CD
  8
21
 10
164.634274
 20
633.097271
 30
0.0
 11
171.402223
 21
633.097271
 31
0.0
  0
LINE
  5
2B3CE
  8
11
 10
289.634274
 20
246.742145
 30
0.0
 11
288.768248
 21
245.242145
 31
0.0
  0
LINE
  5
2B3CF
  8
11
 10
296.402223
 20
246.742145
 30
0.0
 11
297.268248
 21
245.242145
 31
0.0
  0
LINE
  5
2B3D0
  8
11
 10
289.634274
 20
246.742145
 30
0.0
 11
296.402223
 21
246.742145
 31
0.0
  0
LINE
  5
2B3D1
  8
11
 10
314.634274
 20
246.742145
 30
0.0
 11
321.402223
 21
246.742145
 31
0.0
  0
LINE
  5
2B3D2
  8
11
 10
321.402223
 20
246.742145
 30
0.0
 11
322.268248
 21
245.242145
 31
0.0
  0
LINE
  5
2B3D3
  8
11
 10
314.634274
 20
246.742145
 30
0.0
 11
313.768248
 21
245.242145
 31
0.0
  0
LINE
  5
2B3D4
  8
11
 10
139.634274
 20
246.742145
 30
0.0
 11
138.768248
 21
245.242145
 31
0.0
  0
LINE
  5
2B3D5
  8
11
 10
146.402223
 20
246.742145
 30
0.0
 11
147.268248
 21
245.242145
 31
0.0
  0
LINE
  5
2B3D6
  8
11
 10
139.634274
 20
246.742145
 30
0.0
 11
146.402223
 21
246.742145
 31
0.0
  0
LINE
  5
2B3D7
  8
11
 10
164.634274
 20
246.742145
 30
0.0
 11
171.402223
 21
246.742145
 31
0.0
  0
LINE
  5
2B3D8
  8
11
 10
171.402223
 20
246.742145
 30
0.0
 11
172.268248
 21
245.242145
 31
0.0
  0
LINE
  5
2B3D9
  8
11
 10
164.634274
 20
246.742145
 30
0.0
 11
163.768248
 21
245.242145
 31
0.0
  0
LINE
  5
5C996
  8
21
 10
65.518248
 20
713.597271
 30
0.0
 11
65.518248
 21
725.347271
 31
0.0
  0
ARC
  5
5C997
  8
21
 10
67.518248
 20
713.597271
 30
0.0
 40
2.0
 50
180.0
 51
270.0
  0
LINE
  5
5C998
  8
21
 10
95.518248
 20
711.597271
 30
0.0
 11
67.518248
 21
711.597271
 31
0.0
  0
ARC
  5
5C999
  8
21
 10
95.518248
 20
713.597271
 30
0.0
 40
2.0
 50
270.0
 51
0.0
  0
LINE
  5
5C99A
  8
21
 10
97.518248
 20
713.597271
 30
0.0
 11
97.518248
 21
725.347271
 31
0.0
  0
LINE
  5
5C99B
  8
21
 10
395.518248
 20
713.597271
 30
0.0
 11
395.518248
 21
725.347271
 31
0.0
  0
ARC
  5
5C99C
  8
21
 10
393.518248
 20
713.597271
 30
0.0
 40
2.0
 50
270.0
 51
360.0
  0
LINE
  5
5C99D
  8
21
 10
365.518248
 20
711.597271
 30
0.0
 11
393.518248
 21
711.597271
 31
0.0
  0
ARC
  5
5C99E
  8
21
 10
365.518248
 20
713.597271
 30
0.0
 40
2.0
 50
180.0
 51
270.0
  0
LINE
  5
5C99F
  8
21
 10
363.518248
 20
713.597271
 30
0.0
 11
363.518248
 21
725.347271
 31
0.0
  0
ARC
  5
5C9A0
  8
11
 10
95.518248
 20
166.242145
 30
0.0
 40
2.0
 50
0.0
 51
90.0
  0
LINE
  5
5C9A1
  8
11
 10
97.518248
 20
166.242145
 30
0.0
 11
97.518248
 21
154.492145
 31
0.0
  0
LINE
  5
5C9A2
  8
11
 10
95.518248
 20
168.242145
 30
0.0
 11
67.518248
 21
168.242145
 31
0.0
  0
ARC
  5
5C9A3
  8
11
 10
67.518248
 20
166.242145
 30
0.0
 40
2.0
 50
90.0
 51
180.0
  0
LINE
  5
5C9A4
  8
11
 10
65.518248
 20
166.242145
 30
0.0
 11
65.518248
 21
154.492145
 31
0.0
  0
ARC
  5
5C9A5
  8
11
 10
365.518248
 20
166.242145
 30
0.0
 40
2.0
 50
90.0
 51
180.0
  0
LINE
  5
5C9A6
  8
11
 10
365.518248
 20
168.242145
 30
0.0
 11
393.518248
 21
168.242145
 31
0.0
  0
LINE
  5
5C9A7
  8
11
 10
363.518248
 20
166.242145
 30
0.0
 11
363.518248
 21
154.492145
 31
0.0
  0
ARC
  5
5C9A8
  8
11
 10
393.518248
 20
166.242145
 30
0.0
 40
2.0
 50
0.0
 51
90.0
  0
LINE
  5
5C9A9
  8
11
 10
395.518248
 20
166.242145
 30
0.0
 11
395.518248
 21
154.492145
 31
0.0
  0
CIRCLE
  5
5CB70
  8
62
 10
230.518248
 20
439.919708
 30
0.0
 40
16.1
  0
VIEWPORT
  5
1
 67
     1
  8
0
 10
210.0
 20
152.094241
 30
0.0
 40
420.0
 41
304.188482
 68
    -1
 69
     1
1001
ACAD
1000
MVIEW
1002
{
1070
    16
1010
0.0
1020
0.0
1030
0.0
1010
0.0
1020
0.0
1030
1.0
1040
0.0
1040
304.188482
1040
210.0
1040
152.094241
1040
50.0
1040
0.0
1040
0.0
1070
     0
1070
   100
1070
     1
1070
     1
1070
     1
1070
     0
1070
     0
1070
     0
1040
0.0
1040
0.0
1040
0.0
1040
1.0
1040
1.0
1040
0.0
1040
0.0
1070
     0
1002
{
1002
}
1002
}
  0
ENDSEC
  0
EOF
