  0
SECTION
  2
HEADER
  9
$ACADVER
  1
AC1009
  9
$INSBASE
 10
0.0
 20
0.0
 30
0.0
  9
$EXTMIN
 10
32.996367
 20
117.04587
 30
0.0
  9
$EXTMAX
 10
984.890276
 20
642.998516
 30
0.0
  9
$LIMMIN
 10
0.0
 20
0.0
  9
$LIMMAX
 10
420.0
 20
297.0
  9
$ORTHOMODE
 70
     0
  9
$REGENMODE
 70
     1
  9
$FILLMODE
 70
     1
  9
$QTEXTMODE
 70
     0
  9
$MIRRTEXT
 70
     1
  9
$DRAGMODE
 70
     2
  9
$LTSCALE
 40
7.0
  9
$OSMODE
 70
     0
  9
$ATTMODE
 70
     1
  9
$TEXTSIZE
 40
3.5
  9
$TRACEWID
 40
0.05
  9
$TEXTSTYLE
  7
STANDARD
  9
$CLAYER
  8
1
  9
$CELTYPE
  6
BYLAYER
  9
$CECOLOR
 62
   256
  9
$DIMSCALE
 40
1.0
  9
$DIMASZ
 40
3.5
  9
$DIMEXO
 40
0.0
  9
$DIMDLI
 40
10.0
  9
$DIMRND
 40
0.0
  9
$DIMDLE
 40
0.0
  9
$DIMEXE
 40
2.0
  9
$DIMTP
 40
0.0
  9
$DIMTM
 40
0.0
  9
$DIMTXT
 40
3.5
  9
$DIMCEN
 40
2.5
  9
$DIMTSZ
 40
0.0
  9
$DIMTOL
 70
     0
  9
$DIMLIM
 70
     0
  9
$DIMTIH
 70
     0
  9
$DIMTOH
 70
     0
  9
$DIMSE1
 70
     0
  9
$DIMSE2
 70
     0
  9
$DIMTAD
 70
     1
  9
$DIMZIN
 70
     8
  9
$DIMBLK
  1

  9
$DIMASO
 70
     1
  9
$DIMSHO
 70
     1
  9
$DIMPOST
  1

  9
$DIMAPOST
  1

  9
$DIMALT
 70
     0
  9
$DIMALTD
 70
     2
  9
$DIMALTF
 40
25.4
  9
$DIMLFAC
 40
1.0
  9
$DIMTOFL
 70
     1
  9
$DIMTVP
 40
0.0
  9
$DIMTIX
 70
     0
  9
$DIMSOXD
 70
     0
  9
$DIMSAH
 70
     0
  9
$DIMBLK1
  1

  9
$DIMBLK2
  1

  9
$DIMSTYLE
  2
ACADUS
  9
$DIMCLRD
 70
   256
  9
$DIMCLRE
 70
   256
  9
$DIMCLRT
 70
     3
  9
$DIMTFAC
 40
1.0
  9
$DIMGAP
 40
2.0
  9
$LUNITS
 70
     2
  9
$LUPREC
 70
     1
  9
$SKETCHINC
 40
1.0
  9
$FILLETRAD
 40
0.0
  9
$AUNITS
 70
     0
  9
$AUPREC
 70
     2
  9
$MENU
  1
CAESAR
  9
$ELEVATION
 40
0.0
  9
$PELEVATION
 40
0.0
  9
$THICKNESS
 40
0.0
  9
$LIMCHECK
 70
     0
  9
$BLIPMODE
 70
     1
  9
$CHAMFERA
 40
5.0
  9
$CHAMFERB
 40
5.0
  9
$SKPOLY
 70
     0
  9
$TDCREATE
 40
2449496.453798
  9
$TDUPDATE
 40
2453059.651123
  9
$TDINDWG
 40
0.00004
  9
$TDUSRTIMER
 40
0.00004
  9
$USRTIMER
 70
     1
  9
$ANGBASE
 50
0.0
  9
$ANGDIR
 70
     0
  9
$PDMODE
 70
     0
  9
$PDSIZE
 40
0.0
  9
$PLINEWID
 40
0.0
  9
$COORDS
 70
     2
  9
$SPLFRAME
 70
     0
  9
$SPLINETYPE
 70
     6
  9
$SPLINESEGS
 70
     8
  9
$ATTDIA
 70
     0
  9
$ATTREQ
 70
     1
  9
$HANDLING
 70
     1
  9
$HANDSEED
  5
7C995
  9
$SURFTAB1
 70
     6
  9
$SURFTAB2
 70
     6
  9
$SURFTYPE
 70
     6
  9
$SURFU
 70
     6
  9
$SURFV
 70
     6
  9
$UCSNAME
  2

  9
$UCSORG
 10
0.0
 20
0.0
 30
0.0
  9
$UCSXDIR
 10
1.0
 20
0.0
 30
0.0
  9
$UCSYDIR
 10
0.0
 20
1.0
 30
0.0
  9
$PUCSNAME
  2

  9
$PUCSORG
 10
0.0
 20
0.0
 30
0.0
  9
$PUCSXDIR
 10
1.0
 20
0.0
 30
0.0
  9
$PUCSYDIR
 10
0.0
 20
1.0
 30
0.0
  9
$USERI1
 70
     0
  9
$USERI2
 70
     0
  9
$USERI3
 70
     0
  9
$USERI4
 70
     0
  9
$USERI5
 70
     0
  9
$USERR1
 40
1.0
  9
$USERR2
 40
0.0
  9
$USERR3
 40
3.5
  9
$USERR4
 40
0.0
  9
$USERR5
 40
0.0
  9
$WORLDVIEW
 70
     1
  9
$SHADEDGE
 70
     3
  9
$SHADEDIF
 70
    70
  9
$TILEMODE
 70
     1
  9
$MAXACTVP
 70
    16
  9
$PLIMCHECK
 70
     0
  9
$PEXTMIN
 10
1.000000E+020
 20
1.000000E+020
 30
1.000000E+020
  9
$PEXTMAX
 10
-1.000000E+020
 20
-1.000000E+020
 30
-1.000000E+020
  9
$PLIMMIN
 10
0.0
 20
0.0
  9
$PLIMMAX
 10
420.0
 20
297.0
  9
$UNITMODE
 70
     0
  9
$VISRETAIN
 70
     0
  9
$PLINEGEN
 70
     0
  9
$PSLTSCALE
 70
     0
  0
ENDSEC
  0
SECTION
  2
TABLES
  0
TABLE
  2
VPORT
 70
     2
  0
VPORT
  2
*ACTIVE
 70
     0
 10
0.0
 20
0.0
 11
1.0
 21
1.0
 12
508.938626
 22
380.024134
 13
0.0
 23
0.0
 14
1.0
 24
1.0
 15
10.0
 25
10.0
 16
0.0
 26
0.0
 36
1.0
 17
0.0
 27
0.0
 37
0.0
 40
592.528517
 41
1.616838
 42
50.0
 43
0.0
 44
0.0
 50
0.0
 51
0.0
 71
     0
 72
   100
 73
     1
 74
     1
 75
     0
 76
     0
 77
     0
 78
     0
  0
ENDTAB
  0
TABLE
  2
LTYPE
 70
    10
  0
LTYPE
  2
CONTINUOUS
 70
     0
  3
Solid line
 72
    65
 73
     0
 40
0.0
  0
LTYPE
  2
BORDER
 70
     0
  3
__ __ . __ __ . __ __ . __ __ . __ __ . __ __ .
 72
    65
 73
     6
 40
1.75
 49
0.5
 49
-0.25
 49
0.5
 49
-0.25
 49
0.0
 49
-0.25
  0
LTYPE
  2
CENTER
 70
     0
  3
____ _ ____ _ ____ _ ____ _ ____ _ ____ _ ____ 
 72
    65
 73
     4
 40
2.0
 49
1.25
 49
-0.25
 49
0.25
 49
-0.25
  0
LTYPE
  2
DASHDOT
 70
     0
  3
__ . __ . __ . __ . __ . __ . __ . __ . __ . __
 72
    65
 73
     4
 40
1.0
 49
0.5
 49
-0.25
 49
0.0
 49
-0.25
  0
LTYPE
  2
DASHED
 70
     0
  3
__ __ __ __ __ __ __ __ __ __ __ __ __ __ __ __
 72
    65
 73
     2
 40
0.75
 49
0.5
 49
-0.25
  0
LTYPE
  2
DIVIDE
 70
     0
  3
____ . . ____ . . ____ . . ____ . . ____ . . __
 72
    65
 73
     6
 40
1.25
 49
0.5
 49
-0.25
 49
0.0
 49
-0.25
 49
0.0
 49
-0.25
  0
LTYPE
  2
DOT
 70
     0
  3
. . . . . . . . . . . . . . . . . . . . . . . .
 72
    65
 73
     2
 40
0.25
 49
0.0
 49
-0.25
  0
LTYPE
  2
HIDDEN
 70
     0
  3
__ __ __ __ __ __ __ __ __ __ __ __ __ __ __ __
 72
    65
 73
     2
 40
0.375
 49
0.25
 49
-0.125
  0
LTYPE
  2
PHANTOM
 70
     0
  3
______  __  __  ______  __  __  ______  __  __ 
 72
    65
 73
     6
 40
2.5
 49
1.25
 49
-0.25
 49
0.25
 49
-0.25
 49
0.25
 49
-0.25
  0
LTYPE
  2
DOTX2
 70
     0
  3
.  .  .  .  .  .  .  .  .  .  .  .  .  .  .  . 
 72
    65
 73
     2
 40
0.5
 49
0.0
 49
-0.5
  0
ENDTAB
  0
TABLE
  2
LAYER
 70
   124
  0
LAYER
  2
0
 70
     0
 62
     7
  6
CONTINUOUS
  0
LAYER
  2
L1
 70
     0
 62
     7
  6
CONTINUOUS
  0
LAYER
  2
L2
 70
     0
 62
     1
  6
CONTINUOUS
  0
LAYER
  2
L3
 70
     0
 62
     7
  6
DASHED
  0
LAYER
  2
L4
 70
     0
 62
     1
  6
DASHED
  0
LAYER
  2
L5
 70
     0
 62
     7
  6
CENTER
  0
LAYER
  2
L6
 70
     0
 62
     1
  6
CENTER
  0
LAYER
  2
L7
 70
     0
 62
     1
  6
PHANTOM
  0
LAYER
  2
VPORT
 70
     0
 62
     7
  6
CONTINUOUS
  0
LAYER
  2
L8
 70
     0
 62
     1
  6
CONTINUOUS
  0
LAYER
  2
L20
 70
     0
 62
     3
  6
CONTINUOUS
  0
LAYER
  2
L21
 70
     0
 62
     1
  6
CONTINUOUS
  0
LAYER
  2
L22
 70
     0
 62
     1
  6
CONTINUOUS
  0
LAYER
  2
L23
 70
     0
 62
     1
  6
CONTINUOUS
  0
LAYER
  2
L30
 70
     0
 62
     3
  6
CONTINUOUS
  0
LAYER
  2
L31
 70
     0
 62
     1
  6
CONTINUOUS
  0
LAYER
  2
L32
 70
     0
 62
     3
  6
CONTINUOUS
  0
LAYER
  2
L33
 70
     0
 62
     1
  6
CONTINUOUS
  0
LAYER
  2
L34
 70
     0
 62
     1
  6
DASHED
  0
LAYER
  2
L35
 70
     0
 62
     1
  6
CONTINUOUS
  0
LAYER
  2
L40
 70
     0
 62
     7
  6
CONTINUOUS
  0
LAYER
  2
L41
 70
     0
 62
     1
  6
CONTINUOUS
  0
LAYER
  2
L42
 70
     0
 62
     1
  6
CONTINUOUS
  0
LAYER
  2
L43
 70
     0
 62
     7
  6
CONTINUOUS
  0
LAYER
  2
L44
 70
     0
 62
     1
  6
DASHED
  0
LAYER
  2
L45
 70
     0
 62
     1
  6
CONTINUOUS
  0
LAYER
  2
L46
 70
     0
 62
     3
  6
CONTINUOUS
  0
LAYER
  2
L50
 70
     0
 62
     7
  6
CONTINUOUS
  0
LAYER
  2
L51
 70
     0
 62
     1
  6
CONTINUOUS
  0
LAYER
  2
L52
 70
     0
 62
     7
  6
CONTINUOUS
  0
LAYER
  2
L53
 70
     0
 62
     1
  6
CONTINUOUS
  0
LAYER
  2
L54
 70
     0
 62
     1
  6
DASHED
  0
LAYER
  2
L55
 70
     0
 62
     3
  6
CONTINUOUS
  0
LAYER
  2
L56
 70
     0
 62
     3
  6
CONTINUOUS
  0
LAYER
  2
L57
 70
     0
 62
     1
  6
CONTINUOUS
  0
LAYER
  2
L9
 70
     0
 62
     7
  6
HIDDEN
  0
LAYER
  2
L15
 70
     0
 62
     2
  6
CONTINUOUS
  0
LAYER
  2
L16
 70
     0
 62
     5
  6
DOTX2
  0
LAYER
  2
L24
 70
     0
 62
     1
  6
DASHED
  0
LAYER
  2
1
 70
     0
 62
     7
  6
CONTINUOUS
  0
LAYER
  2
2
 70
     0
 62
     7
  6
CONTINUOUS
  0
LAYER
  2
8
 70
     0
 62
     7
  6
CONTINUOUS
  0
LAYER
  2
11
 70
     0
 62
     7
  6
CONTINUOUS
  0
LAYER
  2
60
 70
     0
 62
     7
  6
CONTINUOUS
  0
LAYER
  2
63
 70
     0
 62
     1
  6
CENTER
  0
LAYER
  2
66
 70
     0
 62
     7
  6
CONTINUOUS
  0
LAYER
  2
69
 70
     0
 62
     7
  6
CONTINUOUS
  0
LAYER
  2
72
 70
     0
 62
     7
  6
CONTINUOUS
  0
LAYER
  2
75
 70
     0
 62
     7
  6
CONTINUOUS
  0
LAYER
  2
86
 70
     0
 62
     7
  6
CONTINUOUS
  0
LAYER
  2
89
 70
     0
 62
     7
  6
CONTINUOUS
  0
LAYER
  2
98
 70
     0
 62
     7
  6
CONTINUOUS
  0
LAYER
  2
DEFPOINTS
 70
     0
 62
     7
  6
CONTINUOUS
  0
LAYER
  2
MUOTOV
 70
     0
 62
     7
  6
CONTINUOUS
  0
LAYER
  2
KATKOV
 70
     0
 62
     1
  6
HIDDEN
  0
LAYER
  2
PIKATKOV
 70
     0
 62
     5
  6
DASHDOT
  0
LAYER
  2
MITAT
 70
     0
 62
     5
  6
CONTINUOUS
  0
LAYER
  2
LEIKV
 70
     0
 62
     5
  6
CONTINUOUS
  0
LAYER
  2
A1
 70
     0
 62
     7
  6
CONTINUOUS
  0
LAYER
  2
RA1
 70
     0
 62
     5
  6
CONTINUOUS
  0
LAYER
  2
TITEL
 70
     0
 62
     7
  6
CONTINUOUS
  0
LAYER
  2
TITEL1
 70
     0
 62
     5
  6
CONTINUOUS
  0
LAYER
  2
MUUTOS
 70
     0
 62
     7
  6
CONTINUOUS
  0
LAYER
  2
MUUTOS1
 70
     0
 62
     1
  6
CONTINUOUS
  0
LAYER
  2
MUUTOSTEXT
 70
     0
 62
     5
  6
CONTINUOUS
  0
LAYER
  2
MUUTOS2
 70
     0
 62
     5
  6
CONTINUOUS
  0
LAYER
  2
A2
 70
     0
 62
     7
  6
CONTINUOUS
  0
LAYER
  2
RA2
 70
     0
 62
     5
  6
CONTINUOUS
  0
LAYER
  2
RA4
 70
     0
 62
     1
  6
DASHED
  0
LAYER
  2
L36
 70
     0
 62
     7
  6
CONTINUOUS
  0
LAYER
  2
L37
 70
     0
 62
     1
  6
CONTINUOUS
  0
LAYER
  2
L38
 70
     0
 62
     1
  6
DASHDOT
  0
LAYER
  2
L58
 70
     0
 62
     1
  6
CONTINUOUS
  0
LAYER
  2
A3
 70
     0
 62
     4
  6
CONTINUOUS
  0
LAYER
  2
A4
 70
     0
 62
     1
  6
DASHED
  0
LAYER
  2
A5
 70
     0
 62
     2
  6
CONTINUOUS
  0
LAYER
  2
A6
 70
     0
 62
     8
  6
CONTINUOUS
  0
LAYER
  2
CAM-A1
 70
     0
 62
     7
  6
CONTINUOUS
  0
LAYER
  2
CAM-A2
 70
     0
 62
     1
  6
CONTINUOUS
  0
LAYER
  2
CAM-A3
 70
     0
 62
     1
  6
DASHED
  0
LAYER
  2
CAM-B1
 70
     0
 62
     7
  6
CONTINUOUS
  0
LAYER
  2
CAM-B2
 70
     0
 62
     1
  6
CONTINUOUS
  0
LAYER
  2
CAM-B3
 70
     0
 62
     1
  6
DASHED
  0
LAYER
  2
CAM-C1
 70
     0
 62
     7
  6
CONTINUOUS
  0
LAYER
  2
CAM-C2
 70
     0
 62
     1
  6
CONTINUOUS
  0
LAYER
  2
CAM-C3
 70
     0
 62
     1
  6
DASHED
  0
LAYER
  2
CAM-D1
 70
     0
 62
     7
  6
CONTINUOUS
  0
LAYER
  2
CAM-D2
 70
     0
 62
     1
  6
CONTINUOUS
  0
LAYER
  2
CAM-D3
 70
     0
 62
     1
  6
DASHED
  0
LAYER
  2
CAM-E1
 70
     0
 62
     7
  6
CONTINUOUS
  0
LAYER
  2
CAM-E2
 70
     0
 62
     1
  6
CONTINUOUS
  0
LAYER
  2
CAM-E3
 70
     0
 62
     1
  6
DASHED
  0
LAYER
  2
CAM-F1
 70
     0
 62
     7
  6
CONTINUOUS
  0
LAYER
  2
CAM-F2
 70
     0
 62
     1
  6
CONTINUOUS
  0
LAYER
  2
CAM-F3
 70
     0
 62
     1
  6
DASHED
  0
LAYER
  2
CAM-2
 70
     0
 62
     7
  6
CONTINUOUS
  0
LAYER
  2
12
 70
     0
 62
     1
  6
CONTINUOUS
  0
LAYER
  2
13
 70
     0
 62
     1
  6
CENTER
  0
LAYER
  2
14
 70
     0
 62
     1
  6
DASHED
  0
LAYER
  2
15
 70
     0
 62
     2
  6
DASHED
  0
LAYER
  2
21
 70
     0
 62
     7
  6
CONTINUOUS
  0
LAYER
  2
22
 70
     0
 62
     1
  6
CONTINUOUS
  0
LAYER
  2
23
 70
     0
 62
     1
  6
CENTER
  0
LAYER
  2
24
 70
     0
 62
     1
  6
DASHED
  0
LAYER
  2
25
 70
     0
 62
     2
  6
DASHED
  0
LAYER
  2
31
 70
     0
 62
     7
  6
CONTINUOUS
  0
LAYER
  2
32
 70
     0
 62
     1
  6
CONTINUOUS
  0
LAYER
  2
33
 70
     0
 62
     1
  6
CENTER
  0
LAYER
  2
34
 70
     0
 62
     1
  6
DASHED
  0
LAYER
  2
35
 70
     0
 62
     2
  6
DASHED
  0
LAYER
  2
41
 70
     0
 62
     7
  6
CONTINUOUS
  0
LAYER
  2
42
 70
     0
 62
     1
  6
CONTINUOUS
  0
LAYER
  2
43
 70
     0
 62
     1
  6
CENTER
  0
LAYER
  2
44
 70
     0
 62
     1
  6
DASHED
  0
LAYER
  2
45
 70
     0
 62
     2
  6
DASHED
  0
LAYER
  2
51
 70
     0
 62
     7
  6
CONTINUOUS
  0
LAYER
  2
52
 70
     0
 62
     1
  6
CONTINUOUS
  0
LAYER
  2
53
 70
     0
 62
     1
  6
CENTER
  0
LAYER
  2
54
 70
     0
 62
     1
  6
DASHED
  0
LAYER
  2
55
 70
     0
 62
     2
  6
DASHED
  0
LAYER
  2
61
 70
     0
 62
     7
  6
CONTINUOUS
  0
LAYER
  2
62
 70
     0
 62
     1
  6
CONTINUOUS
  0
LAYER
  2
64
 70
     0
 62
     1
  6
DASHED
  0
LAYER
  2
65
 70
     0
 62
     2
  6
DASHED
  0
ENDTAB
  0
TABLE
  2
STYLE
 70
     8
  0
STYLE
  2
STANDARD
 70
     0
 40
0.0
 41
1.0
 50
0.0
 71
     0
 42
3.5
  3
CAEISO
  4

  0
STYLE
  2
COMPLEX
 70
     0
 40
5.0
 41
1.0
 50
0.0
 71
     0
 42
5.0
  3
ROMANS.SHX
  4

  0
STYLE
  2
SIMPLEX
 70
     0
 40
2.5
 41
0.8
 50
0.0
 71
     0
 42
5.0
  3
SIMPLEX
  4

  0
STYLE
  2
CAEISO
 70
     0
 40
0.0
 41
1.0
 50
0.0
 71
     0
 42
1.0
  3
CAEISO
  4

  0
STYLE
  2
TXT
 70
     0
 40
0.0
 41
1.0
 50
0.0
 71
     0
 42
0.2
  3
TXT
  4

  0
STYLE
  2
USER
 70
     0
 40
0.0
 41
1.0
 50
0.0
 71
     0
 42
0.2
  3
KIRJAIN
  4

  0
STYLE
  2
ITALIC
 70
     0
 40
0.0
 41
1.0
 50
0.0
 71
     0
 42
0.2
  3
ITALIC
  4

  0
STYLE
  2
MONO
 70
     0
 40
0.0
 41
1.0
 50
0.0
 71
     0
 42
9.5
  3
MONOTXT
  4

  0
ENDTAB
  0
TABLE
  2
VIEW
 70
     0
  0
ENDTAB
  0
TABLE
  2
UCS
 70
     0
  0
ENDTAB
  0
TABLE
  2
APPID
 70
     1
  0
APPID
  2
ACAD
 70
     0
  0
ENDTAB
  0
TABLE
  2
DIMSTYLE
 70
     5
  0
DIMSTYLE
  2
ACADUS
 70
     0
  3

  4

  5

  6

  7

 40
1.0
 41
0.18
 42
0.0625
 43
0.38
 44
0.18
 45
0.0
 46
0.0
 47
0.0
 48
0.0
140
0.18
141
0.09
142
0.0
143
25.4
144
1.0
145
0.0
146
1.0
147
0.09
 71
     0
 72
     0
 73
     1
 74
     1
 75
     0
 76
     0
 77
     0
 78
     0
170
     0
171
     2
172
     0
173
     0
174
     0
175
     0
176
     0
177
     0
178
     0
  0
DIMSTYLE
  2
NORDIC
 70
     0
  3

  4

  5

  6

  7

 40
1.0
 41
3.5
 42
1.0
 43
10.0
 44
2.0
 45
0.0
 46
0.0
 47
0.0
 48
0.0
140
3.5
141
2.5
142
0.0
143
25.4
144
1.0
145
0.0
146
1.0
147
2.0
 71
     0
 72
     0
 73
     0
 74
     0
 75
     0
 76
     0
 77
     1
 78
     8
170
     0
171
     2
172
     1
173
     0
174
     0
175
     0
176
     0
177
     0
178
     0
  0
DIMSTYLE
  2
RADIAL
 70
     0
  3

  4

  5

  6

  7

 40
1.0
 41
3.5
 42
1.0
 43
10.0
 44
2.0
 45
0.0
 46
0.0
 47
0.0
 48
0.0
140
3.5
141
2.5
142
0.0
143
25.4
144
1.0
145
0.0
146
1.0
147
2.0
 71
     0
 72
     0
 73
     0
 74
     1
 75
     0
 76
     0
 77
     1
 78
     8
170
     0
171
     2
172
     0
173
     0
174
     0
175
     0
176
     0
177
     0
178
     0
  0
DIMSTYLE
  2
NORTOL
 70
     0
  3

  4

  5

  6

  7

 40
1.0
 41
3.5
 42
1.0
 43
10.0
 44
2.0
 45
0.0
 46
0.0
 47
0.2
 48
0.1
140
3.5
141
2.5
142
0.0
143
25.4
144
1.0
145
0.7
146
0.71
147
2.0
 71
     1
 72
     0
 73
     0
 74
     0
 75
     0
 76
     0
 77
     0
 78
     8
170
     0
171
     2
172
     1
173
     0
174
     0
175
     0
176
     0
177
     0
178
     0
  0
DIMSTYLE
  2
RADTOL
 70
     0
  3

  4

  5

  6

  7

 40
1.0
 41
3.5
 42
1.0
 43
10.0
 44
2.0
 45
0.0
 46
0.0
 47
0.2
 48
0.1
140
3.5
141
2.5
142
0.0
143
25.4
144
1.0
145
0.7
146
0.7
147
2.0
 71
     1
 72
     0
 73
     0
 74
     1
 75
     0
 76
     0
 77
     0
 78
     8
170
     0
171
     2
172
     0
173
     0
174
     0
175
     0
176
     0
177
     0
178
     0
  0
ENDTAB
  0
ENDSEC
  0
SECTION
  2
BLOCKS
  0
BLOCK
  8
0
  2
$MODEL_SPACE
 70
     0
 10
0.0
 20
0.0
 30
0.0
  3
$MODEL_SPACE
  1

  0
ENDBLK
  5
7C985
  8
0
  0
BLOCK
 67
     1
  8
0
  2
$PAPER_SPACE
 70
     0
 10
0.0
 20
0.0
 30
0.0
  3
$PAPER_SPACE
  1

  0
ENDBLK
  5
7C983
 67
     1
  8
0
  0
BLOCK
  8
0
  2
GEOTOL
 70
     0
 10
0.0
 20
0.0
 30
0.0
  3
GEOTOL
  1

  0
ENDBLK
  5
7187
  8
0
  0
ENDSEC
  0
SECTION
  2
ENTITIES
  0
TEXT
  5
24FA9
  8
0
  6
CONTINUOUS
 10
330.035074
 20
372.358918
 30
0.0
 40
2.5
  1
  
 50
21.66214
  0
LINE
  5
24FAE
  8
61
 10
552.64588
 20
298.022193
 30
0.0
 11
552.64588
 21
462.022199
 31
0.0
  0
LINE
  5
24FAF
  8
61
 10
563.44588
 20
287.222193
 30
0.0
 11
817.44588
 21
287.222193
 31
0.0
  0
LINE
  5
24FB2
  8
61
 10
560.278426
 20
309.732762
 30
0.0
 11
560.278426
 21
448.073292
 31
0.0
  0
LINE
  5
24FB3
  8
61
 10
575.121315
 20
294.77584
 30
0.0
 11
805.770445
 21
294.77584
 31
0.0
  0
LINE
  5
24FBA
  8
53
  6
DASHDOT
 10
62.0
 20
380.022193
 30
0.0
 11
339.172156
 21
380.022193
 31
0.0
  0
LINE
  5
24FBB
  8
52
 10
62.692352
 20
290.052209
 30
0.0
 11
54.030016
 21
298.714545
 31
0.0
  0
ARC
  5
24FBC
  8
52
 10
62.0
 20
298.022193
 30
0.0
 40
8.0
 50
97.645696
 51
175.035187
  0
ARC
  5
24FBD
  8
52
 10
62.0
 20
298.022193
 30
0.0
 40
8.0
 50
274.964813
 51
352.354304
  0
LINE
  5
24FBE
  8
52
 10
69.928878
 20
296.957818
 30
0.0
 11
60.935625
 21
305.951071
 31
0.0
  0
LINE
  5
24FBF
  8
51
 10
62.0
 20
287.222193
 30
0.0
 11
315.999995
 21
287.222193
 31
0.0
  0
LINE
  5
24FC0
  8
51
 10
51.2
 20
298.022193
 30
0.0
 11
51.2
 21
380.022193
 31
0.0
  0
ARC
  5
24FC1
  8
51
 10
62.0
 20
298.022193
 30
0.0
 40
10.8
 50
113.289549
 51
336.710451
  0
ARC
  5
24FC2
  8
51
 10
316.0
 20
298.022193
 30
0.0
 40
10.8
 50
203.289549
 51
66.710451
  0
LINE
  5
24FC3
  8
52
 10
323.969984
 20
298.714545
 30
0.0
 11
315.307648
 21
290.052209
 31
0.0
  0
LINE
  5
24FC4
  8
52
 10
317.064375
 20
305.951071
 30
0.0
 11
308.071122
 21
296.957818
 31
0.0
  0
ARC
  5
24FC5
  8
52
 10
316.0
 20
298.022193
 30
0.0
 40
8.0
 50
187.645696
 51
265.035187
  0
ARC
  5
24FC6
  8
52
 10
316.0
 20
298.022193
 30
0.0
 40
8.0
 50
4.964813
 51
82.354304
  0
LINE
  5
24FC7
  8
51
 10
59.2
 20
315.322193
 30
0.0
 11
59.2
 21
380.022193
 31
0.0
  0
LINE
  5
24FC8
  8
51
 10
79.3
 20
295.222193
 30
0.0
 11
298.700009
 21
295.222193
 31
0.0
  0
LINE
  5
24FC9
  8
52
 10
79.5
 20
293.722193
 30
0.0
 11
298.5
 21
293.722193
 31
0.0
  0
LINE
  5
24FCA
  8
52
 10
57.7
 20
315.522193
 30
0.0
 11
57.7
 21
380.022193
 31
0.0
  0
LINE
  5
24FCB
  8
52
 10
79.5
 20
289.322193
 30
0.0
 11
298.7
 21
289.322193
 31
0.0
  0
LINE
  5
24FCC
  8
52
 10
53.3
 20
315.522193
 30
0.0
 11
53.3
 21
380.022193
 31
0.0
  0
ARC
  5
24FCD
  8
51
 10
62.0
 20
298.022193
 30
0.0
 40
14.5
 50
360.0
 51
90.0
  0
ARC
  5
24FCE
  8
52
 10
62.0
 20
298.022193
 30
0.0
 40
13.2
 50
360.0
 51
90.0
  0
ARC
  5
24FCF
  8
52
 10
62.0
 20
298.022193
 30
0.0
 40
8.8
 50
360.0
 51
90.0
  0
ARC
  5
24FD4
  8
51
 10
79.3
 20
298.022193
 30
0.0
 40
2.8
 50
180.0
 51
270.0
  0
ARC
  5
24FD5
  8
51
 10
62.0
 20
315.322193
 30
0.0
 40
2.8
 50
180.0
 51
270.0
  0
ARC
  5
24FD6
  8
52
 10
62.0
 20
315.522193
 30
0.0
 40
4.3
 50
180.0
 51
270.0
  0
ARC
  5
24FD7
  8
52
 10
79.5
 20
298.022193
 30
0.0
 40
4.3
 50
180.0
 51
270.0
  0
ARC
  5
24FD8
  8
52
 10
62.0
 20
315.522193
 30
0.0
 40
8.7
 50
180.0
 51
270.0
  0
ARC
  5
24FD9
  8
52
 10
79.5
 20
298.022193
 30
0.0
 40
8.7
 50
180.0
 51
270.0
  0
ARC
  5
24FDA
  8
52
 10
316.0
 20
315.522193
 30
0.0
 40
8.7
 50
270.0
 51
0.0
  0
ARC
  5
24FDB
  8
52
 10
316.0
 20
298.022193
 30
0.0
 40
8.8
 50
90.0
 51
180.0
  0
ARC
  5
24FDC
  8
52
 10
298.5
 20
298.022193
 30
0.0
 40
8.7
 50
270.0
 51
0.0
  0
ARC
  5
24FDD
  8
52
 10
298.5
 20
298.022193
 30
0.0
 40
4.3
 50
270.0
 51
0.0
  0
ARC
  5
24FDE
  8
51
 10
316.0
 20
298.022193
 30
0.0
 40
14.5
 50
90.0
 51
180.0
  0
ARC
  5
24FDF
  8
52
 10
316.0
 20
298.022193
 30
0.0
 40
13.2
 50
90.0
 51
180.0
  0
ARC
  5
24FE0
  8
52
 10
316.0
 20
315.522193
 30
0.0
 40
4.3
 50
270.0
 51
0.0
  0
ARC
  5
24FE1
  8
51
 10
316.0
 20
315.322193
 30
0.0
 40
2.8
 50
270.0
 51
0.0
  0
ARC
  5
24FE2
  8
51
 10
298.7
 20
298.022193
 30
0.0
 40
2.8
 50
270.0
 51
0.0
  0
LINE
  5
25009
  8
63
  6
DASHDOT
 10
690.44588
 20
481.052499
 30
0.0
 11
690.44588
 21
276.693041
 31
0.0
  0
LINE
  5
2500D
  8
61
 10
828.24588
 20
298.022193
 30
0.0
 11
828.24588
 21
462.022193
 31
0.0
  0
LINE
  5
2500F
  8
61
 10
820.613334
 20
309.732762
 30
0.0
 11
820.613334
 21
450.311628
 31
0.0
  0
ARC
  5
2501B
  8
61
 10
558.278426
 20
450.311624
 30
0.0
 40
2.0
 50
0.0
 51
66.189853
  0
ARC
  5
2501C
  8
61
 10
575.121315
 20
467.268546
 30
0.0
 40
2.0
 50
204.196752
 51
270.0
  0
ARC
  5
2501D
  8
61
 10
577.390291
 20
463.268546
 30
0.0
 40
2.0
 50
90.0
 51
185.107531
  0
ARC
  5
2501E
  8
61
 10
562.278426
 20
448.070955
 30
0.0
 40
2.0
 50
85.216575
 51
180.0
  0
LINE
  5
2501F
  8
61
 10
575.121315
 20
465.268546
 30
0.0
 11
805.770445
 21
465.268546
 31
0.0
  0
LINE
  5
25021
  8
61
 10
571.374758
 20
463.086568
 30
0.0
 11
562.381505
 21
454.093315
 31
0.0
  0
LINE
  5
25022
  8
61
 10
564.138232
 20
469.992177
 30
0.0
 11
555.475896
 21
461.329842
 31
0.0
  0
LINE
  5
25023
  8
61
 10
563.44588
 20
472.822193
 30
0.0
 11
817.44588
 21
472.822193
 31
0.0
  0
ARC
  5
25024
  8
61
 10
563.44588
 20
462.022193
 30
0.0
 40
10.8
 50
24.196752
 51
246.189853
  0
ARC
  5
25025
  8
61
 10
563.44588
 20
462.022193
 30
0.0
 40
12.0
 50
265.216575
 51
5.107531
  0
LINE
  5
2502A
  8
61
 10
560.278426
 20
450.311624
 30
0.0
 11
560.278426
 21
448.535295
 31
0.0
  0
LINE
  5
2502B
  8
53
  6
DASHDOT
 10
189.0
 20
480.072916
 30
0.0
 11
189.0
 21
276.567096
 31
0.0
  0
LINE
  5
2502C
  8
53
 10
62.0
 20
380.022193
 30
0.0
 11
32.996367
 21
380.022193
 31
0.0
  0
LINE
  5
2502D
  8
53
 10
62.0
 20
380.022193
 30
0.0
 11
32.996367
 21
380.022193
 31
0.0
  0
LINE
  5
25032
  8
52
 10
315.307648
 20
469.992177
 30
0.0
 11
323.969984
 21
461.329842
 31
0.0
  0
ARC
  5
25033
  8
52
 10
316.0
 20
462.022193
 30
0.0
 40
8.0
 50
277.645696
 51
355.035187
  0
ARC
  5
25034
  8
52
 10
316.0
 20
462.022193
 30
0.0
 40
8.0
 50
94.964813
 51
172.354304
  0
LINE
  5
25035
  8
52
 10
308.071122
 20
463.086568
 30
0.0
 11
317.064375
 21
454.093315
 31
0.0
  0
ARC
  5
25036
  8
51
 10
316.0
 20
462.022193
 30
0.0
 40
10.8
 50
293.289549
 51
156.710451
  0
ARC
  5
25037
  8
51
 10
316.0
 20
462.022193
 30
0.0
 40
14.5
 50
180.0
 51
270.0
  0
ARC
  5
25038
  8
52
 10
316.0
 20
462.022193
 30
0.0
 40
13.2
 50
180.0
 51
270.0
  0
ARC
  5
25039
  8
52
 10
316.0
 20
462.022193
 30
0.0
 40
8.8
 50
180.0
 51
270.0
  0
ARC
  5
2503E
  8
51
 10
298.7
 20
462.022193
 30
0.0
 40
2.8
 50
360.0
 51
90.0
  0
ARC
  5
2503F
  8
51
 10
316.0
 20
444.722193
 30
0.0
 40
2.8
 50
0.0
 51
90.0
  0
ARC
  5
25040
  8
52
 10
316.0
 20
444.522193
 30
0.0
 40
4.3
 50
0.0
 51
90.0
  0
ARC
  5
25041
  8
52
 10
298.5
 20
462.022193
 30
0.0
 40
4.3
 50
360.0
 51
90.0
  0
ARC
  5
25042
  8
52
 10
316.0
 20
444.522193
 30
0.0
 40
8.7
 50
0.0
 51
90.0
  0
ARC
  5
25043
  8
52
 10
298.5
 20
462.022193
 30
0.0
 40
8.7
 50
360.0
 51
90.0
  0
ARC
  5
25044
  8
52
 10
79.5
 20
462.022193
 30
0.0
 40
8.7
 50
90.0
 51
180.0
  0
ARC
  5
25045
  8
52
 10
62.0
 20
444.522193
 30
0.0
 40
8.7
 50
90.0
 51
180.0
  0
ARC
  5
25046
  8
52
 10
79.5
 20
462.022193
 30
0.0
 40
4.3
 50
90.0
 51
180.0
  0
ARC
  5
25047
  8
52
 10
62.0
 20
444.522193
 30
0.0
 40
4.3
 50
90.0
 51
180.0
  0
ARC
  5
25048
  8
51
 10
62.0
 20
444.722193
 30
0.0
 40
2.8
 50
90.0
 51
180.0
  0
ARC
  5
25049
  8
51
 10
79.3
 20
462.022193
 30
0.0
 40
2.8
 50
90.0
 51
180.0
  0
ARC
  5
2504E
  8
52
 10
62.0
 20
462.022193
 30
0.0
 40
8.8
 50
270.0
 51
0.0
  0
ARC
  5
2504F
  8
52
 10
62.0
 20
462.022193
 30
0.0
 40
13.2
 50
270.0
 51
0.0
  0
ARC
  5
25050
  8
51
 10
62.0
 20
462.022193
 30
0.0
 40
14.5
 50
270.0
 51
0.0
  0
LINE
  5
25051
  8
52
 10
53.3
 20
444.522193
 30
0.0
 11
53.3
 21
380.022193
 31
0.0
  0
LINE
  5
25052
  8
52
 10
79.5
 20
470.722193
 30
0.0
 11
298.7
 21
470.722193
 31
0.0
  0
LINE
  5
25053
  8
52
 10
57.7
 20
444.522193
 30
0.0
 11
57.7
 21
380.022193
 31
0.0
  0
LINE
  5
25054
  8
52
 10
79.5
 20
466.322193
 30
0.0
 11
298.5
 21
466.322193
 31
0.0
  0
LINE
  5
25055
  8
51
 10
79.3
 20
464.822193
 30
0.0
 11
298.700009
 21
464.822193
 31
0.0
  0
LINE
  5
25056
  8
51
 10
59.2
 20
444.722193
 30
0.0
 11
59.2
 21
380.022193
 31
0.0
  0
ARC
  5
25057
  8
51
 10
62.0
 20
462.022193
 30
0.0
 40
10.8
 50
23.289549
 51
246.710451
  0
LINE
  5
25058
  8
51
 10
51.2
 20
462.022193
 30
0.0
 11
51.2
 21
380.022193
 31
0.0
  0
LINE
  5
25059
  8
51
 10
62.0
 20
472.822193
 30
0.0
 11
315.999995
 21
472.822193
 31
0.0
  0
LINE
  5
2505A
  8
52
 10
69.928878
 20
463.086568
 30
0.0
 11
60.935625
 21
454.093315
 31
0.0
  0
ARC
  5
2505B
  8
52
 10
62.0
 20
462.022193
 30
0.0
 40
8.0
 50
7.645696
 51
85.035187
  0
ARC
  5
2505C
  8
52
 10
62.0
 20
462.022193
 30
0.0
 40
8.0
 50
184.964813
 51
262.354304
  0
LINE
  5
2505D
  8
52
 10
62.692352
 20
469.992177
 30
0.0
 11
54.030016
 21
461.329842
 31
0.0
  0
LINE
  5
25062
  8
51
 10
318.8
 20
315.322193
 30
0.0
 11
318.8
 21
380.022193
 31
0.0
  0
LINE
  5
25063
  8
52
 10
320.295346
 20
315.322193
 30
0.0
 11
320.295346
 21
444.722193
 31
0.0
  0
LINE
  5
25064
  8
52
 10
324.697701
 20
315.322193
 30
0.0
 11
324.697701
 21
444.722193
 31
0.0
  0
LINE
  5
25065
  8
51
 10
326.8
 20
298.022193
 30
0.0
 11
326.8
 21
462.022193
 31
0.0
  0
CIRCLE
  5
2506A
  8
61
 10
563.44588
 20
462.022193
 30
0.0
 40
8.0
  0
ARC
  5
2506B
  8
61
 10
563.44588
 20
462.022193
 30
0.0
 40
10.0
 50
277.519679
 51
352.493404
  0
LINE
  5
2506C
  8
61
 10
559.087511
 20
454.782917
 30
0.0
 11
563.17738
 21
452.42163
 31
0.0
  0
LINE
  5
2506D
  8
61
 10
570.723633
 20
466.316003
 30
0.0
 11
573.046667
 21
462.292391
 31
0.0
  0
ARC
  5
2506E
  8
61
 10
563.44588
 20
462.022193
 30
0.0
 40
8.45
 50
29.459771
 51
238.950175
  0
LINE
  5
2506F
  8
61
 10
559.319614
 20
455.16844
 30
0.0
 11
563.267605
 21
452.889066
 31
0.0
  0
LINE
  5
25070
  8
61
 10
570.331818
 20
466.094688
 30
0.0
 11
572.579246
 21
462.202027
 31
0.0
  0
ARC
  5
25071
  8
61
 10
563.44588
 20
462.022193
 30
0.0
 40
9.55
 50
278.743877
 51
351.268945
  0
ARC
  5
25072
  8
61
 10
564.517605
 20
455.05413
 30
0.0
 40
2.5
 50
240.0
 51
278.743877
  0
ARC
  5
25073
  8
61
 10
570.414183
 20
460.952027
 30
0.0
 40
2.5
 50
351.268945
 51
30.0
  0
ARC
  5
25074
  8
61
 10
564.42738
 20
454.586693
 30
0.0
 40
2.5
 50
240.0
 51
277.519679
  0
ARC
  5
25075
  8
61
 10
570.881604
 20
461.042391
 30
0.0
 40
2.5
 50
352.493404
 51
30.0
  0
ARC
  5
25076
  8
61
 10
570.881604
 20
299.001996
 30
0.0
 40
2.5
 50
330.0
 51
7.506596
  0
ARC
  5
25077
  8
61
 10
564.42738
 20
305.457693
 30
0.0
 40
2.5
 50
82.480321
 51
120.0
  0
ARC
  5
25078
  8
61
 10
570.414183
 20
299.092359
 30
0.0
 40
2.5
 50
330.0
 51
8.731055
  0
ARC
  5
25079
  8
61
 10
564.517605
 20
304.990256
 30
0.0
 40
2.5
 50
81.256123
 51
120.0
  0
ARC
  5
2507A
  8
61
 10
563.44588
 20
298.022193
 30
0.0
 40
9.55
 50
8.731055
 51
81.256123
  0
LINE
  5
2507B
  8
61
 10
570.331818
 20
293.949699
 30
0.0
 11
572.579246
 21
297.842359
 31
0.0
  0
LINE
  5
2507C
  8
61
 10
559.319614
 20
304.875946
 30
0.0
 11
563.267605
 21
307.15532
 31
0.0
  0
ARC
  5
2507D
  8
61
 10
563.44588
 20
298.022193
 30
0.0
 40
8.45
 50
121.049825
 51
330.540229
  0
LINE
  5
2507E
  8
61
 10
570.723633
 20
293.728383
 30
0.0
 11
573.046667
 21
297.751996
 31
0.0
  0
LINE
  5
2507F
  8
61
 10
559.087511
 20
305.26147
 30
0.0
 11
563.17738
 21
307.622756
 31
0.0
  0
ARC
  5
25080
  8
61
 10
563.44588
 20
298.022193
 30
0.0
 40
10.0
 50
7.506596
 51
82.480321
  0
CIRCLE
  5
25081
  8
61
 10
563.44588
 20
298.022193
 30
0.0
 40
8.0
  0
LINE
  5
25082
  8
61
 10
560.278426
 20
309.732762
 30
0.0
 11
560.278426
 21
311.509091
 31
0.0
  0
ARC
  5
25083
  8
61
 10
563.44588
 20
298.022193
 30
0.0
 40
12.0
 50
354.892469
 51
94.783425
  0
ARC
  5
25084
  8
61
 10
563.44588
 20
298.022193
 30
0.0
 40
10.8
 50
113.810147
 51
335.803248
  0
LINE
  5
25085
  8
61
 10
564.138232
 20
290.052209
 30
0.0
 11
555.475896
 21
298.714545
 31
0.0
  0
LINE
  5
25086
  8
61
 10
571.374758
 20
296.957818
 30
0.0
 11
562.381505
 21
305.951071
 31
0.0
  0
ARC
  5
25087
  8
61
 10
562.278426
 20
311.973432
 30
0.0
 40
2.0
 50
180.0
 51
274.783425
  0
ARC
  5
25088
  8
61
 10
577.390291
 20
296.77584
 30
0.0
 40
2.0
 50
174.892469
 51
270.0
  0
ARC
  5
25089
  8
61
 10
575.121315
 20
292.77584
 30
0.0
 40
2.0
 50
90.0
 51
155.803248
  0
ARC
  5
2508A
  8
61
 10
558.278426
 20
309.732762
 30
0.0
 40
2.0
 50
293.810147
 51
0.0
  0
ARC
  5
2508B
  8
61
 10
822.613334
 20
309.732762
 30
0.0
 40
2.0
 50
180.0
 51
246.189853
  0
ARC
  5
2508C
  8
61
 10
805.770445
 20
292.77584
 30
0.0
 40
2.0
 50
24.196752
 51
90.0
  0
ARC
  5
2508D
  8
61
 10
803.501469
 20
296.77584
 30
0.0
 40
2.0
 50
270.0
 51
5.107531
  0
ARC
  5
2508E
  8
61
 10
818.613334
 20
311.973432
 30
0.0
 40
2.0
 50
265.216575
 51
360.0
  0
LINE
  5
2508F
  8
61
 10
809.517002
 20
296.957818
 30
0.0
 11
818.510255
 21
305.951071
 31
0.0
  0
LINE
  5
25090
  8
61
 10
816.753528
 20
290.052209
 30
0.0
 11
825.415864
 21
298.714545
 31
0.0
  0
ARC
  5
25091
  8
61
 10
817.44588
 20
298.022193
 30
0.0
 40
10.8
 50
204.196752
 51
66.189853
  0
ARC
  5
25092
  8
61
 10
817.44588
 20
298.022193
 30
0.0
 40
12.0
 50
85.216575
 51
185.107531
  0
LINE
  5
25093
  8
61
 10
820.613334
 20
309.732762
 30
0.0
 11
820.613334
 21
311.509091
 31
0.0
  0
CIRCLE
  5
25094
  8
61
 10
817.44588
 20
298.022193
 30
0.0
 40
8.0
  0
ARC
  5
25095
  8
61
 10
817.44588
 20
298.022193
 30
0.0
 40
10.0
 50
97.519679
 51
172.493404
  0
LINE
  5
25096
  8
61
 10
821.804249
 20
305.26147
 30
0.0
 11
817.71438
 21
307.622756
 31
0.0
  0
LINE
  5
25097
  8
61
 10
810.168127
 20
293.728383
 30
0.0
 11
807.845093
 21
297.751996
 31
0.0
  0
ARC
  5
25098
  8
61
 10
817.44588
 20
298.022193
 30
0.0
 40
8.45
 50
209.459771
 51
58.950175
  0
LINE
  5
25099
  8
61
 10
821.572146
 20
304.875946
 30
0.0
 11
817.624155
 21
307.15532
 31
0.0
  0
LINE
  5
2509A
  8
61
 10
810.559942
 20
293.949699
 30
0.0
 11
808.312514
 21
297.842359
 31
0.0
  0
ARC
  5
2509B
  8
61
 10
817.44588
 20
298.022193
 30
0.0
 40
9.55
 50
98.743877
 51
171.268945
  0
ARC
  5
2509C
  8
61
 10
816.374155
 20
304.990256
 30
0.0
 40
2.5
 50
60.0
 51
98.743877
  0
ARC
  5
2509D
  8
61
 10
810.477577
 20
299.092359
 30
0.0
 40
2.5
 50
171.268945
 51
210.0
  0
ARC
  5
2509E
  8
61
 10
816.46438
 20
305.457693
 30
0.0
 40
2.5
 50
60.0
 51
97.519679
  0
ARC
  5
2509F
  8
61
 10
810.010156
 20
299.001996
 30
0.0
 40
2.5
 50
172.493404
 51
210.0
  0
ARC
  5
250A0
  8
61
 10
810.010156
 20
461.042391
 30
0.0
 40
2.5
 50
150.0
 51
187.506596
  0
ARC
  5
250A1
  8
61
 10
816.46438
 20
454.586693
 30
0.0
 40
2.5
 50
262.480321
 51
300.0
  0
ARC
  5
250A2
  8
61
 10
810.477577
 20
460.952027
 30
0.0
 40
2.5
 50
150.0
 51
188.731055
  0
ARC
  5
250A3
  8
61
 10
816.374155
 20
455.05413
 30
0.0
 40
2.5
 50
261.256123
 51
300.0
  0
ARC
  5
250A4
  8
61
 10
817.44588
 20
462.022193
 30
0.0
 40
9.55
 50
188.731055
 51
261.256123
  0
LINE
  5
250A5
  8
61
 10
810.559942
 20
466.094688
 30
0.0
 11
808.312514
 21
462.202027
 31
0.0
  0
LINE
  5
250A6
  8
61
 10
821.572146
 20
455.16844
 30
0.0
 11
817.624155
 21
452.889066
 31
0.0
  0
ARC
  5
250A7
  8
61
 10
817.44588
 20
462.022193
 30
0.0
 40
8.45
 50
301.049825
 51
150.540229
  0
LINE
  5
250A8
  8
61
 10
810.168127
 20
466.316003
 30
0.0
 11
807.845093
 21
462.292391
 31
0.0
  0
LINE
  5
250A9
  8
61
 10
821.804249
 20
454.782917
 30
0.0
 11
817.71438
 21
452.42163
 31
0.0
  0
ARC
  5
250AA
  8
61
 10
817.44588
 20
462.022193
 30
0.0
 40
10.0
 50
187.506596
 51
262.480321
  0
CIRCLE
  5
250AB
  8
61
 10
817.44588
 20
462.022193
 30
0.0
 40
8.0
  0
LINE
  5
250AC
  8
61
 10
820.613334
 20
450.311624
 30
0.0
 11
820.613334
 21
448.535295
 31
0.0
  0
ARC
  5
250AD
  8
61
 10
817.44588
 20
462.022193
 30
0.0
 40
12.0
 50
174.892469
 51
274.783425
  0
ARC
  5
250AE
  8
61
 10
817.44588
 20
462.022193
 30
0.0
 40
10.8
 50
293.810147
 51
155.803248
  0
LINE
  5
250AF
  8
61
 10
816.753528
 20
469.992177
 30
0.0
 11
825.415864
 21
461.329842
 31
0.0
  0
LINE
  5
250B0
  8
61
 10
809.517002
 20
463.086568
 30
0.0
 11
818.510255
 21
454.093315
 31
0.0
  0
ARC
  5
250B1
  8
61
 10
818.613334
 20
448.070955
 30
0.0
 40
2.0
 50
0.0
 51
94.783425
  0
ARC
  5
250B2
  8
61
 10
803.501469
 20
463.268546
 30
0.0
 40
2.0
 50
354.892469
 51
90.0
  0
ARC
  5
250B3
  8
61
 10
805.770445
 20
467.268546
 30
0.0
 40
2.0
 50
270.0
 51
335.803248
  0
ARC
  5
250B4
  8
61
 10
822.613334
 20
450.311624
 30
0.0
 40
2.0
 50
113.810147
 51
180.0
  0
ARC
  5
250B5
  8
51
 10
825.327278
 20
352.657739
 30
0.0
 40
507.032791
 50
185.059524
 51
185.059524
  0
LINE
  5
250B6
  8
51
 10
318.8
 20
380.022193
 30
0.0
 11
318.8
 21
444.722193
 31
0.0
  0
LINE
  5
250F9
  8
63
 10
835.915662
 20
380.022193
 30
0.0
 11
538.21714
 21
380.022193
 31
0.0
  0
TEXT
  5
25179
  8
0
  6
CONTINUOUS
 10
351.035074
 20
974.358918
 30
0.0
 40
2.5
  1
  
 50
21.66214
  0
TEXT
  5
251EC
  8
0
  6
CONTINUOUS
 10
595.035074
 20
986.358918
 30
0.0
 40
2.5
  1
  
 50
21.66214
  0
TEXT
  5
7C72A
  8
0
  6
CONTINUOUS
 10
412.035074
 20
959.358918
 30
0.0
 40
2.5
  1
  
 50
21.66214
  0
TEXT
  5
7C7DB
  8
0
  6
CONTINUOUS
 10
433.035074
 20
1561.358918
 30
0.0
 40
2.5
  1
  
 50
21.66214
  0
TEXT
  5
7C7DC
  8
0
  6
CONTINUOUS
 10
677.035074
 20
1573.358918
 30
0.0
 40
2.5
  1
  
 50
21.66214
  0
TEXT
  5
7C7E0
  8
0
  6
CONTINUOUS
 10
405.295817
 20
1570.470837
 30
0.0
 40
2.5
  1
  
 50
21.66214
  0
INSERT
  5
7C801
  8
L32
  2
GEOTOL
 10
544.289574
 20
1296.889725
 30
0.0
  0
INSERT
  5
7C802
  8
L32
  2
GEOTOL
 10
75.260742
 20
1198.111918
 30
0.0
  0
LINE
  5
7C809
  8
34
 10
895.972325
 20
312.567794
 30
0.0
 11
969.972325
 21
312.567794
 31
0.0
  0
LINE
  5
7C80A
  8
34
 10
972.972325
 20
380.022193
 30
0.0
 11
972.972325
 21
315.567794
 31
0.0
  0
LINE
  5
7C80B
  8
34
 10
972.972325
 20
380.022193
 30
0.0
 11
972.972325
 21
444.621758
 31
0.0
  0
ARC
  5
7C80C
  8
34
 10
969.97584
 20
444.476594
 30
0.0
 40
3.0
 50
357.226485
 51
90.067002
  0
LINE
  5
7C80D
  8
34
 10
895.972325
 20
447.476592
 30
0.0
 11
969.972331
 21
447.476592
 31
0.0
  0
ARC
  5
7C80E
  8
31
 10
924.711097
 20
297.608487
 30
0.0
 40
22.256656
 50
149.582163
 51
177.702934
  0
LINE
  5
7C80F
  8
31
 10
970.769723
 20
308.750941
 30
0.0
 11
905.517934
 21
308.877082
 31
0.0
  0
ARC
  5
7C810
  8
31
 10
970.269723
 20
314.730116
 30
0.0
 40
6.0
 50
275.0
 51
0.0
  0
LINE
  5
7C811
  8
31
 10
970.769723
 20
308.750941
 30
0.0
 11
970.792658
 21
308.752947
 31
0.0
  0
LINE
  5
7C812
  8
31
 10
895.472325
 20
306.747193
 30
0.0
 11
895.972325
 21
306.747193
 31
0.0
  0
LINE
  5
7C813
  8
31
 10
970.769723
 20
292.816155
 30
0.0
 11
970.792658
 21
292.818161
 31
0.0
  0
LINE
  5
7C814
  8
31
 10
902.53966
 20
287.140762
 30
0.0
 11
970.769723
 21
287.44505
 31
0.0
  0
LINE
  5
7C815
  8
31
 10
895.972325
 20
307.856894
 30
0.0
 11
895.972325
 21
308.755119
 31
0.0
  0
LINE
  5
7C816
  8
31
 10
895.472325
 20
307.856894
 30
0.0
 11
895.472325
 21
287.017401
 31
0.0
  0
LINE
  5
7C817
  8
31
 10
895.472325
 20
287.017401
 30
0.0
 11
895.972325
 21
287.026128
 31
0.0
  0
LINE
  5
7C818
  8
31
 10
970.769723
 20
308.750941
 30
0.0
 11
970.769723
 21
287.44505
 31
0.0
  0
LINE
  5
7C819
  8
31
 10
895.472325
 20
307.856894
 30
0.0
 11
895.972325
 21
307.856894
 31
0.0
  0
LINE
  5
7C81A
  8
31
 10
901.296278
 20
287.119058
 30
0.0
 11
902.53966
 21
287.140762
 31
0.0
  0
LINE
  5
7C81B
  8
31
 10
895.972325
 20
297.826761
 30
0.0
 11
895.972325
 21
307.856894
 31
0.0
  0
LINE
  5
7C81C
  8
31
 10
895.972325
 20
287.026128
 30
0.0
 11
901.298564
 21
287.119098
 31
0.0
  0
LINE
  5
7C81D
  8
31
 10
976.269723
 20
308.755119
 30
0.0
 11
976.269723
 21
300.361095
 31
0.0
  0
ARC
  5
7C81E
  8
31
 10
970.156524
 20
301.167135
 30
0.0
 40
6.16611
 50
275.921525
 51
352.48874
  0
LINE
  5
7C81F
  8
31
 10
895.472325
 20
473.026353
 30
0.0
 11
895.472325
 21
452.186859
 31
0.0
  0
LINE
  5
7C820
  8
31
 10
970.769723
 20
472.598704
 30
0.0
 11
970.769723
 21
450.183111
 31
0.0
  0
LINE
  5
7C821
  8
31
 10
895.472325
 20
473.026353
 30
0.0
 11
970.769723
 21
472.598704
 31
0.0
  0
LINE
  5
7C822
  8
31
 10
970.769723
 20
466.117898
 30
0.0
 11
970.792658
 21
466.115891
 31
0.0
  0
ARC
  5
7C823
  8
31
 10
970.269723
 20
460.138723
 30
0.0
 40
6.0
 50
0.0
 51
85.0
  0
LINE
  5
7C824
  8
31
 10
895.472325
 20
452.186859
 30
0.0
 11
895.972325
 21
452.186859
 31
0.0
  0
LINE
  5
7C825
  8
31
 10
970.769723
 20
450.183111
 30
0.0
 11
970.792658
 21
450.181105
 31
0.0
  0
ARC
  5
7C826
  8
31
 10
970.269723
 20
444.203937
 30
0.0
 40
6.0
 50
0.0
 51
85.0
  0
LINE
  5
7C827
  8
31
 10
970.769723
 20
450.183111
 30
0.0
 11
905.517934
 21
450.05697
 31
0.0
  0
ARC
  5
7C828
  8
31
 10
924.711097
 20
461.325565
 30
0.0
 40
22.256656
 50
182.297066
 51
210.417837
  0
LINE
  5
7C829
  8
32
 10
970.291007
 20
308.755119
 30
0.0
 11
970.291007
 21
450.178934
 31
0.0
  0
LINE
  5
7C82A
  8
32
 10
905.517934
 20
450.05697
 30
0.0
 11
905.517934
 21
308.755119
 31
0.0
  0
LINE
  5
7C82B
  8
31
 10
902.472325
 20
297.826761
 30
0.0
 11
902.472325
 21
472.904168
 31
0.0
  0
LINE
  5
7C82C
  8
31
 10
895.972325
 20
308.755119
 30
0.0
 11
895.972325
 21
462.217626
 31
0.0
  0
LINE
  5
7C82D
  8
31
 10
976.269723
 20
308.755119
 30
0.0
 11
976.269723
 21
460.138723
 31
0.0
  0
LINE
  5
7C82E
  8
33
  6
DASHDOT
 10
888.468073
 20
380.022193
 30
0.0
 11
984.890276
 21
380.022193
 31
0.0
  0
LINE
  5
7C855
  8
24
 10
577.991481
 20
554.080565
 30
0.0
 11
577.991481
 21
628.080565
 31
0.0
  0
LINE
  5
7C856
  8
24
 10
690.44588
 20
631.080565
 30
0.0
 11
580.991481
 21
631.080565
 31
0.0
  0
LINE
  5
7C857
  8
24
 10
690.44588
 20
631.080565
 30
0.0
 11
800.045445
 21
631.080565
 31
0.0
  0
ARC
  5
7C858
  8
24
 10
799.900281
 20
628.08408
 30
0.0
 40
3.0
 50
359.932998
 51
92.773515
  0
LINE
  5
7C859
  8
24
 10
802.900279
 20
554.080565
 30
0.0
 11
802.900279
 21
628.080571
 31
0.0
  0
ARC
  5
7C85A
  8
21
 10
563.032174
 20
582.819338
 30
0.0
 40
22.256656
 50
272.297066
 51
300.417837
  0
LINE
  5
7C85B
  8
21
 10
574.174628
 20
628.877964
 30
0.0
 11
574.300769
 21
563.626174
 31
0.0
  0
ARC
  5
7C85C
  8
21
 10
580.153802
 20
628.377964
 30
0.0
 40
6.0
 50
90.0
 51
175.0
  0
LINE
  5
7C85D
  8
21
 10
574.174628
 20
628.877964
 30
0.0
 11
574.176634
 21
628.900898
 31
0.0
  0
LINE
  5
7C85E
  8
21
 10
572.17088
 20
553.580565
 30
0.0
 11
572.17088
 21
554.080565
 31
0.0
  0
LINE
  5
7C85F
  8
21
 10
558.239841
 20
628.877964
 30
0.0
 11
558.241848
 21
628.900898
 31
0.0
  0
LINE
  5
7C860
  8
21
 10
552.564448
 20
560.6479
 30
0.0
 11
552.868737
 21
628.877964
 31
0.0
  0
LINE
  5
7C861
  8
21
 10
573.280581
 20
554.080565
 30
0.0
 11
574.178805
 21
554.080565
 31
0.0
  0
LINE
  5
7C862
  8
21
 10
573.280581
 20
553.580565
 30
0.0
 11
552.441088
 21
553.580565
 31
0.0
  0
LINE
  5
7C863
  8
21
 10
552.441088
 20
553.580565
 30
0.0
 11
552.449815
 21
554.080565
 31
0.0
  0
LINE
  5
7C864
  8
21
 10
574.174628
 20
628.877964
 30
0.0
 11
552.868737
 21
628.877964
 31
0.0
  0
LINE
  5
7C865
  8
21
 10
573.280581
 20
553.580565
 30
0.0
 11
573.280581
 21
554.080565
 31
0.0
  0
LINE
  5
7C866
  8
21
 10
552.542745
 20
559.404518
 30
0.0
 11
552.564448
 21
560.6479
 31
0.0
  0
LINE
  5
7C867
  8
21
 10
563.250448
 20
554.080565
 30
0.0
 11
573.280581
 21
554.080565
 31
0.0
  0
LINE
  5
7C868
  8
21
 10
552.449815
 20
554.080565
 30
0.0
 11
552.542785
 21
559.406804
 31
0.0
  0
LINE
  5
7C869
  8
21
 10
574.178805
 20
634.377964
 30
0.0
 11
565.784782
 21
634.377964
 31
0.0
  0
ARC
  5
7C86A
  8
21
 10
566.590822
 20
628.264764
 30
0.0
 40
6.16611
 50
97.51126
 51
174.078475
  0
LINE
  5
7C86B
  8
21
 10
828.45004
 20
553.580565
 30
0.0
 11
807.610546
 21
553.580565
 31
0.0
  0
LINE
  5
7C86C
  8
21
 10
828.022391
 20
628.877964
 30
0.0
 11
805.606798
 21
628.877964
 31
0.0
  0
LINE
  5
7C86D
  8
21
 10
828.45004
 20
553.580565
 30
0.0
 11
828.022391
 21
628.877964
 31
0.0
  0
LINE
  5
7C86E
  8
21
 10
821.541584
 20
628.877964
 30
0.0
 11
821.539578
 21
628.900898
 31
0.0
  0
ARC
  5
7C86F
  8
21
 10
815.56241
 20
628.377964
 30
0.0
 40
6.0
 50
5.0
 51
90.0
  0
LINE
  5
7C870
  8
21
 10
807.610546
 20
553.580565
 30
0.0
 11
807.610546
 21
554.080565
 31
0.0
  0
LINE
  5
7C871
  8
21
 10
805.606798
 20
628.877964
 30
0.0
 11
805.604792
 21
628.900898
 31
0.0
  0
ARC
  5
7C872
  8
21
 10
799.627624
 20
628.377964
 30
0.0
 40
6.0
 50
5.0
 51
90.0
  0
LINE
  5
7C873
  8
21
 10
805.606798
 20
628.877964
 30
0.0
 11
805.480657
 21
563.626174
 31
0.0
  0
ARC
  5
7C874
  8
21
 10
816.749252
 20
582.819338
 30
0.0
 40
22.256656
 50
239.582163
 51
267.702934
  0
LINE
  5
7C875
  8
22
 10
574.178805
 20
628.399247
 30
0.0
 11
805.602621
 21
628.399247
 31
0.0
  0
LINE
  5
7C876
  8
22
 10
805.480657
 20
563.626174
 30
0.0
 11
574.178805
 21
563.626174
 31
0.0
  0
LINE
  5
7C877
  8
21
 10
563.250448
 20
560.580565
 30
0.0
 11
828.327854
 21
560.580565
 31
0.0
  0
LINE
  5
7C878
  8
21
 10
574.178805
 20
554.080565
 30
0.0
 11
817.641312
 21
554.080565
 31
0.0
  0
LINE
  5
7C879
  8
21
 10
574.178805
 20
634.377964
 30
0.0
 11
815.56241
 21
634.377964
 31
0.0
  0
LINE
  5
7C87A
  8
23
  6
DASHDOT
 10
690.44588
 20
546.576313
 30
0.0
 11
690.44588
 21
642.998516
 31
0.0
  0
LINE
  5
7C87B
  8
43
  6
DASHDOT
 10
492.423687
 20
380.022193
 30
0.0
 11
396.001484
 21
380.022193
 31
0.0
  0
LINE
  5
7C87C
  8
41
 10
404.622036
 20
308.755119
 30
0.0
 11
404.622036
 21
460.138723
 31
0.0
  0
LINE
  5
7C87D
  8
41
 10
484.919435
 20
308.755119
 30
0.0
 11
484.919435
 21
462.217626
 31
0.0
  0
LINE
  5
7C87E
  8
41
 10
478.419435
 20
297.826761
 30
0.0
 11
478.419435
 21
472.904168
 31
0.0
  0
LINE
  5
7C87F
  8
42
 10
475.373826
 20
450.05697
 30
0.0
 11
475.373826
 21
308.755119
 31
0.0
  0
LINE
  5
7C880
  8
42
 10
410.600753
 20
308.755119
 30
0.0
 11
410.600753
 21
450.178934
 31
0.0
  0
ARC
  5
7C881
  8
41
 10
456.180662
 20
461.325565
 30
0.0
 40
22.256656
 50
329.582163
 51
357.702934
  0
LINE
  5
7C882
  8
41
 10
410.122036
 20
450.183111
 30
0.0
 11
475.373826
 21
450.05697
 31
0.0
  0
ARC
  5
7C883
  8
41
 10
410.622036
 20
444.203937
 30
0.0
 40
6.0
 50
95.0
 51
180.0
  0
LINE
  5
7C884
  8
41
 10
410.122036
 20
450.183111
 30
0.0
 11
410.099102
 21
450.181105
 31
0.0
  0
LINE
  5
7C885
  8
41
 10
485.419435
 20
452.186859
 30
0.0
 11
484.919435
 21
452.186859
 31
0.0
  0
ARC
  5
7C886
  8
41
 10
410.622036
 20
460.138723
 30
0.0
 40
6.0
 50
95.0
 51
180.0
  0
LINE
  5
7C887
  8
41
 10
410.122036
 20
466.117898
 30
0.0
 11
410.099102
 21
466.115891
 31
0.0
  0
LINE
  5
7C888
  8
41
 10
485.419435
 20
473.026353
 30
0.0
 11
410.122036
 21
472.598704
 31
0.0
  0
LINE
  5
7C889
  8
41
 10
410.122036
 20
472.598704
 30
0.0
 11
410.122036
 21
450.183111
 31
0.0
  0
LINE
  5
7C88A
  8
41
 10
485.419435
 20
473.026353
 30
0.0
 11
485.419435
 21
452.186859
 31
0.0
  0
ARC
  5
7C88B
  8
41
 10
410.735236
 20
301.167135
 30
0.0
 40
6.16611
 50
187.51126
 51
264.078475
  0
LINE
  5
7C88C
  8
41
 10
404.622036
 20
308.755119
 30
0.0
 11
404.622036
 21
300.361095
 31
0.0
  0
LINE
  5
7C88D
  8
41
 10
484.919435
 20
287.026128
 30
0.0
 11
479.593196
 21
287.119098
 31
0.0
  0
LINE
  5
7C88E
  8
41
 10
484.919435
 20
297.826761
 30
0.0
 11
484.919435
 21
307.856894
 31
0.0
  0
LINE
  5
7C88F
  8
41
 10
479.595482
 20
287.119058
 30
0.0
 11
478.3521
 21
287.140762
 31
0.0
  0
LINE
  5
7C890
  8
41
 10
485.419435
 20
307.856894
 30
0.0
 11
484.919435
 21
307.856894
 31
0.0
  0
LINE
  5
7C891
  8
41
 10
410.122036
 20
308.750941
 30
0.0
 11
410.122036
 21
287.44505
 31
0.0
  0
LINE
  5
7C892
  8
41
 10
485.419435
 20
287.017401
 30
0.0
 11
484.919435
 21
287.026128
 31
0.0
  0
LINE
  5
7C893
  8
41
 10
485.419435
 20
307.856894
 30
0.0
 11
485.419435
 21
287.017401
 31
0.0
  0
LINE
  5
7C894
  8
41
 10
484.919435
 20
307.856894
 30
0.0
 11
484.919435
 21
308.755119
 31
0.0
  0
LINE
  5
7C895
  8
41
 10
478.3521
 20
287.140762
 30
0.0
 11
410.122036
 21
287.44505
 31
0.0
  0
LINE
  5
7C896
  8
41
 10
410.122036
 20
292.816155
 30
0.0
 11
410.099102
 21
292.818161
 31
0.0
  0
LINE
  5
7C897
  8
41
 10
485.419435
 20
306.747193
 30
0.0
 11
484.919435
 21
306.747193
 31
0.0
  0
LINE
  5
7C898
  8
41
 10
410.122036
 20
308.750941
 30
0.0
 11
410.099102
 21
308.752947
 31
0.0
  0
ARC
  5
7C899
  8
41
 10
410.622036
 20
314.730116
 30
0.0
 40
6.0
 50
180.0
 51
265.0
  0
LINE
  5
7C89A
  8
41
 10
410.122036
 20
308.750941
 30
0.0
 11
475.373826
 21
308.877082
 31
0.0
  0
ARC
  5
7C89B
  8
41
 10
456.180662
 20
297.608487
 30
0.0
 40
22.256656
 50
2.297066
 51
30.417837
  0
LINE
  5
7C89C
  8
44
 10
484.919435
 20
447.476592
 30
0.0
 11
410.919429
 21
447.476592
 31
0.0
  0
ARC
  5
7C89D
  8
44
 10
410.91592
 20
444.476594
 30
0.0
 40
3.0
 50
89.932998
 51
182.773515
  0
LINE
  5
7C89E
  8
44
 10
407.919435
 20
380.022193
 30
0.0
 11
407.919435
 21
444.621758
 31
0.0
  0
LINE
  5
7C89F
  8
44
 10
407.919435
 20
380.022193
 30
0.0
 11
407.919435
 21
315.567794
 31
0.0
  0
LINE
  5
7C8A0
  8
44
 10
484.919435
 20
312.567794
 30
0.0
 11
410.919435
 21
312.567794
 31
0.0
  0
LINE
  5
7C8A1
  8
11
 10
574.178805
 20
205.963821
 30
0.0
 11
817.641312
 21
205.963821
 31
0.0
  0
LINE
  5
7C8A2
  8
11
 10
563.250448
 20
199.463821
 30
0.0
 11
828.327854
 21
199.463821
 31
0.0
  0
LINE
  5
7C8A3
  8
12
 10
805.480657
 20
196.418212
 30
0.0
 11
574.178805
 21
196.418212
 31
0.0
  0
LINE
  5
7C8A4
  8
12
 10
574.178805
 20
131.645139
 30
0.0
 11
805.602621
 21
131.645139
 31
0.0
  0
ARC
  5
7C8A5
  8
11
 10
816.749252
 20
177.225049
 30
0.0
 40
22.256656
 50
92.297066
 51
120.417837
  0
LINE
  5
7C8A6
  8
11
 10
805.606798
 20
131.166423
 30
0.0
 11
805.480657
 21
196.418212
 31
0.0
  0
LINE
  5
7C8A7
  8
11
 10
805.606798
 20
131.166423
 30
0.0
 11
805.604792
 21
131.143488
 31
0.0
  0
LINE
  5
7C8A8
  8
11
 10
807.610546
 20
206.463821
 30
0.0
 11
807.610546
 21
205.963821
 31
0.0
  0
LINE
  5
7C8A9
  8
11
 10
821.541584
 20
131.166423
 30
0.0
 11
821.539578
 21
131.143488
 31
0.0
  0
LINE
  5
7C8AA
  8
11
 10
828.45004
 20
206.463821
 30
0.0
 11
828.022391
 21
131.166423
 31
0.0
  0
LINE
  5
7C8AB
  8
11
 10
828.022391
 20
131.166423
 30
0.0
 11
805.606798
 21
131.166423
 31
0.0
  0
LINE
  5
7C8AC
  8
11
 10
828.45004
 20
206.463821
 30
0.0
 11
807.610546
 21
206.463821
 31
0.0
  0
LINE
  5
7C8AD
  8
11
 10
552.449815
 20
205.963821
 30
0.0
 11
552.542785
 21
200.637582
 31
0.0
  0
LINE
  5
7C8AE
  8
11
 10
563.250448
 20
205.963821
 30
0.0
 11
573.280581
 21
205.963821
 31
0.0
  0
LINE
  5
7C8AF
  8
11
 10
552.542745
 20
200.639869
 30
0.0
 11
552.564448
 21
199.396486
 31
0.0
  0
LINE
  5
7C8B0
  8
11
 10
573.280581
 20
206.463821
 30
0.0
 11
573.280581
 21
205.963821
 31
0.0
  0
LINE
  5
7C8B1
  8
11
 10
574.174628
 20
131.166423
 30
0.0
 11
552.868737
 21
131.166423
 31
0.0
  0
LINE
  5
7C8B2
  8
11
 10
552.441088
 20
206.463821
 30
0.0
 11
552.449815
 21
205.963821
 31
0.0
  0
LINE
  5
7C8B3
  8
11
 10
573.280581
 20
206.463821
 30
0.0
 11
552.441088
 21
206.463821
 31
0.0
  0
LINE
  5
7C8B4
  8
11
 10
573.280581
 20
205.963821
 30
0.0
 11
574.178805
 21
205.963821
 31
0.0
  0
LINE
  5
7C8B5
  8
11
 10
552.564448
 20
199.396486
 30
0.0
 11
552.868737
 21
131.166423
 31
0.0
  0
LINE
  5
7C8B6
  8
11
 10
558.239841
 20
131.166423
 30
0.0
 11
558.241848
 21
131.143488
 31
0.0
  0
LINE
  5
7C8B7
  8
11
 10
572.17088
 20
206.463821
 30
0.0
 11
572.17088
 21
205.963821
 31
0.0
  0
LINE
  5
7C8B8
  8
11
 10
574.174628
 20
131.166423
 30
0.0
 11
574.176634
 21
131.143488
 31
0.0
  0
LINE
  5
7C8B9
  8
11
 10
574.174628
 20
131.166423
 30
0.0
 11
574.300769
 21
196.418212
 31
0.0
  0
ARC
  5
7C8BA
  8
11
 10
563.032174
 20
177.225049
 30
0.0
 40
22.256656
 50
59.582163
 51
87.702934
  0
LINE
  5
7C8BB
  8
14
 10
802.900279
 20
205.963821
 30
0.0
 11
802.900279
 21
131.963815
 31
0.0
  0
LINE
  5
7C8BC
  8
14
 10
577.991481
 20
205.963821
 30
0.0
 11
577.991481
 21
131.963821
 31
0.0
  0
LINE
  5
7C8BD
  8
13
  6
DASHDOT
 10
690.44588
 20
213.468073
 30
0.0
 11
690.44588
 21
117.04587
 31
0.0
  0
LINE
  5
7C8BE
  8
11
 10
574.178805
 20
125.666423
 30
0.0
 11
815.56241
 21
125.666423
 31
0.0
  0
ARC
  5
7C8BF
  8
11
 10
799.627624
 20
131.666423
 30
0.0
 40
6.0
 50
270.0
 51
355.0
  0
ARC
  5
7C8C0
  8
11
 10
815.56241
 20
131.666423
 30
0.0
 40
6.0
 50
270.0
 51
355.0
  0
ARC
  5
7C8C1
  8
11
 10
566.590822
 20
131.779623
 30
0.0
 40
6.16611
 50
185.921525
 51
262.48874
  0
LINE
  5
7C8C2
  8
11
 10
574.178805
 20
125.666423
 30
0.0
 11
565.784782
 21
125.666423
 31
0.0
  0
ARC
  5
7C8C3
  8
11
 10
580.153802
 20
131.666423
 30
0.0
 40
6.0
 50
185.0
 51
270.0
  0
ARC
  5
7C8C4
  8
14
 10
799.900281
 20
131.960307
 30
0.0
 40
3.0
 50
267.226485
 51
0.067002
  0
LINE
  5
7C8C5
  8
14
 10
690.44588
 20
128.963821
 30
0.0
 11
800.045445
 21
128.963821
 31
0.0
  0
LINE
  5
7C8C6
  8
14
 10
690.44588
 20
128.963821
 30
0.0
 11
580.991481
 21
128.963821
 31
0.0
  0
TEXT
  5
7C8C7
  8
L20
 10
179.0
 20
536.0
 30
0.0
 40
7.0
  1
FIBOX EK-J 80 COVER
  0
ARC
  5
7C8C8
  8
24
 10
580.991481
 20
628.080565
 30
0.0
 40
3.0
 50
90.0
 51
180.0
  0
ARC
  5
7C8C9
  8
44
 10
410.919435
 20
315.567794
 30
0.0
 40
3.0
 50
180.0
 51
270.0
  0
ARC
  5
7C8CA
  8
14
 10
580.991481
 20
131.963821
 30
0.0
 40
3.0
 50
180.0
 51
270.0
  0
ARC
  5
7C8CB
  8
34
 10
969.972325
 20
315.567794
 30
0.0
 40
3.0
 50
270.0
 51
0.0
  0
VIEWPORT
  5
1
 67
     1
  8
0
 10
210.0
 20
152.094241
 30
0.0
 40
420.0
 41
304.188482
 68
    -1
 69
     1
1001
ACAD
1000
MVIEW
1002
{
1070
    16
1010
0.0
1020
0.0
1030
0.0
1010
0.0
1020
0.0
1030
1.0
1040
0.0
1040
304.188482
1040
210.0
1040
152.094241
1040
50.0
1040
0.0
1040
0.0
1070
     0
1070
   100
1070
     1
1070
     1
1070
     1
1070
     0
1070
     0
1070
     0
1040
0.0
1040
0.0
1040
0.0
1040
1.0
1040
1.0
1040
0.0
1040
0.0
1070
     0
1002
{
1002
}
1002
}
  0
ENDSEC
  0
EOF
