  0
SECTION
  2
HEADER
  9
$ACADVER
  1
AC1014
  9
$ACADMAINTVER
 70
     0
  9
$DWGCODEPAGE
  3
ANSI_1252
  9
$INSBASE
 10
0.0
 20
0.0
 30
0.0
  9
$EXTMIN
 10
-382.006772
 20
215.896144
 30
0.0
  9
$EXTMAX
 10
485.368391
 20
570.148242
 30
0.0
  9
$LIMMIN
 10
-15.0
 20
0.0
  9
$LIMMAX
 10
841.0
 20
609.0
  9
$ORTHOMODE
 70
     0
  9
$REGENMODE
 70
     1
  9
$FILLMODE
 70
     1
  9
$QTEXTMODE
 70
     0
  9
$MIRRTEXT
 70
     1
  9
$DRAGMODE
 70
     2
  9
$LTSCALE
 40
7.0
  9
$OSMODE
 70
     0
  9
$ATTMODE
 70
     1
  9
$TEXTSIZE
 40
3.5
  9
$TRACEWID
 40
3.182876
  9
$TEXTSTYLE
  7
STANDARD
  9
$CLAYER
  8
1
  9
$CELTYPE
  6
BYLAYER
  9
$CECOLOR
 62
   256
  9
$CELTSCALE
 40
1.0
  9
$DELOBJ
 70
     1
  9
$DISPSILH
 70
     0
  9
$DIMSCALE
 40
1.0
  9
$DIMASZ
 40
3.5
  9
$DIMEXO
 40
0.0
  9
$DIMDLI
 40
0.38
  9
$DIMRND
 40
0.1
  9
$DIMDLE
 40
1.0
  9
$DIMEXE
 40
0.0
  9
$DIMTP
 40
0.0
  9
$DIMTM
 40
0.0
  9
$DIMTXT
 40
3.5
  9
$DIMCEN
 40
0.09
  9
$DIMTSZ
 40
0.0
  9
$DIMTOL
 70
     0
  9
$DIMLIM
 70
     0
  9
$DIMTIH
 70
     0
  9
$DIMTOH
 70
     0
  9
$DIMSE1
 70
     0
  9
$DIMSE2
 70
     0
  9
$DIMTAD
 70
     1
  9
$DIMZIN
 70
     8
  9
$DIMBLK
  1

  9
$DIMASO
 70
     1
  9
$DIMSHO
 70
     0
  9
$DIMPOST
  1

  9
$DIMAPOST
  1

  9
$DIMALT
 70
     0
  9
$DIMALTD
 70
     2
  9
$DIMALTF
 40
25.4
  9
$DIMLFAC
 40
1.0
  9
$DIMTOFL
 70
     0
  9
$DIMTVP
 40
0.0
  9
$DIMTIX
 70
     0
  9
$DIMSOXD
 70
     0
  9
$DIMSAH
 70
     0
  9
$DIMBLK1
  1

  9
$DIMBLK2
  1

  9
$DIMSTYLE
  2
STANDARD
  9
$DIMCLRD
 70
     0
  9
$DIMCLRE
 70
     0
  9
$DIMCLRT
 70
     3
  9
$DIMTFAC
 40
1.0
  9
$DIMGAP
 40
0.09
  9
$DIMJUST
 70
     0
  9
$DIMSD1
 70
     0
  9
$DIMSD2
 70
     0
  9
$DIMTOLJ
 70
     1
  9
$DIMTZIN
 70
     8
  9
$DIMALTZ
 70
     8
  9
$DIMALTTZ
 70
     8
  9
$DIMFIT
 70
     5
  9
$DIMUPT
 70
     0
  9
$DIMUNIT
 70
     2
  9
$DIMDEC
 70
     2
  9
$DIMTDEC
 70
     2
  9
$DIMALTU
 70
     2
  9
$DIMALTTD
 70
     2
  9
$DIMTXSTY
  7
STANDARD
  9
$DIMAUNIT
 70
     0
  9
$LUNITS
 70
     2
  9
$LUPREC
 70
     2
  9
$SKETCHINC
 40
0.1
  9
$FILLETRAD
 40
0.0
  9
$AUNITS
 70
     0
  9
$AUPREC
 70
     2
  9
$MENU
  1
CAESAR
  9
$ELEVATION
 40
0.0
  9
$PELEVATION
 40
0.0
  9
$THICKNESS
 40
0.0
  9
$LIMCHECK
 70
     1
  9
$BLIPMODE
 70
     1
  9
$CHAMFERA
 40
5.0
  9
$CHAMFERB
 40
5.0
  9
$CHAMFERC
 40
0.0
  9
$CHAMFERD
 40
0.0
  9
$SKPOLY
 70
     0
  9
$TDCREATE
 40
2449496.448690972
  9
$TDUPDATE
 40
2453059.650985173
  9
$TDINDWG
 40
0.0000549421
  9
$TDUSRTIMER
 40
0.0000000000
  9
$USRTIMER
 70
     0
  9
$ANGBASE
 50
0.0
  9
$ANGDIR
 70
     0
  9
$PDMODE
 70
     0
  9
$PDSIZE
 40
0.0
  9
$PLINEWID
 40
0.0
  9
$COORDS
 70
     2
  9
$SPLFRAME
 70
     0
  9
$SPLINETYPE
 70
     6
  9
$SPLINESEGS
 70
     8
  9
$ATTDIA
 70
     0
  9
$ATTREQ
 70
     1
  9
$HANDLING
 70
     1
  9
$HANDSEED
  5
218
  9
$SURFTAB1
 70
     6
  9
$SURFTAB2
 70
     6
  9
$SURFTYPE
 70
     6
  9
$SURFU
 70
     6
  9
$SURFV
 70
     6
  9
$UCSNAME
  2

  9
$UCSORG
 10
540.3962580922325
 20
102.5171408022213
 30
0.0
  9
$UCSXDIR
 10
1.0
 20
0.0
 30
0.0
  9
$UCSYDIR
 10
0.0
 20
1.0
 30
0.0
  9
$PUCSNAME
  2

  9
$PUCSORG
 10
0.0
 20
0.0
 30
0.0
  9
$PUCSXDIR
 10
1.0
 20
0.0
 30
0.0
  9
$PUCSYDIR
 10
0.0
 20
1.0
 30
0.0
  9
$USERI1
 70
   101
  9
$USERI2
 70
     0
  9
$USERI3
 70
     0
  9
$USERI4
 70
     0
  9
$USERI5
 70
     0
  9
$USERR1
 40
1.0
  9
$USERR2
 40
0.0
  9
$USERR3
 40
3.5
  9
$USERR4
 40
0.0
  9
$USERR5
 40
0.0
  9
$WORLDVIEW
 70
     1
  9
$SHADEDGE
 70
     3
  9
$SHADEDIF
 70
    70
  9
$TILEMODE
 70
     1
  9
$MAXACTVP
 70
    16
  9
$PINSBASE
 10
0.0
 20
0.0
 30
0.0
  9
$PLIMCHECK
 70
     0
  9
$PEXTMIN
 10
1.000000E+20
 20
1.000000E+20
 30
1.000000E+20
  9
$PEXTMAX
 10
-1.000000E+20
 20
-1.000000E+20
 30
-1.000000E+20
  9
$PLIMMIN
 10
0.0
 20
0.0
  9
$PLIMMAX
 10
12.0
 20
9.0
  9
$UNITMODE
 70
     0
  9
$VISRETAIN
 70
     0
  9
$PLINEGEN
 70
     0
  9
$PSLTSCALE
 70
     0
  9
$TREEDEPTH
 70
  3020
  9
$PICKSTYLE
 70
     1
  9
$CMLSTYLE
  2
STANDARD
  9
$CMLJUST
 70
     0
  9
$CMLSCALE
 40
1.0
  9
$PROXYGRAPHICS
 70
     1
  9
$MEASUREMENT
 70
     0
  0
ENDSEC
  0
SECTION
  2
CLASSES
  0
ENDSEC
  0
SECTION
  2
TABLES
  0
TABLE
  2
VPORT
  5
8
100
AcDbSymbolTable
 70
     1
  0
VPORT
  5
211
100
AcDbSymbolTableRecord
100
AcDbViewportTableRecord
  2
*ACTIVE
 70
     0
 10
0.0
 20
0.0
 11
1.0
 21
1.0
 12
51.6982
 22
393.035272
 13
0.0
 23
0.0
 14
1.0
 24
1.0
 15
10.0
 25
10.0
 16
0.0
 26
0.0
 36
1.0
 17
0.0
 27
0.0
 37
0.0
 40
539.946541
 41
1.616838
 42
50.0
 43
0.0
 44
0.0
 50
0.0
 51
0.0
 71
     0
 72
  1000
 73
     1
 74
     0
 75
     0
 76
     0
 77
     0
 78
     2
  0
ENDTAB
  0
TABLE
  2
LTYPE
  5
5
100
AcDbSymbolTable
 70
     6
  0
LTYPE
  5
11
100
AcDbSymbolTableRecord
100
AcDbLinetypeTableRecord
  2
BYBLOCK
 70
     0
  3

 72
    65
 73
     0
 40
0.0
  0
LTYPE
  5
12
100
AcDbSymbolTableRecord
100
AcDbLinetypeTableRecord
  2
BYLAYER
 70
     0
  3

 72
    65
 73
     0
 40
0.0
  0
LTYPE
  5
13
100
AcDbSymbolTableRecord
100
AcDbLinetypeTableRecord
  2
CONTINUOUS
 70
     0
  3
Solid line
 72
    65
 73
     0
 40
0.0
  0
LTYPE
  5
23
100
AcDbSymbolTableRecord
100
AcDbLinetypeTableRecord
  2
HIDDEN
 70
     0
  3
_ _ _ _ _ _ _ _ _ _ _ _ _ _ _ _ _ _ _ _ _ _ _
 72
    65
 73
     2
 40
0.375
 49
0.25
 74
     0
 49
-0.125
 74
     0
  0
LTYPE
  5
24
100
AcDbSymbolTableRecord
100
AcDbLinetypeTableRecord
  2
DASHDOT
 70
     0
  3
__ . __ . __ . __ . __ . __ . __ . __ . __ . __
 72
    65
 73
     4
 40
1.0
 49
0.5
 74
     0
 49
-0.25
 74
     0
 49
0.0
 74
     0
 49
-0.25
 74
     0
  0
LTYPE
  5
25
100
AcDbSymbolTableRecord
100
AcDbLinetypeTableRecord
  2
DIVIDE
 70
     0
  3
__ . . __ . . __ . . __ . . __ . . __ . . __
 72
    65
 73
     6
 40
1.25
 49
0.5
 74
     0
 49
-0.25
 74
     0
 49
0.0
 74
     0
 49
-0.25
 74
     0
 49
0.0
 74
     0
 49
-0.25
 74
     0
  0
LTYPE
  5
26
100
AcDbSymbolTableRecord
100
AcDbLinetypeTableRecord
  2
DASHED
 70
     0
  3
__ __ __ __ __ __ __ __ __ __ __ __ __ __ __
 72
    65
 73
     2
 40
0.75
 49
0.5
 74
     0
 49
-0.25
 74
     0
  0
LTYPE
  5
27
100
AcDbSymbolTableRecord
100
AcDbLinetypeTableRecord
  2
CENTER
 70
     0
  3
____ _ ____ _ ____ _ ____ _ ____ _ ____ _ ____ 
 72
    65
 73
     4
 40
2.0
 49
1.25
 74
     0
 49
-0.25
 74
     0
 49
0.25
 74
     0
 49
-0.25
 74
     0
  0
ENDTAB
  0
TABLE
  2
LAYER
  5
2
100
AcDbSymbolTable
 70
   118
  0
LAYER
  5
E
100
AcDbSymbolTableRecord
100
AcDbLayerTableRecord
  2
0
 70
     0
 62
   130
  6
CONTINUOUS
  0
LAYER
  5
2A
100
AcDbSymbolTableRecord
100
AcDbLayerTableRecord
  2
1
 70
     0
 62
     7
  6
CONTINUOUS
  0
LAYER
  5
2B
100
AcDbSymbolTableRecord
100
AcDbLayerTableRecord
  2
2
 70
     0
 62
   130
  6
CONTINUOUS
  0
LAYER
  5
2C
100
AcDbSymbolTableRecord
100
AcDbLayerTableRecord
  2
8
 70
     0
 62
   130
  6
CONTINUOUS
  0
LAYER
  5
2D
100
AcDbSymbolTableRecord
100
AcDbLayerTableRecord
  2
11
 70
     0
 62
     7
  6
CONTINUOUS
  0
LAYER
  5
2E
100
AcDbSymbolTableRecord
100
AcDbLayerTableRecord
  2
60
 70
     0
 62
   130
  6
CONTINUOUS
  0
LAYER
  5
2F
100
AcDbSymbolTableRecord
100
AcDbLayerTableRecord
  2
63
 70
     0
 62
     1
  6
CENTER
  0
LAYER
  5
30
100
AcDbSymbolTableRecord
100
AcDbLayerTableRecord
  2
66
 70
     0
 62
   130
  6
CONTINUOUS
  0
LAYER
  5
31
100
AcDbSymbolTableRecord
100
AcDbLayerTableRecord
  2
69
 70
     0
 62
   130
  6
CONTINUOUS
  0
LAYER
  5
32
100
AcDbSymbolTableRecord
100
AcDbLayerTableRecord
  2
72
 70
     0
 62
   130
  6
CONTINUOUS
  0
LAYER
  5
33
100
AcDbSymbolTableRecord
100
AcDbLayerTableRecord
  2
75
 70
     0
 62
   130
  6
CONTINUOUS
  0
LAYER
  5
34
100
AcDbSymbolTableRecord
100
AcDbLayerTableRecord
  2
86
 70
     0
 62
   130
  6
CONTINUOUS
  0
LAYER
  5
35
100
AcDbSymbolTableRecord
100
AcDbLayerTableRecord
  2
89
 70
     0
 62
   130
  6
CONTINUOUS
  0
LAYER
  5
36
100
AcDbSymbolTableRecord
100
AcDbLayerTableRecord
  2
98
 70
     0
 62
   130
  6
CONTINUOUS
  0
LAYER
  5
37
100
AcDbSymbolTableRecord
100
AcDbLayerTableRecord
  2
DEFPOINTS
 70
     0
 62
   130
  6
CONTINUOUS
  0
LAYER
  5
38
100
AcDbSymbolTableRecord
100
AcDbLayerTableRecord
  2
MUOTOV
 70
     0
 62
     3
  6
CONTINUOUS
  0
LAYER
  5
39
100
AcDbSymbolTableRecord
100
AcDbLayerTableRecord
  2
KATKOV
 70
     0
 62
   130
  6
HIDDEN
  0
LAYER
  5
3A
100
AcDbSymbolTableRecord
100
AcDbLayerTableRecord
  2
PIKATKOV
 70
     0
 62
     7
  6
DASHDOT
  0
LAYER
  5
3B
100
AcDbSymbolTableRecord
100
AcDbLayerTableRecord
  2
MITAT
 70
     0
 62
   255
  6
CONTINUOUS
  0
LAYER
  5
3C
100
AcDbSymbolTableRecord
100
AcDbLayerTableRecord
  2
LEIKV
 70
     0
 62
   130
  6
CONTINUOUS
  0
LAYER
  5
3D
100
AcDbSymbolTableRecord
100
AcDbLayerTableRecord
  2
A1
 70
     0
 62
   130
  6
CONTINUOUS
  0
LAYER
  5
3E
100
AcDbSymbolTableRecord
100
AcDbLayerTableRecord
  2
RA1
 70
     0
 62
   130
  6
CONTINUOUS
  0
LAYER
  5
3F
100
AcDbSymbolTableRecord
100
AcDbLayerTableRecord
  2
TITEL
 70
     0
 62
   130
  6
CONTINUOUS
  0
LAYER
  5
40
100
AcDbSymbolTableRecord
100
AcDbLayerTableRecord
  2
TITEL1
 70
     0
 62
   130
  6
CONTINUOUS
  0
LAYER
  5
41
100
AcDbSymbolTableRecord
100
AcDbLayerTableRecord
  2
MUUTOS
 70
     0
 62
   130
  6
CONTINUOUS
  0
LAYER
  5
42
100
AcDbSymbolTableRecord
100
AcDbLayerTableRecord
  2
MUUTOS1
 70
     0
 62
   130
  6
CONTINUOUS
  0
LAYER
  5
43
100
AcDbSymbolTableRecord
100
AcDbLayerTableRecord
  2
MUUTOSTEXT
 70
     0
 62
     1
  6
CONTINUOUS
  0
LAYER
  5
44
100
AcDbSymbolTableRecord
100
AcDbLayerTableRecord
  2
MUUTOS2
 70
     0
 62
   130
  6
CONTINUOUS
  0
LAYER
  5
45
100
AcDbSymbolTableRecord
100
AcDbLayerTableRecord
  2
L1
 70
     0
 62
     7
  6
CONTINUOUS
  0
LAYER
  5
46
100
AcDbSymbolTableRecord
100
AcDbLayerTableRecord
  2
L2
 70
     0
 62
     1
  6
CONTINUOUS
  0
LAYER
  5
47
100
AcDbSymbolTableRecord
100
AcDbLayerTableRecord
  2
L22
 70
     0
 62
     1
  6
CONTINUOUS
  0
LAYER
  5
48
100
AcDbSymbolTableRecord
100
AcDbLayerTableRecord
  2
L40
 70
     0
 62
     7
  6
CONTINUOUS
  0
LAYER
  5
49
100
AcDbSymbolTableRecord
100
AcDbLayerTableRecord
  2
L41
 70
     0
 62
     1
  6
CONTINUOUS
  0
LAYER
  5
4A
100
AcDbSymbolTableRecord
100
AcDbLayerTableRecord
  2
L43
 70
     0
 62
     7
  6
CONTINUOUS
  0
LAYER
  5
4B
100
AcDbSymbolTableRecord
100
AcDbLayerTableRecord
  2
L44
 70
     0
 62
     1
  6
DASHED
  0
LAYER
  5
4C
100
AcDbSymbolTableRecord
100
AcDbLayerTableRecord
  2
L45
 70
     0
 62
     1
  6
CONTINUOUS
  0
LAYER
  5
4D
100
AcDbSymbolTableRecord
100
AcDbLayerTableRecord
  2
L46
 70
     0
 62
     7
  6
CONTINUOUS
  0
LAYER
  5
4E
100
AcDbSymbolTableRecord
100
AcDbLayerTableRecord
  2
L3
 70
     0
 62
     7
  6
DASHED
  0
LAYER
  5
4F
100
AcDbSymbolTableRecord
100
AcDbLayerTableRecord
  2
L4
 70
     0
 62
     1
  6
DASHED
  0
LAYER
  5
50
100
AcDbSymbolTableRecord
100
AcDbLayerTableRecord
  2
L5
 70
     0
 62
     7
  6
DASHDOT
  0
LAYER
  5
51
100
AcDbSymbolTableRecord
100
AcDbLayerTableRecord
  2
L6
 70
     0
 62
     1
  6
DASHDOT
  0
LAYER
  5
52
100
AcDbSymbolTableRecord
100
AcDbLayerTableRecord
  2
L7
 70
     0
 62
     1
  6
DIVIDE
  0
LAYER
  5
53
100
AcDbSymbolTableRecord
100
AcDbLayerTableRecord
  2
L8
 70
     0
 62
     1
  6
CONTINUOUS
  0
LAYER
  5
54
100
AcDbSymbolTableRecord
100
AcDbLayerTableRecord
  2
L20
 70
     0
 62
     3
  6
CONTINUOUS
  0
LAYER
  5
55
100
AcDbSymbolTableRecord
100
AcDbLayerTableRecord
  2
L21
 70
     0
 62
     1
  6
CONTINUOUS
  0
LAYER
  5
56
100
AcDbSymbolTableRecord
100
AcDbLayerTableRecord
  2
L23
 70
     0
 62
     1
  6
CONTINUOUS
  0
LAYER
  5
57
100
AcDbSymbolTableRecord
100
AcDbLayerTableRecord
  2
L30
 70
     0
 62
     7
  6
CONTINUOUS
  0
LAYER
  5
58
100
AcDbSymbolTableRecord
100
AcDbLayerTableRecord
  2
L31
 70
     0
 62
     1
  6
CONTINUOUS
  0
LAYER
  5
59
100
AcDbSymbolTableRecord
100
AcDbLayerTableRecord
  2
L32
 70
     0
 62
     3
  6
CONTINUOUS
  0
LAYER
  5
5A
100
AcDbSymbolTableRecord
100
AcDbLayerTableRecord
  2
L33
 70
     0
 62
     1
  6
CONTINUOUS
  0
LAYER
  5
5B
100
AcDbSymbolTableRecord
100
AcDbLayerTableRecord
  2
L34
 70
     0
 62
     1
  6
DASHED
  0
LAYER
  5
5C
100
AcDbSymbolTableRecord
100
AcDbLayerTableRecord
  2
L35
 70
     0
 62
     1
  6
CONTINUOUS
  0
LAYER
  5
5D
100
AcDbSymbolTableRecord
100
AcDbLayerTableRecord
  2
L36
 70
     0
 62
     7
  6
CONTINUOUS
  0
LAYER
  5
5E
100
AcDbSymbolTableRecord
100
AcDbLayerTableRecord
  2
L37
 70
     0
 62
     1
  6
CONTINUOUS
  0
LAYER
  5
5F
100
AcDbSymbolTableRecord
100
AcDbLayerTableRecord
  2
L38
 70
     0
 62
     1
  6
DASHDOT
  0
LAYER
  5
60
100
AcDbSymbolTableRecord
100
AcDbLayerTableRecord
  2
L42
 70
     0
 62
     1
  6
CONTINUOUS
  0
LAYER
  5
61
100
AcDbSymbolTableRecord
100
AcDbLayerTableRecord
  2
L50
 70
     0
 62
     7
  6
CONTINUOUS
  0
LAYER
  5
62
100
AcDbSymbolTableRecord
100
AcDbLayerTableRecord
  2
L51
 70
     0
 62
     1
  6
CONTINUOUS
  0
LAYER
  5
63
100
AcDbSymbolTableRecord
100
AcDbLayerTableRecord
  2
L52
 70
     0
 62
     7
  6
CONTINUOUS
  0
LAYER
  5
64
100
AcDbSymbolTableRecord
100
AcDbLayerTableRecord
  2
L53
 70
     0
 62
     1
  6
CONTINUOUS
  0
LAYER
  5
65
100
AcDbSymbolTableRecord
100
AcDbLayerTableRecord
  2
L54
 70
     0
 62
     1
  6
DASHED
  0
LAYER
  5
66
100
AcDbSymbolTableRecord
100
AcDbLayerTableRecord
  2
L55
 70
     0
 62
     1
  6
CONTINUOUS
  0
LAYER
  5
67
100
AcDbSymbolTableRecord
100
AcDbLayerTableRecord
  2
L56
 70
     0
 62
     1
  6
CONTINUOUS
  0
LAYER
  5
68
100
AcDbSymbolTableRecord
100
AcDbLayerTableRecord
  2
L57
 70
     0
 62
     1
  6
CONTINUOUS
  0
LAYER
  5
69
100
AcDbSymbolTableRecord
100
AcDbLayerTableRecord
  2
L58
 70
     0
 62
     1
  6
CONTINUOUS
  0
LAYER
  5
6A
100
AcDbSymbolTableRecord
100
AcDbLayerTableRecord
  2
A2
 70
     0
 62
     5
  6
CONTINUOUS
  0
LAYER
  5
6B
100
AcDbSymbolTableRecord
100
AcDbLayerTableRecord
  2
A3
 70
     0
 62
     4
  6
CONTINUOUS
  0
LAYER
  5
6C
100
AcDbSymbolTableRecord
100
AcDbLayerTableRecord
  2
A4
 70
     0
 62
     1
  6
DASHED
  0
LAYER
  5
6D
100
AcDbSymbolTableRecord
100
AcDbLayerTableRecord
  2
A5
 70
     0
 62
     2
  6
CONTINUOUS
  0
LAYER
  5
6E
100
AcDbSymbolTableRecord
100
AcDbLayerTableRecord
  2
A6
 70
     0
 62
     8
  6
CONTINUOUS
  0
LAYER
  5
6F
100
AcDbSymbolTableRecord
100
AcDbLayerTableRecord
  2
RA2
 70
     0
 62
     5
  6
CONTINUOUS
  0
LAYER
  5
70
100
AcDbSymbolTableRecord
100
AcDbLayerTableRecord
  2
RA4
 70
     0
 62
     1
  6
DASHED
  0
LAYER
  5
71
100
AcDbSymbolTableRecord
100
AcDbLayerTableRecord
  2
CAM-A1
 70
     0
 62
     7
  6
CONTINUOUS
  0
LAYER
  5
72
100
AcDbSymbolTableRecord
100
AcDbLayerTableRecord
  2
CAM-A2
 70
     0
 62
     1
  6
CONTINUOUS
  0
LAYER
  5
73
100
AcDbSymbolTableRecord
100
AcDbLayerTableRecord
  2
CAM-A3
 70
     0
 62
     1
  6
DASHED
  0
LAYER
  5
74
100
AcDbSymbolTableRecord
100
AcDbLayerTableRecord
  2
CAM-B1
 70
     0
 62
     7
  6
CONTINUOUS
  0
LAYER
  5
75
100
AcDbSymbolTableRecord
100
AcDbLayerTableRecord
  2
CAM-B2
 70
     0
 62
     1
  6
CONTINUOUS
  0
LAYER
  5
76
100
AcDbSymbolTableRecord
100
AcDbLayerTableRecord
  2
CAM-B3
 70
     0
 62
     1
  6
DASHED
  0
LAYER
  5
77
100
AcDbSymbolTableRecord
100
AcDbLayerTableRecord
  2
CAM-C1
 70
     0
 62
     7
  6
CONTINUOUS
  0
LAYER
  5
78
100
AcDbSymbolTableRecord
100
AcDbLayerTableRecord
  2
CAM-C2
 70
     0
 62
     1
  6
CONTINUOUS
  0
LAYER
  5
79
100
AcDbSymbolTableRecord
100
AcDbLayerTableRecord
  2
CAM-C3
 70
     0
 62
     1
  6
DASHED
  0
LAYER
  5
7A
100
AcDbSymbolTableRecord
100
AcDbLayerTableRecord
  2
CAM-D1
 70
     0
 62
     7
  6
CONTINUOUS
  0
LAYER
  5
7B
100
AcDbSymbolTableRecord
100
AcDbLayerTableRecord
  2
CAM-D2
 70
     0
 62
     1
  6
CONTINUOUS
  0
LAYER
  5
7C
100
AcDbSymbolTableRecord
100
AcDbLayerTableRecord
  2
CAM-D3
 70
     0
 62
     1
  6
DASHED
  0
LAYER
  5
7D
100
AcDbSymbolTableRecord
100
AcDbLayerTableRecord
  2
CAM-E1
 70
     0
 62
     7
  6
CONTINUOUS
  0
LAYER
  5
7E
100
AcDbSymbolTableRecord
100
AcDbLayerTableRecord
  2
CAM-E2
 70
     0
 62
     1
  6
CONTINUOUS
  0
LAYER
  5
7F
100
AcDbSymbolTableRecord
100
AcDbLayerTableRecord
  2
CAM-E3
 70
     0
 62
     1
  6
DASHED
  0
LAYER
  5
80
100
AcDbSymbolTableRecord
100
AcDbLayerTableRecord
  2
CAM-F1
 70
     0
 62
     7
  6
CONTINUOUS
  0
LAYER
  5
81
100
AcDbSymbolTableRecord
100
AcDbLayerTableRecord
  2
CAM-F2
 70
     0
 62
     1
  6
CONTINUOUS
  0
LAYER
  5
82
100
AcDbSymbolTableRecord
100
AcDbLayerTableRecord
  2
CAM-F3
 70
     0
 62
     1
  6
DASHED
  0
LAYER
  5
83
100
AcDbSymbolTableRecord
100
AcDbLayerTableRecord
  2
12
 70
     0
 62
     1
  6
CONTINUOUS
  0
LAYER
  5
84
100
AcDbSymbolTableRecord
100
AcDbLayerTableRecord
  2
13
 70
     0
 62
     1
  6
CENTER
  0
LAYER
  5
85
100
AcDbSymbolTableRecord
100
AcDbLayerTableRecord
  2
14
 70
     0
 62
     1
  6
DASHED
  0
LAYER
  5
86
100
AcDbSymbolTableRecord
100
AcDbLayerTableRecord
  2
15
 70
     0
 62
     2
  6
DASHED
  0
LAYER
  5
87
100
AcDbSymbolTableRecord
100
AcDbLayerTableRecord
  2
21
 70
     0
 62
     7
  6
CONTINUOUS
  0
LAYER
  5
88
100
AcDbSymbolTableRecord
100
AcDbLayerTableRecord
  2
22
 70
     0
 62
     1
  6
CONTINUOUS
  0
LAYER
  5
89
100
AcDbSymbolTableRecord
100
AcDbLayerTableRecord
  2
23
 70
     0
 62
     1
  6
CENTER
  0
LAYER
  5
8A
100
AcDbSymbolTableRecord
100
AcDbLayerTableRecord
  2
24
 70
     0
 62
     1
  6
DASHED
  0
LAYER
  5
8B
100
AcDbSymbolTableRecord
100
AcDbLayerTableRecord
  2
25
 70
     0
 62
     2
  6
DASHED
  0
LAYER
  5
8C
100
AcDbSymbolTableRecord
100
AcDbLayerTableRecord
  2
31
 70
     0
 62
     7
  6
CONTINUOUS
  0
LAYER
  5
8D
100
AcDbSymbolTableRecord
100
AcDbLayerTableRecord
  2
32
 70
     0
 62
     1
  6
CONTINUOUS
  0
LAYER
  5
8E
100
AcDbSymbolTableRecord
100
AcDbLayerTableRecord
  2
33
 70
     0
 62
     1
  6
CENTER
  0
LAYER
  5
8F
100
AcDbSymbolTableRecord
100
AcDbLayerTableRecord
  2
34
 70
     0
 62
     1
  6
DASHED
  0
LAYER
  5
90
100
AcDbSymbolTableRecord
100
AcDbLayerTableRecord
  2
35
 70
     0
 62
     2
  6
DASHED
  0
LAYER
  5
91
100
AcDbSymbolTableRecord
100
AcDbLayerTableRecord
  2
41
 70
     0
 62
     7
  6
CONTINUOUS
  0
LAYER
  5
92
100
AcDbSymbolTableRecord
100
AcDbLayerTableRecord
  2
42
 70
     0
 62
     1
  6
CONTINUOUS
  0
LAYER
  5
93
100
AcDbSymbolTableRecord
100
AcDbLayerTableRecord
  2
43
 70
     0
 62
     1
  6
CENTER
  0
LAYER
  5
94
100
AcDbSymbolTableRecord
100
AcDbLayerTableRecord
  2
44
 70
     0
 62
     1
  6
DASHED
  0
LAYER
  5
95
100
AcDbSymbolTableRecord
100
AcDbLayerTableRecord
  2
45
 70
     0
 62
     2
  6
DASHED
  0
LAYER
  5
96
100
AcDbSymbolTableRecord
100
AcDbLayerTableRecord
  2
51
 70
     0
 62
     7
  6
CONTINUOUS
  0
LAYER
  5
97
100
AcDbSymbolTableRecord
100
AcDbLayerTableRecord
  2
52
 70
     0
 62
     1
  6
CONTINUOUS
  0
LAYER
  5
98
100
AcDbSymbolTableRecord
100
AcDbLayerTableRecord
  2
53
 70
     0
 62
     1
  6
CENTER
  0
LAYER
  5
99
100
AcDbSymbolTableRecord
100
AcDbLayerTableRecord
  2
54
 70
     0
 62
     1
  6
DASHED
  0
LAYER
  5
9A
100
AcDbSymbolTableRecord
100
AcDbLayerTableRecord
  2
55
 70
     0
 62
     2
  6
DASHED
  0
LAYER
  5
9B
100
AcDbSymbolTableRecord
100
AcDbLayerTableRecord
  2
61
 70
     0
 62
     7
  6
CONTINUOUS
  0
LAYER
  5
9C
100
AcDbSymbolTableRecord
100
AcDbLayerTableRecord
  2
62
 70
     0
 62
     1
  6
CONTINUOUS
  0
LAYER
  5
9D
100
AcDbSymbolTableRecord
100
AcDbLayerTableRecord
  2
64
 70
     0
 62
     1
  6
DASHED
  0
LAYER
  5
9E
100
AcDbSymbolTableRecord
100
AcDbLayerTableRecord
  2
65
 70
     0
 62
     2
  6
DASHED
  0
ENDTAB
  0
TABLE
  2
STYLE
  5
3
100
AcDbSymbolTable
 70
     8
  0
STYLE
  5
F
100
AcDbSymbolTableRecord
100
AcDbTextStyleTableRecord
  2
STANDARD
 70
     0
 40
3.5
 41
1.0
 50
0.0
 71
     0
 42
3.5
  3
CAEISO
  4

  0
STYLE
  5
1C
100
AcDbSymbolTableRecord
100
AcDbTextStyleTableRecord
  2
COMPLEX
 70
     0
 40
5.0
 41
1.0
 50
0.0
 71
     0
 42
5.0
  3
ROMANS.SHX
  4

  0
STYLE
  5
1D
100
AcDbSymbolTableRecord
100
AcDbTextStyleTableRecord
  2
SIMPLEX
 70
     0
 40
3.5
 41
0.8
 50
0.0
 71
     0
 42
3.5
  3
CAEISO
  4

  0
STYLE
  5
1E
100
AcDbSymbolTableRecord
100
AcDbTextStyleTableRecord
  2
TXT
 70
     0
 40
0.0
 41
1.0
 50
0.0
 71
     0
 42
0.2
  3
TXT
  4

  0
STYLE
  5
1F
100
AcDbSymbolTableRecord
100
AcDbTextStyleTableRecord
  2
USER
 70
     0
 40
0.0
 41
1.0
 50
0.0
 71
     0
 42
0.2
  3
KIRJAIN
  4

  0
STYLE
  5
20
100
AcDbSymbolTableRecord
100
AcDbTextStyleTableRecord
  2
ITALIC
 70
     0
 40
0.0
 41
1.0
 50
0.0
 71
     0
 42
0.2
  3
ITALIC
  4

  0
STYLE
  5
21
100
AcDbSymbolTableRecord
100
AcDbTextStyleTableRecord
  2
MONO
 70
     0
 40
0.0
 41
1.0
 50
0.0
 71
     0
 42
9.5
  3
MONOTXT
  4

  0
STYLE
  5
22
100
AcDbSymbolTableRecord
100
AcDbTextStyleTableRecord
  2
CAEISO
 70
     0
 40
0.0
 41
1.0
 50
0.0
 71
     0
 42
1.0
  3
CAEISO
  4

  0
ENDTAB
  0
TABLE
  2
VIEW
  5
6
100
AcDbSymbolTable
 70
     0
  0
ENDTAB
  0
TABLE
  2
UCS
  5
7
100
AcDbSymbolTable
 70
     0
  0
ENDTAB
  0
TABLE
  2
APPID
  5
9
100
AcDbSymbolTable
 70
     1
  0
APPID
  5
10
100
AcDbSymbolTableRecord
100
AcDbRegAppTableRecord
  2
ACAD
 70
     0
  0
ENDTAB
  0
TABLE
  2
DIMSTYLE
  5
A
100
AcDbSymbolTable
 70
     1
  0
DIMSTYLE
105
20C
100
AcDbSymbolTableRecord
100
AcDbDimStyleTableRecord
  2
STANDARD
 70
     0
  3

  4

  5

  6

  7

 40
1.0
 41
0.18
 42
0.0625
 43
0.38
 44
0.18
 45
0.0
 46
0.0
 47
0.0
 48
0.0
140
0.18
141
0.09
142
0.0
143
25.4
144
1.0
145
0.0
146
1.0
147
0.09
 71
     0
 72
     0
 73
     1
 74
     1
 75
     0
 76
     0
 77
     0
 78
     0
170
     0
171
     2
172
     0
173
     0
174
     0
175
     0
176
     0
177
     0
178
     0
270
     2
271
     4
272
     4
273
     2
274
     2
340
F
275
     0
280
     0
281
     0
282
     0
283
     1
284
     0
285
     0
286
     0
287
     3
288
     0
  0
ENDTAB
  0
TABLE
  2
BLOCK_RECORD
  5
1
100
AcDbSymbolTable
 70
     0
  0
BLOCK_RECORD
  5
17
100
AcDbSymbolTableRecord
100
AcDbBlockTableRecord
  2
*MODEL_SPACE
  0
BLOCK_RECORD
  5
14
100
AcDbSymbolTableRecord
100
AcDbBlockTableRecord
  2
*PAPER_SPACE
  0
ENDTAB
  0
ENDSEC
  0
SECTION
  2
BLOCKS
  0
BLOCK
  5
A1
100
AcDbEntity
  8
0
100
AcDbBlockBegin
  2
*MODEL_SPACE
 70
     0
 10
0.0
 20
0.0
 30
0.0
  3
*MODEL_SPACE
  1

  0
ENDBLK
  5
A2
100
AcDbEntity
  8
0
100
AcDbBlockEnd
  0
BLOCK
  5
9F
100
AcDbEntity
 67
     1
  8
0
100
AcDbBlockBegin
  2
*PAPER_SPACE
 70
     0
 10
0.0
 20
0.0
 30
0.0
  3
*PAPER_SPACE
  1

  0
ENDBLK
  5
A0
100
AcDbEntity
 67
     1
  8
0
100
AcDbBlockEnd
  0
ENDSEC
  0
SECTION
  2
ENTITIES
  0
TEXT
  5
A3
100
AcDbEntity
  8
0
  6
CONTINUOUS
100
AcDbText
 10
330.035074
 20
372.358918
 30
0.0
 40
2.5
  1
  
 50
21.66214
100
AcDbText
  0
LINE
  5
A5
100
AcDbEntity
  8
61
100
AcDbLine
 10
103.740425
 20
486.022193
 30
0.0
 11
358.140431
 21
486.022193
 31
0.0
  0
LINE
  5
A6
100
AcDbEntity
  8
61
100
AcDbLine
 10
92.940425
 20
475.222193
 30
0.0
 11
92.940425
 21
310.822193
 31
0.0
  0
LINE
  5
A7
100
AcDbEntity
  8
62
100
AcDbLine
 10
113.396438
 20
480.059695
 30
0.0
 11
348.484413
 21
480.059695
 31
0.0
  0
LINE
  5
A8
100
AcDbEntity
  8
62
100
AcDbLine
 10
98.848046
 20
465.593869
 30
0.0
 11
98.848046
 21
320.450517
 31
0.0
  0
LINE
  5
A9
100
AcDbEntity
  8
61
100
AcDbLine
 10
115.450994
 20
478.389647
 30
0.0
 11
344.191524
 21
478.389647
 31
0.0
  0
LINE
  5
AA
100
AcDbEntity
  8
61
100
AcDbLine
 10
100.494072
 20
463.546758
 30
0.0
 11
100.494072
 21
322.497628
 31
0.0
  0
LINE
  5
AB
100
AcDbEntity
  8
53
100
AcDbLine
 10
-233.351675
 20
495.345233
 30
0.0
 11
-233.351675
 21
386.651105
 31
0.0
  0
LINE
  5
AC
100
AcDbEntity
  8
52
100
AcDbLine
 10
-368.521659
 20
474.529842
 30
0.0
 11
-359.859323
 21
483.192177
 31
0.0
  0
ARC
  5
AD
100
AcDbEntity
  8
52
100
AcDbCircle
 10
-360.551675
 20
475.222193
 30
0.0
 40
8.0
100
AcDbArc
 50
7.645696
 51
85.035187
  0
ARC
  5
AE
100
AcDbEntity
  8
52
100
AcDbCircle
 10
-360.551675
 20
475.222193
 30
0.0
 40
8.0
100
AcDbArc
 50
184.964813
 51
262.354304
  0
LINE
  5
AF
100
AcDbEntity
  8
52
100
AcDbLine
 10
-361.61605
 20
467.293315
 30
0.0
 11
-352.622797
 21
476.286568
 31
0.0
  0
LINE
  5
B0
100
AcDbEntity
  8
51
100
AcDbLine
 10
-371.351675
 20
475.222193
 30
0.0
 11
-371.351675
 21
310.822199
 31
0.0
  0
LINE
  5
B1
100
AcDbEntity
  8
51
100
AcDbLine
 10
-360.551675
 20
486.022193
 30
0.0
 11
-188.351675
 21
486.022193
 31
0.0
  0
ARC
  5
B2
100
AcDbEntity
  8
51
100
AcDbCircle
 10
-360.551675
 20
475.222193
 30
0.0
 40
10.8
100
AcDbArc
 50
23.289549
 51
246.710451
  0
ARC
  5
B3
100
AcDbEntity
  8
51
100
AcDbCircle
 10
-360.551675
 20
310.822193
 30
0.0
 40
10.8
100
AcDbArc
 50
113.289549
 51
336.710451
  0
LINE
  5
B4
100
AcDbEntity
  8
52
100
AcDbLine
 10
-359.859323
 20
302.852209
 30
0.0
 11
-368.521659
 21
311.514545
 31
0.0
  0
LINE
  5
B5
100
AcDbEntity
  8
52
100
AcDbLine
 10
-352.622797
 20
309.757818
 30
0.0
 11
-361.61605
 21
318.751071
 31
0.0
  0
ARC
  5
B6
100
AcDbEntity
  8
52
100
AcDbCircle
 10
-360.551675
 20
310.822193
 30
0.0
 40
8.0
100
AcDbArc
 50
97.645696
 51
175.035187
  0
ARC
  5
B7
100
AcDbEntity
  8
52
100
AcDbCircle
 10
-360.551675
 20
310.822193
 30
0.0
 40
8.0
100
AcDbArc
 50
274.964813
 51
352.354304
  0
LINE
  5
B8
100
AcDbEntity
  8
51
100
AcDbLine
 10
-343.251675
 20
478.022193
 30
0.0
 11
-188.351675
 21
478.022193
 31
0.0
  0
LINE
  5
B9
100
AcDbEntity
  8
51
100
AcDbLine
 10
-363.351675
 20
457.922193
 30
0.0
 11
-363.351675
 21
328.122184
 31
0.0
  0
LINE
  5
BA
100
AcDbEntity
  8
52
100
AcDbLine
 10
-364.851675
 20
457.722193
 30
0.0
 11
-364.851675
 21
328.322193
 31
0.0
  0
LINE
  5
BB
100
AcDbEntity
  8
52
100
AcDbLine
 10
-343.051675
 20
479.522193
 30
0.0
 11
-188.351675
 21
479.522193
 31
0.0
  0
LINE
  5
BC
100
AcDbEntity
  8
52
100
AcDbLine
 10
-369.251675
 20
457.722193
 30
0.0
 11
-369.251675
 21
328.122193
 31
0.0
  0
LINE
  5
BD
100
AcDbEntity
  8
52
100
AcDbLine
 10
-343.051675
 20
483.922193
 30
0.0
 11
-188.351675
 21
483.922193
 31
0.0
  0
ARC
  5
BE
100
AcDbEntity
  8
51
100
AcDbCircle
 10
-360.551675
 20
475.222193
 30
0.0
 40
14.5
100
AcDbArc
 50
270.0
 51
0.0
  0
ARC
  5
BF
100
AcDbEntity
  8
52
100
AcDbCircle
 10
-360.551675
 20
475.222193
 30
0.0
 40
13.2
100
AcDbArc
 50
270.0
 51
0.0
  0
ARC
  5
C0
100
AcDbEntity
  8
52
100
AcDbCircle
 10
-360.551675
 20
475.222193
 30
0.0
 40
8.8
100
AcDbArc
 50
270.0
 51
0.0
  0
ARC
  5
C1
100
AcDbEntity
  8
51
100
AcDbCircle
 10
-360.551675
 20
457.922193
 30
0.0
 40
2.8
100
AcDbArc
 50
90.0
 51
180.0
  0
ARC
  5
C2
100
AcDbEntity
  8
51
100
AcDbCircle
 10
-343.251675
 20
475.222193
 30
0.0
 40
2.8
100
AcDbArc
 50
90.0
 51
180.0
  0
ARC
  5
C3
100
AcDbEntity
  8
52
100
AcDbCircle
 10
-343.051675
 20
475.222193
 30
0.0
 40
4.3
100
AcDbArc
 50
90.0
 51
180.0
  0
ARC
  5
C4
100
AcDbEntity
  8
52
100
AcDbCircle
 10
-360.551675
 20
457.722193
 30
0.0
 40
4.3
100
AcDbArc
 50
90.0
 51
180.0
  0
ARC
  5
C5
100
AcDbEntity
  8
52
100
AcDbCircle
 10
-343.051675
 20
475.222193
 30
0.0
 40
8.7
100
AcDbArc
 50
90.0
 51
180.0
  0
ARC
  5
C6
100
AcDbEntity
  8
52
100
AcDbCircle
 10
-360.551675
 20
457.722193
 30
0.0
 40
8.7
100
AcDbArc
 50
90.0
 51
180.0
  0
ARC
  5
C7
100
AcDbEntity
  8
52
100
AcDbCircle
 10
-343.051675
 20
310.822193
 30
0.0
 40
8.7
100
AcDbArc
 50
180.0
 51
270.0
  0
ARC
  5
C8
100
AcDbEntity
  8
52
100
AcDbCircle
 10
-360.551675
 20
310.822193
 30
0.0
 40
8.8
100
AcDbArc
 50
360.0
 51
90.0
  0
ARC
  5
C9
100
AcDbEntity
  8
52
100
AcDbCircle
 10
-360.551675
 20
328.322193
 30
0.0
 40
8.7
100
AcDbArc
 50
180.0
 51
270.0
  0
ARC
  5
CA
100
AcDbEntity
  8
52
100
AcDbCircle
 10
-360.551675
 20
328.322193
 30
0.0
 40
4.3
100
AcDbArc
 50
180.0
 51
270.0
  0
ARC
  5
CB
100
AcDbEntity
  8
51
100
AcDbCircle
 10
-360.551675
 20
310.822193
 30
0.0
 40
14.5
100
AcDbArc
 50
0.534442
 51
90.0
  0
ARC
  5
CC
100
AcDbEntity
  8
52
100
AcDbCircle
 10
-360.551675
 20
310.822193
 30
0.0
 40
13.2
100
AcDbArc
 50
360.0
 51
90.0
  0
ARC
  5
CD
100
AcDbEntity
  8
52
100
AcDbCircle
 10
-343.051675
 20
310.822193
 30
0.0
 40
4.3
100
AcDbArc
 50
180.0
 51
270.0
  0
ARC
  5
CE
100
AcDbEntity
  8
51
100
AcDbCircle
 10
-343.253054
 20
311.022174
 30
0.0
 40
2.8
100
AcDbArc
 50
180.0
 51
270.0
  0
ARC
  5
CF
100
AcDbEntity
  8
51
100
AcDbCircle
 10
-360.551675
 20
328.122193
 30
0.0
 40
2.8
100
AcDbArc
 50
180.0
 51
270.0
  0
LINE
  5
D0
100
AcDbEntity
  8
62
100
AcDbLine
 10
121.938198
 20
472.39187
 30
0.0
 11
339.776826
 21
472.39187
 31
0.0
  0
ARC
  5
D1
100
AcDbEntity
  8
62
100
AcDbCircle
 10
103.740425
 20
475.222193
 30
0.0
 40
18.0
100
AcDbArc
 50
280.020436
 51
349.629223
  0
LINE
  5
D2
100
AcDbEntity
  8
21
100
AcDbLine
 10
114.669415
 20
562.994054
 30
0.0
 11
356.05302
 21
562.994054
 31
0.0
  0
LINE
  5
D3
100
AcDbEntity
  8
21
100
AcDbLine
 10
114.669415
 20
533.494054
 30
0.0
 11
368.931923
 21
533.494054
 31
0.0
  0
LINE
  5
D4
100
AcDbEntity
  8
21
100
AcDbLine
 10
105.533049
 20
539.994054
 30
0.0
 11
356.347801
 21
539.994054
 31
0.0
  0
LINE
  5
D5
100
AcDbEntity
  8
22
100
AcDbLine
 10
345.971267
 20
543.039663
 30
0.0
 11
115.909584
 21
543.039663
 31
0.0
  0
LINE
  5
D6
100
AcDbEntity
  8
22
100
AcDbLine
 10
115.78762
 20
557.015337
 30
0.0
 11
346.093231
 21
557.015337
 31
0.0
  0
LINE
  5
D7
100
AcDbEntity
  8
63
  6
DASHDOT
100
AcDbLine
 10
377.170731
 20
393.022193
 30
0.0
 11
82.411273
 21
393.022193
 31
0.0
  0
ARC
  5
D8
100
AcDbEntity
  8
62
100
AcDbCircle
 10
103.740425
 20
310.822193
 30
0.0
 40
18.0
100
AcDbArc
 50
10.370777
 51
79.979564
  0
LINE
  5
D9
100
AcDbEntity
  8
61
100
AcDbLine
 10
103.740425
 20
300.022193
 30
0.0
 11
358.140425
 21
300.022193
 31
0.0
  0
LINE
  5
DA
100
AcDbEntity
  8
62
100
AcDbLine
 10
113.396438
 20
305.984692
 30
0.0
 11
348.484413
 21
305.984692
 31
0.0
  0
LINE
  5
DB
100
AcDbEntity
  8
61
100
AcDbLine
 10
115.450994
 20
307.654739
 30
0.0
 11
346.42986
 21
307.654739
 31
0.0
  0
LINE
  5
DC
100
AcDbEntity
  8
62
100
AcDbLine
 10
121.938198
 20
313.652516
 30
0.0
 11
339.90516
 21
313.652516
 31
0.0
  0
LINE
  5
DD
100
AcDbEntity
  8
62
100
AcDbLine
 10
106.459415
 20
328.99703
 30
0.0
 11
106.459415
 21
457.004397
 31
0.0
  0
LINE
  5
DE
100
AcDbEntity
  8
62
100
AcDbLine
 10
355.421436
 20
328.99703
 30
0.0
 11
355.421436
 21
457.004397
 31
0.0
  0
ARC
  5
DF
100
AcDbEntity
  8
62
100
AcDbCircle
 10
358.140425
 20
310.822193
 30
0.0
 40
18.0
100
AcDbArc
 50
100.020436
 51
169.629223
  0
ARC
  5
E0
100
AcDbEntity
  8
62
100
AcDbCircle
 10
358.140425
 20
475.222193
 30
0.0
 40
18.0
100
AcDbArc
 50
190.370777
 51
259.979564
  0
ARC
  5
E1
100
AcDbEntity
  8
61
100
AcDbCircle
 10
346.429857
 20
480.389647
 30
0.0
 40
2.0
100
AcDbArc
 50
270.0
 51
336.189853
  0
ARC
  5
E2
100
AcDbEntity
  8
61
100
AcDbCircle
 10
363.386778
 20
463.546758
 30
0.0
 40
2.0
100
AcDbArc
 50
114.196752
 51
180.0
  0
ARC
  5
E3
100
AcDbEntity
  8
61
100
AcDbCircle
 10
359.386778
 20
461.277782
 30
0.0
 40
2.0
100
AcDbArc
 50
0.0
 51
95.107531
  0
ARC
  5
E4
100
AcDbEntity
  8
61
100
AcDbCircle
 10
344.189187
 20
476.389647
 30
0.0
 40
2.0
100
AcDbArc
 50
355.216575
 51
90.0
  0
LINE
  5
E5
100
AcDbEntity
  8
61
100
AcDbLine
 10
361.386778
 20
463.546758
 30
0.0
 11
361.386778
 21
322.497628
 31
0.0
  0
LINE
  5
E6
100
AcDbEntity
  8
62
100
AcDbLine
 10
363.032805
 20
465.593869
 30
0.0
 11
363.032805
 21
320.450517
 31
0.0
  0
LINE
  5
E7
100
AcDbEntity
  8
61
100
AcDbLine
 10
359.2048
 20
467.293315
 30
0.0
 11
350.211547
 21
476.286568
 31
0.0
  0
LINE
  5
E8
100
AcDbEntity
  8
61
100
AcDbLine
 10
366.11041
 20
474.529842
 30
0.0
 11
357.448074
 21
483.192177
 31
0.0
  0
LINE
  5
E9
100
AcDbEntity
  8
61
100
AcDbLine
 10
368.940425
 20
475.222193
 30
0.0
 11
368.940425
 21
310.822193
 31
0.0
  0
ARC
  5
EA
100
AcDbEntity
  8
61
100
AcDbCircle
 10
358.140425
 20
475.222193
 30
0.0
 40
10.8
100
AcDbArc
 50
294.196752
 51
156.189853
  0
ARC
  5
EB
100
AcDbEntity
  8
61
100
AcDbCircle
 10
358.140425
 20
475.222193
 30
0.0
 40
12.0
100
AcDbArc
 50
175.216575
 51
275.107531
  0
LINE
  5
EC
100
AcDbEntity
  8
61
100
AcDbLine
 10
346.429857
 20
478.389647
 30
0.0
 11
344.653527
 21
478.389647
 31
0.0
  0
LINE
  5
ED
100
AcDbEntity
  8
53
  6
DASHDOT
100
AcDbLine
 10
-88.100951
 20
393.022193
 30
0.0
 11
-382.006772
 21
393.022193
 31
0.0
  0
ARC
  5
EE
100
AcDbEntity
  8
21
100
AcDbCircle
 10
357.239862
 20
562.232826
 30
0.0
 40
22.256656
100
AcDbArc
 50
239.582163
 51
267.702934
  0
LINE
  5
EF
100
AcDbEntity
  8
21
100
AcDbLine
 10
346.097408
 20
557.494054
 30
0.0
 11
345.971267
 21
543.039663
 31
0.0
  0
ARC
  5
F0
100
AcDbEntity
  8
21
100
AcDbCircle
 10
340.118234
 20
556.994054
 30
0.0
 40
6.0
100
AcDbArc
 50
5.0
 51
90.0
  0
LINE
  5
F1
100
AcDbEntity
  8
21
100
AcDbLine
 10
346.097408
 20
557.494054
 30
0.0
 11
346.095402
 21
557.516988
 31
0.0
  0
LINE
  5
F2
100
AcDbEntity
  8
21
100
AcDbLine
 10
348.101156
 20
532.994054
 30
0.0
 11
348.101156
 21
533.494054
 31
0.0
  0
ARC
  5
F3
100
AcDbEntity
  8
21
100
AcDbCircle
 10
356.05302
 20
556.994054
 30
0.0
 40
6.0
100
AcDbArc
 50
5.0
 51
90.0
  0
LINE
  5
F4
100
AcDbEntity
  8
21
100
AcDbLine
 10
362.032195
 20
557.494054
 30
0.0
 11
362.030188
 21
557.516988
 31
0.0
  0
LINE
  5
F5
100
AcDbEntity
  8
21
100
AcDbLine
 10
368.94065
 20
532.994054
 30
0.0
 11
368.513001
 21
557.494054
 31
0.0
  0
LINE
  5
F6
100
AcDbEntity
  8
21
100
AcDbLine
 10
368.513001
 20
557.494054
 30
0.0
 11
346.097408
 21
557.494054
 31
0.0
  0
LINE
  5
F7
100
AcDbEntity
  8
21
100
AcDbLine
 10
368.94065
 20
532.994054
 30
0.0
 11
348.101156
 21
532.994054
 31
0.0
  0
LINE
  5
F8
100
AcDbEntity
  8
52
100
AcDbLine
 10
-98.18169
 20
311.514545
 30
0.0
 11
-106.844026
 21
302.852209
 31
0.0
  0
ARC
  5
F9
100
AcDbEntity
  8
52
100
AcDbCircle
 10
-106.151675
 20
310.822193
 30
0.0
 40
8.0
100
AcDbArc
 50
187.645696
 51
265.035187
  0
ARC
  5
FA
100
AcDbEntity
  8
52
100
AcDbCircle
 10
-106.151675
 20
310.822193
 30
0.0
 40
8.0
100
AcDbArc
 50
4.964813
 51
82.354304
  0
LINE
  5
FB
100
AcDbEntity
  8
52
100
AcDbLine
 10
-105.0873
 20
318.751071
 30
0.0
 11
-114.080553
 21
309.757818
 31
0.0
  0
ARC
  5
FC
100
AcDbEntity
  8
51
100
AcDbCircle
 10
-106.151675
 20
310.822193
 30
0.0
 40
10.8
100
AcDbArc
 50
203.289549
 51
66.710451
  0
ARC
  5
FD
100
AcDbEntity
  8
51
100
AcDbCircle
 10
-106.151675
 20
310.822193
 30
0.0
 40
14.5
100
AcDbArc
 50
90.0
 51
179.465558
  0
ARC
  5
FE
100
AcDbEntity
  8
52
100
AcDbCircle
 10
-106.151675
 20
310.822193
 30
0.0
 40
13.2
100
AcDbArc
 50
90.0
 51
180.0
  0
ARC
  5
FF
100
AcDbEntity
  8
52
100
AcDbCircle
 10
-106.151675
 20
310.822193
 30
0.0
 40
8.8
100
AcDbArc
 50
90.0
 51
180.0
  0
ARC
  5
100
100
AcDbEntity
  8
51
100
AcDbCircle
 10
-106.151675
 20
328.122193
 30
0.0
 40
2.8
100
AcDbArc
 50
270.0
 51
0.0
  0
ARC
  5
101
100
AcDbEntity
  8
51
100
AcDbCircle
 10
-123.450296
 20
311.022174
 30
0.0
 40
2.8
100
AcDbArc
 50
270.0
 51
0.0
  0
ARC
  5
102
100
AcDbEntity
  8
52
100
AcDbCircle
 10
-123.651675
 20
310.822193
 30
0.0
 40
4.3
100
AcDbArc
 50
270.0
 51
0.0
  0
ARC
  5
103
100
AcDbEntity
  8
52
100
AcDbCircle
 10
-106.151675
 20
328.322193
 30
0.0
 40
4.3
100
AcDbArc
 50
270.0
 51
0.0
  0
ARC
  5
104
100
AcDbEntity
  8
52
100
AcDbCircle
 10
-123.651675
 20
310.822193
 30
0.0
 40
8.7
100
AcDbArc
 50
270.0
 51
0.0
  0
ARC
  5
105
100
AcDbEntity
  8
52
100
AcDbCircle
 10
-106.151675
 20
328.322193
 30
0.0
 40
8.7
100
AcDbArc
 50
270.0
 51
0.0
  0
ARC
  5
106
100
AcDbEntity
  8
52
100
AcDbCircle
 10
-106.151675
 20
457.722193
 30
0.0
 40
8.7
100
AcDbArc
 50
360.0
 51
90.0
  0
ARC
  5
107
100
AcDbEntity
  8
52
100
AcDbCircle
 10
-123.651675
 20
475.222193
 30
0.0
 40
8.7
100
AcDbArc
 50
360.0
 51
90.0
  0
ARC
  5
108
100
AcDbEntity
  8
52
100
AcDbCircle
 10
-106.151675
 20
457.722193
 30
0.0
 40
4.3
100
AcDbArc
 50
0.0
 51
90.0
  0
ARC
  5
109
100
AcDbEntity
  8
52
100
AcDbCircle
 10
-123.651675
 20
475.222193
 30
0.0
 40
4.3
100
AcDbArc
 50
360.0
 51
90.0
  0
ARC
  5
10A
100
AcDbEntity
  8
51
100
AcDbCircle
 10
-123.451675
 20
475.222193
 30
0.0
 40
2.8
100
AcDbArc
 50
360.0
 51
90.0
  0
ARC
  5
10B
100
AcDbEntity
  8
51
100
AcDbCircle
 10
-106.151675
 20
457.922193
 30
0.0
 40
2.8
100
AcDbArc
 50
0.0
 51
90.0
  0
ARC
  5
10C
100
AcDbEntity
  8
52
100
AcDbCircle
 10
-106.151675
 20
475.222193
 30
0.0
 40
8.8
100
AcDbArc
 50
180.0
 51
270.0
  0
ARC
  5
10D
100
AcDbEntity
  8
52
100
AcDbCircle
 10
-106.151675
 20
475.222193
 30
0.0
 40
13.2
100
AcDbArc
 50
180.0
 51
270.0
  0
ARC
  5
10E
100
AcDbEntity
  8
51
100
AcDbCircle
 10
-106.151675
 20
475.222193
 30
0.0
 40
14.5
100
AcDbArc
 50
180.0
 51
270.0
  0
LINE
  5
10F
100
AcDbEntity
  8
52
100
AcDbLine
 10
-123.651675
 20
483.922193
 30
0.0
 11
-188.351675
 21
483.922193
 31
0.0
  0
LINE
  5
110
100
AcDbEntity
  8
52
100
AcDbLine
 10
-97.451675
 20
457.722193
 30
0.0
 11
-97.451675
 21
328.122193
 31
0.0
  0
LINE
  5
111
100
AcDbEntity
  8
52
100
AcDbLine
 10
-123.651675
 20
479.522193
 30
0.0
 11
-188.351675
 21
479.522193
 31
0.0
  0
LINE
  5
112
100
AcDbEntity
  8
52
100
AcDbLine
 10
-101.851675
 20
457.722193
 30
0.0
 11
-101.851675
 21
328.322193
 31
0.0
  0
LINE
  5
113
100
AcDbEntity
  8
51
100
AcDbLine
 10
-103.351675
 20
457.922193
 30
0.0
 11
-103.351675
 21
328.122184
 31
0.0
  0
LINE
  5
114
100
AcDbEntity
  8
51
100
AcDbLine
 10
-123.451675
 20
478.022193
 30
0.0
 11
-188.351675
 21
478.022193
 31
0.0
  0
ARC
  5
115
100
AcDbEntity
  8
51
100
AcDbCircle
 10
-106.151675
 20
475.222193
 30
0.0
 40
10.8
100
AcDbArc
 50
293.289549
 51
156.710451
  0
LINE
  5
116
100
AcDbEntity
  8
51
100
AcDbLine
 10
-106.151675
 20
486.022193
 30
0.0
 11
-188.351675
 21
486.022193
 31
0.0
  0
LINE
  5
117
100
AcDbEntity
  8
51
100
AcDbLine
 10
-95.351675
 20
475.222193
 30
0.0
 11
-95.351675
 21
310.822199
 31
0.0
  0
LINE
  5
118
100
AcDbEntity
  8
52
100
AcDbLine
 10
-105.0873
 20
467.293315
 30
0.0
 11
-114.080553
 21
476.286568
 31
0.0
  0
ARC
  5
119
100
AcDbEntity
  8
52
100
AcDbCircle
 10
-106.151675
 20
475.222193
 30
0.0
 40
8.0
100
AcDbArc
 50
277.645696
 51
355.035187
  0
ARC
  5
11A
100
AcDbEntity
  8
52
100
AcDbCircle
 10
-106.151675
 20
475.222193
 30
0.0
 40
8.0
100
AcDbArc
 50
94.964813
 51
172.354304
  0
LINE
  5
11B
100
AcDbEntity
  8
52
100
AcDbLine
 10
-98.18169
 20
474.529842
 30
0.0
 11
-106.844026
 21
483.192177
 31
0.0
  0
LINE
  5
11C
100
AcDbEntity
  8
51
100
AcDbLine
 10
-343.251675
 20
308.222193
 30
0.0
 11
-275.851675
 21
308.222193
 31
0.0
  0
LINE
  5
11D
100
AcDbEntity
  8
52
100
AcDbLine
 10
-343.251675
 20
306.526847
 30
0.0
 11
-123.451675
 21
306.526847
 31
0.0
  0
LINE
  5
11E
100
AcDbEntity
  8
52
100
AcDbLine
 10
-343.251675
 20
302.124492
 30
0.0
 11
-123.451675
 21
302.124492
 31
0.0
  0
LINE
  5
11F
100
AcDbEntity
  8
51
100
AcDbLine
 10
-360.551675
 20
300.022193
 30
0.0
 11
-106.151675
 21
300.022193
 31
0.0
  0
LINE
  5
120
100
AcDbEntity
  8
33
  6
DASHDOT
100
AcDbLine
 10
485.368391
 20
393.022193
 30
0.0
 11
416.144898
 21
393.022193
 31
0.0
  0
LINE
  5
121
100
AcDbEntity
  8
31
100
AcDbLine
 10
434.755956
 20
300.021696
 30
0.0
 11
434.755956
 21
486.02269
 31
0.0
  0
LINE
  5
122
100
AcDbEntity
  8
34
100
AcDbLine
 10
461.931601
 20
457.633522
 30
0.0
 11
461.852862
 21
393.022193
 31
0.0
  0
ARC
  5
123
100
AcDbEntity
  8
34
100
AcDbCircle
 10
458.934725
 20
457.496638
 30
0.0
 40
3.0
100
AcDbArc
 50
357.226485
 51
90.067002
  0
LINE
  5
124
100
AcDbEntity
  8
34
100
AcDbLine
 10
434.755956
 20
460.498072
 30
0.0
 11
458.577302
 21
460.498072
 31
0.0
  0
LINE
  5
125
100
AcDbEntity
  8
34
100
AcDbLine
 10
434.755956
 20
325.546315
 30
0.0
 11
458.774289
 21
325.546315
 31
0.0
  0
LINE
  5
126
100
AcDbEntity
  8
31
100
AcDbLine
 10
440.079909
 20
300.114626
 30
0.0
 11
458.755956
 21
300.440617
 31
0.0
  0
LINE
  5
127
100
AcDbEntity
  8
31
100
AcDbLine
 10
458.755956
 20
307.571424
 30
0.0
 11
458.755956
 21
300.440617
 31
0.0
  0
CIRCLE
  5
128
100
AcDbEntity
  8
61
100
AcDbCircle
 10
358.140425
 20
475.222193
 30
0.0
 40
8.0
  0
ARC
  5
129
100
AcDbEntity
  8
61
100
AcDbCircle
 10
358.140425
 20
475.222193
 30
0.0
 40
10.0
100
AcDbArc
 50
187.519679
 51
262.493404
  0
LINE
  5
12A
100
AcDbEntity
  8
61
100
AcDbLine
 10
350.901149
 20
479.580562
 30
0.0
 11
348.539862
 21
475.490693
 31
0.0
  0
LINE
  5
12B
100
AcDbEntity
  8
61
100
AcDbLine
 10
362.434235
 20
467.94444
 30
0.0
 11
358.410623
 21
465.621406
 31
0.0
  0
ARC
  5
12C
100
AcDbEntity
  8
61
100
AcDbCircle
 10
358.140425
 20
475.222193
 30
0.0
 40
8.45
100
AcDbArc
 50
299.459771
 51
148.950175
  0
LINE
  5
12D
100
AcDbEntity
  8
61
100
AcDbLine
 10
351.286673
 20
479.348459
 30
0.0
 11
349.007299
 21
475.400468
 31
0.0
  0
LINE
  5
12E
100
AcDbEntity
  8
61
100
AcDbLine
 10
362.21292
 20
468.336255
 30
0.0
 11
358.320259
 21
466.088827
 31
0.0
  0
ARC
  5
12F
100
AcDbEntity
  8
61
100
AcDbCircle
 10
358.140425
 20
475.222193
 30
0.0
 40
9.55
100
AcDbArc
 50
188.743877
 51
261.268945
  0
ARC
  5
130
100
AcDbEntity
  8
61
100
AcDbCircle
 10
351.172362
 20
474.150468
 30
0.0
 40
2.5
100
AcDbArc
 50
150.0
 51
188.743877
  0
ARC
  5
131
100
AcDbEntity
  8
61
100
AcDbCircle
 10
357.070259
 20
468.25389
 30
0.0
 40
2.5
100
AcDbArc
 50
261.268945
 51
300.0
  0
ARC
  5
132
100
AcDbEntity
  8
61
100
AcDbCircle
 10
350.704925
 20
474.240693
 30
0.0
 40
2.5
100
AcDbArc
 50
150.0
 51
187.519679
  0
ARC
  5
133
100
AcDbEntity
  8
61
100
AcDbCircle
 10
357.160623
 20
467.786469
 30
0.0
 40
2.5
100
AcDbArc
 50
262.493404
 51
300.0
  0
ARC
  5
134
100
AcDbEntity
  8
61
100
AcDbCircle
 10
104.720228
 20
467.786469
 30
0.0
 40
2.5
100
AcDbArc
 50
240.0
 51
277.506596
  0
ARC
  5
135
100
AcDbEntity
  8
61
100
AcDbCircle
 10
111.175925
 20
474.240693
 30
0.0
 40
2.5
100
AcDbArc
 50
352.480321
 51
30.0
  0
ARC
  5
136
100
AcDbEntity
  8
61
100
AcDbCircle
 10
104.810591
 20
468.25389
 30
0.0
 40
2.5
100
AcDbArc
 50
240.0
 51
278.731055
  0
ARC
  5
137
100
AcDbEntity
  8
61
100
AcDbCircle
 10
110.708489
 20
474.150468
 30
0.0
 40
2.5
100
AcDbArc
 50
351.256123
 51
30.0
  0
ARC
  5
138
100
AcDbEntity
  8
61
100
AcDbCircle
 10
103.740425
 20
475.222193
 30
0.0
 40
9.55
100
AcDbArc
 50
278.731055
 51
351.256123
  0
LINE
  5
139
100
AcDbEntity
  8
61
100
AcDbLine
 10
99.667931
 20
468.336255
 30
0.0
 11
103.560591
 21
466.088827
 31
0.0
  0
LINE
  5
13A
100
AcDbEntity
  8
61
100
AcDbLine
 10
110.594178
 20
479.348459
 30
0.0
 11
112.873552
 21
475.400468
 31
0.0
  0
ARC
  5
13B
100
AcDbEntity
  8
61
100
AcDbCircle
 10
103.740425
 20
475.222193
 30
0.0
 40
8.45
100
AcDbArc
 50
31.049825
 51
240.540229
  0
LINE
  5
13C
100
AcDbEntity
  8
61
100
AcDbLine
 10
99.446615
 20
467.94444
 30
0.0
 11
103.470228
 21
465.621406
 31
0.0
  0
LINE
  5
13D
100
AcDbEntity
  8
61
100
AcDbLine
 10
110.979702
 20
479.580562
 30
0.0
 11
113.340989
 21
475.490693
 31
0.0
  0
ARC
  5
13E
100
AcDbEntity
  8
61
100
AcDbCircle
 10
103.740425
 20
475.222193
 30
0.0
 40
10.0
100
AcDbArc
 50
277.506596
 51
352.480321
  0
CIRCLE
  5
13F
100
AcDbEntity
  8
61
100
AcDbCircle
 10
103.740425
 20
475.222193
 30
0.0
 40
8.0
  0
LINE
  5
140
100
AcDbEntity
  8
61
100
AcDbLine
 10
115.450994
 20
478.389647
 30
0.0
 11
117.227323
 21
478.389647
 31
0.0
  0
ARC
  5
141
100
AcDbEntity
  8
61
100
AcDbCircle
 10
103.740425
 20
475.222193
 30
0.0
 40
12.0
100
AcDbArc
 50
264.892469
 51
4.783425
  0
ARC
  5
142
100
AcDbEntity
  8
61
100
AcDbCircle
 10
103.740425
 20
475.222193
 30
0.0
 40
10.8
100
AcDbArc
 50
23.810147
 51
245.803248
  0
LINE
  5
143
100
AcDbEntity
  8
61
100
AcDbLine
 10
95.770441
 20
474.529842
 30
0.0
 11
104.432777
 21
483.192177
 31
0.0
  0
LINE
  5
144
100
AcDbEntity
  8
61
100
AcDbLine
 10
102.67605
 20
467.293315
 30
0.0
 11
111.669303
 21
476.286568
 31
0.0
  0
ARC
  5
145
100
AcDbEntity
  8
61
100
AcDbCircle
 10
117.691664
 20
476.389647
 30
0.0
 40
2.0
100
AcDbArc
 50
90.0
 51
184.783425
  0
ARC
  5
146
100
AcDbEntity
  8
61
100
AcDbCircle
 10
102.494072
 20
461.277782
 30
0.0
 40
2.0
100
AcDbArc
 50
84.892469
 51
180.0
  0
ARC
  5
147
100
AcDbEntity
  8
61
100
AcDbCircle
 10
98.494072
 20
463.546758
 30
0.0
 40
2.0
100
AcDbArc
 50
0.0
 51
65.803248
  0
ARC
  5
148
100
AcDbEntity
  8
61
100
AcDbCircle
 10
115.450994
 20
480.389647
 30
0.0
 40
2.0
100
AcDbArc
 50
203.810147
 51
270.0
  0
ARC
  5
149
100
AcDbEntity
  8
61
100
AcDbCircle
 10
115.450994
 20
305.654739
 30
0.0
 40
2.0
100
AcDbArc
 50
90.0
 51
156.189853
  0
ARC
  5
14A
100
AcDbEntity
  8
61
100
AcDbCircle
 10
98.494072
 20
322.497628
 30
0.0
 40
2.0
100
AcDbArc
 50
294.196752
 51
0.0
  0
ARC
  5
14B
100
AcDbEntity
  8
61
100
AcDbCircle
 10
102.494072
 20
324.766604
 30
0.0
 40
2.0
100
AcDbArc
 50
180.0
 51
275.107531
  0
ARC
  5
14C
100
AcDbEntity
  8
61
100
AcDbCircle
 10
117.691664
 20
309.654739
 30
0.0
 40
2.0
100
AcDbArc
 50
175.216575
 51
270.0
  0
LINE
  5
14D
100
AcDbEntity
  8
61
100
AcDbLine
 10
102.67605
 20
318.751071
 30
0.0
 11
111.669303
 21
309.757818
 31
0.0
  0
LINE
  5
14E
100
AcDbEntity
  8
61
100
AcDbLine
 10
95.770441
 20
311.514545
 30
0.0
 11
104.432777
 21
302.852209
 31
0.0
  0
ARC
  5
14F
100
AcDbEntity
  8
61
100
AcDbCircle
 10
103.740425
 20
310.822193
 30
0.0
 40
10.8
100
AcDbArc
 50
114.196752
 51
336.189853
  0
ARC
  5
150
100
AcDbEntity
  8
61
100
AcDbCircle
 10
103.740425
 20
310.822193
 30
0.0
 40
12.0
100
AcDbArc
 50
355.216575
 51
95.107531
  0
LINE
  5
151
100
AcDbEntity
  8
61
100
AcDbLine
 10
115.450994
 20
307.654739
 30
0.0
 11
117.227323
 21
307.654739
 31
0.0
  0
CIRCLE
  5
152
100
AcDbEntity
  8
61
100
AcDbCircle
 10
103.740425
 20
310.822193
 30
0.0
 40
8.0
  0
ARC
  5
153
100
AcDbEntity
  8
61
100
AcDbCircle
 10
103.740425
 20
310.822193
 30
0.0
 40
10.0
100
AcDbArc
 50
7.519679
 51
82.493404
  0
LINE
  5
154
100
AcDbEntity
  8
61
100
AcDbLine
 10
110.979702
 20
306.463824
 30
0.0
 11
113.340989
 21
310.553693
 31
0.0
  0
LINE
  5
155
100
AcDbEntity
  8
61
100
AcDbLine
 10
99.446615
 20
318.099947
 30
0.0
 11
103.470228
 21
320.42298
 31
0.0
  0
ARC
  5
156
100
AcDbEntity
  8
61
100
AcDbCircle
 10
103.740425
 20
310.822193
 30
0.0
 40
8.45
100
AcDbArc
 50
119.459771
 51
328.950175
  0
LINE
  5
157
100
AcDbEntity
  8
61
100
AcDbLine
 10
110.594178
 20
306.695927
 30
0.0
 11
112.873552
 21
310.643918
 31
0.0
  0
LINE
  5
158
100
AcDbEntity
  8
61
100
AcDbLine
 10
99.667931
 20
317.708131
 30
0.0
 11
103.560591
 21
319.95556
 31
0.0
  0
ARC
  5
159
100
AcDbEntity
  8
61
100
AcDbCircle
 10
103.740425
 20
310.822193
 30
0.0
 40
9.55
100
AcDbArc
 50
8.743877
 51
81.268945
  0
ARC
  5
15A
100
AcDbEntity
  8
61
100
AcDbCircle
 10
110.708489
 20
311.893918
 30
0.0
 40
2.5
100
AcDbArc
 50
330.0
 51
8.743877
  0
ARC
  5
15B
100
AcDbEntity
  8
61
100
AcDbCircle
 10
104.810591
 20
317.790496
 30
0.0
 40
2.5
100
AcDbArc
 50
81.268945
 51
120.0
  0
ARC
  5
15C
100
AcDbEntity
  8
61
100
AcDbCircle
 10
111.175925
 20
311.803693
 30
0.0
 40
2.5
100
AcDbArc
 50
330.0
 51
7.519679
  0
ARC
  5
15D
100
AcDbEntity
  8
61
100
AcDbCircle
 10
104.720228
 20
318.257917
 30
0.0
 40
2.5
100
AcDbArc
 50
82.493404
 51
120.0
  0
ARC
  5
15E
100
AcDbEntity
  8
61
100
AcDbCircle
 10
357.160623
 20
318.257917
 30
0.0
 40
2.5
100
AcDbArc
 50
60.0
 51
97.506596
  0
ARC
  5
15F
100
AcDbEntity
  8
61
100
AcDbCircle
 10
350.704925
 20
311.803693
 30
0.0
 40
2.5
100
AcDbArc
 50
172.480321
 51
210.0
  0
ARC
  5
160
100
AcDbEntity
  8
61
100
AcDbCircle
 10
357.070259
 20
317.790496
 30
0.0
 40
2.5
100
AcDbArc
 50
60.0
 51
98.731055
  0
ARC
  5
161
100
AcDbEntity
  8
61
100
AcDbCircle
 10
351.172362
 20
311.893918
 30
0.0
 40
2.5
100
AcDbArc
 50
171.256123
 51
210.0
  0
ARC
  5
162
100
AcDbEntity
  8
61
100
AcDbCircle
 10
358.140425
 20
310.822193
 30
0.0
 40
9.55
100
AcDbArc
 50
98.731055
 51
171.256123
  0
LINE
  5
163
100
AcDbEntity
  8
61
100
AcDbLine
 10
362.21292
 20
317.708131
 30
0.0
 11
358.320259
 21
319.95556
 31
0.0
  0
LINE
  5
164
100
AcDbEntity
  8
61
100
AcDbLine
 10
351.286673
 20
306.695927
 30
0.0
 11
349.007299
 21
310.643918
 31
0.0
  0
ARC
  5
165
100
AcDbEntity
  8
61
100
AcDbCircle
 10
358.140425
 20
310.822193
 30
0.0
 40
8.45
100
AcDbArc
 50
211.049825
 51
60.540229
  0
LINE
  5
166
100
AcDbEntity
  8
61
100
AcDbLine
 10
362.434235
 20
318.099947
 30
0.0
 11
358.410623
 21
320.42298
 31
0.0
  0
LINE
  5
167
100
AcDbEntity
  8
61
100
AcDbLine
 10
350.901149
 20
306.463824
 30
0.0
 11
348.539862
 21
310.553693
 31
0.0
  0
ARC
  5
168
100
AcDbEntity
  8
61
100
AcDbCircle
 10
358.140425
 20
310.822193
 30
0.0
 40
10.0
100
AcDbArc
 50
97.506596
 51
172.480321
  0
CIRCLE
  5
169
100
AcDbEntity
  8
61
100
AcDbCircle
 10
358.140425
 20
310.822193
 30
0.0
 40
8.0
  0
LINE
  5
16A
100
AcDbEntity
  8
61
100
AcDbLine
 10
346.429857
 20
307.654739
 30
0.0
 11
344.653527
 21
307.654739
 31
0.0
  0
ARC
  5
16B
100
AcDbEntity
  8
61
100
AcDbCircle
 10
358.140425
 20
310.822193
 30
0.0
 40
12.0
100
AcDbArc
 50
84.892469
 51
184.783425
  0
ARC
  5
16C
100
AcDbEntity
  8
61
100
AcDbCircle
 10
358.140425
 20
310.822193
 30
0.0
 40
10.8
100
AcDbArc
 50
203.810147
 51
65.803248
  0
LINE
  5
16D
100
AcDbEntity
  8
61
100
AcDbLine
 10
366.11041
 20
311.514545
 30
0.0
 11
357.448074
 21
302.852209
 31
0.0
  0
LINE
  5
16E
100
AcDbEntity
  8
61
100
AcDbLine
 10
359.2048
 20
318.751071
 30
0.0
 11
350.211547
 21
309.757818
 31
0.0
  0
ARC
  5
16F
100
AcDbEntity
  8
61
100
AcDbCircle
 10
344.189187
 20
309.654739
 30
0.0
 40
2.0
100
AcDbArc
 50
270.0
 51
4.783425
  0
ARC
  5
170
100
AcDbEntity
  8
61
100
AcDbCircle
 10
359.386778
 20
324.766604
 30
0.0
 40
2.0
100
AcDbArc
 50
264.892469
 51
0.0
  0
ARC
  5
171
100
AcDbEntity
  8
61
100
AcDbCircle
 10
363.386778
 20
322.497628
 30
0.0
 40
2.0
100
AcDbArc
 50
180.0
 51
245.803248
  0
ARC
  5
172
100
AcDbEntity
  8
61
100
AcDbCircle
 10
346.429857
 20
305.654739
 30
0.0
 40
2.0
100
AcDbArc
 50
23.810147
 51
90.0
  0
LINE
  5
173
100
AcDbEntity
  8
31
100
AcDbLine
 10
464.255956
 20
473.143788
 30
0.0
 11
464.255956
 21
393.022193
 31
0.0
  0
ARC
  5
174
100
AcDbEntity
  8
51
100
AcDbCircle
 10
-305.916129
 20
-198.505084
 30
0.0
 40
507.032791
100
AcDbArc
 50
95.059524
 51
95.059524
  0
LINE
  5
175
100
AcDbEntity
  8
51
100
AcDbLine
 10
-190.851675
 20
308.222193
 30
0.0
 11
-123.451675
 21
308.222193
 31
0.0
  0
LINE
  5
176
100
AcDbEntity
  8
31
100
AcDbLine
 10
464.255956
 20
393.022193
 30
0.0
 11
464.255956
 21
312.900599
 31
0.0
  0
LINE
  5
177
100
AcDbEntity
  8
34
100
AcDbLine
 10
461.852862
 20
393.022193
 30
0.0
 11
461.774287
 21
328.542659
 31
0.0
  0
LINE
  5
178
100
AcDbEntity
  8
31
100
AcDbLine
 10
434.755956
 20
300.021696
 30
0.0
 11
440.079903
 21
300.114626
 31
0.0
  0
LINE
  5
179
100
AcDbEntity
  8
63
  6
DASHDOT
100
AcDbLine
 10
230.940425
 20
292.352411
 30
0.0
 11
230.940425
 21
500.450934
 31
0.0
  0
ARC
  5
17A
100
AcDbEntity
  8
51
100
AcDbCircle
 10
-257.153
 20
-1370.058126
 30
0.0
 40
1679.589442
100
AcDbArc
 50
87.737677
 51
88.335008
  0
LINE
  5
17B
100
AcDbEntity
  8
51
100
AcDbLine
 10
-233.351675
 20
308.822193
 30
0.0
 11
-208.351675
 21
308.822193
 31
0.0
  0
LINE
  5
17C
100
AcDbEntity
  8
51
100
AcDbLine
 10
-233.351675
 20
308.822193
 30
0.0
 11
-258.351675
 21
308.822193
 31
0.0
  0
ARC
  5
17D
100
AcDbEntity
  8
51
100
AcDbCircle
 10
-211.169939
 20
-1322.820102
 30
0.0
 40
1632.324323
100
AcDbArc
 50
91.656344
 51
92.270971
  0
LINE
  5
17E
100
AcDbEntity
  8
53
  6
DASHDOT
100
AcDbLine
 10
-233.351675
 20
433.770274
 30
0.0
 11
-233.351675
 21
281.848268
 31
0.0
  0
ARC
  5
17F
100
AcDbEntity
  8
21
100
AcDbCircle
 10
107.081432
 20
556.880854
 30
0.0
 40
6.16611
100
AcDbArc
 50
97.51126
 51
174.078475
  0
LINE
  5
180
100
AcDbEntity
  8
24
100
AcDbLine
 10
230.940425
 20
560.494054
 30
0.0
 11
122.14564
 21
560.494054
 31
0.0
  0
LINE
  5
181
100
AcDbEntity
  8
21
100
AcDbLine
 10
114.669415
 20
562.994054
 30
0.0
 11
106.275392
 21
562.994054
 31
0.0
  0
LINE
  5
182
100
AcDbEntity
  8
21
100
AcDbLine
 10
92.940425
 20
533.494054
 30
0.0
 11
93.033395
 21
538.820293
 31
0.0
  0
LINE
  5
183
100
AcDbEntity
  8
21
100
AcDbLine
 10
100.940425
 20
533.494054
 30
0.0
 11
113.771191
 21
533.494054
 31
0.0
  0
LINE
  5
184
100
AcDbEntity
  8
21
100
AcDbLine
 10
95.034523
 20
533.494054
 30
0.0
 11
92.940425
 21
533.494054
 31
0.0
  0
LINE
  5
185
100
AcDbEntity
  8
21
100
AcDbLine
 10
100.940425
 20
533.494054
 30
0.0
 11
99.423569
 21
533.494054
 31
0.0
  0
LINE
  5
186
100
AcDbEntity
  8
21
100
AcDbLine
 10
99.423569
 20
533.494054
 30
0.0
 11
95.034523
 21
533.494054
 31
0.0
  0
LINE
  5
187
100
AcDbEntity
  8
21
100
AcDbLine
 10
93.033355
 20
538.818006
 30
0.0
 11
93.055059
 21
540.061389
 31
0.0
  0
LINE
  5
188
100
AcDbEntity
  8
21
100
AcDbLine
 10
113.771191
 20
532.994054
 30
0.0
 11
113.771191
 21
533.494054
 31
0.0
  0
LINE
  5
189
100
AcDbEntity
  8
21
100
AcDbLine
 10
92.931698
 20
532.994054
 30
0.0
 11
92.940425
 21
533.494054
 31
0.0
  0
LINE
  5
18A
100
AcDbEntity
  8
21
100
AcDbLine
 10
113.771191
 20
532.994054
 30
0.0
 11
92.931698
 21
532.994054
 31
0.0
  0
LINE
  5
18B
100
AcDbEntity
  8
21
100
AcDbLine
 10
113.771191
 20
533.494054
 30
0.0
 11
114.669415
 21
533.494054
 31
0.0
  0
LINE
  5
18C
100
AcDbEntity
  8
21
100
AcDbLine
 10
93.055059
 20
540.061389
 30
0.0
 11
93.359347
 21
557.494054
 31
0.0
  0
TEXT
  5
18D
100
AcDbEntity
  8
0
  6
CONTINUOUS
100
AcDbText
 10
330.76571
 20
977.068835
 30
0.0
 40
2.5
  1
  
 50
21.66214
100
AcDbText
  0
ARC
  5
18E
100
AcDbEntity
  8
34
100
AcDbCircle
 10
458.774289
 20
328.546315
 30
0.0
 40
3.0
100
AcDbArc
 50
270.0
 51
359.930179
  0
LINE
  5
18F
100
AcDbEntity
  8
31
100
AcDbLine
 10
434.255956
 20
300.012968
 30
0.0
 11
434.255956
 21
320.852462
 31
0.0
  0
LINE
  5
190
100
AcDbEntity
  8
31
100
AcDbLine
 10
458.755956
 20
300.440617
 30
0.0
 11
458.755956
 21
322.85621
 31
0.0
  0
LINE
  5
191
100
AcDbEntity
  8
31
100
AcDbLine
 10
434.255956
 20
300.012968
 30
0.0
 11
458.755956
 21
300.440617
 31
0.0
  0
LINE
  5
192
100
AcDbEntity
  8
31
100
AcDbLine
 10
458.755956
 20
306.921424
 30
0.0
 11
458.778891
 21
306.92343
 31
0.0
  0
ARC
  5
193
100
AcDbEntity
  8
31
100
AcDbCircle
 10
458.255956
 20
312.900599
 30
0.0
 40
6.0
100
AcDbArc
 50
275.0
 51
0.0
  0
LINE
  5
194
100
AcDbEntity
  8
31
100
AcDbLine
 10
434.255956
 20
320.852462
 30
0.0
 11
434.755956
 21
320.852462
 31
0.0
  0
LINE
  5
195
100
AcDbEntity
  8
31
100
AcDbLine
 10
458.755956
 20
322.85621
 30
0.0
 11
458.778891
 21
322.858217
 31
0.0
  0
ARC
  5
196
100
AcDbEntity
  8
31
100
AcDbCircle
 10
458.255956
 20
328.835385
 30
0.0
 40
6.0
100
AcDbArc
 50
275.0
 51
0.0
  0
LINE
  5
197
100
AcDbEntity
  8
31
100
AcDbLine
 10
458.755956
 20
322.85621
 30
0.0
 11
444.301565
 21
322.982352
 31
0.0
  0
ARC
  5
198
100
AcDbEntity
  8
31
100
AcDbCircle
 10
463.494729
 20
311.713756
 30
0.0
 40
22.256656
100
AcDbArc
 50
149.582163
 51
177.702934
  0
LINE
  5
199
100
AcDbEntity
  8
32
100
AcDbLine
 10
444.301565
 20
322.982352
 30
0.0
 11
444.301565
 21
393.022193
 31
0.0
  0
LINE
  5
19A
100
AcDbEntity
  8
32
100
AcDbLine
 10
458.27724
 20
393.022193
 30
0.0
 11
458.27724
 21
322.860388
 31
0.0
  0
LINE
  5
19B
100
AcDbEntity
  8
31
100
AcDbLine
 10
441.255956
 20
300.128783
 30
0.0
 11
441.255956
 21
300.135154
 31
0.0
  0
ARC
  5
19C
100
AcDbEntity
  8
31
100
AcDbCircle
 10
462.386795
 20
474.314535
 30
0.0
 40
21.148987
100
AcDbArc
 50
182.3738
 51
211.225396
  0
LINE
  5
19D
100
AcDbEntity
  8
31
100
AcDbLine
 10
458.755956
 20
463.188176
 30
0.0
 11
444.301565
 21
463.350771
 31
0.0
  0
LINE
  5
19E
100
AcDbEntity
  8
31
100
AcDbLine
 10
458.755956
 20
463.188176
 30
0.0
 11
458.778891
 21
463.18617
 31
0.0
  0
LINE
  5
19F
100
AcDbEntity
  8
31
100
AcDbLine
 10
434.255956
 20
465.191924
 30
0.0
 11
434.755956
 21
465.191924
 31
0.0
  0
ARC
  5
1A0
100
AcDbEntity
  8
31
100
AcDbCircle
 10
458.255956
 20
473.143788
 30
0.0
 40
6.0
100
AcDbArc
 50
0.0
 51
85.0
  0
LINE
  5
1A1
100
AcDbEntity
  8
31
100
AcDbLine
 10
458.755956
 20
479.122963
 30
0.0
 11
458.778891
 21
479.120956
 31
0.0
  0
LINE
  5
1A2
100
AcDbEntity
  8
31
100
AcDbLine
 10
434.255956
 20
486.031418
 30
0.0
 11
458.755956
 21
485.603769
 31
0.0
  0
LINE
  5
1A3
100
AcDbEntity
  8
31
100
AcDbLine
 10
458.755956
 20
485.603769
 30
0.0
 11
458.755956
 21
463.188176
 31
0.0
  0
LINE
  5
1A4
100
AcDbEntity
  8
31
100
AcDbLine
 10
434.255956
 20
486.031418
 30
0.0
 11
434.255956
 21
465.191924
 31
0.0
  0
LINE
  5
1A5
100
AcDbEntity
  8
31
100
AcDbLine
 10
434.755956
 20
486.02269
 30
0.0
 11
440.079903
 21
485.929761
 31
0.0
  0
LINE
  5
1A6
100
AcDbEntity
  8
31
100
AcDbLine
 10
458.755956
 20
478.472963
 30
0.0
 11
458.755956
 21
485.603769
 31
0.0
  0
LINE
  5
1A7
100
AcDbEntity
  8
31
100
AcDbLine
 10
440.079909
 20
485.92976
 30
0.0
 11
458.755956
 21
485.603769
 31
0.0
  0
ARC
  5
1A8
100
AcDbEntity
  8
31
100
AcDbCircle
 10
458.255956
 20
457.209002
 30
0.0
 40
6.0
100
AcDbArc
 50
0.0
 51
85.0
  0
LINE
  5
1A9
100
AcDbEntity
  8
32
100
AcDbLine
 10
444.301565
 20
463.350771
 30
0.0
 11
444.301565
 21
393.022193
 31
0.0
  0
LINE
  5
1AA
100
AcDbEntity
  8
31
100
AcDbLine
 10
441.255956
 20
485.915603
 30
0.0
 11
441.255956
 21
485.909233
 31
0.0
  0
LINE
  5
1AB
100
AcDbEntity
  8
32
100
AcDbLine
 10
458.27724
 20
393.022193
 30
0.0
 11
458.27724
 21
463.183999
 31
0.0
  0
LINE
  5
1AC
100
AcDbEntity
  8
24
100
AcDbLine
 10
118.440425
 20
533.494054
 30
0.0
 11
118.645773
 21
557.024597
 31
0.0
  0
LINE
  5
1AD
100
AcDbEntity
  8
23
  6
DASHDOT
100
AcDbLine
 10
230.940425
 20
528.494054
 30
0.0
 11
230.940425
 21
570.148242
 31
0.0
  0
ARC
  5
1AE
100
AcDbEntity
  8
24
100
AcDbCircle
 10
122.14564
 20
556.994054
 30
0.0
 40
3.5
100
AcDbArc
 50
90.0
 51
179.5
  0
LINE
  5
1AF
100
AcDbEntity
  8
24
100
AcDbLine
 10
343.440425
 20
533.494054
 30
0.0
 11
343.235077
 21
557.024597
 31
0.0
  0
ARC
  5
1B0
100
AcDbEntity
  8
24
100
AcDbCircle
 10
339.735211
 20
556.994054
 30
0.0
 40
3.5
100
AcDbArc
 50
0.5
 51
90.0
  0
LINE
  5
1B1
100
AcDbEntity
  8
24
100
AcDbLine
 10
230.940425
 20
560.494054
 30
0.0
 11
339.735211
 21
560.494054
 31
0.0
  0
LINE
  5
1B2
100
AcDbEntity
  8
21
100
AcDbLine
 10
115.783442
 20
557.494054
 30
0.0
 11
115.909584
 21
543.039663
 31
0.0
  0
ARC
  5
1B3
100
AcDbEntity
  8
21
100
AcDbCircle
 10
104.640989
 20
562.232826
 30
0.0
 40
22.256656
100
AcDbArc
 50
272.297066
 51
300.417837
  0
ARC
  5
1B4
100
AcDbEntity
  8
21
100
AcDbCircle
 10
121.762617
 20
556.994054
 30
0.0
 40
6.0
100
AcDbArc
 50
90.0
 51
175.0
  0
LINE
  5
1B5
100
AcDbEntity
  8
21
100
AcDbLine
 10
93.36785
 20
557.494054
 30
0.0
 11
115.783442
 21
557.494054
 31
0.0
  0
LINE
  5
1B6
100
AcDbEntity
  8
11
100
AcDbLine
 10
93.36785
 20
228.550332
 30
0.0
 11
115.783442
 21
228.550332
 31
0.0
  0
ARC
  5
1B7
100
AcDbEntity
  8
11
100
AcDbCircle
 10
121.762617
 20
229.050332
 30
0.0
 40
6.0
100
AcDbArc
 50
185.0
 51
270.0
  0
ARC
  5
1B8
100
AcDbEntity
  8
11
100
AcDbCircle
 10
104.640989
 20
223.81156
 30
0.0
 40
22.256656
100
AcDbArc
 50
59.582163
 51
87.702934
  0
LINE
  5
1B9
100
AcDbEntity
  8
11
100
AcDbLine
 10
115.783442
 20
228.550332
 30
0.0
 11
115.909584
 21
243.004724
 31
0.0
  0
LINE
  5
1BA
100
AcDbEntity
  8
14
100
AcDbLine
 10
230.940425
 20
225.550332
 30
0.0
 11
339.735211
 21
225.550332
 31
0.0
  0
ARC
  5
1BB
100
AcDbEntity
  8
14
100
AcDbCircle
 10
339.735211
 20
229.050332
 30
0.0
 40
3.5
100
AcDbArc
 50
270.0
 51
359.5
  0
LINE
  5
1BC
100
AcDbEntity
  8
14
100
AcDbLine
 10
343.440425
 20
252.550332
 30
0.0
 11
343.235077
 21
229.01979
 31
0.0
  0
ARC
  5
1BD
100
AcDbEntity
  8
14
100
AcDbCircle
 10
122.14564
 20
229.050332
 30
0.0
 40
3.5
100
AcDbArc
 50
180.5
 51
270.0
  0
LINE
  5
1BE
100
AcDbEntity
  8
13
  6
DASHDOT
100
AcDbLine
 10
230.940425
 20
257.550332
 30
0.0
 11
230.940425
 21
215.896144
 31
0.0
  0
LINE
  5
1BF
100
AcDbEntity
  8
14
100
AcDbLine
 10
118.440425
 20
252.550332
 30
0.0
 11
118.645773
 21
229.01979
 31
0.0
  0
LINE
  5
1C0
100
AcDbEntity
  8
11
100
AcDbLine
 10
93.055059
 20
245.982998
 30
0.0
 11
93.359347
 21
228.550332
 31
0.0
  0
LINE
  5
1C1
100
AcDbEntity
  8
11
100
AcDbLine
 10
113.771191
 20
252.550332
 30
0.0
 11
114.669415
 21
252.550332
 31
0.0
  0
LINE
  5
1C2
100
AcDbEntity
  8
11
100
AcDbLine
 10
113.771191
 20
253.050332
 30
0.0
 11
92.931698
 21
253.050332
 31
0.0
  0
LINE
  5
1C3
100
AcDbEntity
  8
11
100
AcDbLine
 10
92.931698
 20
253.050332
 30
0.0
 11
92.940425
 21
252.550332
 31
0.0
  0
LINE
  5
1C4
100
AcDbEntity
  8
11
100
AcDbLine
 10
113.771191
 20
253.050332
 30
0.0
 11
113.771191
 21
252.550332
 31
0.0
  0
LINE
  5
1C5
100
AcDbEntity
  8
11
100
AcDbLine
 10
93.033355
 20
247.22638
 30
0.0
 11
93.055059
 21
245.982998
 31
0.0
  0
LINE
  5
1C6
100
AcDbEntity
  8
11
100
AcDbLine
 10
99.423569
 20
252.550332
 30
0.0
 11
95.034523
 21
252.550332
 31
0.0
  0
LINE
  5
1C7
100
AcDbEntity
  8
11
100
AcDbLine
 10
100.940425
 20
252.550332
 30
0.0
 11
99.423569
 21
252.550332
 31
0.0
  0
LINE
  5
1C8
100
AcDbEntity
  8
11
100
AcDbLine
 10
95.034523
 20
252.550332
 30
0.0
 11
92.940425
 21
252.550332
 31
0.0
  0
LINE
  5
1C9
100
AcDbEntity
  8
11
100
AcDbLine
 10
100.940425
 20
252.550332
 30
0.0
 11
113.771191
 21
252.550332
 31
0.0
  0
LINE
  5
1CA
100
AcDbEntity
  8
11
100
AcDbLine
 10
92.940425
 20
252.550332
 30
0.0
 11
93.033395
 21
247.224094
 31
0.0
  0
LINE
  5
1CB
100
AcDbEntity
  8
11
100
AcDbLine
 10
114.669415
 20
223.050332
 30
0.0
 11
106.275392
 21
223.050332
 31
0.0
  0
LINE
  5
1CC
100
AcDbEntity
  8
14
100
AcDbLine
 10
230.940425
 20
225.550332
 30
0.0
 11
122.14564
 21
225.550332
 31
0.0
  0
ARC
  5
1CD
100
AcDbEntity
  8
11
100
AcDbCircle
 10
107.081432
 20
229.163532
 30
0.0
 40
6.16611
100
AcDbArc
 50
185.921525
 51
262.48874
  0
LINE
  5
1CE
100
AcDbEntity
  8
11
100
AcDbLine
 10
368.94065
 20
253.050332
 30
0.0
 11
348.101156
 21
253.050332
 31
0.0
  0
LINE
  5
1CF
100
AcDbEntity
  8
11
100
AcDbLine
 10
368.513001
 20
228.550332
 30
0.0
 11
346.097408
 21
228.550332
 31
0.0
  0
LINE
  5
1D0
100
AcDbEntity
  8
11
100
AcDbLine
 10
368.94065
 20
253.050332
 30
0.0
 11
368.513001
 21
228.550332
 31
0.0
  0
LINE
  5
1D1
100
AcDbEntity
  8
11
100
AcDbLine
 10
362.032195
 20
228.550332
 30
0.0
 11
362.030188
 21
228.527398
 31
0.0
  0
ARC
  5
1D2
100
AcDbEntity
  8
11
100
AcDbCircle
 10
356.05302
 20
229.050332
 30
0.0
 40
6.0
100
AcDbArc
 50
270.0
 51
355.0
  0
LINE
  5
1D3
100
AcDbEntity
  8
11
100
AcDbLine
 10
348.101156
 20
253.050332
 30
0.0
 11
348.101156
 21
252.550332
 31
0.0
  0
LINE
  5
1D4
100
AcDbEntity
  8
11
100
AcDbLine
 10
346.097408
 20
228.550332
 30
0.0
 11
346.095402
 21
228.527398
 31
0.0
  0
ARC
  5
1D5
100
AcDbEntity
  8
11
100
AcDbCircle
 10
340.118234
 20
229.050332
 30
0.0
 40
6.0
100
AcDbArc
 50
270.0
 51
355.0
  0
LINE
  5
1D6
100
AcDbEntity
  8
11
100
AcDbLine
 10
346.097408
 20
228.550332
 30
0.0
 11
345.971267
 21
243.004724
 31
0.0
  0
ARC
  5
1D7
100
AcDbEntity
  8
11
100
AcDbCircle
 10
357.239862
 20
223.81156
 30
0.0
 40
22.256656
100
AcDbArc
 50
92.297066
 51
120.417837
  0
LINE
  5
1D8
100
AcDbEntity
  8
12
100
AcDbLine
 10
115.78762
 20
229.029049
 30
0.0
 11
346.093231
 21
229.029049
 31
0.0
  0
LINE
  5
1D9
100
AcDbEntity
  8
12
100
AcDbLine
 10
345.971267
 20
243.004724
 30
0.0
 11
115.909584
 21
243.004724
 31
0.0
  0
LINE
  5
1DA
100
AcDbEntity
  8
11
100
AcDbLine
 10
105.533049
 20
246.050332
 30
0.0
 11
356.347801
 21
246.050332
 31
0.0
  0
LINE
  5
1DB
100
AcDbEntity
  8
11
100
AcDbLine
 10
114.669415
 20
252.550332
 30
0.0
 11
368.931923
 21
252.550332
 31
0.0
  0
LINE
  5
1DC
100
AcDbEntity
  8
11
100
AcDbLine
 10
114.669415
 20
223.050332
 30
0.0
 11
356.05302
 21
223.050332
 31
0.0
  0
LINE
  5
1DD
100
AcDbEntity
  8
42
100
AcDbLine
 10
3.603611
 20
393.022193
 30
0.0
 11
3.603611
 21
463.183999
 31
0.0
  0
LINE
  5
1DE
100
AcDbEntity
  8
41
100
AcDbLine
 10
20.624894
 20
485.915603
 30
0.0
 11
20.624894
 21
485.909233
 31
0.0
  0
LINE
  5
1DF
100
AcDbEntity
  8
42
100
AcDbLine
 10
17.579285
 20
463.350771
 30
0.0
 11
17.579285
 21
393.022193
 31
0.0
  0
ARC
  5
1E0
100
AcDbEntity
  8
41
100
AcDbCircle
 10
3.624894
 20
457.209002
 30
0.0
 40
6.0
100
AcDbArc
 50
95.0
 51
180.0
  0
LINE
  5
1E1
100
AcDbEntity
  8
41
100
AcDbLine
 10
21.800942
 20
485.92976
 30
0.0
 11
3.124894
 21
485.603769
 31
0.0
  0
LINE
  5
1E2
100
AcDbEntity
  8
41
100
AcDbLine
 10
3.124894
 20
478.472963
 30
0.0
 11
3.124894
 21
485.603769
 31
0.0
  0
LINE
  5
1E3
100
AcDbEntity
  8
41
100
AcDbLine
 10
27.124894
 20
486.02269
 30
0.0
 11
21.800947
 21
485.929761
 31
0.0
  0
LINE
  5
1E4
100
AcDbEntity
  8
41
100
AcDbLine
 10
27.624894
 20
486.031418
 30
0.0
 11
27.624894
 21
465.191924
 31
0.0
  0
LINE
  5
1E5
100
AcDbEntity
  8
41
100
AcDbLine
 10
3.124894
 20
485.603769
 30
0.0
 11
3.124894
 21
463.188176
 31
0.0
  0
LINE
  5
1E6
100
AcDbEntity
  8
41
100
AcDbLine
 10
27.624894
 20
486.031418
 30
0.0
 11
3.124894
 21
485.603769
 31
0.0
  0
LINE
  5
1E7
100
AcDbEntity
  8
41
100
AcDbLine
 10
3.124894
 20
479.122963
 30
0.0
 11
3.10196
 21
479.120956
 31
0.0
  0
ARC
  5
1E8
100
AcDbEntity
  8
41
100
AcDbCircle
 10
3.624894
 20
473.143788
 30
0.0
 40
6.0
100
AcDbArc
 50
95.0
 51
180.0
  0
LINE
  5
1E9
100
AcDbEntity
  8
41
100
AcDbLine
 10
27.624894
 20
465.191924
 30
0.0
 11
27.124894
 21
465.191924
 31
0.0
  0
LINE
  5
1EA
100
AcDbEntity
  8
41
100
AcDbLine
 10
3.124894
 20
463.188176
 30
0.0
 11
3.10196
 21
463.18617
 31
0.0
  0
LINE
  5
1EB
100
AcDbEntity
  8
41
100
AcDbLine
 10
3.124894
 20
463.188176
 30
0.0
 11
17.579285
 21
463.350771
 31
0.0
  0
ARC
  5
1EC
100
AcDbEntity
  8
41
100
AcDbCircle
 10
-0.505944
 20
474.314535
 30
0.0
 40
21.148987
100
AcDbArc
 50
328.774604
 51
357.6262
  0
LINE
  5
1ED
100
AcDbEntity
  8
41
100
AcDbLine
 10
20.624894
 20
300.128783
 30
0.0
 11
20.624894
 21
300.135154
 31
0.0
  0
LINE
  5
1EE
100
AcDbEntity
  8
42
100
AcDbLine
 10
3.603611
 20
393.022193
 30
0.0
 11
3.603611
 21
322.860388
 31
0.0
  0
LINE
  5
1EF
100
AcDbEntity
  8
42
100
AcDbLine
 10
17.579285
 20
322.982352
 30
0.0
 11
17.579285
 21
393.022193
 31
0.0
  0
ARC
  5
1F0
100
AcDbEntity
  8
41
100
AcDbCircle
 10
-1.613878
 20
311.713756
 30
0.0
 40
22.256656
100
AcDbArc
 50
2.297066
 51
30.417837
  0
LINE
  5
1F1
100
AcDbEntity
  8
41
100
AcDbLine
 10
3.124894
 20
322.85621
 30
0.0
 11
17.579285
 21
322.982352
 31
0.0
  0
ARC
  5
1F2
100
AcDbEntity
  8
41
100
AcDbCircle
 10
3.624894
 20
328.835385
 30
0.0
 40
6.0
100
AcDbArc
 50
180.0
 51
265.0
  0
LINE
  5
1F3
100
AcDbEntity
  8
41
100
AcDbLine
 10
3.124894
 20
322.85621
 30
0.0
 11
3.10196
 21
322.858217
 31
0.0
  0
LINE
  5
1F4
100
AcDbEntity
  8
41
100
AcDbLine
 10
27.624894
 20
320.852462
 30
0.0
 11
27.124894
 21
320.852462
 31
0.0
  0
ARC
  5
1F5
100
AcDbEntity
  8
41
100
AcDbCircle
 10
3.624894
 20
312.900599
 30
0.0
 40
6.0
100
AcDbArc
 50
180.0
 51
265.0
  0
LINE
  5
1F6
100
AcDbEntity
  8
41
100
AcDbLine
 10
3.124894
 20
306.921424
 30
0.0
 11
3.10196
 21
306.92343
 31
0.0
  0
LINE
  5
1F7
100
AcDbEntity
  8
41
100
AcDbLine
 10
27.624894
 20
300.012968
 30
0.0
 11
3.124894
 21
300.440617
 31
0.0
  0
LINE
  5
1F8
100
AcDbEntity
  8
41
100
AcDbLine
 10
3.124894
 20
300.440617
 30
0.0
 11
3.124894
 21
322.85621
 31
0.0
  0
LINE
  5
1F9
100
AcDbEntity
  8
41
100
AcDbLine
 10
27.624894
 20
300.012968
 30
0.0
 11
27.624894
 21
320.852462
 31
0.0
  0
ARC
  5
1FA
100
AcDbEntity
  8
44
100
AcDbCircle
 10
3.106561
 20
328.546315
 30
0.0
 40
3.0
100
AcDbArc
 50
180.069821
 51
270.0
  0
LINE
  5
1FB
100
AcDbEntity
  8
41
100
AcDbLine
 10
27.124894
 20
300.021696
 30
0.0
 11
21.800947
 21
300.114626
 31
0.0
  0
LINE
  5
1FC
100
AcDbEntity
  8
44
100
AcDbLine
 10
0.027988
 20
393.022193
 30
0.0
 11
0.106564
 21
328.542659
 31
0.0
  0
LINE
  5
1FD
100
AcDbEntity
  8
41
100
AcDbLine
 10
-2.375106
 20
393.022193
 30
0.0
 11
-2.375106
 21
312.900599
 31
0.0
  0
LINE
  5
1FE
100
AcDbEntity
  8
41
100
AcDbLine
 10
-2.375106
 20
473.143788
 30
0.0
 11
-2.375106
 21
393.022193
 31
0.0
  0
LINE
  5
1FF
100
AcDbEntity
  8
41
100
AcDbLine
 10
3.124894
 20
307.571424
 30
0.0
 11
3.124894
 21
300.440617
 31
0.0
  0
LINE
  5
200
100
AcDbEntity
  8
41
100
AcDbLine
 10
21.800942
 20
300.114626
 30
0.0
 11
3.124894
 21
300.440617
 31
0.0
  0
LINE
  5
201
100
AcDbEntity
  8
44
100
AcDbLine
 10
27.124894
 20
325.546315
 30
0.0
 11
3.106561
 21
325.546315
 31
0.0
  0
LINE
  5
202
100
AcDbEntity
  8
44
100
AcDbLine
 10
27.124894
 20
460.498072
 30
0.0
 11
3.303549
 21
460.498072
 31
0.0
  0
ARC
  5
203
100
AcDbEntity
  8
44
100
AcDbCircle
 10
2.946125
 20
457.496638
 30
0.0
 40
3.0
100
AcDbArc
 50
89.932998
 51
182.773515
  0
LINE
  5
204
100
AcDbEntity
  8
44
100
AcDbLine
 10
-0.05075
 20
457.633522
 30
0.0
 11
0.027988
 21
393.022193
 31
0.0
  0
LINE
  5
205
100
AcDbEntity
  8
41
100
AcDbLine
 10
27.124894
 20
300.021696
 30
0.0
 11
27.124894
 21
486.02269
 31
0.0
  0
LINE
  5
206
100
AcDbEntity
  8
43
  6
DASHDOT
100
AcDbLine
 10
-23.487541
 20
393.022193
 30
0.0
 11
45.735953
 21
393.022193
 31
0.0
  0
TEXT
  5
207
100
AcDbEntity
  8
L20
100
AcDbText
 10
-292.638097
 20
523.806499
 30
0.0
 40
7.0
  1
FIBOX EK-J 30 COVER
100
AcDbText
  0
LINE
  5
208
100
AcDbEntity
  8
41
100
AcDbLine
 10
20.624894
 20
473.438569
 30
0.0
 11
20.624894
 21
393.044386
 31
0.0
  0
LINE
  5
209
100
AcDbEntity
  8
41
100
AcDbLine
 10
20.624894
 20
312.605817
 30
0.0
 11
20.624894
 21
393.0
 31
0.0
  0
LINE
  5
20A
100
AcDbEntity
  8
31
100
AcDbLine
 10
441.255956
 20
312.605817
 30
0.0
 11
441.255956
 21
393.0
 31
0.0
  0
LINE
  5
20B
100
AcDbEntity
  8
31
100
AcDbLine
 10
441.255956
 20
473.438569
 30
0.0
 11
441.255956
 21
393.044386
 31
0.0
  0
ENDSEC
  0
SECTION
  2
OBJECTS
  0
DICTIONARY
  5
C
100
AcDbDictionary
  3
ACAD_GROUP
350
D
  3
ACAD_MLINESTYLE
350
1A
  0
DICTIONARY
  5
D
102
{ACAD_REACTORS
330
C
102
}
100
AcDbDictionary
  0
DICTIONARY
  5
1A
102
{ACAD_REACTORS
330
C
102
}
100
AcDbDictionary
  3
STANDARD
350
1B
  0
MLINESTYLE
  5
1B
102
{ACAD_REACTORS
330
1A
102
}
100
AcDbMlineStyle
  2
STANDARD
 70
     0
  3

 62
   256
 51
90.0
 52
90.0
 71
     2
 49
0.5
 62
   256
  6
BYLAYER
 49
-0.5
 62
   256
  6
BYLAYER
  0
ENDSEC
  0
EOF
