  0
SECTION
  2
HEADER
  9
$ACADVER
  1
AC1009
  9
$INSBASE
 10
-170.5640501786707
 20
157.22979737716059
 30
0.0
  9
$EXTMIN
 10
-285.52001888575029
 20
35.180832641642603
 30
-0.0015258207003583
  9
$EXTMAX
 10
-59.869994697940911
 20
279.28949041698291
 30
0.0000000349246037
  9
$LIMMIN
 10
0.0
 20
0.0
  9
$LIMMAX
 10
420.0
 20
297.0
  9
$ORTHOMODE
 70
     1
  9
$REGENMODE
 70
     1
  9
$FILLMODE
 70
     1
  9
$QTEXTMODE
 70
     0
  9
$MIRRTEXT
 70
     1
  9
$DRAGMODE
 70
     2
  9
$LTSCALE
 40
7.0
  9
$OSMODE
 70
    37
  9
$ATTMODE
 70
     1
  9
$TEXTSIZE
 40
3.5
  9
$TRACEWID
 40
1.0
  9
$TEXTSTYLE
  7
STANDARD
  9
$CLAYER
  8
L1
  9
$CELTYPE
  6
BYLAYER
  9
$CECOLOR
 62
   256
  9
$DIMSCALE
 40
1.0
  9
$DIMASZ
 40
3.5
  9
$DIMEXO
 40
0.1
  9
$DIMDLI
 40
0.38
  9
$DIMRND
 40
0.0
  9
$DIMDLE
 40
0.0
  9
$DIMEXE
 40
0.18
  9
$DIMTP
 40
0.0
  9
$DIMTM
 40
0.0
  9
$DIMTXT
 40
3.5
  9
$DIMCEN
 40
1.0
  9
$DIMTSZ
 40
0.0
  9
$DIMTOL
 70
     0
  9
$DIMLIM
 70
     0
  9
$DIMTIH
 70
     0
  9
$DIMTOH
 70
     0
  9
$DIMSE1
 70
     0
  9
$DIMSE2
 70
     0
  9
$DIMTAD
 70
     1
  9
$DIMZIN
 70
     8
  9
$DIMBLK
  1

  9
$DIMASO
 70
     1
  9
$DIMSHO
 70
     1
  9
$DIMPOST
  1

  9
$DIMAPOST
  1

  9
$DIMALT
 70
     0
  9
$DIMALTD
 70
     2
  9
$DIMALTF
 40
25.399999999999999
  9
$DIMLFAC
 40
1.0
  9
$DIMTOFL
 70
     1
  9
$DIMTVP
 40
0.0
  9
$DIMTIX
 70
     0
  9
$DIMSOXD
 70
     0
  9
$DIMSAH
 70
     0
  9
$DIMBLK1
  1

  9
$DIMBLK2
  1

  9
$DIMSTYLE
  2
FIBOX
  9
$DIMCLRD
 70
     1
  9
$DIMCLRE
 70
     1
  9
$DIMCLRT
 70
     3
  9
$DIMTFAC
 40
1.0
  9
$DIMGAP
 40
1.0
  9
$LUNITS
 70
     2
  9
$LUPREC
 70
     4
  9
$SKETCHINC
 40
1.0
  9
$FILLETRAD
 40
0.0
  9
$AUNITS
 70
     0
  9
$AUPREC
 70
     0
  9
$MENU
  1
.
  9
$ELEVATION
 40
0.0
  9
$PELEVATION
 40
0.0
  9
$THICKNESS
 40
0.0
  9
$LIMCHECK
 70
     0
  9
$BLIPMODE
 70
     0
  9
$CHAMFERA
 40
11.5
  9
$CHAMFERB
 40
11.5
  9
$SKPOLY
 70
     0
  9
$TDCREATE
 40
2450602.4008240742
  9
$TDUPDATE
 40
2453686.5545520252
  9
$TDINDWG
 40
0.3453195602
  9
$TDUSRTIMER
 40
0.3453195602
  9
$USRTIMER
 70
     1
  9
$ANGBASE
 50
0.0
  9
$ANGDIR
 70
     0
  9
$PDMODE
 70
     0
  9
$PDSIZE
 40
0.0
  9
$PLINEWID
 40
0.0
  9
$COORDS
 70
     2
  9
$SPLFRAME
 70
     0
  9
$SPLINETYPE
 70
     6
  9
$SPLINESEGS
 70
     8
  9
$ATTDIA
 70
     0
  9
$ATTREQ
 70
     1
  9
$HANDLING
 70
-16383
  9
$HANDSEED
  5
B2
  9
$SURFTAB1
 70
     6
  9
$SURFTAB2
 70
     6
  9
$SURFTYPE
 70
     6
  9
$SURFU
 70
     6
  9
$SURFV
 70
     6
  9
$UCSNAME
  2

  9
$UCSORG
 10
0.0
 20
0.0
 30
0.0
  9
$UCSXDIR
 10
1.0
 20
0.0
 30
0.0
  9
$UCSYDIR
 10
0.0
 20
1.0
 30
0.0
  9
$PUCSNAME
  2

  9
$PUCSORG
 10
0.0
 20
0.0
 30
0.0
  9
$PUCSXDIR
 10
1.0
 20
0.0
 30
0.0
  9
$PUCSYDIR
 10
0.0
 20
1.0
 30
0.0
  9
$USERI1
 70
     0
  9
$USERI2
 70
     0
  9
$USERI3
 70
     0
  9
$USERI4
 70
     0
  9
$USERI5
 70
     0
  9
$USERR1
 40
1.0
  9
$USERR2
 40
0.0
  9
$USERR3
 40
3.5
  9
$USERR4
 40
0.0
  9
$USERR5
 40
0.0
  9
$WORLDVIEW
 70
     1
  9
$SHADEDGE
 70
     3
  9
$SHADEDIF
 70
    70
  9
$TILEMODE
 70
     1
  9
$MAXACTVP
 70
    16
  9
$PLIMCHECK
 70
     0
  9
$PEXTMIN
 10
-390.0
 20
0.0
 30
0.0
  9
$PEXTMAX
 10
2.000000000000028
 20
85.0
 30
0.0
  9
$PLIMMIN
 10
0.0
 20
0.0
  9
$PLIMMAX
 10
420.0
 20
297.0
  9
$UNITMODE
 70
     0
  9
$VISRETAIN
 70
     0
  9
$PLINEGEN
 70
     0
  9
$PSLTSCALE
 70
     1
  0
ENDSEC
  0
SECTION
  2
TABLES
  0
TABLE
  2
VPORT
 70
     3
  0
VPORT
  2
*ACTIVE
 70
     0
 10
0.0
 20
0.0
 11
1.0
 21
1.0
 12
-172.6950067918456
 22
157.23516152931271
 13
0.0
 23
0.0
 14
10.0
 24
10.0
 15
10.0
 25
10.0
 16
0.0
 26
0.0
 36
1.0
 17
0.0
 27
0.0
 37
0.0
 40
245.5777168993645
 41
1.5552208835341359
 42
50.0
 43
0.0
 44
0.0
 50
0.0
 51
0.0
 71
     0
 72
  1000
 73
     1
 74
     0
 75
     0
 76
     0
 77
     0
 78
     0
  0
ENDTAB
  0
TABLE
  2
LTYPE
 70
     2
  0
LTYPE
  2
CONTINUOUS
 70
     0
  3
Solid line
 72
    65
 73
     0
 40
0.0
  0
LTYPE
  2
CENTER
 70
     0
  3
____ _ ____ _ ____ _ ____ _ ____ _ ____ _ ____ 
 72
    65
 73
     4
 40
2.0
 49
1.25
 49
-0.25
 49
0.25
 49
-0.25
  0
ENDTAB
  0
TABLE
  2
LAYER
 70
     3
  0
LAYER
  2
0
 70
     0
 62
     7
  6
CONTINUOUS
  0
LAYER
  2
L1
 70
     0
 62
     2
  6
CONTINUOUS
  0
LAYER
  2
L6
 70
     0
 62
     1
  6
CENTER
  0
ENDTAB
  0
TABLE
  2
STYLE
 70
     2
  0
STYLE
  2
STANDARD
 70
     0
 40
0.0
 41
1.0
 50
0.0
 71
     0
 42
3.5
  3
ISOCP.SHX
  4

  0
STYLE
  2
SIMPLEX
 70
     0
 40
0.0
 41
0.8
 50
0.0
 71
     0
 42
2.5
  3
SIMPLEX.SHX
  4

  0
ENDTAB
  0
TABLE
  2
VIEW
 70
     0
  0
ENDTAB
  0
TABLE
  2
UCS
 70
     0
  0
ENDTAB
  0
TABLE
  2
APPID
 70
     1
  0
APPID
  2
ACAD
 70
     0
  0
ENDTAB
  0
TABLE
  2
DIMSTYLE
 70
     1
  0
DIMSTYLE
  2
FIBOX
 70
     0
  3

  4

  5

  6

  7

 40
1.0
 41
3.5
 42
0.1
 43
0.38
 44
0.18
 45
0.0
 46
0.0
 47
0.0
 48
0.0
140
3.5
141
1.0
142
0.0
143
25.399999999999999
144
1.0
145
0.0
146
1.0
147
1.0
 71
     0
 72
     0
 73
     0
 74
     0
 75
     0
 76
     0
 77
     1
 78
     8
170
     0
171
     2
172
     1
173
     0
174
     0
175
     0
176
     1
177
     1
178
     3
  0
ENDTAB
  0
ENDSEC
  0
SECTION
  2
BLOCKS
  0
BLOCK
  8
0
  2
$MODEL_SPACE
 70
     0
 10
0.0
 20
0.0
 30
0.0
  3
$MODEL_SPACE
  1

  0
ENDBLK
  5
A
  8
0
  0
BLOCK
 67
     1
  8
0
  2
$PAPER_SPACE
 70
     0
 10
0.0
 20
0.0
 30
0.0
  3
$PAPER_SPACE
  1

  0
ENDBLK
  5
F
 67
     1
  8
0
  0
ENDSEC
  0
SECTION
  2
ENTITIES
  0
LINE
  5
27
  8
L1
 62
     0
 10
-82.169242605091654
 20
133.72979737716051
 30
0.0
 11
-82.169242605091654
 21
155.72979737716051
 31
0.0
  0
LINE
  5
28
  8
L1
 62
     0
 10
-267.1692426050916
 20
133.72979737716051
 30
0.0
 11
-267.1692426050916
 21
155.72979737716051
 31
0.0
  0
LINE
  5
29
  8
L6
 10
-170.5640501786707
 20
35.18839358443369
 30
0.0
 11
-170.5640501786707
 21
279.27120116988749
 31
0.0
  0
LINE
  5
2C
  8
L1
 62
     0
 10
-93.669242605091654
 20
39.729797377160587
 30
0.0
 11
-255.6692426050916
 21
39.729797377160587
 31
0.0
  0
LINE
  5
2D
  8
L1
 62
     0
 10
-267.1692426050916
 20
51.229797377160587
 30
0.0
 11
-267.16924260509171
 21
55.729797377160587
 31
0.0
  0
LINE
  5
2E
  8
L1
 62
     0
 10
-255.6692426050916
 20
39.729797377160587
 30
0.0
 11
-267.1692426050916
 21
51.229797377160587
 31
0.0
  0
LINE
  5
2F
  8
L1
 62
     0
 10
-267.16924260509171
 20
83.729797377160594
 30
0.0
 11
-267.1692426050916
 21
105.72979737716049
 31
0.0
  0
LINE
  5
30
  8
L1
 62
     0
 10
-267.16924260509171
 20
58.729797377160587
 30
0.0
 11
-267.16924260509171
 21
80.729797377160594
 31
0.0
  0
LINE
  5
31
  8
L1
 62
     7
 10
-264.6692426050916
 20
58.729797377160587
 30
0.0
 11
-267.1692426050916
 21
58.729797377160587
 31
0.0
  0
LINE
  5
32
  8
L1
 62
     7
 10
-264.6692426050916
 20
55.729797377160587
 30
0.0
 11
-267.1692426050916
 21
55.729797377160587
 31
0.0
  0
ARC
  5
33
  8
L1
 62
     7
 10
-264.6692426050916
 20
57.229797377160622
 30
0.0
 40
1.5
 50
270.0
 51
90.0
  0
LINE
  5
34
  8
L1
 62
     7
 10
-264.6692426050916
 20
83.729797377160594
 30
0.0
 11
-267.1692426050916
 21
83.729797377160594
 31
0.0
  0
LINE
  5
35
  8
L1
 62
     7
 10
-264.6692426050916
 20
80.729797377160594
 30
0.0
 11
-267.1692426050916
 21
80.729797377160594
 31
0.0
  0
ARC
  5
36
  8
L1
 62
     7
 10
-264.6692426050916
 20
82.229797377160622
 30
0.0
 40
1.5
 50
270.0
 51
90.0
  0
LINE
  5
37
  8
L1
 62
     0
 10
-267.1692426050916
 20
108.72979737716049
 30
0.0
 11
-267.1692426050916
 21
130.72979737716051
 31
0.0
  0
LINE
  5
38
  8
L1
 62
     7
 10
-264.6692426050916
 20
108.72979737716049
 30
0.0
 11
-267.1692426050916
 21
108.72979737716049
 31
0.0
  0
LINE
  5
39
  8
L1
 62
     7
 10
-264.6692426050916
 20
105.72979737716049
 30
0.0
 11
-267.1692426050916
 21
105.72979737716049
 31
0.0
  0
ARC
  5
3A
  8
L1
 62
     7
 10
-264.6692426050916
 20
107.22979737716059
 30
0.0
 40
1.5
 50
270.0
 51
90.0
  0
LINE
  5
3B
  8
L1
 62
     7
 10
-264.6692426050916
 20
133.72979737716051
 30
0.0
 11
-267.1692426050916
 21
133.72979737716051
 31
0.0
  0
LINE
  5
3C
  8
L1
 62
     7
 10
-264.6692426050916
 20
130.72979737716051
 30
0.0
 11
-267.1692426050916
 21
130.72979737716051
 31
0.0
  0
ARC
  5
3D
  8
L1
 62
     7
 10
-264.6692426050916
 20
132.22979737716059
 30
0.0
 40
1.5
 50
270.0
 51
90.0
  0
LINE
  5
3E
  8
L1
 62
     0
 10
-82.169242605091654
 20
51.229797377160587
 30
0.0
 11
-82.169242605091654
 21
55.729797377160587
 31
0.0
  0
LINE
  5
3F
  8
L1
 62
     0
 10
-82.169242605091654
 20
51.229797377160587
 30
0.0
 11
-93.669242605091654
 21
39.729797377160587
 31
0.0
  0
LINE
  5
40
  8
L1
 62
     0
 10
-82.169242605091654
 20
83.729797377160594
 30
0.0
 11
-82.169242605091654
 21
105.72979737716049
 31
0.0
  0
ARC
  5
41
  8
L1
 62
     7
 10
-84.669242605091654
 20
57.229797377160587
 30
0.0
 40
1.5
 50
90.0
 51
270.0
  0
ARC
  5
42
  8
L1
 62
     7
 10
-84.669242605091654
 20
82.229797377160594
 30
0.0
 40
1.5
 50
90.0
 51
270.0
  0
LINE
  5
43
  8
L1
 62
     0
 10
-82.169242605091654
 20
58.729797377160587
 30
0.0
 11
-82.169242605091654
 21
80.729797377160594
 31
0.0
  0
LINE
  5
44
  8
L1
 62
     7
 10
-84.669242605091654
 20
58.729797377160587
 30
0.0
 11
-82.169242605091597
 21
58.729797377160587
 31
0.0
  0
LINE
  5
45
  8
L1
 62
     7
 10
-84.669242605091654
 20
55.729797377160587
 30
0.0
 11
-82.169242605091597
 21
55.729797377160587
 31
0.0
  0
LINE
  5
46
  8
L1
 62
     7
 10
-84.669242605091654
 20
83.729797377160594
 30
0.0
 11
-82.169242605091597
 21
83.729797377160594
 31
0.0
  0
LINE
  5
47
  8
L1
 62
     7
 10
-84.669242605091654
 20
80.729797377160594
 30
0.0
 11
-82.169242605091597
 21
80.729797377160594
 31
0.0
  0
ARC
  5
48
  8
L1
 62
     7
 10
-84.669242605091654
 20
132.22979737716059
 30
0.0
 40
1.5
 50
90.0
 51
270.0
  0
ARC
  5
49
  8
L1
 62
     7
 10
-84.669242605091654
 20
107.22979737716059
 30
0.0
 40
1.5
 50
90.0
 51
270.0
  0
LINE
  5
4A
  8
L1
 62
     0
 10
-82.169242605091654
 20
108.72979737716059
 30
0.0
 11
-82.169242605091654
 21
130.72979737716051
 31
0.0
  0
LINE
  5
4B
  8
L1
 62
     7
 10
-84.669242605091654
 20
105.72979737716049
 30
0.0
 11
-82.169242605091597
 21
105.72979737716049
 31
0.0
  0
LINE
  5
4C
  8
L1
 62
     7
 10
-84.669242605091654
 20
108.72979737716049
 30
0.0
 11
-82.169242605091597
 21
108.72979737716049
 31
0.0
  0
LINE
  5
4D
  8
L1
 62
     7
 10
-84.669242605091654
 20
130.72979737716051
 30
0.0
 11
-82.169242605091597
 21
130.72979737716051
 31
0.0
  0
LINE
  5
4E
  8
L1
 62
     7
 10
-84.669242605091654
 20
133.72979737716051
 30
0.0
 11
-82.169242605091597
 21
133.72979737716051
 31
0.0
  0
LINE
  5
4F
  8
L1
 62
     0
 10
-93.669242605091654
 20
274.72979737716059
 30
0.0
 11
-255.6692426050916
 21
274.72979737716071
 31
0.0
  0
LINE
  5
50
  8
L6
 10
-285.51503758377902
 20
157.22979737716059
 30
0.0
 11
-59.873570553740372
 21
157.22979737716059
 31
0.0
  0
LINE
  5
51
  8
L1
 62
     0
 10
-267.1692426050916
 20
233.72979737716059
 30
0.0
 11
-267.1692426050916
 21
255.72979737716039
 31
0.0
  0
LINE
  5
52
  8
L1
 62
     0
 10
-267.16924260509171
 20
183.72979737716051
 30
0.0
 11
-267.16924260509171
 21
205.72979737716059
 31
0.0
  0
LINE
  5
53
  8
L1
 62
     0
 10
-267.1692426050916
 20
158.72979737716051
 30
0.0
 11
-267.16924260509171
 21
180.72979737716051
 31
0.0
  0
LINE
  5
54
  8
L1
 62
     7
 10
-264.6692426050916
 20
155.72979737716051
 30
0.0
 11
-267.1692426050916
 21
155.72979737716051
 31
0.0
  0
LINE
  5
55
  8
L1
 62
     7
 10
-264.6692426050916
 20
158.72979737716051
 30
0.0
 11
-267.1692426050916
 21
158.72979737716051
 31
0.0
  0
ARC
  5
56
  8
L1
 62
     7
 10
-264.6692426050916
 20
157.22979737716059
 30
0.0
 40
1.5
 50
270.0
 51
90.0
  0
LINE
  5
57
  8
L1
 62
     7
 10
-264.6692426050916
 20
180.72979737716051
 30
0.0
 11
-267.1692426050916
 21
180.72979737716051
 31
0.0
  0
LINE
  5
58
  8
L1
 62
     7
 10
-264.6692426050916
 20
183.72979737716051
 30
0.0
 11
-267.1692426050916
 21
183.72979737716051
 31
0.0
  0
ARC
  5
59
  8
L1
 62
     7
 10
-264.6692426050916
 20
182.22979737716059
 30
0.0
 40
1.5
 50
270.0
 51
90.0
  0
LINE
  5
5A
  8
L1
 62
     0
 10
-267.16924260509171
 20
208.72979737716051
 30
0.0
 11
-267.1692426050916
 21
230.72979737716051
 31
0.0
  0
LINE
  5
5B
  8
L1
 62
     7
 10
-264.6692426050916
 20
205.72979737716059
 30
0.0
 11
-267.1692426050916
 21
205.72979737716051
 31
0.0
  0
LINE
  5
5C
  8
L1
 62
     7
 10
-264.6692426050916
 20
208.72979737716051
 30
0.0
 11
-267.1692426050916
 21
208.72979737716051
 31
0.0
  0
ARC
  5
5D
  8
L1
 62
     7
 10
-264.6692426050916
 20
207.22979737716051
 30
0.0
 40
1.5
 50
270.0
 51
90.0
  0
LINE
  5
5E
  8
L1
 62
     7
 10
-264.6692426050916
 20
230.72979737716059
 30
0.0
 11
-267.1692426050916
 21
230.72979737716051
 31
0.0
  0
LINE
  5
5F
  8
L1
 62
     7
 10
-264.6692426050916
 20
233.72979737716051
 30
0.0
 11
-267.1692426050916
 21
233.72979737716051
 31
0.0
  0
ARC
  5
60
  8
L1
 62
     7
 10
-264.6692426050916
 20
232.22979737716051
 30
0.0
 40
1.5
 50
270.0
 51
90.0
  0
LINE
  5
61
  8
L1
 62
     0
 10
-255.6692426050916
 20
274.72979737716071
 30
0.0
 11
-267.1692426050916
 21
263.22979737716071
 31
0.0
  0
LINE
  5
62
  8
L1
 62
     7
 10
-264.6692426050916
 20
255.72979737716059
 30
0.0
 11
-267.1692426050916
 21
255.72979737716059
 31
0.0
  0
LINE
  5
63
  8
L1
 62
     7
 10
-264.6692426050916
 20
258.72979737716048
 30
0.0
 11
-267.1692426050916
 21
258.72979737716048
 31
0.0
  0
LINE
  5
64
  8
L1
 62
     0
 10
-267.1692426050916
 20
258.72979737716048
 30
0.0
 11
-267.1692426050916
 21
263.22979737716071
 31
0.0
  0
ARC
  5
65
  8
L1
 62
     7
 10
-264.6692426050916
 20
257.22979737716048
 30
0.0
 40
1.5
 50
270.0
 51
90.0
  0
LINE
  5
66
  8
L1
 62
     0
 10
-82.169242605091654
 20
233.72979737716051
 30
0.0
 11
-82.169242605091654
 21
255.72979737716039
 31
0.0
  0
LINE
  5
67
  8
L1
 62
     0
 10
-82.169242605091654
 20
183.72979737716051
 30
0.0
 11
-82.169242605091654
 21
205.72979737716059
 31
0.0
  0
ARC
  5
68
  8
L1
 62
     7
 10
-84.669242605091654
 20
182.22979737716059
 30
0.0
 40
1.5
 50
90.0
 51
270.0
  0
ARC
  5
69
  8
L1
 62
     7
 10
-84.669242605091654
 20
157.22979737716059
 30
0.0
 40
1.5
 50
90.0
 51
270.0
  0
ARC
  5
6A
  8
L1
 62
     7
 10
-84.669242605091654
 20
157.22979737716059
 30
0.0
 40
1.5
 50
90.0
 51
270.0
  0
LINE
  5
6B
  8
L1
 62
     0
 10
-82.169242605091654
 20
158.72979737716051
 30
0.0
 11
-82.169242605091654
 21
180.72979737716051
 31
0.0
  0
LINE
  5
6C
  8
L1
 62
     7
 10
-84.669242605091654
 20
158.72979737716051
 30
0.0
 11
-82.169242605091597
 21
158.72979737716051
 31
0.0
  0
LINE
  5
6D
  8
L1
 62
     7
 10
-84.669242605091654
 20
158.72979737716051
 30
0.0
 11
-82.169242605091654
 21
158.72979737716051
 31
0.0
  0
LINE
  5
6E
  8
L1
 62
     7
 10
-84.669242605091654
 20
155.72979737716051
 30
0.0
 11
-82.169242605091597
 21
155.72979737716051
 31
0.0
  0
LINE
  5
6F
  8
L1
 62
     7
 10
-84.669242605091654
 20
155.72979737716051
 30
0.0
 11
-82.169242605091654
 21
155.72979737716051
 31
0.0
  0
LINE
  5
70
  8
L1
 62
     7
 10
-84.669242605091654
 20
180.72979737716051
 30
0.0
 11
-82.169242605091597
 21
180.72979737716051
 31
0.0
  0
LINE
  5
71
  8
L1
 62
     7
 10
-84.669242605091654
 20
183.72979737716051
 30
0.0
 11
-82.169242605091597
 21
183.72979737716051
 31
0.0
  0
ARC
  5
72
  8
L1
 62
     7
 10
-84.669242605091625
 20
232.22979737716051
 30
0.0
 40
1.5
 50
90.0
 51
270.0
  0
ARC
  5
73
  8
L1
 62
     7
 10
-84.669242605091654
 20
207.22979737716051
 30
0.0
 40
1.5
 50
90.0
 51
270.0
  0
LINE
  5
74
  8
L1
 62
     0
 10
-82.169242605091654
 20
208.72979737716051
 30
0.0
 11
-82.169242605091654
 21
230.72979737716051
 31
0.0
  0
LINE
  5
75
  8
L1
 62
     7
 10
-84.669242605091654
 20
205.72979737716051
 30
0.0
 11
-82.169242605091597
 21
205.72979737716051
 31
0.0
  0
LINE
  5
76
  8
L1
 62
     7
 10
-84.669242605091654
 20
208.72979737716051
 30
0.0
 11
-82.169242605091597
 21
208.72979737716051
 31
0.0
  0
LINE
  5
77
  8
L1
 62
     7
 10
-84.669242605091654
 20
233.72979737716051
 30
0.0
 11
-82.169242605091597
 21
233.72979737716051
 31
0.0
  0
LINE
  5
78
  8
L1
 62
     7
 10
-84.669242605091654
 20
230.72979737716051
 30
0.0
 11
-82.169242605091597
 21
230.72979737716051
 31
0.0
  0
ARC
  5
79
  8
L1
 62
     7
 10
-84.669242605091625
 20
257.22979737716048
 30
0.0
 40
1.5
 50
90.0
 51
270.0
  0
LINE
  5
7A
  8
L1
 62
     0
 10
-93.669242605091654
 20
274.72979737716059
 30
0.0
 11
-82.169242605091654
 21
263.22979737716048
 31
0.0
  0
LINE
  5
7B
  8
L1
 62
     7
 10
-84.669242605091654
 20
255.72979737716059
 30
0.0
 11
-82.169242605091597
 21
255.72979737716051
 31
0.0
  0
LINE
  5
7C
  8
L1
 62
     7
 10
-84.669242605091654
 20
258.72979737716048
 30
0.0
 11
-82.169242605091597
 21
258.72979737716048
 31
0.0
  0
LINE
  5
7D
  8
L1
 62
     0
 10
-82.169242605091654
 20
258.72979737716048
 30
0.0
 11
-82.169242605091654
 21
263.22979737716048
 31
0.0
  0
ENDSEC
  0
EOF
