  0
SECTION
  2
HEADER
  9
$ACADVER
  1
AC1009
  9
$INSBASE
 10
-122.1319838384361
 20
540.8809321799788
 30
0.0
  9
$EXTMIN
 10
-317.19962763448711
 20
345.88012978595219
 30
-0.0015258207003583
  9
$EXTMAX
 10
72.880250851600522
 20
735.92910973055859
 30
0.0000000349246037
  9
$LIMMIN
 10
-12.5
 20
12.5
  9
$LIMMAX
 10
1472.5
 20
1062.5
  9
$ORTHOMODE
 70
     1
  9
$REGENMODE
 70
     1
  9
$FILLMODE
 70
     1
  9
$QTEXTMODE
 70
     0
  9
$MIRRTEXT
 70
     1
  9
$DRAGMODE
 70
     2
  9
$LTSCALE
 40
10.0
  9
$OSMODE
 70
    37
  9
$ATTMODE
 70
     1
  9
$TEXTSIZE
 40
6.25
  9
$TRACEWID
 40
1.0
  9
$TEXTSTYLE
  7
SIMPLEX
  9
$CLAYER
  8
L22
  9
$CELTYPE
  6
BYLAYER
  9
$CECOLOR
 62
   256
  9
$DIMSCALE
 40
1.0
  9
$DIMASZ
 40
10.0
  9
$DIMEXO
 40
0.0
  9
$DIMDLI
 40
0.0
  9
$DIMRND
 40
0.0
  9
$DIMDLE
 40
0.0
  9
$DIMEXE
 40
0.0
  9
$DIMTP
 40
0.0
  9
$DIMTM
 40
0.0
  9
$DIMTXT
 40
10.0
  9
$DIMCEN
 40
1.0
  9
$DIMTSZ
 40
0.0
  9
$DIMTOL
 70
     0
  9
$DIMLIM
 70
     0
  9
$DIMTIH
 70
     0
  9
$DIMTOH
 70
     0
  9
$DIMSE1
 70
     0
  9
$DIMSE2
 70
     0
  9
$DIMTAD
 70
     1
  9
$DIMZIN
 70
     8
  9
$DIMBLK
  1

  9
$DIMASO
 70
     1
  9
$DIMSHO
 70
     1
  9
$DIMPOST
  1

  9
$DIMAPOST
  1
"
  9
$DIMALT
 70
     0
  9
$DIMALTD
 70
     2
  9
$DIMALTF
 40
0.03937
  9
$DIMLFAC
 40
1.0
  9
$DIMTOFL
 70
     1
  9
$DIMTVP
 40
0.0
  9
$DIMTIX
 70
     0
  9
$DIMSOXD
 70
     0
  9
$DIMSAH
 70
     0
  9
$DIMBLK1
  1

  9
$DIMBLK2
  1

  9
$DIMSTYLE
  2
FIBOX
  9
$DIMCLRD
 70
     1
  9
$DIMCLRE
 70
     1
  9
$DIMCLRT
 70
     3
  9
$DIMTFAC
 40
1.0
  9
$DIMGAP
 40
2.0
  9
$LUNITS
 70
     2
  9
$LUPREC
 70
     0
  9
$SKETCHINC
 40
0.1
  9
$FILLETRAD
 40
12.5
  9
$AUNITS
 70
     0
  9
$AUPREC
 70
     0
  9
$MENU
  1
TKK-ACAD
  9
$ELEVATION
 40
0.0
  9
$PELEVATION
 40
0.0
  9
$THICKNESS
 40
0.0
  9
$LIMCHECK
 70
     0
  9
$BLIPMODE
 70
     0
  9
$CHAMFERA
 40
12.5
  9
$CHAMFERB
 40
12.5
  9
$SKPOLY
 70
     0
  9
$TDCREATE
 40
2447882.4138883101
  9
$TDUPDATE
 40
2453686.5526132518
  9
$TDINDWG
 40
0.0826466435
  9
$TDUSRTIMER
 40
0.0
  9
$USRTIMER
 70
     0
  9
$ANGBASE
 50
0.0
  9
$ANGDIR
 70
     0
  9
$PDMODE
 70
     0
  9
$PDSIZE
 40
0.0
  9
$PLINEWID
 40
1.0
  9
$COORDS
 70
     2
  9
$SPLFRAME
 70
     0
  9
$SPLINETYPE
 70
     6
  9
$SPLINESEGS
 70
     8
  9
$ATTDIA
 70
     0
  9
$ATTREQ
 70
     1
  9
$HANDLING
 70
-16383
  9
$HANDSEED
  5
D9
  9
$SURFTAB1
 70
     6
  9
$SURFTAB2
 70
     6
  9
$SURFTYPE
 70
     6
  9
$SURFU
 70
     6
  9
$SURFV
 70
     6
  9
$UCSNAME
  2

  9
$UCSORG
 10
0.0
 20
0.0
 30
0.0
  9
$UCSXDIR
 10
1.0
 20
0.0
 30
0.0
  9
$UCSYDIR
 10
0.0
 20
1.0
 30
0.0
  9
$PUCSNAME
  2

  9
$PUCSORG
 10
0.0
 20
0.0
 30
0.0
  9
$PUCSXDIR
 10
1.0
 20
0.0
 30
0.0
  9
$PUCSYDIR
 10
0.0
 20
1.0
 30
0.0
  9
$USERI1
 70
     0
  9
$USERI2
 70
     0
  9
$USERI3
 70
     0
  9
$USERI4
 70
     0
  9
$USERI5
 70
     0
  9
$USERR1
 40
2.5
  9
$USERR2
 40
1.25
  9
$USERR3
 40
0.5
  9
$USERR4
 40
0.0
  9
$USERR5
 40
0.0
  9
$WORLDVIEW
 70
     1
  9
$SHADEDGE
 70
     3
  9
$SHADEDIF
 70
    70
  9
$TILEMODE
 70
     1
  9
$MAXACTVP
 70
    48
  9
$PLIMCHECK
 70
     0
  9
$PEXTMIN
 10
1.0000000000000000E+020
 20
1.0000000000000000E+020
 30
1.0000000000000000E+020
  9
$PEXTMAX
 10
-1.0000000000000000E+020
 20
-1.0000000000000000E+020
 30
-1.0000000000000000E+020
  9
$PLIMMIN
 10
0.0
 20
0.0
  9
$PLIMMAX
 10
12.0
 20
9.0
  9
$UNITMODE
 70
     0
  9
$VISRETAIN
 70
     0
  9
$PLINEGEN
 70
     0
  9
$PSLTSCALE
 70
     0
  0
ENDSEC
  0
SECTION
  2
TABLES
  0
TABLE
  2
VPORT
 70
     3
  0
VPORT
  2
*ACTIVE
 70
     0
 10
0.0
 20
0.0
 11
1.0
 21
1.0
 12
-122.1596883914433
 22
540.90461975825531
 13
0.0
 23
0.0
 14
5.0
 24
5.0
 15
25.0
 25
25.0
 16
0.0
 26
0.0
 36
1.0
 17
0.0
 27
0.0
 37
0.0
 40
392.39631583193591
 41
1.5552208835341359
 42
50.0
 43
0.0
 44
0.0
 50
0.0
 51
0.0
 71
     0
 72
  1000
 73
     1
 74
     0
 75
     0
 76
     0
 77
     0
 78
     0
  0
ENDTAB
  0
TABLE
  2
LTYPE
 70
     2
  0
LTYPE
  2
CONTINUOUS
 70
     0
  3
Solid line
 72
    65
 73
     0
 40
0.0
  0
LTYPE
  2
DASHDOT
 70
     0
  3
__ . __ . __ . __ . __ . __ . __ . __ . __ . __
 72
    65
 73
     4
 40
1.0
 49
0.5
 49
-0.25
 49
0.0
 49
-0.25
  0
ENDTAB
  0
TABLE
  2
LAYER
 70
     4
  0
LAYER
  2
0
 70
     0
 62
     6
  6
CONTINUOUS
  0
LAYER
  2
L1
 70
     0
 62
     7
  6
CONTINUOUS
  0
LAYER
  2
L6
 70
     0
 62
     1
  6
DASHDOT
  0
LAYER
  2
L22
 70
     0
 62
     1
  6
CONTINUOUS
  0
ENDTAB
  0
TABLE
  2
STYLE
 70
     2
  0
STYLE
  2
STANDARD
 70
     0
 40
0.0
 41
1.0
 50
0.0
 71
     0
 42
9.5
  3
KIRJAIN
  4

  0
STYLE
  2
SIMPLEX
 70
     0
 40
0.0
 41
0.8
 50
0.0
 71
     0
 42
6.25
  3
KIRJAIN
  4

  0
ENDTAB
  0
TABLE
  2
VIEW
 70
     0
  0
ENDTAB
  0
TABLE
  2
UCS
 70
     0
  0
ENDTAB
  0
TABLE
  2
APPID
 70
     1
  0
APPID
  2
ACAD
 70
     0
  0
ENDTAB
  0
TABLE
  2
DIMSTYLE
 70
     1
  0
DIMSTYLE
  2
FIBOX
 70
     0
  3

  4
"
  5

  6

  7

 40
1.0
 41
10.0
 42
0.0
 43
0.0
 44
0.0
 45
0.0
 46
0.0
 47
0.0
 48
0.0
140
10.0
141
1.0
142
0.0
143
0.03937
144
1.0
145
0.0
146
1.0
147
2.0
 71
     0
 72
     0
 73
     0
 74
     0
 75
     0
 76
     0
 77
     1
 78
     8
170
     0
171
     2
172
     1
173
     0
174
     0
175
     0
176
     1
177
     1
178
     3
  0
ENDTAB
  0
ENDSEC
  0
SECTION
  2
BLOCKS
  0
BLOCK
  8
0
  2
$MODEL_SPACE
 70
     2
 10
0.0
 20
0.0
 30
0.0
  3
$MODEL_SPACE
  1

  0
ENDBLK
  5
B
  8
0
  0
BLOCK
 67
     1
  8
0
  2
$PAPER_SPACE
 70
     0
 10
0.0
 20
0.0
 30
0.0
  3
$PAPER_SPACE
  1

  0
ENDBLK
  5
11
 67
     1
  8
0
  0
ENDSEC
  0
SECTION
  2
ENTITIES
  0
LINE
  5
28
  8
L1
 10
62.868016161563901
 20
537.88093217997846
 30
0.0
 11
62.86801616156378
 21
493.88093217997869
 31
0.0
  0
LINE
  5
2A
  8
L1
 10
-307.13198383843599
 20
537.88093217997846
 30
0.0
 11
-307.13198383843599
 21
493.88093217997852
 31
0.0
  0
LINE
  5
2B
  8
L6
 10
-122.1319838384361
 20
540.8809321799788
 30
0.0
 11
-122.1319838384361
 21
345.8809321799788
 31
0.0
  0
LINE
  5
2E
  8
L1
 10
-284.1319838384361
 20
355.8809321799788
 30
0.0
 11
-122.1319838384361
 21
355.8809321799788
 31
0.0
  0
LINE
  5
2F
  8
L1
 10
-307.13198383843599
 20
378.8809321799788
 30
0.0
 11
-284.1319838384361
 21
355.8809321799788
 31
0.0
  0
LINE
  5
30
  8
L6
 10
-302.1319838384361
 20
450.88093217997869
 30
0.0
 11
-302.1319838384361
 21
440.8809321799788
 31
0.0
  0
ARC
  5
31
  8
L1
 10
-302.1319838384361
 20
440.8809321799788
 30
0.0
 40
3.0
 50
270.00000000000051
 51
89.99999999999946
  0
LINE
  5
32
  8
L1
 10
-307.13198383843599
 20
437.8809321799788
 30
0.0
 11
-307.13198383843599
 21
393.8809321799788
 31
0.0
  0
LINE
  5
33
  8
L6
 10
-302.1319838384361
 20
400.88093217997869
 30
0.0
 11
-302.1319838384361
 21
390.88093217997869
 31
0.0
  0
LINE
  5
34
  8
L6
 10
-302.1319838384361
 20
390.88093217997869
 30
0.0
 11
-292.1319838384361
 21
390.88093217997869
 31
0.0
  0
LINE
  5
35
  8
L1
 10
-307.13198383843599
 20
387.8809321799788
 30
0.0
 11
-307.13198383843599
 21
378.8809321799788
 31
0.0
  0
LINE
  5
36
  8
L6
 10
-312.1319838384361
 20
390.88093217997869
 30
0.0
 11
-302.1319838384361
 21
390.88093217997869
 31
0.0
  0
LINE
  5
37
  8
L6
 10
-302.1319838384361
 20
380.8809321799788
 30
0.0
 11
-302.1319838384361
 21
390.88093217997869
 31
0.0
  0
ARC
  5
38
  8
L1
 10
-302.1319838384361
 20
390.88093217997869
 30
0.0
 40
3.0
 50
270.00000000000051
 51
89.99999999999946
  0
LINE
  5
39
  8
L1
 10
-302.1319838384361
 20
393.8809321799788
 30
0.0
 11
-307.13198383843599
 21
393.8809321799788
 31
0.0
  0
LINE
  5
3A
  8
L1
 10
-302.1319838384361
 20
387.8809321799788
 30
0.0
 11
-307.13198383843599
 21
387.8809321799788
 31
0.0
  0
LINE
  5
3B
  8
L6
 10
-302.1319838384361
 20
440.8809321799788
 30
0.0
 11
-292.1319838384361
 21
440.8809321799788
 31
0.0
  0
LINE
  5
3C
  8
L6
 10
-312.1319838384361
 20
440.8809321799788
 30
0.0
 11
-302.1319838384361
 21
440.8809321799788
 31
0.0
  0
LINE
  5
3D
  8
L6
 10
-302.1319838384361
 20
430.88093217997869
 30
0.0
 11
-302.1319838384361
 21
440.8809321799788
 31
0.0
  0
LINE
  5
3E
  8
L1
 10
-302.1319838384361
 20
437.8809321799788
 30
0.0
 11
-307.13198383843599
 21
437.8809321799788
 31
0.0
  0
LINE
  5
3F
  8
L6
 10
-302.1319838384361
 20
480.88093217997857
 30
0.0
 11
-302.1319838384361
 21
490.88093217997852
 31
0.0
  0
LINE
  5
40
  8
L1
 10
-307.13198383843599
 20
487.88093217997852
 30
0.0
 11
-307.13198383843599
 21
443.88093217997869
 31
0.0
  0
LINE
  5
41
  8
L1
 10
-302.1319838384361
 20
443.88093217997869
 30
0.0
 11
-307.13198383843599
 21
443.88093217997869
 31
0.0
  0
LINE
  5
42
  8
L6
 10
-302.1319838384361
 20
490.88093217997852
 30
0.0
 11
-292.1319838384361
 21
490.88093217997852
 31
0.0
  0
LINE
  5
43
  8
L6
 10
-312.1319838384361
 20
490.88093217997852
 30
0.0
 11
-302.1319838384361
 21
490.88093217997852
 31
0.0
  0
ARC
  5
44
  8
L1
 10
-302.1319838384361
 20
490.88093217997852
 30
0.0
 40
3.0
 50
270.00000000000051
 51
89.999999999999474
  0
LINE
  5
45
  8
L1
 10
-302.1319838384361
 20
487.88093217997852
 30
0.0
 11
-307.13198383843599
 21
487.88093217997852
 31
0.0
  0
LINE
  5
46
  8
L1
 10
-302.1319838384361
 20
493.88093217997852
 30
0.0
 11
-307.13198383843599
 21
493.88093217997852
 31
0.0
  0
LINE
  5
47
  8
L6
 10
-302.1319838384361
 20
500.88093217997869
 30
0.0
 11
-302.1319838384361
 21
490.8809321799788
 31
0.0
  0
LINE
  5
48
  8
L1
 10
39.868016161563901
 20
355.8809321799788
 30
0.0
 11
-122.1319838384361
 21
355.8809321799788
 31
0.0
  0
TEXT
  5
49
  8
L22
 10
-34.182739685759543
 20
403.25125149293672
 30
0.0
 40
10.0
  1
s=1.5 mm
 41
0.8
  7
SIMPLEX
  0
LINE
  5
4A
  8
L1
 10
62.868016161563901
 20
378.8809321799788
 30
0.0
 11
39.868016161563901
 21
355.8809321799788
 31
0.0
  0
ARC
  5
4B
  8
L1
 10
57.868016161563901
 20
440.8809321799788
 30
0.0
 40
3.0
 50
90.000000000000554
 51
269.99999999999937
  0
LINE
  5
4C
  8
L6
 10
57.868016161563901
 20
450.88093217997869
 30
0.0
 11
57.868016161563901
 21
440.8809321799788
 31
0.0
  0
LINE
  5
4D
  8
L1
 10
62.868016161563901
 20
437.8809321799788
 30
0.0
 11
62.868016161563901
 21
393.8809321799788
 31
0.0
  0
LINE
  5
4E
  8
L6
 10
57.868016161563901
 20
400.88093217997869
 30
0.0
 11
57.868016161563901
 21
390.88093217997869
 31
0.0
  0
LINE
  5
4F
  8
L6
 10
67.868016161563901
 20
390.88093217997869
 30
0.0
 11
57.868016161563901
 21
390.88093217997869
 31
0.0
  0
LINE
  5
50
  8
L1
 10
62.868016161563901
 20
387.8809321799788
 30
0.0
 11
62.868016161563901
 21
378.8809321799788
 31
0.0
  0
LINE
  5
51
  8
L6
 10
57.868016161563901
 20
390.88093217997869
 30
0.0
 11
47.868016161563901
 21
390.88093217997869
 31
0.0
  0
ARC
  5
52
  8
L1
 10
57.868016161563901
 20
390.88093217997869
 30
0.0
 40
3.0
 50
90.000000000000554
 51
269.99999999999937
  0
LINE
  5
53
  8
L6
 10
57.868016161563901
 20
380.8809321799788
 30
0.0
 11
57.868016161563901
 21
390.88093217997869
 31
0.0
  0
LINE
  5
54
  8
L1
 10
57.868016161563901
 20
387.8809321799788
 30
0.0
 11
62.868016161563901
 21
387.8809321799788
 31
0.0
  0
LINE
  5
55
  8
L1
 10
57.868016161563901
 20
393.8809321799788
 30
0.0
 11
62.868016161563901
 21
393.8809321799788
 31
0.0
  0
LINE
  5
56
  8
L6
 10
67.868016161563901
 20
440.8809321799788
 30
0.0
 11
57.868016161563901
 21
440.8809321799788
 31
0.0
  0
LINE
  5
57
  8
L6
 10
57.868016161563901
 20
440.8809321799788
 30
0.0
 11
47.868016161563901
 21
440.8809321799788
 31
0.0
  0
LINE
  5
58
  8
L6
 10
57.868016161563901
 20
430.88093217997869
 30
0.0
 11
57.868016161563901
 21
440.8809321799788
 31
0.0
  0
LINE
  5
59
  8
L1
 10
57.868016161563901
 20
437.8809321799788
 30
0.0
 11
62.868016161563901
 21
437.8809321799788
 31
0.0
  0
LINE
  5
5A
  8
L6
 10
57.868016161563901
 20
480.88093217997869
 30
0.0
 11
57.868016161563901
 21
490.8809321799788
 31
0.0
  0
LINE
  5
5B
  8
L1
 10
62.86801616156378
 20
487.8809321799788
 30
0.0
 11
62.868016161563901
 21
443.88093217997869
 31
0.0
  0
LINE
  5
5C
  8
L1
 10
57.868016161563901
 20
443.88093217997869
 30
0.0
 11
62.868016161563901
 21
443.88093217997869
 31
0.0
  0
LINE
  5
5D
  8
L6
 10
67.868016161563901
 20
490.8809321799788
 30
0.0
 11
57.868016161563901
 21
490.8809321799788
 31
0.0
  0
LINE
  5
5E
  8
L6
 10
57.868016161563901
 20
490.8809321799788
 30
0.0
 11
47.868016161563901
 21
490.8809321799788
 31
0.0
  0
LINE
  5
5F
  8
L6
 10
57.868016161563901
 20
500.88093217997869
 30
0.0
 11
57.868016161563901
 21
490.8809321799788
 31
0.0
  0
ARC
  5
60
  8
L1
 10
57.868016161563901
 20
490.8809321799788
 30
0.0
 40
3.0
 50
90.000000000000554
 51
269.99999999999937
  0
LINE
  5
61
  8
L1
 10
57.868016161563901
 20
493.88093217997869
 30
0.0
 11
62.868016161563901
 21
493.88093217997869
 31
0.0
  0
LINE
  5
62
  8
L1
 10
57.868016161563901
 20
487.8809321799788
 30
0.0
 11
62.868016161563901
 21
487.8809321799788
 31
0.0
  0
LINE
  5
63
  8
L6
 10
-317.1319838384361
 20
540.88093217997846
 30
0.0
 11
-122.1319838384361
 21
540.88093217997846
 31
0.0
  0
LINE
  5
64
  8
L1
 10
-122.1319838384361
 20
725.88093217997869
 30
0.0
 11
-284.1319838384361
 21
725.88093217997903
 31
0.0
  0
LINE
  5
65
  8
L1
 10
-122.1319838384361
 20
725.88093217997869
 30
0.0
 11
-284.1319838384361
 21
725.88093217997903
 31
0.0
  0
LINE
  5
66
  8
L6
 10
-302.1319838384361
 20
700.88093217997869
 30
0.0
 11
-302.1319838384361
 21
690.8809321799788
 31
0.0
  0
ARC
  5
67
  8
L1
 10
-302.1319838384361
 20
690.88093217997846
 30
0.0
 40
3.0
 50
270.00000000000051
 51
89.99999999999946
  0
LINE
  5
68
  8
L1
 10
-307.13198383843599
 20
637.88093217997846
 30
0.0
 11
-307.13198383843599
 21
543.88093217997846
 31
0.0
  0
LINE
  5
69
  8
L6
 10
-302.1319838384361
 20
550.88093217997869
 30
0.0
 11
-302.1319838384361
 21
540.8809321799788
 31
0.0
  0
LINE
  5
6A
  8
L6
 10
-302.1319838384361
 20
530.88093217997857
 30
0.0
 11
-302.1319838384361
 21
540.88093217997846
 31
0.0
  0
LINE
  5
6B
  8
L1
 10
-302.1319838384361
 20
537.88093217997846
 30
0.0
 11
-307.13198383843599
 21
537.88093217997846
 31
0.0
  0
LINE
  5
6C
  8
L1
 10
-302.1319838384361
 20
543.88093217997846
 30
0.0
 11
-307.13198383843599
 21
543.88093217997846
 31
0.0
  0
ARC
  5
6D
  8
L1
 10
-302.1319838384361
 20
540.88093217997846
 30
0.0
 40
3.0
 50
270.00000000000051
 51
89.99999999999946
  0
LINE
  5
6E
  8
L6
 10
-302.1319838384361
 20
590.88093217997846
 30
0.0
 11
-292.1319838384361
 21
590.88093217997846
 31
0.0
  0
ARC
  5
6F
  8
L1
 10
-302.1319838384361
 20
590.88093217997846
 30
0.0
 40
3.0
 50
270.00000000000051
 51
89.999999999999474
  0
LINE
  5
70
  8
L6
 10
-302.1319838384361
 20
580.88093217997857
 30
0.0
 11
-302.1319838384361
 21
590.88093217997846
 31
0.0
  0
LINE
  5
71
  8
L1
 10
-302.1319838384361
 20
587.88093217997846
 30
0.0
 11
-307.13198383843599
 21
587.88093217997846
 31
0.0
  0
LINE
  5
72
  8
L6
 10
-312.1319838384361
 20
590.88093217997846
 30
0.0
 11
-302.1319838384361
 21
590.88093217997846
 31
0.0
  0
LINE
  5
73
  8
L1
 10
-302.1319838384361
 20
593.88093217997846
 30
0.0
 11
-307.13198383843599
 21
593.88093217997846
 31
0.0
  0
LINE
  5
74
  8
L6
 10
-302.1319838384361
 20
600.88093217997869
 30
0.0
 11
-302.1319838384361
 21
590.8809321799788
 31
0.0
  0
LINE
  5
75
  8
L1
 10
-307.13198383843599
 20
687.88093217997846
 30
0.0
 11
-307.13198383843599
 21
643.88093217997846
 31
0.0
  0
LINE
  5
76
  8
L6
 10
-302.1319838384361
 20
640.88093217997846
 30
0.0
 11
-292.1319838384361
 21
640.88093217997846
 31
0.0
  0
LINE
  5
77
  8
L6
 10
-312.1319838384361
 20
640.88093217997846
 30
0.0
 11
-302.1319838384361
 21
640.88093217997846
 31
0.0
  0
LINE
  5
78
  8
L6
 10
-302.1319838384361
 20
630.88093217997857
 30
0.0
 11
-302.1319838384361
 21
640.88093217997846
 31
0.0
  0
LINE
  5
79
  8
L6
 10
-302.1319838384361
 20
650.88093217997869
 30
0.0
 11
-302.1319838384361
 21
640.8809321799788
 31
0.0
  0
ARC
  5
7A
  8
L1
 10
-302.1319838384361
 20
640.88093217997846
 30
0.0
 40
3.0
 50
270.00000000000051
 51
89.99999999999946
  0
LINE
  5
7B
  8
L1
 10
-302.1319838384361
 20
643.88093217997846
 30
0.0
 11
-307.13198383843599
 21
643.88093217997846
 31
0.0
  0
LINE
  5
7C
  8
L1
 10
-302.1319838384361
 20
637.88093217997846
 30
0.0
 11
-307.13198383843599
 21
637.88093217997846
 31
0.0
  0
LINE
  5
7D
  8
L6
 10
-302.1319838384361
 20
690.88093217997846
 30
0.0
 11
-292.1319838384361
 21
690.88093217997846
 31
0.0
  0
LINE
  5
7E
  8
L6
 10
-312.1319838384361
 20
690.88093217997846
 30
0.0
 11
-302.1319838384361
 21
690.88093217997846
 31
0.0
  0
LINE
  5
7F
  8
L6
 10
-302.1319838384361
 20
680.88093217997857
 30
0.0
 11
-302.1319838384361
 21
690.88093217997846
 31
0.0
  0
LINE
  5
80
  8
L1
 10
-302.1319838384361
 20
687.88093217997846
 30
0.0
 11
-307.13198383843599
 21
687.88093217997846
 31
0.0
  0
LINE
  5
81
  8
L1
 10
-307.13198383843599
 20
702.88093217997903
 30
0.0
 11
-284.1319838384361
 21
725.88093217997903
 31
0.0
  0
LINE
  5
82
  8
L1
 10
-302.1319838384361
 20
693.88093217997846
 30
0.0
 11
-307.13198383843599
 21
693.88093217997846
 31
0.0
  0
LINE
  5
83
  8
L1
 10
-307.13198383843599
 20
702.88093217997903
 30
0.0
 11
-307.13198383843599
 21
693.88093217997846
 31
0.0
  0
LINE
  5
84
  8
L1
 10
-122.1319838384361
 20
725.88093217997869
 30
0.0
 11
39.868016161563901
 21
725.88093217997903
 31
0.0
  0
LINE
  5
85
  8
L6
 10
72.868016161563901
 20
540.88093217997846
 30
0.0
 11
-122.1319838384361
 21
540.88093217997846
 31
0.0
  0
LINE
  5
86
  8
L6
 10
-122.1319838384361
 20
540.88093217997846
 30
0.0
 11
-122.1319838384361
 21
735.8809321799788
 31
0.0
  0
ARC
  5
87
  8
L1
 10
57.868016161563901
 20
690.88093217997846
 30
0.0
 40
3.0
 50
90.000000000000554
 51
269.99999999999937
  0
LINE
  5
88
  8
L6
 10
57.868016161563901
 20
700.88093217997869
 30
0.0
 11
57.868016161563901
 21
690.8809321799788
 31
0.0
  0
LINE
  5
89
  8
L1
 10
62.868016161563901
 20
637.88093217997846
 30
0.0
 11
62.868016161563901
 21
593.88093217997846
 31
0.0
  0
LINE
  5
8A
  8
L1
 10
62.868016161563901
 20
587.88093217997846
 30
0.0
 11
62.868016161563901
 21
543.88093217997846
 31
0.0
  0
LINE
  5
8B
  8
L6
 10
57.868016161563901
 20
550.88093217997869
 30
0.0
 11
57.868016161563901
 21
540.8809321799788
 31
0.0
  0
ARC
  5
8C
  8
L1
 10
57.868016161563901
 20
540.88093217997846
 30
0.0
 40
3.0
 50
90.000000000000554
 51
269.99999999999937
  0
LINE
  5
8D
  8
L6
 10
57.868016161563901
 20
530.88093217997857
 30
0.0
 11
57.868016161563901
 21
540.88093217997846
 31
0.0
  0
LINE
  5
8E
  8
L1
 10
57.868016161563901
 20
543.88093217997846
 30
0.0
 11
62.868016161563901
 21
543.88093217997846
 31
0.0
  0
LINE
  5
8F
  8
L1
 10
57.868016161563901
 20
537.88093217997846
 30
0.0
 11
62.868016161563901
 21
537.88093217997846
 31
0.0
  0
LINE
  5
90
  8
L6
 10
67.868016161563901
 20
590.88093217997846
 30
0.0
 11
57.868016161563901
 21
590.88093217997846
 31
0.0
  0
LINE
  5
91
  8
L6
 10
57.868016161563901
 20
580.88093217997857
 30
0.0
 11
57.868016161563901
 21
590.88093217997846
 31
0.0
  0
ARC
  5
92
  8
L1
 10
57.868016161563901
 20
590.88093217997846
 30
0.0
 40
3.0
 50
90.000000000000554
 51
269.99999999999937
  0
LINE
  5
93
  8
L1
 10
57.868016161563901
 20
587.88093217997846
 30
0.0
 11
62.868016161563901
 21
587.88093217997846
 31
0.0
  0
LINE
  5
94
  8
L6
 10
57.868016161563901
 20
590.88093217997846
 30
0.0
 11
47.868016161563901
 21
590.88093217997846
 31
0.0
  0
LINE
  5
95
  8
L6
 10
57.868016161563901
 20
600.88093217997869
 30
0.0
 11
57.868016161563901
 21
590.8809321799788
 31
0.0
  0
LINE
  5
96
  8
L1
 10
57.868016161563901
 20
593.88093217997846
 30
0.0
 11
62.868016161563901
 21
593.88093217997846
 31
0.0
  0
LINE
  5
97
  8
L1
 10
62.868016161563901
 20
687.88093217997846
 30
0.0
 11
62.868016161563901
 21
643.88093217997846
 31
0.0
  0
LINE
  5
98
  8
L6
 10
67.868016161563901
 20
640.88093217997846
 30
0.0
 11
57.868016161563901
 21
640.88093217997846
 31
0.0
  0
LINE
  5
99
  8
L6
 10
57.868016161563901
 20
640.88093217997846
 30
0.0
 11
47.868016161563901
 21
640.88093217997846
 31
0.0
  0
ARC
  5
9A
  8
L1
 10
57.868016161563901
 20
640.88093217997846
 30
0.0
 40
3.0
 50
90.000000000000554
 51
269.99999999999937
  0
LINE
  5
9B
  8
L6
 10
57.868016161563901
 20
650.88093217997869
 30
0.0
 11
57.868016161563901
 21
640.8809321799788
 31
0.0
  0
LINE
  5
9C
  8
L6
 10
57.868016161563901
 20
630.88093217997857
 30
0.0
 11
57.868016161563901
 21
640.88093217997846
 31
0.0
  0
LINE
  5
9D
  8
L1
 10
57.868016161563901
 20
637.88093217997846
 30
0.0
 11
62.868016161563901
 21
637.88093217997846
 31
0.0
  0
LINE
  5
9E
  8
L1
 10
57.868016161563901
 20
643.88093217997846
 30
0.0
 11
62.868016161563901
 21
643.88093217997846
 31
0.0
  0
LINE
  5
9F
  8
L6
 10
67.868016161563901
 20
690.88093217997846
 30
0.0
 11
57.868016161563901
 21
690.88093217997846
 31
0.0
  0
LINE
  5
A0
  8
L6
 10
57.868016161563901
 20
690.88093217997846
 30
0.0
 11
47.868016161563901
 21
690.88093217997846
 31
0.0
  0
LINE
  5
A1
  8
L6
 10
57.868016161563901
 20
680.88093217997857
 30
0.0
 11
57.868016161563901
 21
690.88093217997846
 31
0.0
  0
LINE
  5
A2
  8
L1
 10
57.868016161563901
 20
687.88093217997846
 30
0.0
 11
62.868016161563901
 21
687.88093217997846
 31
0.0
  0
LINE
  5
A3
  8
L1
 10
62.868016161563901
 20
702.88093217997903
 30
0.0
 11
39.868016161563901
 21
725.88093217997903
 31
0.0
  0
LINE
  5
A4
  8
L1
 10
62.868016161563901
 20
702.88093217997903
 30
0.0
 11
62.868016161563901
 21
693.88093217997846
 31
0.0
  0
LINE
  5
A5
  8
L1
 10
57.868016161563901
 20
693.88093217997846
 30
0.0
 11
62.868016161563901
 21
693.88093217997846
 31
0.0
  0
ENDSEC
  0
EOF
