  0
SECTION
  2
HEADER
  9
$ACADVER
  1
AC1009
  9
$INSBASE
 10
0.0
 20
0.0
 30
0.0
  9
$EXTMIN
 10
-782.048219
 20
29.326651
 30
0.0
  9
$EXTMAX
 10
736.045355
 20
695.456134
 30
0.0
  9
$LIMMIN
 10
0.0
 20
0.0
  9
$LIMMAX
 10
420.0
 20
297.0
  9
$ORTHOMODE
 70
     0
  9
$REGENMODE
 70
     1
  9
$FILLMODE
 70
     1
  9
$QTEXTMODE
 70
     0
  9
$MIRRTEXT
 70
     1
  9
$DRAGMODE
 70
     2
  9
$LTSCALE
 40
7.0
  9
$OSMODE
 70
     0
  9
$ATTMODE
 70
     1
  9
$TEXTSIZE
 40
3.5
  9
$TRACEWID
 40
0.05
  9
$TEXTSTYLE
  7
STANDARD
  9
$CLAYER
  8
L1
  9
$CELTYPE
  6
BYLAYER
  9
$CECOLOR
 62
   256
  9
$DIMSCALE
 40
1.0
  9
$DIMASZ
 40
3.5
  9
$DIMEXO
 40
0.0
  9
$DIMDLI
 40
10.0
  9
$DIMRND
 40
0.0
  9
$DIMDLE
 40
0.0
  9
$DIMEXE
 40
2.0
  9
$DIMTP
 40
0.0
  9
$DIMTM
 40
0.0
  9
$DIMTXT
 40
3.5
  9
$DIMCEN
 40
2.5
  9
$DIMTSZ
 40
0.0
  9
$DIMTOL
 70
     0
  9
$DIMLIM
 70
     0
  9
$DIMTIH
 70
     0
  9
$DIMTOH
 70
     0
  9
$DIMSE1
 70
     0
  9
$DIMSE2
 70
     0
  9
$DIMTAD
 70
     1
  9
$DIMZIN
 70
     8
  9
$DIMBLK
  1

  9
$DIMASO
 70
     1
  9
$DIMSHO
 70
     1
  9
$DIMPOST
  1

  9
$DIMAPOST
  1

  9
$DIMALT
 70
     0
  9
$DIMALTD
 70
     2
  9
$DIMALTF
 40
25.4
  9
$DIMLFAC
 40
1.0
  9
$DIMTOFL
 70
     1
  9
$DIMTVP
 40
0.0
  9
$DIMTIX
 70
     0
  9
$DIMSOXD
 70
     0
  9
$DIMSAH
 70
     0
  9
$DIMBLK1
  1

  9
$DIMBLK2
  1

  9
$DIMSTYLE
  2
*UNNAMED
  9
$DIMCLRD
 70
   256
  9
$DIMCLRE
 70
   256
  9
$DIMCLRT
 70
     3
  9
$DIMTFAC
 40
1.0
  9
$DIMGAP
 40
2.0
  9
$LUNITS
 70
     2
  9
$LUPREC
 70
     2
  9
$SKETCHINC
 40
1.0
  9
$FILLETRAD
 40
0.0
  9
$AUNITS
 70
     0
  9
$AUPREC
 70
     2
  9
$MENU
  1
CAESAR
  9
$ELEVATION
 40
0.0
  9
$PELEVATION
 40
0.0
  9
$THICKNESS
 40
0.0
  9
$LIMCHECK
 70
     0
  9
$BLIPMODE
 70
     1
  9
$CHAMFERA
 40
5.0
  9
$CHAMFERB
 40
5.0
  9
$SKPOLY
 70
     0
  9
$TDCREATE
 40
2449682.495017245
  9
$TDUPDATE
 40
2449682.495017245
  9
$TDINDWG
 40
0.0000000000
  9
$TDUSRTIMER
 40
0.0000000000
  9
$USRTIMER
 70
     1
  9
$ANGBASE
 50
0.0
  9
$ANGDIR
 70
     0
  9
$PDMODE
 70
     0
  9
$PDSIZE
 40
0.0
  9
$PLINEWID
 40
0.0
  9
$COORDS
 70
     2
  9
$SPLFRAME
 70
     0
  9
$SPLINETYPE
 70
     6
  9
$SPLINESEGS
 70
     8
  9
$ATTDIA
 70
     0
  9
$ATTREQ
 70
     1
  9
$HANDLING
 70
     1
  9
$HANDSEED
  5
202E9
  9
$SURFTAB1
 70
     6
  9
$SURFTAB2
 70
     6
  9
$SURFTYPE
 70
     6
  9
$SURFU
 70
     6
  9
$SURFV
 70
     6
  9
$UCSNAME
  2

  9
$UCSORG
 10
0.0
 20
0.0
 30
0.0
  9
$UCSXDIR
 10
1.0
 20
0.0
 30
0.0
  9
$UCSYDIR
 10
0.0
 20
1.0
 30
0.0
  9
$PUCSNAME
  2

  9
$PUCSORG
 10
0.0
 20
0.0
 30
0.0
  9
$PUCSXDIR
 10
1.0
 20
0.0
 30
0.0
  9
$PUCSYDIR
 10
0.0
 20
1.0
 30
0.0
  9
$USERI1
 70
     0
  9
$USERI2
 70
     0
  9
$USERI3
 70
     0
  9
$USERI4
 70
     0
  9
$USERI5
 70
     0
  9
$USERR1
 40
1.0
  9
$USERR2
 40
0.0
  9
$USERR3
 40
3.5
  9
$USERR4
 40
0.0
  9
$USERR5
 40
0.0
  9
$WORLDVIEW
 70
     1
  9
$SHADEDGE
 70
     3
  9
$SHADEDIF
 70
    70
  9
$TILEMODE
 70
     1
  9
$MAXACTVP
 70
    16
  9
$PINSBASE
 10
0.0
 20
0.0
 30
0.0
  9
$PLIMCHECK
 70
     0
  9
$PEXTMIN
 10
1.000000E+20
 20
1.000000E+20
 30
1.000000E+20
  9
$PEXTMAX
 10
-1.000000E+20
 20
-1.000000E+20
 30
-1.000000E+20
  9
$PLIMMIN
 10
0.0
 20
0.0
  9
$PLIMMAX
 10
420.0
 20
297.0
  9
$UNITMODE
 70
     0
  9
$VISRETAIN
 70
     0
  9
$PLINEGEN
 70
     0
  9
$PSLTSCALE
 70
     0
  9
$TREEDEPTH
 70
  3020
  9
$DWGCODEPAGE
  3
dos850
  0
ENDSEC
  0
SECTION
  2
TABLES
  0
TABLE
  2
VPORT
 70
     2
  0
VPORT
  2
*ACTIVE
 70
     0
 10
0.0
 20
0.0
 11
1.0
 21
1.0
 12
287.564723
 22
225.231556
 13
0.0
 23
0.0
 14
1.0
 24
1.0
 15
10.0
 25
10.0
 16
0.0
 26
0.0
 36
1.0
 17
0.0
 27
0.0
 37
0.0
 40
456.463112
 41
1.273114
 42
50.0
 43
0.0
 44
0.0
 50
0.0
 51
0.0
 71
     0
 72
  1000
 73
     1
 74
     1
 75
     1
 76
     0
 77
     0
 78
     0
  0
ENDTAB
  0
TABLE
  2
LTYPE
 70
    10
  0
LTYPE
  2
CONTINUOUS
 70
    64
  3
Solid line
 72
    65
 73
     0
 40
0.0
  0
LTYPE
  2
BORDER
 70
     0
  3
__ __ . __ __ . __ __ . __ __ . __ __ . __ __ .
 72
    65
 73
     6
 40
1.75
 49
0.5
 49
-0.25
 49
0.5
 49
-0.25
 49
0.0
 49
-0.25
  0
LTYPE
  2
CENTER
 70
    64
  3
____ _ ____ _ ____ _ ____ _ ____ _ ____ _ ____ 
 72
    65
 73
     4
 40
2.0
 49
1.25
 49
-0.25
 49
0.25
 49
-0.25
  0
LTYPE
  2
DASHDOT
 70
     0
  3
__ . __ . __ . __ . __ . __ . __ . __ . __ . __
 72
    65
 73
     4
 40
1.0
 49
0.5
 49
-0.25
 49
0.0
 49
-0.25
  0
LTYPE
  2
DASHED
 70
    64
  3
__ __ __ __ __ __ __ __ __ __ __ __ __ __ __ __
 72
    65
 73
     2
 40
0.75
 49
0.5
 49
-0.25
  0
LTYPE
  2
DIVIDE
 70
     0
  3
____ . . ____ . . ____ . . ____ . . ____ . . __
 72
    65
 73
     6
 40
1.25
 49
0.5
 49
-0.25
 49
0.0
 49
-0.25
 49
0.0
 49
-0.25
  0
LTYPE
  2
DOT
 70
     0
  3
. . . . . . . . . . . . . . . . . . . . . . . .
 72
    65
 73
     2
 40
0.25
 49
0.0
 49
-0.25
  0
LTYPE
  2
HIDDEN
 70
    64
  3
__ __ __ __ __ __ __ __ __ __ __ __ __ __ __ __
 72
    65
 73
     2
 40
0.375
 49
0.25
 49
-0.125
  0
LTYPE
  2
PHANTOM
 70
    64
  3
______  __  __  ______  __  __  ______  __  __ 
 72
    65
 73
     6
 40
2.5
 49
1.25
 49
-0.25
 49
0.25
 49
-0.25
 49
0.25
 49
-0.25
  0
LTYPE
  2
DOTX2
 70
    64
  3
.  .  .  .  .  .  .  .  .  .  .  .  .  .  .  . 
 72
    65
 73
     2
 40
0.5
 49
0.0
 49
-0.5
  0
ENDTAB
  0
TABLE
  2
LAYER
 70
    75
  0
LAYER
  2
0
 70
    64
 62
     7
  6
CONTINUOUS
  0
LAYER
  2
L1
 70
     0
 62
     3
  6
CONTINUOUS
  0
LAYER
  2
L2
 70
     0
 62
     1
  6
CONTINUOUS
  0
LAYER
  2
L3
 70
     0
 62
     7
  6
DASHED
  0
LAYER
  2
L4
 70
     0
 62
     1
  6
DASHED
  0
LAYER
  2
L5
 70
     0
 62
     6
  6
CENTER
  0
LAYER
  2
L6
 70
     0
 62
     1
  6
CENTER
  0
LAYER
  2
L7
 70
     0
 62
     1
  6
PHANTOM
  0
LAYER
  2
VPORT
 70
     0
 62
     7
  6
CONTINUOUS
  0
LAYER
  2
L8
 70
     0
 62
     1
  6
CONTINUOUS
  0
LAYER
  2
L20
 70
     0
 62
     3
  6
CONTINUOUS
  0
LAYER
  2
L21
 70
     0
 62
     1
  6
CONTINUOUS
  0
LAYER
  2
L22
 70
     0
 62
     1
  6
CONTINUOUS
  0
LAYER
  2
L23
 70
     0
 62
     1
  6
CONTINUOUS
  0
LAYER
  2
L30
 70
     0
 62
     3
  6
CONTINUOUS
  0
LAYER
  2
L31
 70
     0
 62
     1
  6
CONTINUOUS
  0
LAYER
  2
L32
 70
     0
 62
     3
  6
CONTINUOUS
  0
LAYER
  2
L33
 70
     0
 62
     1
  6
CONTINUOUS
  0
LAYER
  2
L34
 70
     0
 62
     3
  6
CONTINUOUS
  0
LAYER
  2
L35
 70
     0
 62
     1
  6
CONTINUOUS
  0
LAYER
  2
L40
 70
     0
 62
     7
  6
CONTINUOUS
  0
LAYER
  2
L41
 70
     0
 62
     1
  6
CONTINUOUS
  0
LAYER
  2
L42
 70
     0
 62
     1
  6
CONTINUOUS
  0
LAYER
  2
L43
 70
     0
 62
     7
  6
CONTINUOUS
  0
LAYER
  2
L44
 70
     0
 62
     1
  6
CONTINUOUS
  0
LAYER
  2
L45
 70
     0
 62
     1
  6
CONTINUOUS
  0
LAYER
  2
L46
 70
     0
 62
     3
  6
CONTINUOUS
  0
LAYER
  2
L50
 70
     0
 62
     7
  6
CONTINUOUS
  0
LAYER
  2
L51
 70
     0
 62
     1
  6
CONTINUOUS
  0
LAYER
  2
L52
 70
     0
 62
     7
  6
CONTINUOUS
  0
LAYER
  2
L53
 70
     0
 62
     1
  6
CONTINUOUS
  0
LAYER
  2
L54
 70
     0
 62
     3
  6
CONTINUOUS
  0
LAYER
  2
L55
 70
     0
 62
     3
  6
CONTINUOUS
  0
LAYER
  2
L56
 70
     0
 62
     3
  6
CONTINUOUS
  0
LAYER
  2
L57
 70
     0
 62
     1
  6
CONTINUOUS
  0
LAYER
  2
L9
 70
     0
 62
     7
  6
HIDDEN
  0
LAYER
  2
L15
 70
     0
 62
     2
  6
CONTINUOUS
  0
LAYER
  2
L16
 70
     0
 62
     5
  6
DOTX2
  0
LAYER
  2
L24
 70
     0
 62
     1
  6
CONTINUOUS
  0
LAYER
  2
A1
 70
     0
 62
     7
  6
CONTINUOUS
  0
LAYER
  2
RA1
 70
     0
 62
     1
  6
CONTINUOUS
  0
LAYER
  2
TITEL
 70
     0
 62
     7
  6
CONTINUOUS
  0
LAYER
  2
DEFPOINTS
 70
     0
 62
     7
  6
CONTINUOUS
  0
LAYER
  2
CAM-A1
 70
     0
 62
     7
  6
CONTINUOUS
  0
LAYER
  2
CAM-A2
 70
     0
 62
     1
  6
CONTINUOUS
  0
LAYER
  2
11
 70
    64
 62
     7
  6
CONTINUOUS
  0
LAYER
  2
12
 70
     0
 62
     1
  6
CONTINUOUS
  0
LAYER
  2
13
 70
    64
 62
     1
  6
CENTER
  0
LAYER
  2
14
 70
    64
 62
     1
  6
DASHED
  0
LAYER
  2
15
 70
     0
 62
     2
  6
DASHED
  0
LAYER
  2
21
 70
    64
 62
     7
  6
CONTINUOUS
  0
LAYER
  2
22
 70
     0
 62
     1
  6
CONTINUOUS
  0
LAYER
  2
23
 70
    64
 62
     1
  6
CENTER
  0
LAYER
  2
24
 70
    64
 62
     1
  6
DASHED
  0
LAYER
  2
25
 70
     0
 62
     2
  6
DASHED
  0
LAYER
  2
31
 70
    64
 62
     7
  6
CONTINUOUS
  0
LAYER
  2
32
 70
     0
 62
     1
  6
CONTINUOUS
  0
LAYER
  2
33
 70
    64
 62
     1
  6
CENTER
  0
LAYER
  2
34
 70
    64
 62
     1
  6
DASHED
  0
LAYER
  2
35
 70
     0
 62
     2
  6
DASHED
  0
LAYER
  2
41
 70
    64
 62
     7
  6
CONTINUOUS
  0
LAYER
  2
42
 70
     0
 62
     1
  6
CONTINUOUS
  0
LAYER
  2
43
 70
    64
 62
     1
  6
CENTER
  0
LAYER
  2
44
 70
    64
 62
     1
  6
DASHED
  0
LAYER
  2
45
 70
     0
 62
     2
  6
DASHED
  0
LAYER
  2
51
 70
    64
 62
     7
  6
CONTINUOUS
  0
LAYER
  2
52
 70
    64
 62
     1
  6
CONTINUOUS
  0
LAYER
  2
53
 70
    64
 62
     1
  6
CENTER
  0
LAYER
  2
54
 70
     0
 62
     1
  6
DASHED
  0
LAYER
  2
55
 70
     0
 62
     2
  6
DASHED
  0
LAYER
  2
61
 70
    64
 62
     7
  6
CONTINUOUS
  0
LAYER
  2
62
 70
     0
 62
     1
  6
CONTINUOUS
  0
LAYER
  2
63
 70
    64
 62
     1
  6
CENTER
  0
LAYER
  2
64
 70
     0
 62
     1
  6
DASHED
  0
LAYER
  2
65
 70
     0
 62
     2
  6
DASHED
  0
ENDTAB
  0
TABLE
  2
STYLE
 70
     4
  0
STYLE
  2
STANDARD
 70
     0
 40
0.0
 41
1.0
 50
0.0
 71
     0
 42
3.5
  3
CAEISO
  4

  0
STYLE
  2
SIMPLEX
 70
    64
 40
0.0
 41
1.0
 50
0.0
 71
     0
 42
20.0
  3
SIMPLEX.SHX
  4

  0
STYLE
  2
COMPLEX
 70
    64
 40
5.0
 41
1.0
 50
0.0
 71
     0
 42
5.0
  3
COMPLEX
  4

  0
STYLE
  2
CAEISO
 70
     0
 40
0.0
 41
1.0
 50
0.0
 71
     0
 42
1.0
  3
CAEISO
  4

  0
ENDTAB
  0
TABLE
  2
VIEW
 70
     0
  0
ENDTAB
  0
TABLE
  2
UCS
 70
     0
  0
ENDTAB
  0
TABLE
  2
APPID
 70
     1
  0
APPID
  2
ACAD
 70
    64
  0
ENDTAB
  0
TABLE
  2
DIMSTYLE
 70
     6
  0
DIMSTYLE
  2
ACADUS
 70
     0
  3

  4

  5

  6

  7

 40
1.0
 41
0.18
 42
0.0625
 43
0.38
 44
0.18
 45
0.0
 46
0.0
 47
0.0
 48
0.0
140
0.18
141
0.09
142
0.0
143
25.4
144
1.0
145
0.0
146
1.0
147
0.09
 71
     0
 72
     0
 73
     1
 74
     1
 75
     0
 76
     0
 77
     0
 78
     0
170
     0
171
     2
172
     0
173
     0
174
     0
175
     0
176
     0
177
     0
178
     0
  0
DIMSTYLE
  2
NORDIC
 70
     0
  3

  4

  5

  6

  7

 40
1.0
 41
3.5
 42
1.0
 43
10.0
 44
2.0
 45
0.0
 46
0.0
 47
0.0
 48
0.0
140
3.5
141
2.5
142
0.0
143
25.4
144
1.0
145
0.0
146
1.0
147
2.0
 71
     0
 72
     0
 73
     0
 74
     0
 75
     0
 76
     0
 77
     1
 78
     8
170
     0
171
     2
172
     1
173
     0
174
     0
175
     0
176
     0
177
     0
178
     0
  0
DIMSTYLE
  2
RADIAL
 70
     0
  3

  4

  5

  6

  7

 40
1.0
 41
3.5
 42
1.0
 43
10.0
 44
2.0
 45
0.0
 46
0.0
 47
0.0
 48
0.0
140
3.5
141
2.5
142
0.0
143
25.4
144
1.0
145
0.0
146
1.0
147
2.0
 71
     0
 72
     0
 73
     0
 74
     1
 75
     0
 76
     0
 77
     1
 78
     8
170
     0
171
     2
172
     0
173
     0
174
     0
175
     0
176
     0
177
     0
178
     0
  0
DIMSTYLE
  2
NORTOL
 70
     0
  3

  4

  5

  6

  7

 40
1.0
 41
3.5
 42
1.0
 43
10.0
 44
2.0
 45
0.0
 46
0.0
 47
0.2
 48
0.1
140
3.5
141
2.5
142
0.0
143
25.4
144
1.0
145
0.7
146
0.71
147
2.0
 71
     1
 72
     0
 73
     0
 74
     0
 75
     0
 76
     0
 77
     0
 78
     8
170
     0
171
     2
172
     1
173
     0
174
     0
175
     0
176
     0
177
     0
178
     0
  0
DIMSTYLE
  2
RADTOL
 70
     0
  3

  4

  5

  6

  7

 40
1.0
 41
3.5
 42
1.0
 43
10.0
 44
2.0
 45
0.0
 46
0.0
 47
0.2
 48
0.1
140
3.5
141
2.5
142
0.0
143
25.4
144
1.0
145
0.7
146
0.7
147
2.0
 71
     1
 72
     0
 73
     0
 74
     1
 75
     0
 76
     0
 77
     0
 78
     8
170
     0
171
     2
172
     0
173
     0
174
     0
175
     0
176
     0
177
     0
178
     0
  0
DIMSTYLE
  2
HANSU
 70
     0
  3

  4

  5

  6

  7

 40
1.0
 41
3.5
 42
0.0
 43
10.0
 44
2.0
 45
0.0
 46
0.0
 47
0.0
 48
0.0
140
3.5
141
2.5
142
0.0
143
25.4
144
0.8
145
0.0
146
1.0
147
2.0
 71
     0
 72
     0
 73
     0
 74
     0
 75
     0
 76
     0
 77
     1
 78
     8
170
     0
171
     2
172
     1
173
     0
174
     0
175
     0
176
   256
177
   256
178
     3
  0
ENDTAB
  0
ENDSEC
  0
SECTION
  2
BLOCKS
  0
BLOCK
  8
0
  5
2329
  2
AME_NIL
 70
     0
 10
0.0
 20
0.0
 30
0.0
  1
AME_NIL
  3
AME_NIL
  0
ENDBLK
  8
0
  5
232A
  0
BLOCK
  8
0
  5
232C
  2
AME_SOL
 70
     0
 10
0.0
 20
0.0
 30
0.0
  1
AME_SOL
  3
AME_SOL
  0
ENDBLK
  8
0
  5
232D
  0
BLOCK
  8
0
  5
233F
  2
SOLAXES
 70
     0
 10
0.0
 20
0.0
 30
0.0
  1
SOLAXES
  3
SOLAXES
  0
LINE
  8
0
 62
     0
  5
2340
 10
0.0
 20
0.0
 30
0.0
 11
63.851158
 21
0.0
 31
0.0
  0
LINE
  8
0
 62
     0
  5
2341
 10
0.0
 20
0.0
 30
0.0
 11
0.0
 21
63.851158
 31
0.0
  0
LINE
  8
0
 62
     0
  5
2342
 10
0.0
 20
0.0
 30
0.0
 11
0.0
 21
0.0
 31
63.851158
  0
CIRCLE
  8
0
 62
     0
  5
2343
 10
0.0
 20
0.0
 30
57.466042
 40
3.192558
210
1.0
220
0.0
230
0.0
  0
LINE
  8
0
 62
     0
  5
2344
 10
57.466042
 20
3.192558
 30
0.0
 11
63.851158
 21
0.0
 31
0.0
  0
LINE
  8
0
 62
     0
  5
2345
 10
57.466042
 20
0.0
 30
3.192558
 11
63.851158
 21
0.0
 31
0.0
  0
LINE
  8
0
 62
     0
  5
2346
 10
57.466042
 20
-3.192558
 30
0.0
 11
63.851158
 21
0.0
 31
0.0
  0
LINE
  8
0
 62
     0
  5
2347
 10
57.466042
 20
0.0
 30
-3.192558
 11
63.851158
 21
0.0
 31
0.0
  0
CIRCLE
  8
0
 62
     0
  5
2348
 10
0.0
 20
0.0
 30
57.466042
 40
3.192558
210
0.0
220
1.0
230
0.0
  0
LINE
  8
0
 62
     0
  5
2349
 10
3.192558
 20
57.466042
 30
0.0
 11
0.0
 21
63.851158
 31
0.0
  0
LINE
  8
0
 62
     0
  5
234A
 10
0.0
 20
57.466042
 30
3.192558
 11
0.0
 21
63.851158
 31
0.0
  0
LINE
  8
0
 62
     0
  5
234B
 10
-3.192558
 20
57.466042
 30
0.0
 11
0.0
 21
63.851158
 31
0.0
  0
LINE
  8
0
 62
     0
  5
234C
 10
0.0
 20
57.466042
 30
-3.192558
 11
0.0
 21
63.851158
 31
0.0
  0
CIRCLE
  8
0
 62
     0
  5
234D
 10
0.0
 20
0.0
 30
51.080927
 40
3.192558
210
0.0
220
1.0
230
0.0
  0
LINE
  8
0
 62
     0
  5
234E
 10
3.192558
 20
51.080927
 30
0.0
 11
0.0
 21
57.466042
 31
0.0
  0
LINE
  8
0
 62
     0
  5
234F
 10
0.0
 20
51.080927
 30
3.192558
 11
0.0
 21
57.466042
 31
0.0
  0
LINE
  8
0
 62
     0
  5
2350
 10
-3.192558
 20
51.080927
 30
0.0
 11
0.0
 21
57.466042
 31
0.0
  0
LINE
  8
0
 62
     0
  5
2351
 10
0.0
 20
51.080927
 30
-3.192558
 11
0.0
 21
57.466042
 31
0.0
  0
CIRCLE
  8
0
 62
     0
  5
2352
 10
0.0
 20
0.0
 30
57.466042
 40
3.192558
  0
LINE
  8
0
 62
     0
  5
2353
 10
3.192558
 20
0.0
 30
57.466042
 11
0.0
 21
0.0
 31
63.851158
  0
LINE
  8
0
 62
     0
  5
2354
 10
0.0
 20
3.192558
 30
57.466042
 11
0.0
 21
0.0
 31
63.851158
  0
LINE
  8
0
 62
     0
  5
2355
 10
-3.192558
 20
0.0
 30
57.466042
 11
0.0
 21
0.0
 31
63.851158
  0
LINE
  8
0
 62
     0
  5
2356
 10
0.0
 20
-3.192558
 30
57.466042
 11
0.0
 21
0.0
 31
63.851158
  0
CIRCLE
  8
0
 62
     0
  5
2357
 10
0.0
 20
0.0
 30
51.080927
 40
3.192558
  0
LINE
  8
0
 62
     0
  5
2358
 10
3.192558
 20
0.0
 30
51.080927
 11
0.0
 21
0.0
 31
57.466042
  0
LINE
  8
0
 62
     0
  5
2359
 10
0.0
 20
3.192558
 30
51.080927
 11
0.0
 21
0.0
 31
57.466042
  0
LINE
  8
0
 62
     0
  5
235A
 10
-3.192558
 20
0.0
 30
51.080927
 11
0.0
 21
0.0
 31
57.466042
  0
LINE
  8
0
 62
     0
  5
235B
 10
0.0
 20
-3.192558
 30
51.080927
 11
0.0
 21
0.0
 31
57.466042
  0
CIRCLE
  8
0
 62
     0
  5
235C
 10
0.0
 20
0.0
 30
44.695811
 40
3.192558
  0
LINE
  8
0
 62
     0
  5
235D
 10
3.192558
 20
0.0
 30
44.695811
 11
0.0
 21
0.0
 31
51.080927
  0
LINE
  8
0
 62
     0
  5
235E
 10
0.0
 20
3.192558
 30
44.695811
 11
0.0
 21
0.0
 31
51.080927
  0
LINE
  8
0
 62
     0
  5
235F
 10
-3.192558
 20
0.0
 30
44.695811
 11
0.0
 21
0.0
 31
51.080927
  0
LINE
  8
0
 62
     0
  5
2360
 10
0.0
 20
-3.192558
 30
44.695811
 11
0.0
 21
0.0
 31
51.080927
  0
ENDBLK
  8
0
  5
2361
  0
BLOCK
  8
0
  5
2460
  2
AME_MAT
 70
     0
 10
0.0
 20
0.0
 30
0.0
  1
AME_MAT
  3
AME_MAT
  0
ENDBLK
  8
0
  5
2461
  0
BLOCK
  8
0
  5
2465
  2
EKI6404C
 70
    64
 10
0.0
 20
0.0
 30
0.0
  3
EKI6404C
  0
LINE
  8
61
  5
5119
 10
45.969364
 20
166.030636
 30
0.0
 11
45.969364
 21
363.030636
 31
0.0
  0
ARC
  8
61
  5
511B
 10
63.969364
 20
182.030636
 30
0.0
 40
16.2
 50
113.146795
 51
330.407558
  0
CIRCLE
  8
61
  5
511C
 10
63.969364
 20
182.030636
 30
0.0
 40
13.0
  0
LINE
  8
61
  5
511E
 10
47.969364
 20
164.030636
 30
0.0
 11
344.969364
 21
164.030636
 31
0.0
  0
LINE
  8
61
  5
511F
 10
77.65293
 20
172.030636
 30
0.0
 11
344.969364
 21
172.030636
 31
0.0
  0
LINE
  8
61
  5
5121
 10
58.090684
 20
190.030636
 30
0.0
 11
56.730927
 21
191.390393
 31
0.0
  0
LINE
  8
61
  5
5122
 10
55.969364
 20
187.909316
 30
0.0
 11
58.090684
 21
190.030636
 31
0.0
  0
ARC
  8
61
  5
5123
 10
57.969364
 20
176.030636
 30
0.0
 40
2.0
 50
180.0
 51
270.0
  0
ARC
  8
61
  5
5124
 10
47.969364
 20
166.030636
 30
0.0
 40
2.0
 50
180.0
 51
270.0
  0
LINE
  8
61
  5
5125
 10
55.969364
 20
187.909316
 30
0.0
 11
55.969364
 21
176.030636
 31
0.0
  0
ARC
  8
61
  5
5126
 10
53.9025
 20
188.561966
 30
0.0
 40
1.0
 50
45.0
 51
147.024699
  0
LINE
  8
61
  5
5127
 10
55.969364
 20
187.909316
 30
0.0
 11
54.609607
 21
189.269073
 31
0.0
  0
ARC
  8
61
  5
5128
 10
57.438034
 20
192.0975
 30
0.0
 40
1.0
 50
122.975301
 51
225.0
  0
ARC
  8
61
  5
5129
 10
63.969364
 20
182.030636
 30
0.0
 40
8.0
 50
0.0
 51
90.0
  0
LINE
  8
61
  5
512A
 10
71.969364
 20
176.030636
 30
0.0
 11
71.969364
 21
182.030636
 31
0.0
  0
CIRCLE
  8
61
  5
512B
 10
63.969364
 20
182.030636
 30
0.0
 40
6.0
  0
CIRCLE
  8
61
  5
512C
 10
63.969364
 20
182.030636
 30
0.0
 40
4.25
  0
LINE
  8
61
  5
512D
 10
57.969364
 20
174.030636
 30
0.0
 11
69.969364
 21
174.030636
 31
0.0
  0
ARC
  8
61
  5
512E
 10
69.969364
 20
176.030636
 30
0.0
 40
2.0
 50
270.0
 51
0.0
  0
LINE
  8
61
  5
512F
 10
58.090684
 20
190.030636
 30
0.0
 11
63.969364
 21
190.030636
 31
0.0
  0
ARC
  8
61
  5
5131
 10
77.65293
 20
170.030636
 30
0.0
 40
2.0
 50
90.0
 51
138.750393
  0
LINE
  8
61
  5
5133
 10
53.969364
 20
195.714203
 30
0.0
 11
53.969364
 21
363.030636
 31
0.0
  0
ARC
  8
61
  5
5134
 10
51.969364
 20
195.714203
 30
0.0
 40
2.0
 50
311.249607
 51
0.0
  0
LINE
  8
61
  5
513A
 10
357.969364
 20
174.030636
 30
0.0
 11
369.969364
 21
174.030636
 31
0.0
  0
CIRCLE
  8
61
  5
513B
 10
363.969364
 20
182.030636
 30
0.0
 40
6.0
  0
ARC
  8
61
  5
513C
 10
363.969364
 20
182.030636
 30
0.0
 40
8.0
 50
0.0
 51
180.0
  0
CIRCLE
  8
61
  5
513D
 10
363.969364
 20
182.030636
 30
0.0
 40
4.25
  0
LINE
  8
61
  5
513E
 10
355.969364
 20
182.030636
 30
0.0
 11
355.969364
 21
176.030636
 31
0.0
  0
ARC
  8
61
  5
513F
 10
357.969364
 20
176.030636
 30
0.0
 40
2.0
 50
180.0
 51
270.0
  0
LINE
  8
61
  5
5141
 10
355.969364
 20
187.909316
 30
0.0
 11
358.090684
 21
190.030636
 31
0.0
  0
LINE
  8
61
  5
5142
 10
358.090684
 20
190.030636
 30
0.0
 11
356.730927
 21
191.390393
 31
0.0
  0
LINE
  8
61
  5
5143
 10
371.969364
 20
176.030636
 30
0.0
 11
371.969364
 21
182.030636
 31
0.0
  0
ARC
  8
61
  5
5144
 10
369.969364
 20
176.030636
 30
0.0
 40
2.0
 50
270.0
 51
0.0
  0
CIRCLE
  8
61
  5
5145
 10
363.969364
 20
182.030636
 30
0.0
 40
13.0
  0
LINE
  8
61
  5
5147
 10
355.969364
 20
187.909316
 30
0.0
 11
354.609607
 21
189.269073
 31
0.0
  0
ARC
  8
61
  5
5148
 10
357.438034
 20
192.0975
 30
0.0
 40
1.0
 50
122.975301
 51
225.0
  0
ARC
  8
61
  5
5149
 10
353.9025
 20
188.561966
 30
0.0
 40
1.0
 50
45.0
 51
147.024699
  0
ARC
  8
61
  5
514B
 10
363.969364
 20
182.030636
 30
0.0
 40
16.2
 50
208.858832
 51
330.407558
  0
LINE
  8
61
  5
514E
 10
53.969364
 20
530.34707
 30
0.0
 11
53.969364
 21
363.030636
 31
0.0
  0
LINE
  8
61
  5
514F
 10
45.969364
 20
560.030636
 30
0.0
 11
45.969364
 21
363.030636
 31
0.0
  0
LINE
  8
63
  6
DASHDOT
  5
5151
 10
344.969364
 20
570.471074
 30
0.0
 11
344.969364
 21
152.00454
 31
0.0
  0
LINE
  8
61
  5
5152
 10
77.65293
 20
554.030636
 30
0.0
 11
313.224168
 21
554.030636
 31
0.0
  0
LINE
  8
61
  5
5153
 10
47.969364
 20
562.030636
 30
0.0
 11
344.969364
 21
562.030636
 31
0.0
  0
ARC
  8
61
  5
5155
 10
51.969364
 20
530.34707
 30
0.0
 40
2.0
 50
0.0
 51
48.750393
  0
CIRCLE
  8
61
  5
5156
 10
63.969364
 20
544.030636
 30
0.0
 40
13.0
  0
ARC
  8
61
  5
5157
 10
63.969364
 20
544.030636
 30
0.0
 40
16.2
 50
29.592442
 51
246.853205
  0
ARC
  8
61
  5
5158
 10
63.969364
 20
544.030636
 30
0.0
 40
8.0
 50
270.0
 51
0.0
  0
CIRCLE
  8
61
  5
5159
 10
63.969364
 20
544.030636
 30
0.0
 40
6.0
  0
LINE
  8
61
  5
515A
 10
57.969364
 20
552.030636
 30
0.0
 11
69.848043
 21
552.030636
 31
0.0
  0
ARC
  8
61
  5
515B
 10
47.969364
 20
560.030636
 30
0.0
 40
2.0
 50
90.0
 51
180.0
  0
LINE
  8
61
  5
515C
 10
55.969364
 20
538.030636
 30
0.0
 11
55.969364
 21
550.030636
 31
0.0
  0
CIRCLE
  8
61
  5
515D
 10
63.969364
 20
544.030636
 30
0.0
 40
4.25
  0
ARC
  8
61
  5
515E
 10
57.969364
 20
550.030636
 30
0.0
 40
2.0
 50
90.0
 51
180.0
  0
LINE
  8
61
  5
515F
 10
57.969364
 20
536.030636
 30
0.0
 11
63.969364
 21
536.030636
 31
0.0
  0
LINE
  8
61
  5
5160
 10
71.969364
 20
549.909316
 30
0.0
 11
73.32912
 21
551.269073
 31
0.0
  0
LINE
  8
61
  5
5161
 10
69.848043
 20
552.030636
 30
0.0
 11
71.969364
 21
549.909316
 31
0.0
  0
ARC
  8
61
  5
5162
 10
70.500693
 20
554.0975
 30
0.0
 40
1.0
 50
315.0
 51
57.024699
  0
LINE
  8
61
  5
5163
 10
69.848043
 20
552.030636
 30
0.0
 11
71.2078
 21
553.390393
 31
0.0
  0
ARC
  8
61
  5
5164
 10
74.036227
 20
550.561966
 30
0.0
 40
1.0
 50
32.975301
 51
135.0
  0
ARC
  8
61
  5
5165
 10
77.65293
 20
556.030636
 30
0.0
 40
2.0
 50
221.249607
 51
270.0
  0
LINE
  8
61
  5
5167
 10
71.969364
 20
549.909316
 30
0.0
 11
71.969364
 21
544.030636
 31
0.0
  0
LINE
  8
61
  5
5168
 10
635.969364
 20
195.714203
 30
0.0
 11
635.969364
 21
363.030636
 31
0.0
  0
LINE
  8
61
  5
5169
 10
643.969364
 20
166.030636
 30
0.0
 11
643.969364
 21
363.030636
 31
0.0
  0
LINE
  8
61
  5
516B
 10
612.285797
 20
172.030636
 30
0.0
 11
376.714559
 21
172.030636
 31
0.0
  0
LINE
  8
61
  5
516C
 10
641.969364
 20
164.030636
 30
0.0
 11
344.969364
 21
164.030636
 31
0.0
  0
ARC
  8
61
  5
516E
 10
637.969364
 20
195.714203
 30
0.0
 40
2.0
 50
180.0
 51
228.750393
  0
CIRCLE
  8
61
  5
516F
 10
625.969364
 20
182.030636
 30
0.0
 40
13.0
  0
ARC
  8
61
  5
5170
 10
625.969364
 20
182.030636
 30
0.0
 40
16.2
 50
209.592442
 51
66.853205
  0
ARC
  8
61
  5
5171
 10
625.969364
 20
182.030636
 30
0.0
 40
8.0
 50
90.0
 51
180.0
  0
CIRCLE
  8
61
  5
5172
 10
625.969364
 20
182.030636
 30
0.0
 40
6.0
  0
LINE
  8
61
  5
5173
 10
631.969364
 20
174.030636
 30
0.0
 11
620.090684
 21
174.030636
 31
0.0
  0
ARC
  8
61
  5
5174
 10
641.969364
 20
166.030636
 30
0.0
 40
2.0
 50
270.0
 51
0.0
  0
LINE
  8
61
  5
5175
 10
633.969364
 20
188.030636
 30
0.0
 11
633.969364
 21
176.030636
 31
0.0
  0
CIRCLE
  8
61
  5
5176
 10
625.969364
 20
182.030636
 30
0.0
 40
4.25
  0
ARC
  8
61
  5
5177
 10
631.969364
 20
176.030636
 30
0.0
 40
2.0
 50
270.0
 51
0.0
  0
LINE
  8
61
  5
5178
 10
631.969364
 20
190.030636
 30
0.0
 11
625.969364
 21
190.030636
 31
0.0
  0
LINE
  8
61
  5
5179
 10
617.969364
 20
176.151957
 30
0.0
 11
616.609607
 21
174.7922
 31
0.0
  0
LINE
  8
61
  5
517A
 10
620.090684
 20
174.030636
 30
0.0
 11
617.969364
 21
176.151957
 31
0.0
  0
ARC
  8
61
  5
517B
 10
619.438034
 20
171.963773
 30
0.0
 40
1.0
 50
135.0
 51
237.024699
  0
LINE
  8
61
  5
517C
 10
620.090684
 20
174.030636
 30
0.0
 11
618.730927
 21
172.67088
 31
0.0
  0
ARC
  8
61
  5
517D
 10
615.9025
 20
175.499307
 30
0.0
 40
1.0
 50
212.975301
 51
315.0
  0
ARC
  8
61
  5
517E
 10
612.285797
 20
170.030636
 30
0.0
 40
2.0
 50
41.249607
 51
90.0
  0
LINE
  8
61
  5
5180
 10
617.969364
 20
176.151957
 30
0.0
 11
617.969364
 21
182.030636
 31
0.0
  0
LINE
  8
61
  5
5182
 10
641.969364
 20
562.030636
 30
0.0
 11
344.969364
 21
562.030636
 31
0.0
  0
LINE
  8
61
  5
5183
 10
612.285797
 20
554.030636
 30
0.0
 11
344.969364
 21
554.030636
 31
0.0
  0
LINE
  8
61
  5
5186
 10
643.969364
 20
560.030636
 30
0.0
 11
643.969364
 21
363.030636
 31
0.0
  0
LINE
  8
61
  5
5187
 10
635.969364
 20
530.34707
 30
0.0
 11
635.969364
 21
363.030636
 31
0.0
  0
LINE
  8
61
  5
5188
 10
631.969364
 20
552.030636
 30
0.0
 11
619.969364
 21
552.030636
 31
0.0
  0
CIRCLE
  8
61
  5
5189
 10
625.969364
 20
544.030636
 30
0.0
 40
6.0
  0
ARC
  8
61
  5
518A
 10
625.969364
 20
544.030636
 30
0.0
 40
8.0
 50
180.0
 51
270.0
  0
ARC
  8
61
  5
518B
 10
625.969364
 20
544.030636
 30
0.0
 40
16.2
 50
293.146795
 51
150.407558
  0
CIRCLE
  8
61
  5
518C
 10
625.969364
 20
544.030636
 30
0.0
 40
13.0
  0
ARC
  8
61
  5
518D
 10
631.969364
 20
550.030636
 30
0.0
 40
2.0
 50
0.0
 51
90.0
  0
LINE
  8
61
  5
518E
 10
633.969364
 20
538.151957
 30
0.0
 11
633.969364
 21
550.030636
 31
0.0
  0
LINE
  8
61
  5
518F
 10
631.848043
 20
536.030636
 30
0.0
 11
625.969364
 21
536.030636
 31
0.0
  0
ARC
  8
61
  5
5190
 10
632.500693
 20
533.963773
 30
0.0
 40
1.0
 50
302.975301
 51
45.0
  0
LINE
  8
61
  5
5191
 10
633.969364
 20
538.151957
 30
0.0
 11
635.32912
 21
536.7922
 31
0.0
  0
ARC
  8
61
  5
5192
 10
636.036227
 20
537.499307
 30
0.0
 40
1.0
 50
225.0
 51
327.024699
  0
LINE
  8
61
  5
5193
 10
633.969364
 20
538.151957
 30
0.0
 11
631.848043
 21
536.030636
 31
0.0
  0
LINE
  8
61
  5
5194
 10
631.848043
 20
536.030636
 30
0.0
 11
633.2078
 21
534.67088
 31
0.0
  0
ARC
  8
61
  5
5195
 10
637.969364
 20
530.34707
 30
0.0
 40
2.0
 50
131.249607
 51
180.0
  0
CIRCLE
  8
61
  5
5196
 10
625.969364
 20
544.030636
 30
0.0
 40
4.25
  0
ARC
  8
61
  5
5197
 10
641.969364
 20
560.030636
 30
0.0
 40
2.0
 50
0.0
 51
90.0
  0
ARC
  8
61
  5
5198
 10
619.969364
 20
550.030636
 30
0.0
 40
2.0
 50
90.0
 51
180.0
  0
LINE
  8
61
  5
5199
 10
617.969364
 20
550.030636
 30
0.0
 11
617.969364
 21
544.030636
 31
0.0
  0
ARC
  8
61
  5
519A
 10
612.285797
 20
556.030636
 30
0.0
 40
2.0
 50
270.0
 51
318.750393
  0
LINE
  8
61
  5
519B
 10
351.224168
 20
172.030636
 30
0.0
 11
344.969364
 21
172.030636
 31
0.0
  0
LINE
  8
61
  5
519C
 10
331.969364
 20
552.030636
 30
0.0
 11
319.969364
 21
552.030636
 31
0.0
  0
CIRCLE
  8
61
  5
519D
 10
325.969364
 20
544.030636
 30
0.0
 40
6.0
  0
CIRCLE
  8
61
  5
519E
 10
325.969364
 20
544.030636
 30
0.0
 40
4.25
  0
CIRCLE
  8
61
  5
519F
 10
325.969364
 20
544.030636
 30
0.0
 40
13.0
  0
ARC
  8
61
  5
51A0
 10
325.969364
 20
544.030636
 30
0.0
 40
8.0
 50
180.0
 51
0.0
  0
ARC
  8
61
  5
51A1
 10
325.969364
 20
544.030636
 30
0.0
 40
16.2
 50
28.858832
 51
150.407558
  0
ARC
  8
61
  5
51A2
 10
331.969364
 20
550.030636
 30
0.0
 40
2.0
 50
0.0
 51
90.0
  0
LINE
  8
61
  5
51A3
 10
333.969364
 20
544.030636
 30
0.0
 11
333.969364
 21
550.030636
 31
0.0
  0
LINE
  8
61
  5
51A4
 10
333.969364
 20
538.151957
 30
0.0
 11
335.32912
 21
536.7922
 31
0.0
  0
ARC
  8
61
  5
51A5
 10
336.036227
 20
537.499307
 30
0.0
 40
1.0
 50
225.0
 51
327.024699
  0
LINE
  8
61
  5
51A6
 10
333.969364
 20
538.151957
 30
0.0
 11
331.848043
 21
536.030636
 31
0.0
  0
LINE
  8
61
  5
51A7
 10
331.848043
 20
536.030636
 30
0.0
 11
333.2078
 21
534.67088
 31
0.0
  0
ARC
  8
61
  5
51A8
 10
332.500693
 20
533.963773
 30
0.0
 40
1.0
 50
302.975301
 51
45.0
  0
ARC
  8
61
  5
51A9
 10
319.969364
 20
550.030636
 30
0.0
 40
2.0
 50
90.0
 51
180.0
  0
LINE
  8
61
  5
51AA
 10
317.969364
 20
550.030636
 30
0.0
 11
317.969364
 21
544.030636
 31
0.0
  0
LINE
  8
61
  5
51AB
 10
338.714559
 20
554.030636
 30
0.0
 11
344.969364
 21
554.030636
 31
0.0
  0
LINE
  8
63
  6
DASHDOT
  5
C32F
 10
655.374714
 20
363.030636
 30
0.0
 11
34.107733
 21
363.030636
 31
0.0
  0
LINE
  8
51
  5
E066
 10
-484.848219
 20
174.030636
 30
0.0
 11
-477.048219
 21
174.030636
 31
0.0
  0
ARC
  8
51
  5
E069
 10
-496.048219
 20
182.030636
 30
0.0
 40
15.7
 50
329.365864
 51
90.0
  0
LINE
  8
51
  5
E076
 10
-485.848219
 20
182.030636
 30
0.0
 11
-485.848219
 21
175.030636
 31
0.0
  0
CIRCLE
  8
51
  5
E077
 10
-496.048219
 20
182.030636
 30
0.0
 40
6.5
  0
ARC
  8
51
  5
E07D
 10
-484.848219
 20
175.030636
 30
0.0
 40
1.0
 50
180.0
 51
270.0
  0
ARC
  8
51
  5
E07E
 10
-496.048219
 20
182.030636
 30
0.0
 40
10.2
 50
0.0
 51
90.0
  0
CIRCLE
  8
51
  5
E07F
 10
-496.048219
 20
182.030636
 30
0.0
 40
4.25
  0
LINE
  8
51
  5
E080
 10
-497.674623
 20
185.957124
 30
0.0
 11
-498.535661
 21
188.035853
 31
0.0
  0
LINE
  8
51
  5
E083
 10
-499.974707
 20
180.404232
 30
0.0
 11
-502.053436
 21
179.543194
 31
0.0
  0
LINE
  8
51
  5
E084
 10
-497.674623
 20
178.104148
 30
0.0
 11
-498.535661
 21
176.025419
 31
0.0
  0
LINE
  8
51
  5
E085
 10
-499.974707
 20
183.657041
 30
0.0
 11
-502.053436
 21
184.518079
 31
0.0
  0
LINE
  8
51
  5
E088
 10
-494.421814
 20
185.957124
 30
0.0
 11
-493.560777
 21
188.035853
 31
0.0
  0
LINE
  8
51
  5
E089
 10
-492.121731
 20
180.404232
 30
0.0
 11
-490.043002
 21
179.543194
 31
0.0
  0
LINE
  8
51
  5
E08A
 10
-494.421814
 20
178.104148
 30
0.0
 11
-493.560777
 21
176.025419
 31
0.0
  0
LINE
  8
51
  5
E08B
 10
-492.121731
 20
183.657041
 30
0.0
 11
-490.043002
 21
184.518079
 31
0.0
  0
LINE
  8
51
  5
E091
 10
-501.048219
 20
172.030636
 30
0.0
 11
-501.048219
 21
174.030636
 31
0.0
  0
LINE
  8
51
  5
E093
 10
-506.248219
 20
182.030636
 30
0.0
 11
-506.248219
 21
175.030636
 31
0.0
  0
ARC
  8
51
  5
E094
 10
-496.048219
 20
182.030636
 30
0.0
 40
15.7
 50
90.0
 51
210.634136
  0
ARC
  8
51
  5
E095
 10
-507.248219
 20
175.030636
 30
0.0
 40
1.0
 50
270.0
 51
0.0
  0
ARC
  8
51
  5
E096
 10
-496.048219
 20
182.030636
 30
0.0
 40
10.2
 50
90.0
 51
180.0
  0
LINE
  8
51
  5
E098
 10
-454.048219
 20
172.030636
 30
0.0
 11
-454.048219
 21
174.030636
 31
0.0
  0
LINE
  8
51
  5
E099
 10
-484.548219
 20
174.030636
 30
0.0
 11
-484.548219
 21
172.030636
 31
0.0
  0
ARC
  8
61
  5
F1E2
 10
57.969364
 20
538.030636
 30
0.0
 40
2.0
 50
180.0
 51
270.0
  0
ARC
  8
61
  5
F1E3
 10
631.969364
 20
188.030636
 30
0.0
 40
2.0
 50
0.0
 51
90.0
  0
LINE
  8
34
  5
12F77
 10
717.190028
 20
197.713486
 30
0.0
 11
692.437671
 21
197.281432
 31
0.0
  0
LINE
  8
34
  5
12F7D
 10
690.472576
 20
195.281737
 30
0.0
 11
690.472576
 21
192.230636
 31
0.0
  0
LINE
  8
34
  5
12F7F
 10
683.972576
 20
189.730636
 30
0.0
 11
683.972576
 21
188.530636
 31
0.0
  0
LINE
  8
34
  5
12F8E
 10
683.972576
 20
188.530636
 30
0.0
 11
679.972576
 21
188.530636
 31
0.0
  0
ARC
  8
34
  5
12F97
 10
692.472576
 20
195.281737
 30
0.0
 40
2.0
 50
91.0
 51
180.0
  0
LINE
  8
34
  5
12F98
 10
690.472576
 20
192.230636
 30
0.0
 11
686.472576
 21
192.230636
 31
0.0
  0
ARC
  8
34
  5
12F99
 10
686.472576
 20
189.730636
 30
0.0
 40
2.5
 50
90.0
 51
180.0
  0
LINE
  8
34
  5
12F9B
 10
718.172576
 20
198.713334
 30
0.0
 11
718.172576
 21
363.030636
 31
0.0
  0
ARC
  8
34
  5
12FA1
 10
717.172576
 20
198.713334
 30
0.0
 40
1.0
 50
271.0
 51
0.0
  0
LINE
  8
31
  5
12FA4
 10
721.972576
 20
550.267176
 30
0.0
 11
721.972576
 21
363.030636
 31
0.0
  0
LINE
  8
31
  5
12FA6
 10
679.972576
 20
538.530636
 30
0.0
 11
679.972576
 21
363.030636
 31
0.0
  0
ARC
  8
31
  5
12FA8
 10
690.622429
 20
559.762279
 30
0.0
 40
2.0
 50
15.0
 51
88.0
  0
LINE
  8
31
  5
12FA9
 10
682.972576
 20
562.030636
 30
0.0
 11
682.972576
 21
560.030636
 31
0.0
  0
LINE
  8
31
  5
12FAA
 10
682.972576
 20
562.030636
 30
0.0
 11
690.692228
 21
561.76106
 31
0.0
  0
LINE
  8
31
  5
12FAE
 10
721.972576
 20
559.530636
 30
0.0
 11
692.617755
 21
560.043027
 31
0.0
  0
ARC
  8
31
  5
12FB0
 10
679.823009
 20
540.253257
 30
0.0
 40
2.74508
 50
321.131872
 51
344.841374
  0
LINE
  8
31
  5
12FB2
 10
679.972576
 20
537.530636
 30
0.0
 11
679.472576
 21
537.530636
 31
0.0
  0
ARC
  8
31
  5
12FB3
 10
675.546786
 20
549.039738
 30
0.0
 40
6.943763
 50
304.427934
 51
327.884432
  0
ARC
  8
31
  5
12FB5
 10
677.321381
 20
541.955337
 30
0.0
 40
5.326917
 50
14.757543
 51
42.157904
  0
ARC
  8
31
  5
12FB6
 10
679.823009
 20
542.503257
 30
0.0
 40
2.74508
 50
262.665679
 51
344.841374
  0
LINE
  8
31
  5
12FB7
 10
679.972576
 20
554.030636
 30
0.0
 11
682.972576
 21
554.135399
 31
0.0
  0
LINE
  8
31
  5
12FB8
 10
679.472576
 20
550.206081
 30
0.0
 11
679.472576
 21
546.82857
 31
0.0
  0
LINE
  8
31
  5
12FB9
 10
679.472576
 20
550.206081
 30
0.0
 11
679.972576
 21
550.530636
 31
0.0
  0
LINE
  8
31
  5
12FBA
 10
679.972576
 20
552.030636
 30
0.0
 11
679.972576
 21
545.530636
 31
0.0
  0
LINE
  8
31
  5
12FBB
 10
679.972576
 20
554.030636
 30
0.0
 11
679.972576
 21
552.030636
 31
0.0
  0
LINE
  8
31
  5
12FBD
 10
679.472576
 20
537.530636
 30
0.0
 11
679.472576
 21
543.312259
 31
0.0
  0
LINE
  8
31
  5
12FBF
 10
682.972576
 20
560.030636
 30
0.0
 11
682.972576
 21
363.030636
 31
0.0
  0
LINE
  8
31
  5
12FC2
 10
692.617755
 20
560.043027
 30
0.0
 11
692.554281
 21
560.279917
 31
0.0
  0
LINE
  8
31
  5
12FC5
 10
682.472576
 20
539.535439
 30
0.0
 11
682.472576
 21
543.312259
 31
0.0
  0
LINE
  8
31
  5
12FCB
 10
721.972576
 20
559.530636
 30
0.0
 11
721.972576
 21
549.519918
 31
0.0
  0
LINE
  8
31
  5
12FCD
 10
682.972576
 20
538.530636
 30
0.0
 11
679.972576
 21
538.530636
 31
0.0
  0
LINE
  8
31
  5
12FCE
 10
682.972576
 20
545.530636
 30
0.0
 11
679.972576
 21
545.530636
 31
0.0
  0
ARC
  8
31
  5
12FCF
 10
677.321381
 20
541.955337
 30
0.0
 40
5.326917
 50
60.152197
 51
66.181866
  0
LINE
  8
53
  6
DASHDOT
  5
1313B
 10
-782.048219
 20
363.030636
 30
0.0
 11
-477.048219
 21
363.030636
 31
0.0
  0
LINE
  8
51
  5
1313D
 10
-752.548219
 20
174.030636
 30
0.0
 11
-501.048219
 21
174.030636
 31
0.0
  0
LINE
  8
52
  5
1313E
 10
-773.548219
 20
166.030636
 30
0.0
 11
-477.048219
 21
166.030636
 31
0.0
  0
LINE
  8
52
  5
1313F
 10
-765.548219
 20
172.030636
 30
0.0
 11
-477.048219
 21
172.030636
 31
0.0
  0
LINE
  8
51
  5
13140
 10
-773.548219
 20
164.030636
 30
0.0
 11
-477.048219
 21
164.030636
 31
0.0
  0
LINE
  8
52
  5
13145
 10
-774.048219
 20
166.530636
 30
0.0
 11
-774.048219
 21
363.030636
 31
0.0
  0
LINE
  8
51
  5
13146
 10
-766.048219
 20
363.030636
 30
0.0
 11
-766.048219
 21
187.530636
 31
0.0
  0
LINE
  8
52
  5
13147
 10
-768.048219
 20
363.030636
 30
0.0
 11
-768.048219
 21
174.530636
 31
0.0
  0
ARC
  8
51
  5
13148
 10
-758.048219
 20
182.030636
 30
0.0
 40
15.7
 50
329.365864
 51
120.634136
  0
LINE
  8
51
  5
13149
 10
-776.048219
 20
166.530636
 30
0.0
 11
-776.048219
 21
363.030636
 31
0.0
  0
LINE
  8
51
  5
1314C
 10
-761.974707
 20
183.657041
 30
0.0
 11
-764.053436
 21
184.518079
 31
0.0
  0
LINE
  8
51
  5
1314D
 10
-761.974707
 20
180.404232
 30
0.0
 11
-764.053436
 21
179.543194
 31
0.0
  0
LINE
  8
51
  5
1314E
 10
-758.048219
 20
192.230636
 30
0.0
 11
-765.048219
 21
192.230636
 31
0.0
  0
LINE
  8
51
  5
1314F
 10
-765.548219
 20
174.030636
 30
0.0
 11
-759.548219
 21
174.030636
 31
0.0
  0
CIRCLE
  8
51
  5
13150
 10
-758.048219
 20
182.030636
 30
0.0
 40
6.5
  0
LINE
  8
51
  5
13151
 10
-766.048219
 20
180.530636
 30
0.0
 11
-766.048219
 21
174.530636
 31
0.0
  0
ARC
  8
51
  5
13152
 10
-773.548219
 20
166.530636
 30
0.0
 40
2.5
 50
180.0
 51
270.0
  0
ARC
  8
52
  5
13153
 10
-773.548219
 20
166.530636
 30
0.0
 40
0.5
 50
180.0
 51
270.0
  0
ARC
  8
52
  5
13154
 10
-765.548219
 20
174.530636
 30
0.0
 40
2.5
 50
180.0
 51
270.0
  0
ARC
  8
51
  5
13155
 10
-765.548219
 20
174.530636
 30
0.0
 40
0.5
 50
180.0
 51
270.0
  0
LINE
  8
51
  5
13156
 10
-768.048219
 20
180.530636
 30
0.0
 11
-766.048219
 21
180.530636
 31
0.0
  0
LINE
  8
51
  5
13157
 10
-768.048219
 20
187.530636
 30
0.0
 11
-766.048219
 21
187.530636
 31
0.0
  0
ARC
  8
51
  5
13158
 10
-765.048219
 20
193.230636
 30
0.0
 40
1.0
 50
180.0
 51
270.0
  0
LINE
  8
51
  5
13159
 10
-747.848219
 20
182.030636
 30
0.0
 11
-747.848219
 21
175.030636
 31
0.0
  0
LINE
  8
51
  5
1315A
 10
-759.548219
 20
172.030636
 30
0.0
 11
-759.548219
 21
174.030636
 31
0.0
  0
LINE
  8
51
  5
1315B
 10
-752.548219
 20
172.030636
 30
0.0
 11
-752.548219
 21
174.030636
 31
0.0
  0
ARC
  8
51
  5
1315C
 10
-746.848219
 20
175.030636
 30
0.0
 40
1.0
 50
180.0
 51
270.0
  0
ARC
  8
51
  5
1315D
 10
-758.048219
 20
182.030636
 30
0.0
 40
10.2
 50
0.0
 51
90.0
  0
LINE
  8
51
  5
1315E
 10
-759.674623
 20
185.957124
 30
0.0
 11
-760.535661
 21
188.035853
 31
0.0
  0
LINE
  8
51
  5
1315F
 10
-756.421814
 20
185.957124
 30
0.0
 11
-755.560777
 21
188.035853
 31
0.0
  0
CIRCLE
  8
51
  5
13160
 10
-758.048219
 20
182.030636
 30
0.0
 40
4.25
  0
LINE
  8
51
  5
13161
 10
-759.674623
 20
178.104148
 30
0.0
 11
-760.535661
 21
176.025419
 31
0.0
  0
LINE
  8
51
  5
13162
 10
-756.421814
 20
178.104148
 30
0.0
 11
-755.560777
 21
176.025419
 31
0.0
  0
LINE
  8
51
  5
13163
 10
-754.121731
 20
180.404232
 30
0.0
 11
-752.043002
 21
179.543194
 31
0.0
  0
LINE
  8
51
  5
13164
 10
-754.121731
 20
183.657041
 30
0.0
 11
-752.043002
 21
184.518079
 31
0.0
  0
LINE
  8
53
  6
DASHDOT
  5
13165
 10
-477.048219
 20
363.030636
 30
0.0
 11
-477.048219
 21
155.497539
 31
0.0
  0
LINE
  8
53
  6
DASHDOT
  5
13166
 10
-477.048219
 20
363.030636
 30
0.0
 11
-477.048219
 21
567.030636
 31
0.0
  0
LINE
  8
51
  5
13168
 10
-776.048219
 20
559.530636
 30
0.0
 11
-776.048219
 21
363.030636
 31
0.0
  0
LINE
  8
52
  5
13169
 10
-768.048219
 20
363.030636
 30
0.0
 11
-768.048219
 21
551.530636
 31
0.0
  0
LINE
  8
51
  5
1316A
 10
-766.048219
 20
363.030636
 30
0.0
 11
-766.048219
 21
538.530636
 31
0.0
  0
LINE
  8
52
  5
1316B
 10
-774.048219
 20
559.530636
 30
0.0
 11
-774.048219
 21
363.030636
 31
0.0
  0
LINE
  8
51
  5
1316E
 10
-752.548219
 20
552.030636
 30
0.0
 11
-477.048219
 21
552.030636
 31
0.0
  0
LINE
  8
52
  5
1316F
 10
-773.548219
 20
560.030636
 30
0.0
 11
-477.048219
 21
560.030636
 31
0.0
  0
LINE
  8
52
  5
13170
 10
-765.548219
 20
554.030636
 30
0.0
 11
-477.048219
 21
554.030636
 31
0.0
  0
LINE
  8
51
  5
13171
 10
-773.548219
 20
562.030636
 30
0.0
 11
-477.048219
 21
562.030636
 31
0.0
  0
ARC
  8
51
  5
13173
 10
-773.548219
 20
559.530636
 30
0.0
 40
2.5
 50
90.0
 51
180.0
  0
LINE
  8
51
  5
13175
 10
-758.048219
 20
533.830636
 30
0.0
 11
-765.048219
 21
533.830636
 31
0.0
  0
LINE
  8
51
  5
13176
 10
-761.974707
 20
542.404232
 30
0.0
 11
-764.053436
 21
541.543194
 31
0.0
  0
LINE
  8
51
  5
13177
 10
-761.974707
 20
545.657041
 30
0.0
 11
-764.053436
 21
546.518079
 31
0.0
  0
LINE
  8
51
  5
13178
 10
-765.548219
 20
552.030636
 30
0.0
 11
-759.548219
 21
552.030636
 31
0.0
  0
ARC
  8
51
  5
1317A
 10
-758.048219
 20
544.030636
 30
0.0
 40
15.7
 50
239.365864
 51
30.634136
  0
CIRCLE
  8
51
  5
1317C
 10
-758.048219
 20
544.030636
 30
0.0
 40
6.5
  0
LINE
  8
51
  5
1317D
 10
-766.048219
 20
545.530636
 30
0.0
 11
-766.048219
 21
551.530636
 31
0.0
  0
ARC
  8
52
  5
1317E
 10
-773.548219
 20
559.530636
 30
0.0
 40
0.5
 50
90.0
 51
180.0
  0
ARC
  8
51
  5
1317F
 10
-765.548219
 20
551.530636
 30
0.0
 40
0.5
 50
90.0
 51
180.0
  0
ARC
  8
52
  5
13180
 10
-765.548219
 20
551.530636
 30
0.0
 40
2.5
 50
90.0
 51
180.0
  0
LINE
  8
51
  5
13181
 10
-768.048219
 20
538.530636
 30
0.0
 11
-766.048219
 21
538.530636
 31
0.0
  0
LINE
  8
51
  5
13182
 10
-768.048219
 20
545.530636
 30
0.0
 11
-766.048219
 21
545.530636
 31
0.0
  0
ARC
  8
51
  5
13183
 10
-765.048219
 20
532.830636
 30
0.0
 40
1.0
 50
90.0
 51
180.0
  0
ARC
  8
51
  5
13184
 10
-758.048219
 20
544.030636
 30
0.0
 40
10.2
 50
270.0
 51
0.0
  0
LINE
  8
51
  5
13185
 10
-747.848219
 20
544.030636
 30
0.0
 11
-747.848219
 21
551.030636
 31
0.0
  0
LINE
  8
51
  5
13186
 10
-756.421814
 20
547.957124
 30
0.0
 11
-755.560777
 21
550.035853
 31
0.0
  0
LINE
  8
51
  5
13187
 10
-759.674623
 20
547.957124
 30
0.0
 11
-760.535661
 21
550.035853
 31
0.0
  0
LINE
  8
51
  5
13188
 10
-759.548219
 20
554.030636
 30
0.0
 11
-759.548219
 21
552.030636
 31
0.0
  0
ARC
  8
51
  5
13189
 10
-746.848219
 20
551.030636
 30
0.0
 40
1.0
 50
90.0
 51
180.0
  0
LINE
  8
51
  5
1318A
 10
-752.548219
 20
554.030636
 30
0.0
 11
-752.548219
 21
552.030636
 31
0.0
  0
CIRCLE
  8
51
  5
1318B
 10
-758.048219
 20
544.030636
 30
0.0
 40
4.25
  0
LINE
  8
51
  5
1318C
 10
-756.421814
 20
540.104148
 30
0.0
 11
-755.560777
 21
538.025419
 31
0.0
  0
LINE
  8
51
  5
1318D
 10
-759.674623
 20
540.104148
 30
0.0
 11
-760.535661
 21
538.025419
 31
0.0
  0
LINE
  8
51
  5
1318E
 10
-754.121731
 20
545.657041
 30
0.0
 11
-752.043002
 21
546.518079
 31
0.0
  0
LINE
  8
51
  5
1318F
 10
-754.121731
 20
542.404232
 30
0.0
 11
-752.043002
 21
541.543194
 31
0.0
  0
LINE
  8
33
  5
13191
 10
736.045355
 20
363.030636
 30
0.0
 11
675.251028
 21
363.030636
 31
0.0
  0
LINE
  8
34
  5
200F1
 10
718.172576
 20
527.347939
 30
0.0
 11
718.172576
 21
363.030636
 31
0.0
  0
ARC
  8
34
  5
200F2
 10
717.172576
 20
527.347939
 30
0.0
 40
1.0
 50
0.0
 51
89.0
  0
LINE
  8
34
  5
200F3
 10
717.190028
 20
528.347787
 30
0.0
 11
692.437671
 21
528.779841
 31
0.0
  0
LINE
  8
34
  5
200F4
 10
683.972576
 20
537.530636
 30
0.0
 11
679.972576
 21
537.530636
 31
0.0
  0
LINE
  8
34
  5
200F5
 10
690.472576
 20
533.830636
 30
0.0
 11
686.472576
 21
533.830636
 31
0.0
  0
ARC
  8
34
  5
200F6
 10
686.472576
 20
536.330636
 30
0.0
 40
2.5
 50
180.0
 51
270.0
  0
LINE
  8
34
  5
200F7
 10
683.972576
 20
536.330636
 30
0.0
 11
683.972576
 21
537.530636
 31
0.0
  0
ARC
  8
34
  5
200F8
 10
692.472576
 20
530.779536
 30
0.0
 40
2.0
 50
180.0
 51
269.0
  0
LINE
  8
34
  5
200F9
 10
690.472576
 20
530.779536
 30
0.0
 11
690.472576
 21
533.830636
 31
0.0
  0
LINE
  8
31
  5
200FA
 10
682.972576
 20
166.030636
 30
0.0
 11
682.972576
 21
363.030636
 31
0.0
  0
LINE
  8
31
  5
200FB
 10
679.972576
 20
187.530636
 30
0.0
 11
679.972576
 21
363.030636
 31
0.0
  0
LINE
  8
31
  5
200FC
 10
721.972576
 20
175.794096
 30
0.0
 11
721.972576
 21
363.030636
 31
0.0
  0
LINE
  8
31
  5
20100
 10
721.972576
 20
166.530636
 30
0.0
 11
721.972576
 21
176.541355
 31
0.0
  0
LINE
  8
31
  5
20101
 10
679.972576
 20
172.030636
 30
0.0
 11
679.972576
 21
174.030636
 31
0.0
  0
LINE
  8
31
  5
20102
 10
682.972576
 20
180.530636
 30
0.0
 11
679.972576
 21
180.530636
 31
0.0
  0
LINE
  8
31
  5
20103
 10
682.972576
 20
187.530636
 30
0.0
 11
679.972576
 21
187.530636
 31
0.0
  0
ARC
  8
31
  5
20104
 10
679.823009
 20
183.558016
 30
0.0
 40
2.74508
 50
15.158626
 51
97.334321
  0
ARC
  8
31
  5
20105
 10
675.546786
 20
177.021535
 30
0.0
 40
6.943763
 50
32.115568
 51
55.572066
  0
LINE
  8
31
  5
20106
 10
679.472576
 20
188.530636
 30
0.0
 11
679.472576
 21
182.749014
 31
0.0
  0
LINE
  8
31
  5
20107
 10
679.972576
 20
188.530636
 30
0.0
 11
679.472576
 21
188.530636
 31
0.0
  0
ARC
  8
31
  5
20108
 10
677.321381
 20
184.105936
 30
0.0
 40
5.326917
 50
293.818134
 51
299.847803
  0
LINE
  8
31
  5
20109
 10
679.972576
 20
174.030636
 30
0.0
 11
679.972576
 21
180.530636
 31
0.0
  0
LINE
  8
31
  5
2010A
 10
679.472576
 20
175.855191
 30
0.0
 11
679.972576
 21
175.530636
 31
0.0
  0
LINE
  8
31
  5
2010B
 10
679.472576
 20
175.855191
 30
0.0
 11
679.472576
 21
179.232702
 31
0.0
  0
LINE
  8
31
  5
2010C
 10
682.472576
 20
186.525833
 30
0.0
 11
682.472576
 21
182.749014
 31
0.0
  0
ARC
  8
31
  5
2010D
 10
679.823009
 20
185.808016
 30
0.0
 40
2.74508
 50
15.158626
 51
38.868128
  0
ARC
  8
31
  5
2010E
 10
677.321381
 20
184.105936
 30
0.0
 40
5.326917
 50
317.842096
 51
345.242457
  0
LINE
  8
31
  5
2010F
 10
721.972576
 20
166.530636
 30
0.0
 11
692.617755
 21
166.018246
 31
0.0
  0
LINE
  8
31
  5
20110
 10
679.972576
 20
172.030636
 30
0.0
 11
682.972576
 21
171.925874
 31
0.0
  0
LINE
  8
31
  5
20111
 10
682.972576
 20
164.030636
 30
0.0
 11
690.692228
 21
164.300213
 31
0.0
  0
LINE
  8
31
  5
20112
 10
682.972576
 20
164.030636
 30
0.0
 11
682.972576
 21
166.030636
 31
0.0
  0
LINE
  8
31
  5
20113
 10
692.617755
 20
166.018246
 30
0.0
 11
692.554281
 21
165.781356
 31
0.0
  0
ARC
  8
31
  5
20114
 10
690.622429
 20
166.298994
 30
0.0
 40
2.0
 50
272.0
 51
345.0
  0
ARC
  8
51
  5
20115
 10
-469.248219
 20
551.030636
 30
0.0
 40
1.0
 50
0.0
 51
90.0
  0
ARC
  8
51
  5
20116
 10
-446.848219
 20
551.030636
 30
0.0
 40
1.0
 50
90.0
 51
180.0
  0
ARC
  8
51
  5
20117
 10
-458.048219
 20
544.030636
 30
0.0
 40
15.7
 50
270.0
 51
30.634136
  0
ARC
  8
51
  5
20118
 10
-458.048219
 20
544.030636
 30
0.0
 40
15.7
 50
149.365864
 51
270.0
  0
CIRCLE
  8
51
  5
20119
 10
-458.048219
 20
544.030636
 30
0.0
 40
6.5
  0
ARC
  8
51
  5
2011A
 10
-458.048219
 20
544.030636
 30
0.0
 40
10.2
 50
180.0
 51
270.0
  0
ARC
  8
51
  5
2011B
 10
-458.048219
 20
544.030636
 30
0.0
 40
10.2
 50
270.0
 51
0.0
  0
LINE
  8
51
  5
2011C
 10
-454.121731
 20
542.404232
 30
0.0
 11
-452.043002
 21
541.543194
 31
0.0
  0
LINE
  8
51
  5
2011D
 10
-454.121731
 20
545.657041
 30
0.0
 11
-452.043002
 21
546.518079
 31
0.0
  0
LINE
  8
51
  5
2011E
 10
-447.848219
 20
544.030636
 30
0.0
 11
-447.848219
 21
551.030636
 31
0.0
  0
CIRCLE
  8
51
  5
2011F
 10
-458.048219
 20
544.030636
 30
0.0
 40
4.25
  0
LINE
  8
51
  5
20120
 10
-461.974707
 20
542.404232
 30
0.0
 11
-464.053436
 21
541.543194
 31
0.0
  0
LINE
  8
51
  5
20121
 10
-459.674623
 20
540.104148
 30
0.0
 11
-460.535661
 21
538.025419
 31
0.0
  0
LINE
  8
51
  5
20122
 10
-456.421814
 20
540.104148
 30
0.0
 11
-455.560777
 21
538.025419
 31
0.0
  0
LINE
  8
51
  5
20123
 10
-461.974707
 20
545.657041
 30
0.0
 11
-464.053436
 21
546.518079
 31
0.0
  0
LINE
  8
51
  5
20124
 10
-459.674623
 20
547.957124
 30
0.0
 11
-460.535661
 21
550.035853
 31
0.0
  0
LINE
  8
51
  5
20125
 10
-456.421814
 20
547.957124
 30
0.0
 11
-455.560777
 21
550.035853
 31
0.0
  0
LINE
  8
51
  5
20126
 10
-468.248219
 20
544.030636
 30
0.0
 11
-468.248219
 21
551.030636
 31
0.0
  0
LINE
  8
51
  5
20127
 10
-453.048219
 20
554.030636
 30
0.0
 11
-453.048219
 21
552.030636
 31
0.0
  0
LINE
  8
51
  5
20128
 10
-469.248219
 20
552.030636
 30
0.0
 11
-477.048219
 21
552.030636
 31
0.0
  0
LINE
  8
51
  5
20129
 10
-469.548219
 20
552.030636
 30
0.0
 11
-469.548219
 21
554.030636
 31
0.0
  0
LINE
  8
51
  5
2012A
 10
-500.048219
 20
554.030636
 30
0.0
 11
-500.048219
 21
552.030636
 31
0.0
  0
LINE
  8
61
  5
2012B
 10
643.969364
 20
166.030636
 30
0.0
 11
643.969364
 21
363.030636
 31
0.0
  0
LINE
  8
51
  5
2012C
 10
-201.548219
 20
174.030636
 30
0.0
 11
-477.048219
 21
174.030636
 31
0.0
  0
LINE
  8
51
  5
2012D
 10
-201.548219
 20
552.030636
 30
0.0
 11
-453.048219
 21
552.030636
 31
0.0
  0
LINE
  8
52
  5
2012E
 10
-188.548219
 20
554.030636
 30
0.0
 11
-477.048219
 21
554.030636
 31
0.0
  0
LINE
  8
52
  5
2012F
 10
-180.548219
 20
560.030636
 30
0.0
 11
-477.048219
 21
560.030636
 31
0.0
  0
LINE
  8
51
  5
20130
 10
-180.548219
 20
562.030636
 30
0.0
 11
-477.048219
 21
562.030636
 31
0.0
  0
LINE
  8
52
  5
20131
 10
-188.548219
 20
172.030636
 30
0.0
 11
-477.048219
 21
172.030636
 31
0.0
  0
LINE
  8
52
  5
20132
 10
-180.548219
 20
166.030636
 30
0.0
 11
-477.048219
 21
166.030636
 31
0.0
  0
LINE
  8
51
  5
20133
 10
-180.548219
 20
164.030636
 30
0.0
 11
-477.048219
 21
164.030636
 31
0.0
  0
LINE
  8
53
  6
DASHDOT
  5
20134
 10
-172.048219
 20
363.030636
 30
0.0
 11
-477.048219
 21
363.030636
 31
0.0
  0
LINE
  8
61
  5
20135
 10
641.969364
 20
164.030636
 30
0.0
 11
344.969364
 21
164.030636
 31
0.0
  0
LINE
  8
51
  5
20136
 10
-178.048219
 20
166.530636
 30
0.0
 11
-178.048219
 21
363.030636
 31
0.0
  0
LINE
  8
52
  5
20137
 10
-186.048219
 20
363.030636
 30
0.0
 11
-186.048219
 21
174.530636
 31
0.0
  0
LINE
  8
51
  5
20138
 10
-188.048219
 20
363.030636
 30
0.0
 11
-188.048219
 21
187.530636
 31
0.0
  0
LINE
  8
52
  5
20139
 10
-180.048219
 20
166.530636
 30
0.0
 11
-180.048219
 21
363.030636
 31
0.0
  0
LINE
  8
52
  5
2013A
 10
-180.048219
 20
559.530636
 30
0.0
 11
-180.048219
 21
363.030636
 31
0.0
  0
LINE
  8
51
  5
2013B
 10
-188.048219
 20
363.030636
 30
0.0
 11
-188.048219
 21
538.530636
 31
0.0
  0
LINE
  8
52
  5
2013C
 10
-186.048219
 20
363.030636
 30
0.0
 11
-186.048219
 21
551.530636
 31
0.0
  0
LINE
  8
51
  5
2013D
 10
-178.048219
 20
559.530636
 30
0.0
 11
-178.048219
 21
363.030636
 31
0.0
  0
ARC
  8
61
  5
2013E
 10
625.969364
 20
182.030636
 30
0.0
 40
16.2
 50
209.592442
 51
66.853205
  0
ARC
  8
52
  5
2013F
 10
-180.548219
 20
559.530636
 30
0.0
 40
0.5
 50
0.0
 51
90.0
  0
ARC
  8
51
  5
20140
 10
-180.548219
 20
559.530636
 30
0.0
 40
2.5
 50
0.0
 51
90.0
  0
ARC
  8
61
  5
20141
 10
641.969364
 20
166.030636
 30
0.0
 40
2.0
 50
270.0
 51
0.0
  0
ARC
  8
51
  5
20142
 10
-196.048219
 20
544.030636
 30
0.0
 40
15.7
 50
149.365864
 51
300.634136
  0
LINE
  8
51
  5
20143
 10
-197.674623
 20
540.104148
 30
0.0
 11
-198.535661
 21
538.025419
 31
0.0
  0
LINE
  8
51
  5
20144
 10
-197.674623
 20
547.957124
 30
0.0
 11
-198.535661
 21
550.035853
 31
0.0
  0
ARC
  8
51
  5
20145
 10
-196.048219
 20
544.030636
 30
0.0
 40
10.2
 50
180.0
 51
270.0
  0
CIRCLE
  8
51
  5
20146
 10
-196.048219
 20
544.030636
 30
0.0
 40
6.5
  0
CIRCLE
  8
51
  5
20147
 10
-196.048219
 20
544.030636
 30
0.0
 40
4.25
  0
LINE
  8
51
  5
20148
 10
-186.048219
 20
545.530636
 30
0.0
 11
-188.048219
 21
545.530636
 31
0.0
  0
ARC
  8
52
  5
20149
 10
-188.548219
 20
551.530636
 30
0.0
 40
2.5
 50
0.0
 51
90.0
  0
ARC
  8
51
  5
2014A
 10
-188.548219
 20
551.530636
 30
0.0
 40
0.5
 50
0.0
 51
90.0
  0
LINE
  8
51
  5
2014B
 10
-194.548219
 20
554.030636
 30
0.0
 11
-194.548219
 21
552.030636
 31
0.0
  0
LINE
  8
51
  5
2014C
 10
-188.548219
 20
552.030636
 30
0.0
 11
-194.548219
 21
552.030636
 31
0.0
  0
LINE
  8
51
  5
2014D
 10
-188.048219
 20
545.530636
 30
0.0
 11
-188.048219
 21
551.530636
 31
0.0
  0
LINE
  8
51
  5
2014E
 10
-192.121731
 20
545.657041
 30
0.0
 11
-190.043002
 21
546.518079
 31
0.0
  0
LINE
  8
51
  5
2014F
 10
-194.421814
 20
547.957124
 30
0.0
 11
-193.560777
 21
550.035853
 31
0.0
  0
LINE
  8
51
  5
20150
 10
-186.048219
 20
538.530636
 30
0.0
 11
-188.048219
 21
538.530636
 31
0.0
  0
LINE
  8
51
  5
20151
 10
-192.121731
 20
542.404232
 30
0.0
 11
-190.043002
 21
541.543194
 31
0.0
  0
LINE
  8
51
  5
20152
 10
-194.421814
 20
540.104148
 30
0.0
 11
-193.560777
 21
538.025419
 31
0.0
  0
ARC
  8
51
  5
20153
 10
-189.048219
 20
532.830636
 30
0.0
 40
1.0
 50
0.0
 51
90.0
  0
LINE
  8
51
  5
20154
 10
-196.048219
 20
533.830636
 30
0.0
 11
-189.048219
 21
533.830636
 31
0.0
  0
ARC
  8
51
  5
20155
 10
-207.248219
 20
551.030636
 30
0.0
 40
1.0
 50
0.0
 51
90.0
  0
LINE
  8
51
  5
20156
 10
-201.548219
 20
554.030636
 30
0.0
 11
-201.548219
 21
552.030636
 31
0.0
  0
LINE
  8
51
  5
20157
 10
-206.248219
 20
544.030636
 30
0.0
 11
-206.248219
 21
551.030636
 31
0.0
  0
LINE
  8
51
  5
20158
 10
-199.974707
 20
545.657041
 30
0.0
 11
-202.053436
 21
546.518079
 31
0.0
  0
LINE
  8
51
  5
20159
 10
-199.974707
 20
542.404232
 30
0.0
 11
-202.053436
 21
541.543194
 31
0.0
  0
ARC
  8
51
  5
2015A
 10
-196.048219
 20
182.030636
 30
0.0
 40
15.7
 50
59.365864
 51
210.634136
  0
LINE
  8
51
  5
2015B
 10
-188.048219
 20
180.530636
 30
0.0
 11
-188.048219
 21
174.530636
 31
0.0
  0
ARC
  8
51
  5
2015C
 10
-207.248219
 20
175.030636
 30
0.0
 40
1.0
 50
270.0
 51
0.0
  0
LINE
  8
51
  5
2015D
 10
-197.674623
 20
178.104148
 30
0.0
 11
-198.535661
 21
176.025419
 31
0.0
  0
LINE
  8
51
  5
2015E
 10
-197.674623
 20
185.957124
 30
0.0
 11
-198.535661
 21
188.035853
 31
0.0
  0
ARC
  8
51
  5
2015F
 10
-196.048219
 20
182.030636
 30
0.0
 40
10.2
 50
90.0
 51
180.0
  0
CIRCLE
  8
51
  5
20160
 10
-196.048219
 20
182.030636
 30
0.0
 40
6.5
  0
CIRCLE
  8
51
  5
20161
 10
-196.048219
 20
182.030636
 30
0.0
 40
4.25
  0
ARC
  8
51
  5
20162
 10
-189.048219
 20
193.230636
 30
0.0
 40
1.0
 50
270.0
 51
0.0
  0
LINE
  8
51
  5
20163
 10
-196.048219
 20
192.230636
 30
0.0
 11
-189.048219
 21
192.230636
 31
0.0
  0
LINE
  8
51
  5
20164
 10
-186.048219
 20
180.530636
 30
0.0
 11
-188.048219
 21
180.530636
 31
0.0
  0
LINE
  8
51
  5
20165
 10
-186.048219
 20
187.530636
 30
0.0
 11
-188.048219
 21
187.530636
 31
0.0
  0
LINE
  8
51
  5
20166
 10
-192.121731
 20
183.657041
 30
0.0
 11
-190.043002
 21
184.518079
 31
0.0
  0
LINE
  8
51
  5
20167
 10
-194.421814
 20
185.957124
 30
0.0
 11
-193.560777
 21
188.035853
 31
0.0
  0
LINE
  8
51
  5
20168
 10
-192.121731
 20
180.404232
 30
0.0
 11
-190.043002
 21
179.543194
 31
0.0
  0
LINE
  8
51
  5
20169
 10
-194.421814
 20
178.104148
 30
0.0
 11
-193.560777
 21
176.025419
 31
0.0
  0
LINE
  8
51
  5
2016A
 10
-199.974707
 20
183.657041
 30
0.0
 11
-202.053436
 21
184.518079
 31
0.0
  0
LINE
  8
51
  5
2016B
 10
-206.248219
 20
182.030636
 30
0.0
 11
-206.248219
 21
175.030636
 31
0.0
  0
LINE
  8
51
  5
2016C
 10
-199.974707
 20
180.404232
 30
0.0
 11
-202.053436
 21
179.543194
 31
0.0
  0
ARC
  8
52
  5
2016D
 10
-188.548219
 20
174.530636
 30
0.0
 40
2.5
 50
270.0
 51
0.0
  0
ARC
  8
51
  5
2016E
 10
-180.548219
 20
166.530636
 30
0.0
 40
2.5
 50
270.0
 51
0.0
  0
ARC
  8
52
  5
2016F
 10
-180.548219
 20
166.530636
 30
0.0
 40
0.5
 50
270.0
 51
0.0
  0
LINE
  8
51
  5
20170
 10
-194.548219
 20
172.030636
 30
0.0
 11
-194.548219
 21
174.030636
 31
0.0
  0
ARC
  8
51
  5
20171
 10
-188.548219
 20
174.530636
 30
0.0
 40
0.5
 50
270.0
 51
0.0
  0
LINE
  8
51
  5
20172
 10
-188.548219
 20
174.030636
 30
0.0
 11
-194.548219
 21
174.030636
 31
0.0
  0
LINE
  8
51
  5
20173
 10
-201.548219
 20
172.030636
 30
0.0
 11
-201.548219
 21
174.030636
 31
0.0
  0
LINE
  8
51
  5
20174
 10
-469.548219
 20
552.030636
 30
0.0
 11
-477.048219
 21
552.030636
 31
0.0
  0
LINE
  8
21
  5
201BD
 10
632.205904
 20
684.525259
 30
0.0
 11
344.969364
 21
684.525259
 31
0.0
  0
LINE
  8
21
  5
201BE
 10
620.469364
 20
642.525259
 30
0.0
 11
344.969364
 21
642.525259
 31
0.0
  0
LINE
  8
24
  5
201BF
 10
609.286666
 20
680.725259
 30
0.0
 11
344.969364
 21
680.725259
 31
0.0
  0
LINE
  8
21
  5
201C0
 10
641.969364
 20
645.525259
 30
0.0
 11
344.969364
 21
645.525259
 31
0.0
  0
LINE
  8
24
  5
201C1
 10
80.652061
 20
680.725259
 30
0.0
 11
344.969364
 21
680.725259
 31
0.0
  0
LINE
  8
21
  5
201C2
 10
47.969364
 20
645.525259
 30
0.0
 11
344.969364
 21
645.525259
 31
0.0
  0
LINE
  8
21
  5
201C3
 10
69.469364
 20
642.525259
 30
0.0
 11
344.969364
 21
642.525259
 31
0.0
  0
LINE
  8
21
  5
201C4
 10
57.732824
 20
684.525259
 30
0.0
 11
344.969364
 21
684.525259
 31
0.0
  0
ARC
  8
21
  5
201C5
 10
66.044663
 20
639.874065
 30
0.0
 40
5.326917
 50
104.757543
 51
132.157904
  0
ARC
  8
21
  5
201C6
 10
58.960262
 20
638.09947
 30
0.0
 40
6.943763
 50
34.427934
 51
57.884432
  0
LINE
  8
21
  5
201C7
 10
48.469364
 20
684.525259
 30
0.0
 11
47.956973
 21
655.170438
 31
0.0
  0
LINE
  8
21
  5
201C8
 10
62.469364
 20
645.525259
 30
0.0
 11
62.469364
 21
642.525259
 31
0.0
  0
LINE
  8
21
  5
201C9
 10
53.969364
 20
642.525259
 30
0.0
 11
53.864601
 21
645.525259
 31
0.0
  0
LINE
  8
21
  5
201CA
 10
55.969364
 20
642.525259
 30
0.0
 11
62.469364
 21
642.525259
 31
0.0
  0
LINE
  8
21
  5
201CB
 10
57.793919
 20
642.025259
 30
0.0
 11
57.469364
 21
642.525259
 31
0.0
  0
ARC
  8
21
  5
201CC
 10
66.044663
 20
639.874065
 30
0.0
 40
5.326917
 50
150.152197
 51
156.181866
  0
LINE
  8
21
  5
201CD
 10
57.793919
 20
642.025259
 30
0.0
 11
61.17143
 21
642.025259
 31
0.0
  0
LINE
  8
21
  5
201CE
 10
53.969364
 20
642.525259
 30
0.0
 11
55.969364
 21
642.525259
 31
0.0
  0
ARC
  8
21
  5
201CF
 10
48.237721
 20
653.175112
 30
0.0
 40
2.0
 50
105.0
 51
178.0
  0
LINE
  8
21
  5
201D0
 10
45.969364
 20
645.525259
 30
0.0
 11
47.969364
 21
645.525259
 31
0.0
  0
LINE
  8
21
  5
201D1
 10
45.969364
 20
645.525259
 30
0.0
 11
46.23894
 21
653.244911
 31
0.0
  0
LINE
  8
21
  5
201D2
 10
47.956973
 20
655.170438
 30
0.0
 11
47.720083
 21
655.106964
 31
0.0
  0
LINE
  8
21
  5
201D3
 10
48.469364
 20
684.525259
 30
0.0
 11
58.480082
 21
684.525259
 31
0.0
  0
LINE
  8
24
  5
201D4
 10
79.652213
 20
679.742712
 30
0.0
 11
79.220159
 21
654.990355
 31
0.0
  0
LINE
  8
24
  5
201D5
 10
70.469364
 20
646.525259
 30
0.0
 11
70.469364
 21
642.525259
 31
0.0
  0
LINE
  8
21
  5
201D6
 10
69.469364
 20
645.525259
 30
0.0
 11
69.469364
 21
642.525259
 31
0.0
  0
ARC
  8
21
  5
201D7
 10
65.496743
 20
642.375693
 30
0.0
 40
2.74508
 50
352.665679
 51
74.841374
  0
LINE
  8
21
  5
201D8
 10
70.469364
 20
642.525259
 30
0.0
 11
70.469364
 21
642.025259
 31
0.0
  0
LINE
  8
21
  5
201D9
 10
70.469364
 20
642.025259
 30
0.0
 11
64.687741
 21
642.025259
 31
0.0
  0
ARC
  8
24
  5
201DA
 10
77.220464
 20
655.025259
 30
0.0
 40
2.0
 50
270.0
 51
359.0
  0
LINE
  8
24
  5
201DB
 10
74.169364
 20
653.025259
 30
0.0
 11
74.169364
 21
649.025259
 31
0.0
  0
LINE
  8
24
  5
201DC
 10
71.669364
 20
646.525259
 30
0.0
 11
70.469364
 21
646.525259
 31
0.0
  0
ARC
  8
21
  5
201DD
 10
67.746743
 20
642.375693
 30
0.0
 40
2.74508
 50
51.131872
 51
74.841374
  0
ARC
  8
24
  5
201DE
 10
71.669364
 20
649.025259
 30
0.0
 40
2.5
 50
270.0
 51
0.0
  0
LINE
  8
24
  5
201DF
 10
77.220464
 20
653.025259
 30
0.0
 11
74.169364
 21
653.025259
 31
0.0
  0
LINE
  8
21
  5
201E0
 10
68.464561
 20
645.025259
 30
0.0
 11
64.687741
 21
645.025259
 31
0.0
  0
ARC
  8
24
  5
201E1
 10
80.652061
 20
679.725259
 30
0.0
 40
1.0
 50
90.0
 51
179.0
  0
LINE
  8
23
  6
DASHDOT
  5
201E2
 10
344.969364
 20
695.456134
 30
0.0
 11
344.969364
 21
637.803711
 31
0.0
  0
LINE
  8
21
  5
201E8
 10
641.469364
 20
684.525259
 30
0.0
 11
641.981754
 21
655.170438
 31
0.0
  0
LINE
  8
24
  5
201E9
 10
610.286514
 20
679.742712
 30
0.0
 11
610.718568
 21
654.990355
 31
0.0
  0
ARC
  8
24
  5
201EA
 10
618.269364
 20
649.025259
 30
0.0
 40
2.5
 50
180.0
 51
270.0
  0
LINE
  8
24
  5
201EB
 10
612.718263
 20
653.025259
 30
0.0
 11
615.769364
 21
653.025259
 31
0.0
  0
ARC
  8
24
  5
201EC
 10
612.718263
 20
655.025259
 30
0.0
 40
2.0
 50
181.0
 51
270.0
  0
LINE
  8
21
  5
201ED
 10
635.969364
 20
642.525259
 30
0.0
 11
636.074126
 21
645.525259
 31
0.0
  0
ARC
  8
21
  5
201EE
 10
623.894064
 20
639.874065
 30
0.0
 40
5.326917
 50
47.842096
 51
75.242457
  0
ARC
  8
21
  5
201EF
 10
630.978465
 20
638.09947
 30
0.0
 40
6.943763
 50
122.115568
 51
145.572066
  0
ARC
  8
21
  5
201F0
 10
624.441984
 20
642.375693
 30
0.0
 40
2.74508
 50
105.158626
 51
187.334321
  0
LINE
  8
21
  5
201F1
 10
627.469364
 20
645.525259
 30
0.0
 11
627.469364
 21
642.525259
 31
0.0
  0
LINE
  8
24
  5
201F2
 10
619.469364
 20
646.525259
 30
0.0
 11
619.469364
 21
642.525259
 31
0.0
  0
LINE
  8
21
  5
201F3
 10
620.469364
 20
645.525259
 30
0.0
 11
620.469364
 21
642.525259
 31
0.0
  0
LINE
  8
21
  5
201F4
 10
632.144809
 20
642.025259
 30
0.0
 11
628.767298
 21
642.025259
 31
0.0
  0
LINE
  8
21
  5
201F5
 10
633.969364
 20
642.525259
 30
0.0
 11
627.469364
 21
642.525259
 31
0.0
  0
ARC
  8
21
  5
201F6
 10
623.894064
 20
639.874065
 30
0.0
 40
5.326917
 50
23.818134
 51
29.847803
  0
LINE
  8
21
  5
201F7
 10
619.469364
 20
642.025259
 30
0.0
 11
625.250986
 21
642.025259
 31
0.0
  0
LINE
  8
21
  5
201F8
 10
619.469364
 20
642.525259
 30
0.0
 11
619.469364
 21
642.025259
 31
0.0
  0
LINE
  8
21
  5
201F9
 10
632.144809
 20
642.025259
 30
0.0
 11
632.469364
 21
642.525259
 31
0.0
  0
LINE
  8
21
  5
201FA
 10
635.969364
 20
642.525259
 30
0.0
 11
633.969364
 21
642.525259
 31
0.0
  0
ARC
  8
21
  5
201FB
 10
622.191984
 20
642.375693
 30
0.0
 40
2.74508
 50
105.158626
 51
128.868128
  0
LINE
  8
21
  5
201FC
 10
621.474167
 20
645.025259
 30
0.0
 11
625.250986
 21
645.025259
 31
0.0
  0
LINE
  8
24
  5
201FD
 10
615.769364
 20
653.025259
 30
0.0
 11
615.769364
 21
649.025259
 31
0.0
  0
LINE
  8
24
  5
201FE
 10
618.269364
 20
646.525259
 30
0.0
 11
619.469364
 21
646.525259
 31
0.0
  0
ARC
  8
21
  5
201FF
 10
641.701006
 20
653.175112
 30
0.0
 40
2.0
 50
2.0
 51
75.0
  0
LINE
  8
21
  5
20200
 10
643.969364
 20
645.525259
 30
0.0
 11
643.699787
 21
653.244911
 31
0.0
  0
LINE
  8
21
  5
20201
 10
643.969364
 20
645.525259
 30
0.0
 11
641.969364
 21
645.525259
 31
0.0
  0
LINE
  8
21
  5
20202
 10
641.981754
 20
655.170438
 30
0.0
 11
642.218644
 21
655.106964
 31
0.0
  0
ARC
  8
24
  5
20203
 10
609.286666
 20
679.725259
 30
0.0
 40
1.0
 50
1.0
 51
90.0
  0
LINE
  8
21
  5
20204
 10
641.469364
 20
684.525259
 30
0.0
 11
631.458645
 21
684.525259
 31
0.0
  0
TEXT
  8
L20
  5
2024D
 10
-584.340442
 20
611.874654
 30
0.0
 40
16.0
  1
FIBOX EKI 600x400x40 COVER
  0
LINE
  8
21
  5
2024E
 10
642.218644
 20
655.106964
 30
0.0
 11
47.956973
 21
655.170438
 31
0.0
  0
LINE
  8
21
  5
2024F
 10
46.23894
 20
653.244911
 30
0.0
 11
643.699787
 21
653.244911
 31
0.0
  0
LINE
  8
31
  5
20250
 10
692.617755
 20
560.043027
 30
0.0
 11
692.617755
 21
166.018246
 31
0.0
  0
LINE
  8
31
  5
20251
 10
690.692228
 20
164.300213
 30
0.0
 11
690.692228
 21
561.76106
 31
0.0
  0
LINE
  8
14
  5
20252
 10
609.286666
 20
45.336014
 30
0.0
 11
344.969364
 21
45.336014
 31
0.0
  0
LINE
  8
11
  5
20253
 10
641.969364
 20
80.536014
 30
0.0
 11
344.969364
 21
80.536014
 31
0.0
  0
LINE
  8
11
  5
20254
 10
620.469364
 20
83.536014
 30
0.0
 11
344.969364
 21
83.536014
 31
0.0
  0
LINE
  8
11
  5
20255
 10
632.205904
 20
41.536014
 30
0.0
 11
344.969364
 21
41.536014
 31
0.0
  0
LINE
  8
11
  5
20256
 10
47.720083
 20
70.954309
 30
0.0
 11
641.981754
 21
70.890834
 31
0.0
  0
LINE
  8
11
  5
20257
 10
643.699787
 20
72.816362
 30
0.0
 11
46.23894
 21
72.816362
 31
0.0
  0
LINE
  8
14
  5
20258
 10
610.286514
 20
46.318561
 30
0.0
 11
610.718568
 21
71.070918
 31
0.0
  0
LINE
  8
11
  5
20259
 10
641.469364
 20
41.536014
 30
0.0
 11
641.981754
 21
70.890834
 31
0.0
  0
ARC
  8
11
  5
2025A
 10
623.894064
 20
86.187208
 30
0.0
 40
5.326917
 50
330.152197
 51
336.181866
  0
LINE
  8
11
  5
2025B
 10
633.969364
 20
83.536014
 30
0.0
 11
627.469364
 21
83.536014
 31
0.0
  0
LINE
  8
11
  5
2025C
 10
643.969364
 20
80.536014
 30
0.0
 11
643.699787
 21
72.816362
 31
0.0
  0
LINE
  8
11
  5
2025D
 10
643.969364
 20
80.536014
 30
0.0
 11
641.969364
 21
80.536014
 31
0.0
  0
LINE
  8
11
  5
2025E
 10
635.969364
 20
83.536014
 30
0.0
 11
636.074126
 21
80.536014
 31
0.0
  0
LINE
  8
11
  5
2025F
 10
632.144809
 20
84.036014
 30
0.0
 11
632.469364
 21
83.536014
 31
0.0
  0
LINE
  8
11
  5
20260
 10
632.144809
 20
84.036014
 30
0.0
 11
628.767298
 21
84.036014
 31
0.0
  0
LINE
  8
11
  5
20261
 10
635.969364
 20
83.536014
 30
0.0
 11
633.969364
 21
83.536014
 31
0.0
  0
LINE
  8
11
  5
20262
 10
641.981754
 20
70.890834
 30
0.0
 11
642.218644
 21
70.954309
 31
0.0
  0
ARC
  8
11
  5
20263
 10
641.701006
 20
72.886161
 30
0.0
 40
2.0
 50
285.0
 51
358.0
  0
LINE
  8
14
  5
20264
 10
619.469364
 20
79.536014
 30
0.0
 11
619.469364
 21
83.536014
 31
0.0
  0
ARC
  8
11
  5
20265
 10
623.894064
 20
86.187208
 30
0.0
 40
5.326917
 50
284.757543
 51
312.157904
  0
ARC
  8
11
  5
20266
 10
630.978465
 20
87.961803
 30
0.0
 40
6.943763
 50
214.427934
 51
237.884432
  0
LINE
  8
11
  5
20267
 10
627.469364
 20
80.536014
 30
0.0
 11
627.469364
 21
83.536014
 31
0.0
  0
LINE
  8
11
  5
20268
 10
620.469364
 20
80.536014
 30
0.0
 11
620.469364
 21
83.536014
 31
0.0
  0
ARC
  8
11
  5
20269
 10
624.441984
 20
83.68558
 30
0.0
 40
2.74508
 50
172.665679
 51
254.841374
  0
LINE
  8
11
  5
2026A
 10
619.469364
 20
83.536014
 30
0.0
 11
619.469364
 21
84.036014
 31
0.0
  0
LINE
  8
11
  5
2026B
 10
619.469364
 20
84.036014
 30
0.0
 11
625.250986
 21
84.036014
 31
0.0
  0
ARC
  8
11
  5
2026C
 10
622.191984
 20
83.68558
 30
0.0
 40
2.74508
 50
231.131872
 51
254.841374
  0
LINE
  8
11
  5
2026D
 10
621.474167
 20
81.036014
 30
0.0
 11
625.250986
 21
81.036014
 31
0.0
  0
ARC
  8
14
  5
2026E
 10
618.269364
 20
77.036014
 30
0.0
 40
2.5
 50
90.0
 51
180.0
  0
LINE
  8
14
  5
2026F
 10
618.269364
 20
79.536014
 30
0.0
 11
619.469364
 21
79.536014
 31
0.0
  0
ARC
  8
14
  5
20270
 10
612.718263
 20
71.036014
 30
0.0
 40
2.0
 50
90.0
 51
179.0
  0
LINE
  8
14
  5
20271
 10
615.769364
 20
73.036014
 30
0.0
 11
615.769364
 21
77.036014
 31
0.0
  0
LINE
  8
14
  5
20272
 10
612.718263
 20
73.036014
 30
0.0
 11
615.769364
 21
73.036014
 31
0.0
  0
LINE
  8
11
  5
20273
 10
641.469364
 20
41.536014
 30
0.0
 11
631.458645
 21
41.536014
 31
0.0
  0
ARC
  8
14
  5
20274
 10
609.286666
 20
46.336014
 30
0.0
 40
1.0
 50
270.0
 51
359.0
  0
LINE
  8
11
  5
20275
 10
57.732824
 20
41.536014
 30
0.0
 11
344.969364
 21
41.536014
 31
0.0
  0
LINE
  8
11
  5
20276
 10
69.469364
 20
83.536014
 30
0.0
 11
344.969364
 21
83.536014
 31
0.0
  0
LINE
  8
14
  5
20277
 10
80.652061
 20
45.336014
 30
0.0
 11
344.969364
 21
45.336014
 31
0.0
  0
LINE
  8
11
  5
20278
 10
47.969364
 20
80.536014
 30
0.0
 11
344.969364
 21
80.536014
 31
0.0
  0
LINE
  8
13
  5
2027A
 10
344.969364
 20
29.326651
 30
0.0
 11
344.969364
 21
88.257562
 31
0.0
  0
LINE
  8
11
  5
2027F
 10
53.969364
 20
83.536014
 30
0.0
 11
55.969364
 21
83.536014
 31
0.0
  0
LINE
  8
11
  5
20280
 10
48.469364
 20
41.536014
 30
0.0
 11
58.480082
 21
41.536014
 31
0.0
  0
LINE
  8
14
  5
20281
 10
79.652213
 20
46.318561
 30
0.0
 11
79.220159
 21
71.070918
 31
0.0
  0
LINE
  8
14
  5
20282
 10
77.220464
 20
73.036014
 30
0.0
 11
74.169364
 21
73.036014
 31
0.0
  0
ARC
  8
14
  5
20283
 10
77.220464
 20
71.036014
 30
0.0
 40
2.0
 50
1.0
 51
90.0
  0
LINE
  8
14
  5
20284
 10
70.469364
 20
79.536014
 30
0.0
 11
70.469364
 21
83.536014
 31
0.0
  0
LINE
  8
11
  5
20285
 10
70.469364
 20
84.036014
 30
0.0
 11
64.687741
 21
84.036014
 31
0.0
  0
LINE
  8
11
  5
20286
 10
68.464561
 20
81.036014
 30
0.0
 11
64.687741
 21
81.036014
 31
0.0
  0
ARC
  8
11
  5
20287
 10
65.496743
 20
83.68558
 30
0.0
 40
2.74508
 50
285.158626
 51
7.334321
  0
LINE
  8
11
  5
20288
 10
69.469364
 20
80.536014
 30
0.0
 11
69.469364
 21
83.536014
 31
0.0
  0
LINE
  8
11
  5
20289
 10
70.469364
 20
83.536014
 30
0.0
 11
70.469364
 21
84.036014
 31
0.0
  0
ARC
  8
11
  5
2028A
 10
67.746743
 20
83.68558
 30
0.0
 40
2.74508
 50
285.158626
 51
308.868128
  0
LINE
  8
11
  5
2028B
 10
57.793919
 20
84.036014
 30
0.0
 11
61.17143
 21
84.036014
 31
0.0
  0
ARC
  8
11
  5
2028C
 10
66.044663
 20
86.187208
 30
0.0
 40
5.326917
 50
203.818134
 51
209.847803
  0
LINE
  8
11
  5
2028D
 10
57.793919
 20
84.036014
 30
0.0
 11
57.469364
 21
83.536014
 31
0.0
  0
ARC
  8
11
  5
2028E
 10
66.044663
 20
86.187208
 30
0.0
 40
5.326917
 50
227.842096
 51
255.242457
  0
ARC
  8
11
  5
2028F
 10
58.960262
 20
87.961803
 30
0.0
 40
6.943763
 50
302.115568
 51
325.572066
  0
LINE
  8
11
  5
20290
 10
62.469364
 20
80.536014
 30
0.0
 11
62.469364
 21
83.536014
 31
0.0
  0
LINE
  8
11
  5
20291
 10
55.969364
 20
83.536014
 30
0.0
 11
62.469364
 21
83.536014
 31
0.0
  0
LINE
  8
14
  5
20292
 10
71.669364
 20
79.536014
 30
0.0
 11
70.469364
 21
79.536014
 31
0.0
  0
LINE
  8
14
  5
20293
 10
74.169364
 20
73.036014
 30
0.0
 11
74.169364
 21
77.036014
 31
0.0
  0
ARC
  8
14
  5
20294
 10
71.669364
 20
77.036014
 30
0.0
 40
2.5
 50
0.0
 51
90.0
  0
ARC
  8
14
  5
20295
 10
80.652061
 20
46.336014
 30
0.0
 40
1.0
 50
181.0
 51
270.0
  0
LINE
  8
11
  5
20296
 10
48.469364
 20
41.536014
 30
0.0
 11
47.956973
 21
70.890834
 31
0.0
  0
LINE
  8
11
  5
20297
 10
45.969364
 20
80.536014
 30
0.0
 11
46.23894
 21
72.816362
 31
0.0
  0
LINE
  8
11
  5
20298
 10
53.969364
 20
83.536014
 30
0.0
 11
53.864601
 21
80.536014
 31
0.0
  0
LINE
  8
11
  5
20299
 10
45.969364
 20
80.536014
 30
0.0
 11
47.969364
 21
80.536014
 31
0.0
  0
LINE
  8
11
  5
2029A
 10
47.956973
 20
70.890834
 30
0.0
 11
47.720083
 21
70.954309
 31
0.0
  0
ARC
  8
11
  5
2029B
 10
48.237721
 20
72.886161
 30
0.0
 40
2.0
 50
182.0
 51
255.0
  0
LINE
  8
41
  5
2029C
 10
-32.033849
 20
175.794096
 30
0.0
 11
-32.033849
 21
363.030636
 31
0.0
  0
LINE
  8
41
  5
2029D
 10
9.966151
 20
187.530636
 30
0.0
 11
9.966151
 21
363.030636
 31
0.0
  0
LINE
  8
41
  5
2029E
 10
6.966151
 20
166.030636
 30
0.0
 11
6.966151
 21
363.030636
 31
0.0
  0
LINE
  8
44
  5
2029F
 10
-28.233849
 20
198.713334
 30
0.0
 11
-28.233849
 21
363.030636
 31
0.0
  0
LINE
  8
41
  5
202A0
 10
-2.679028
 20
166.018246
 30
0.0
 11
-2.679028
 21
560.043027
 31
0.0
  0
LINE
  8
41
  5
202A1
 10
-0.753501
 20
561.76106
 30
0.0
 11
-0.753501
 21
164.300213
 31
0.0
  0
LINE
  8
44
  5
202A2
 10
-28.233849
 20
527.347939
 30
0.0
 11
-28.233849
 21
363.030636
 31
0.0
  0
LINE
  8
41
  5
202A3
 10
6.966151
 20
560.030636
 30
0.0
 11
6.966151
 21
363.030636
 31
0.0
  0
LINE
  8
41
  5
202A4
 10
9.966151
 20
538.530636
 30
0.0
 11
9.966151
 21
363.030636
 31
0.0
  0
LINE
  8
41
  5
202A5
 10
-32.033849
 20
550.267176
 30
0.0
 11
-32.033849
 21
363.030636
 31
0.0
  0
ARC
  8
41
  5
202A6
 10
10.115718
 20
542.503257
 30
0.0
 40
2.74508
 50
195.158626
 51
277.334321
  0
LINE
  8
41
  5
202A7
 10
10.466151
 20
537.530636
 30
0.0
 11
10.466151
 21
543.312259
 31
0.0
  0
LINE
  8
41
  5
202A8
 10
7.466151
 20
539.535439
 30
0.0
 11
7.466151
 21
543.312259
 31
0.0
  0
LINE
  8
41
  5
202A9
 10
-32.033849
 20
559.530636
 30
0.0
 11
-2.679028
 21
560.043027
 31
0.0
  0
LINE
  8
41
  5
202AA
 10
6.966151
 20
562.030636
 30
0.0
 11
-0.753501
 21
561.76106
 31
0.0
  0
LINE
  8
41
  5
202AB
 10
6.966151
 20
562.030636
 30
0.0
 11
6.966151
 21
560.030636
 31
0.0
  0
LINE
  8
41
  5
202AC
 10
-2.679028
 20
560.043027
 30
0.0
 11
-2.615553
 21
560.279917
 31
0.0
  0
ARC
  8
41
  5
202AD
 10
-0.683702
 20
559.762279
 30
0.0
 40
2.0
 50
92.0
 51
165.0
  0
LINE
  8
41
  5
202AE
 10
9.966151
 20
554.030636
 30
0.0
 11
6.966151
 21
554.135399
 31
0.0
  0
LINE
  8
41
  5
202AF
 10
6.966151
 20
545.530636
 30
0.0
 11
9.966151
 21
545.530636
 31
0.0
  0
ARC
  8
41
  5
202B0
 10
14.391941
 20
549.039738
 30
0.0
 40
6.943763
 50
212.115568
 51
235.572066
  0
ARC
  8
41
  5
202B1
 10
12.617346
 20
541.955337
 30
0.0
 40
5.326917
 50
113.818134
 51
119.847803
  0
LINE
  8
41
  5
202B2
 10
9.966151
 20
552.030636
 30
0.0
 11
9.966151
 21
545.530636
 31
0.0
  0
LINE
  8
41
  5
202B3
 10
10.466151
 20
550.206081
 30
0.0
 11
9.966151
 21
550.530636
 31
0.0
  0
LINE
  8
41
  5
202B4
 10
10.466151
 20
550.206081
 30
0.0
 11
10.466151
 21
546.82857
 31
0.0
  0
ARC
  8
41
  5
202B5
 10
12.617346
 20
541.955337
 30
0.0
 40
5.326917
 50
137.842096
 51
165.242457
  0
LINE
  8
41
  5
202B6
 10
9.966151
 20
554.030636
 30
0.0
 11
9.966151
 21
552.030636
 31
0.0
  0
LINE
  8
41
  5
202B7
 10
-32.033849
 20
559.530636
 30
0.0
 11
-32.033849
 21
549.519918
 31
0.0
  0
LINE
  8
44
  5
202B8
 10
-27.251301
 20
528.347787
 30
0.0
 11
-2.498944
 21
528.779841
 31
0.0
  0
ARC
  8
44
  5
202B9
 10
-2.533849
 20
530.779536
 30
0.0
 40
2.0
 50
271.0
 51
0.0
  0
LINE
  8
44
  5
202BA
 10
-0.533849
 20
533.830636
 30
0.0
 11
3.466151
 21
533.830636
 31
0.0
  0
LINE
  8
44
  5
202BB
 10
5.966151
 20
536.330636
 30
0.0
 11
5.966151
 21
537.530636
 31
0.0
  0
LINE
  8
44
  5
202BC
 10
5.966151
 20
537.530636
 30
0.0
 11
9.966151
 21
537.530636
 31
0.0
  0
ARC
  8
44
  5
202BD
 10
3.466151
 20
536.330636
 30
0.0
 40
2.5
 50
270.0
 51
0.0
  0
LINE
  8
41
  5
202BE
 10
6.966151
 20
538.530636
 30
0.0
 11
9.966151
 21
538.530636
 31
0.0
  0
LINE
  8
41
  5
202BF
 10
9.966151
 20
537.530636
 30
0.0
 11
10.466151
 21
537.530636
 31
0.0
  0
ARC
  8
41
  5
202C0
 10
10.115718
 20
540.253257
 30
0.0
 40
2.74508
 50
195.158626
 51
218.868128
  0
LINE
  8
44
  5
202C1
 10
-0.533849
 20
530.779536
 30
0.0
 11
-0.533849
 21
533.830636
 31
0.0
  0
ARC
  8
44
  5
202C2
 10
-27.233849
 20
527.347939
 30
0.0
 40
1.0
 50
91.0
 51
180.0
  0
LINE
  8
43
  6
DASHDOT
  5
202C6
 10
-41.591422
 20
363.030636
 30
0.0
 11
14.687699
 21
363.030636
 31
0.0
  0
ARC
  8
41
  5
202C9
 10
10.115718
 20
183.558016
 30
0.0
 40
2.74508
 50
82.665679
 51
164.841374
  0
LINE
  8
41
  5
202CA
 10
10.466151
 20
188.530636
 30
0.0
 11
10.466151
 21
182.749014
 31
0.0
  0
LINE
  8
41
  5
202CB
 10
7.466151
 20
186.525833
 30
0.0
 11
7.466151
 21
182.749014
 31
0.0
  0
LINE
  8
44
  5
202CC
 10
-27.251301
 20
197.713486
 30
0.0
 11
-2.498944
 21
197.281432
 31
0.0
  0
ARC
  8
44
  5
202CD
 10
-2.533849
 20
195.281737
 30
0.0
 40
2.0
 50
0.0
 51
89.0
  0
LINE
  8
44
  5
202CE
 10
-0.533849
 20
192.230636
 30
0.0
 11
3.466151
 21
192.230636
 31
0.0
  0
ARC
  8
44
  5
202CF
 10
3.466151
 20
189.730636
 30
0.0
 40
2.5
 50
0.0
 51
90.0
  0
ARC
  8
41
  5
202D0
 10
10.115718
 20
185.808016
 30
0.0
 40
2.74508
 50
141.131872
 51
164.841374
  0
LINE
  8
41
  5
202D1
 10
9.966151
 20
188.530636
 30
0.0
 11
10.466151
 21
188.530636
 31
0.0
  0
LINE
  8
41
  5
202D2
 10
6.966151
 20
187.530636
 30
0.0
 11
9.966151
 21
187.530636
 31
0.0
  0
LINE
  8
44
  5
202D3
 10
5.966151
 20
188.530636
 30
0.0
 11
9.966151
 21
188.530636
 31
0.0
  0
LINE
  8
44
  5
202D4
 10
5.966151
 20
189.730636
 30
0.0
 11
5.966151
 21
188.530636
 31
0.0
  0
LINE
  8
44
  5
202D5
 10
-0.533849
 20
195.281737
 30
0.0
 11
-0.533849
 21
192.230636
 31
0.0
  0
ARC
  8
44
  5
202D6
 10
-27.233849
 20
198.713334
 30
0.0
 40
1.0
 50
180.0
 51
269.0
  0
LINE
  8
41
  5
202D7
 10
-32.033849
 20
166.530636
 30
0.0
 11
-2.679028
 21
166.018246
 31
0.0
  0
ARC
  8
41
  5
202D8
 10
14.391941
 20
177.021535
 30
0.0
 40
6.943763
 50
124.427934
 51
147.884432
  0
ARC
  8
41
  5
202D9
 10
12.617346
 20
184.105936
 30
0.0
 40
5.326917
 50
194.757543
 51
222.157904
  0
LINE
  8
41
  5
202DA
 10
6.966151
 20
180.530636
 30
0.0
 11
9.966151
 21
180.530636
 31
0.0
  0
ARC
  8
41
  5
202DB
 10
12.617346
 20
184.105936
 30
0.0
 40
5.326917
 50
240.152197
 51
246.181866
  0
LINE
  8
41
  5
202DC
 10
9.966151
 20
172.030636
 30
0.0
 11
6.966151
 21
171.925874
 31
0.0
  0
LINE
  8
41
  5
202DD
 10
10.466151
 20
175.855191
 30
0.0
 11
9.966151
 21
175.530636
 31
0.0
  0
LINE
  8
41
  5
202DE
 10
9.966151
 20
172.030636
 30
0.0
 11
9.966151
 21
174.030636
 31
0.0
  0
LINE
  8
41
  5
202DF
 10
10.466151
 20
175.855191
 30
0.0
 11
10.466151
 21
179.232702
 31
0.0
  0
LINE
  8
41
  5
202E0
 10
9.966151
 20
174.030636
 30
0.0
 11
9.966151
 21
180.530636
 31
0.0
  0
LINE
  8
41
  5
202E1
 10
6.966151
 20
164.030636
 30
0.0
 11
-0.753501
 21
164.300213
 31
0.0
  0
LINE
  8
41
  5
202E2
 10
6.966151
 20
164.030636
 30
0.0
 11
6.966151
 21
166.030636
 31
0.0
  0
ARC
  8
41
  5
202E3
 10
-0.683702
 20
166.298994
 30
0.0
 40
2.0
 50
195.0
 51
268.0
  0
LINE
  8
41
  5
202E4
 10
-2.679028
 20
166.018246
 30
0.0
 11
-2.615553
 21
165.781356
 31
0.0
  0
LINE
  8
41
  5
202E5
 10
-32.033849
 20
166.530636
 30
0.0
 11
-32.033849
 21
176.541355
 31
0.0
  0
ENDBLK
  8
0
  5
202E7
  0
ENDSEC
  0
SECTION
  2
ENTITIES
  0
VIEWPORT
  8
0
  5
1
 67
     1
 68
     1
 10
210.0
 20
152.094241
 30
0.0
 40
420.0
 41
304.188482
 69
     1
1001
ACAD
1000
MVIEW
1002
{
1070
    16
1010
0.0
1020
0.0
1030
0.0
1010
0.0
1020
0.0
1030
1.0
1040
0.0
1040
304.188482
1040
210.0
1040
152.094241
1040
50.0
1040
0.0
1040
0.0
1070
     0
1070
   100
1070
     1
1070
     1
1070
     1
1070
     0
1070
     0
1070
     0
1040
0.0
1040
0.0
1040
0.0
1040
1.0
1040
1.0
1040
0.0
1040
0.0
1070
     0
1002
{
1002
}
1002
}
  0
INSERT
  8
L1
  5
202E8
  2
EKI6404C
 10
0.0
 20
0.0
 30
0.0
  0
ENDSEC
  0
EOF
