  0
SECTION
  2
HEADER
  9
$ACADVER
  1
AC1009
  9
$INSBASE
 10
0.0
 20
0.0
 30
0.0
  9
$EXTMIN
 10
-502.57823796616663
 20
89.894065673483624
 30
0.0
  9
$EXTMAX
 10
610.62870997528455
 20
742.995685457175
 30
0.0
  9
$LIMMIN
 10
0.0
 20
0.0
  9
$LIMMAX
 10
420.0
 20
297.0
  9
$ORTHOMODE
 70
     1
  9
$REGENMODE
 70
     1
  9
$FILLMODE
 70
     1
  9
$QTEXTMODE
 70
     0
  9
$MIRRTEXT
 70
     1
  9
$DRAGMODE
 70
     2
  9
$LTSCALE
 40
7.0
  9
$OSMODE
 70
    37
  9
$ATTMODE
 70
     1
  9
$TEXTSIZE
 40
3.5
  9
$TRACEWID
 40
0.05
  9
$TEXTSTYLE
  7
STANDARD
  9
$CLAYER
  8
11
  9
$CELTYPE
  6
BYLAYER
  9
$CECOLOR
 62
   256
  9
$DIMSCALE
 40
1.0
  9
$DIMASZ
 40
3.5
  9
$DIMEXO
 40
0.0
  9
$DIMDLI
 40
10.0
  9
$DIMRND
 40
0.0
  9
$DIMDLE
 40
0.0
  9
$DIMEXE
 40
2.0
  9
$DIMTP
 40
0.0
  9
$DIMTM
 40
0.0
  9
$DIMTXT
 40
3.5
  9
$DIMCEN
 40
2.5
  9
$DIMTSZ
 40
0.0
  9
$DIMTOL
 70
     0
  9
$DIMLIM
 70
     0
  9
$DIMTIH
 70
     0
  9
$DIMTOH
 70
     0
  9
$DIMSE1
 70
     0
  9
$DIMSE2
 70
     0
  9
$DIMTAD
 70
     1
  9
$DIMZIN
 70
     8
  9
$DIMBLK
  1

  9
$DIMASO
 70
     1
  9
$DIMSHO
 70
     1
  9
$DIMPOST
  1

  9
$DIMAPOST
  1

  9
$DIMALT
 70
     0
  9
$DIMALTD
 70
     2
  9
$DIMALTF
 40
25.399999999999999
  9
$DIMLFAC
 40
1.0
  9
$DIMTOFL
 70
     1
  9
$DIMTVP
 40
0.0
  9
$DIMTIX
 70
     1
  9
$DIMSOXD
 70
     0
  9
$DIMSAH
 70
     0
  9
$DIMBLK1
  1

  9
$DIMBLK2
  1

  9
$DIMSTYLE
  2
ACADUS
  9
$DIMCLRD
 70
   256
  9
$DIMCLRE
 70
   256
  9
$DIMCLRT
 70
     3
  9
$DIMTFAC
 40
1.0
  9
$DIMGAP
 40
2.0
  9
$LUNITS
 70
     2
  9
$LUPREC
 70
     2
  9
$SKETCHINC
 40
1.0
  9
$FILLETRAD
 40
0.0
  9
$AUNITS
 70
     0
  9
$AUPREC
 70
     2
  9
$MENU
  1
CAESAR
  9
$ELEVATION
 40
0.0
  9
$PELEVATION
 40
0.0
  9
$THICKNESS
 40
0.0
  9
$LIMCHECK
 70
     0
  9
$BLIPMODE
 70
     0
  9
$CHAMFERA
 40
5.0
  9
$CHAMFERB
 40
5.0
  9
$SKPOLY
 70
     0
  9
$TDCREATE
 40
2449183.4823798612
  9
$TDUPDATE
 40
2452318.6121125109
  9
$TDINDWG
 40
0.6353562847000001
  9
$TDUSRTIMER
 40
0.6353562847000001
  9
$USRTIMER
 70
     1
  9
$ANGBASE
 50
0.0
  9
$ANGDIR
 70
     0
  9
$PDMODE
 70
     0
  9
$PDSIZE
 40
0.0
  9
$PLINEWID
 40
0.0
  9
$COORDS
 70
     1
  9
$SPLFRAME
 70
     0
  9
$SPLINETYPE
 70
     6
  9
$SPLINESEGS
 70
     8
  9
$ATTDIA
 70
     0
  9
$ATTREQ
 70
     1
  9
$HANDLING
 70
 22529
  9
$HANDSEED
  5
23345
  9
$SURFTAB1
 70
     6
  9
$SURFTAB2
 70
     6
  9
$SURFTYPE
 70
     6
  9
$SURFU
 70
     6
  9
$SURFV
 70
     6
  9
$UCSNAME
  2

  9
$UCSORG
 10
718.62870997528455
 20
297.89406567348362
 30
0.0
  9
$UCSXDIR
 10
1.0
 20
0.0
 30
0.0
  9
$UCSYDIR
 10
0.0
 20
1.0
 30
0.0
  9
$PUCSNAME
  2

  9
$PUCSORG
 10
0.0
 20
0.0
 30
0.0
  9
$PUCSXDIR
 10
1.0
 20
0.0
 30
0.0
  9
$PUCSYDIR
 10
0.0
 20
1.0
 30
0.0
  9
$USERI1
 70
     0
  9
$USERI2
 70
     0
  9
$USERI3
 70
     0
  9
$USERI4
 70
     0
  9
$USERI5
 70
     0
  9
$USERR1
 40
1.0
  9
$USERR2
 40
0.0
  9
$USERR3
 40
3.5
  9
$USERR4
 40
0.0
  9
$USERR5
 40
0.0
  9
$WORLDVIEW
 70
     1
  9
$SHADEDGE
 70
     3
  9
$SHADEDIF
 70
    70
  9
$TILEMODE
 70
     1
  9
$MAXACTVP
 70
    16
  9
$PLIMCHECK
 70
     0
  9
$PEXTMIN
 10
1.0000000000000000E+020
 20
1.0000000000000000E+020
 30
1.0000000000000000E+020
  9
$PEXTMAX
 10
-1.0000000000000000E+020
 20
-1.0000000000000000E+020
 30
-1.0000000000000000E+020
  9
$PLIMMIN
 10
0.0
 20
0.0
  9
$PLIMMAX
 10
420.0
 20
297.0
  9
$UNITMODE
 70
     0
  9
$VISRETAIN
 70
     0
  9
$PLINEGEN
 70
     0
  9
$PSLTSCALE
 70
     0
  0
ENDSEC
  0
SECTION
  2
TABLES
  0
TABLE
  2
VPORT
 70
     2
  0
VPORT
  2
*ACTIVE
 70
     0
 10
0.0
 20
0.0
 11
1.0
 21
1.0
 12
-99.194353491150991
 22
-160.64928686653769
 13
0.0
 23
0.0
 14
1.0
 24
1.0
 15
10.0
 25
10.0
 16
0.0
 26
0.0
 36
1.0
 17
153.2195946796424
 27
577.09262077068945
 37
0.0
 40
745.79268381467148
 41
1.5
 42
50.0
 43
0.0
 44
0.0
 50
0.0
 51
0.0
 71
     0
 72
  1000
 73
     1
 74
     1
 75
     1
 76
     0
 77
     0
 78
     0
  0
ENDTAB
  0
TABLE
  2
LTYPE
 70
    11
  0
LTYPE
  2
CONTINUOUS
 70
     0
  3
Solid line
 72
    65
 73
     0
 40
0.0
  0
LTYPE
  2
CENTER
 70
     0
  3
____ _ ____ _ ____ _ ____ _ ____ _ ____ _ ____ 
 72
    65
 73
     4
 40
2.0
 49
1.25
 49
-0.25
 49
0.25
 49
-0.25
  0
LTYPE
  2
DASHDOT
 70
     0
  3
__ . __ . __ . __ . __ . __ . __ . __ . __ . __
 72
    65
 73
     4
 40
1.0
 49
0.5
 49
-0.25
 49
0.0
 49
-0.25
  0
LTYPE
  2
DASHED
 70
     0
  3
__ __ __ __ __ __ __ __ __ __ __ __ __ __ __ __
 72
    65
 73
     2
 40
0.75
 49
0.5
 49
-0.25
  0
LTYPE
  2
AM_ISO02W050
 70
     0
  3
__ __ __ __ __ __ __ __ __ __ __ __ __ __ __
 72
    65
 73
     2
 40
7.5
 49
6.0
 49
-1.5
  0
LTYPE
  2
AM_ISO08W050
 70
     0
  3
____ . ____ . ____ . ____ . ____ . ____ . ____
 72
    65
 73
     4
 40
18.0
 49
12.0
 49
-1.5
 49
3.0
 49
-1.5
  0
LTYPE
  2
AM_ISO09W050
 70
     0
  3
_____ . . _____ . . _____ . . ____ .. ____
 72
    65
 73
     6
 40
22.5
 49
12.0
 49
-1.5
 49
3.0
 49
-1.5
 49
3.0
 49
-1.5
  0
LTYPE
  2
AMCONSTR
 70
     0
  3
_______________________
 72
    65
 73
     2
 40
9999.0
 49
9999.0
 49
0.0
  0
LTYPE
  2
AM_ISO08W050X2
 70
     0
  3
__ . __ . __ . __ . __ . __
 72
    65
 73
     4
 40
9.0
 49
6.0
 49
-0.75
 49
1.5
 49
-0.75
  0
LTYPE
  2
AM_ISO02W050X2
 70
     0
  3
 _ _ _ _ _ _ _ _ _ _ _ _
 72
    65
 73
     2
 40
3.75
 49
3.0
 49
-0.75
  0
LTYPE
  2
AMZIGZAG
 70
     0
  3
/\/-/\/-/\/-/\/-/\/-/\/
 72
    65
 73
     2
 40
11.000099999999991
 49
0.0001
 49
-11.0
  0
ENDTAB
  0
TABLE
  2
LAYER
 70
    20
  0
LAYER
  2
0
 70
     0
 62
     7
  6
CONTINUOUS
  0
LAYER
  2
L20
 70
     0
 62
     3
  6
CONTINUOUS
  0
LAYER
  2
DEFPOINTS
 70
     0
 62
     7
  6
CONTINUOUS
  0
LAYER
  2
11
 70
     0
 62
     7
  6
CONTINUOUS
  0
LAYER
  2
13
 70
     0
 62
     1
  6
CENTER
  0
LAYER
  2
14
 70
     0
 62
     1
  6
DASHED
  0
LAYER
  2
21
 70
     0
 62
     7
  6
CONTINUOUS
  0
LAYER
  2
23
 70
     0
 62
     1
  6
CENTER
  0
LAYER
  2
24
 70
     0
 62
     1
  6
DASHED
  0
LAYER
  2
31
 70
     0
 62
     7
  6
CONTINUOUS
  0
LAYER
  2
33
 70
     0
 62
     1
  6
CENTER
  0
LAYER
  2
34
 70
     0
 62
     1
  6
DASHED
  0
LAYER
  2
41
 70
     0
 62
     7
  6
CONTINUOUS
  0
LAYER
  2
43
 70
     0
 62
     1
  6
CENTER
  0
LAYER
  2
44
 70
     0
 62
     1
  6
DASHED
  0
LAYER
  2
51
 70
     0
 62
     7
  6
CONTINUOUS
  0
LAYER
  2
52
 70
     0
 62
     1
  6
CONTINUOUS
  0
LAYER
  2
53
 70
     0
 62
     1
  6
CENTER
  0
LAYER
  2
61
 70
     0
 62
     7
  6
CONTINUOUS
  0
LAYER
  2
63
 70
     0
 62
     1
  6
CENTER
  0
ENDTAB
  0
TABLE
  2
STYLE
 70
     2
  0
STYLE
  2
STANDARD
 70
     0
 40
0.0
 41
1.0
 50
0.0
 71
     0
 42
3.5
  3
CAEISO
  4

  0
STYLE
  2

 70
     1
 40
0.0
 41
1.0
 50
0.0
 71
     0
 42
3.5
  3
ltypeshp.shx
  4

  0
ENDTAB
  0
TABLE
  2
VIEW
 70
     0
  0
ENDTAB
  0
TABLE
  2
UCS
 70
     0
  0
ENDTAB
  0
TABLE
  2
APPID
 70
    11
  0
APPID
  2
ACAD
 70
     0
  0
APPID
  2
MCAD_NO_VIS
 70
     0
  0
APPID
  2
ACAD_TEMP_GRAPHIC
 70
     0
  0
APPID
  2
AD_DRAW
 70
     0
  0
APPID
  2
ACATTRIBSERVICES
 70
     0
  0
APPID
  2
GENIUS_GENDIM_13
 70
     0
  0
APPID
  2
GENIUS_GENDTOL_13
 70
     0
  0
APPID
  2
GENIUS_GE3DTOL_13
 70
     0
  0
APPID
  2
ASURF_PCURVE_APPNAME
 70
     0
  0
APPID
  2
DESIGNERASSEMBLIES
 70
     0
  0
APPID
  2
ACADM_DIM_EDIT
 70
     0
  0
ENDTAB
  0
TABLE
  2
DIMSTYLE
 70
     1
  0
DIMSTYLE
  2
ACADUS
 70
     0
  3

  4

  5

  6

  7

 40
1.0
 41
0.18
 42
0.0625
 43
0.38
 44
0.18
 45
0.0
 46
0.0
 47
0.0
 48
0.0
140
0.18
141
0.09
142
0.0
143
25.399999999999999
144
1.0
145
0.0
146
1.0
147
0.09
 71
     0
 72
     0
 73
     1
 74
     1
 75
     0
 76
     0
 77
     0
 78
     0
170
     0
171
     2
172
     0
173
     0
174
     0
175
     0
176
     0
177
     0
178
     0
  0
ENDTAB
  0
ENDSEC
  0
SECTION
  2
BLOCKS
  0
BLOCK
  8
0
  2
$MODEL_SPACE
 70
     0
 10
0.0
 20
0.0
 30
0.0
  3
$MODEL_SPACE
  1

  0
ENDBLK
  5
2320A
  8
0
  0
BLOCK
 67
     1
  8
0
  2
$PAPER_SPACE
 70
     0
 10
0.0
 20
0.0
 30
0.0
  3
$PAPER_SPACE
  1

  0
ENDBLK
  5
23208
 67
     1
  8
0
  0
BLOCK
  8
0
  2
*U0
 70
     1
 10
0.0
 20
0.0
 30
0.0
  3
*U0
  1

  0
ENDBLK
  5
232BE
  8
0
  0
ENDSEC
  0
SECTION
  2
ENTITIES
  0
LINE
  5
2CB3
  8
61
 10
86.0
 20
206.0
 30
0.0
 11
86.0
 21
403.0
 31
0.0
  0
ARC
  5
2CB5
  8
61
 10
104.0
 20
222.0
 30
0.0
 40
16.199999999999999
 50
113.1467947116994
 51
330.40755832887749
  0
CIRCLE
  5
2CB6
  8
61
 10
104.0
 20
222.0
 30
0.0
 40
13.0
  0
LINE
  5
2CB8
  8
61
 10
88.0
 20
204.0
 30
0.0
 11
285.0
 21
204.0
 31
0.0
  0
LINE
  5
2CB9
  8
61
 10
117.683566786478
 20
212.0
 30
0.0
 11
285.0
 21
212.0
 31
0.0
  0
LINE
  5
2CBB
  8
61
 10
98.121320343559674
 20
230.0
 30
0.0
 11
96.761563835430934
 21
231.3597565081287
 31
0.0
  0
LINE
  5
2CBC
  8
61
 10
96.0
 20
227.87867965644031
 30
0.0
 11
98.121320343559674
 21
230.0
 31
0.0
  0
ARC
  5
2CBD
  8
61
 10
98.0
 20
216.0
 30
0.0
 40
2.0
 50
180.0
 51
270.0
  0
ARC
  5
2CBE
  8
61
 10
88.0
 20
206.0
 30
0.0
 40
2.0
 50
180.0
 51
270.0
  0
LINE
  5
2CBF
  8
61
 10
96.0
 20
227.87867965644031
 30
0.0
 11
96.0
 21
216.0
 31
0.0
  0
ARC
  5
2CC0
  8
61
 10
93.933136710684721
 20
228.53132938338251
 30
0.0
 40
1.0
 50
44.999999999999417
 51
147.02469918056539
  0
LINE
  5
2CC1
  8
61
 10
96.0
 20
227.87867965644031
 30
0.0
 11
94.640243491871274
 21
229.23843616456901
 31
0.0
  0
ARC
  5
2CC2
  8
61
 10
97.468670616617374
 20
232.06686328931519
 30
0.0
 40
1.0
 50
122.97530081943491
 51
225.00000000000111
  0
ARC
  5
2CC3
  8
61
 10
104.0
 20
222.0
 30
0.0
 40
8.0
 50
0.0
 51
90.0
  0
LINE
  5
2CC4
  8
61
 10
112.0
 20
216.0
 30
0.0
 11
112.0
 21
222.0
 31
0.0
  0
CIRCLE
  5
2CC5
  8
61
 10
104.0
 20
222.0
 30
0.0
 40
6.0
  0
CIRCLE
  5
2CC6
  8
61
 10
104.0
 20
222.0
 30
0.0
 40
4.25
  0
LINE
  5
2CC7
  8
61
 10
98.0
 20
214.0
 30
0.0
 11
110.0
 21
214.0
 31
0.0
  0
ARC
  5
2CC8
  8
61
 10
110.0
 20
216.0
 30
0.0
 40
2.0
 50
270.0
 51
0.0
  0
LINE
  5
2CC9
  8
61
 10
98.121320343559674
 20
230.0
 30
0.0
 11
104.0
 21
230.0
 31
0.0
  0
ARC
  5
2CCB
  8
61
 10
117.683566786478
 20
210.0
 30
0.0
 40
2.0
 50
90.0
 51
138.75039290599301
  0
LINE
  5
2CCD
  8
61
 10
94.0
 20
235.68356678647811
 30
0.0
 11
94.0
 21
403.0
 31
0.0
  0
ARC
  5
2CCE
  8
61
 10
92.0
 20
235.68356678647811
 30
0.0
 40
2.0
 50
311.24960709400659
 51
0.0
  0
LINE
  5
2CE8
  8
61
 10
94.0
 20
570.31643321352192
 30
0.0
 11
94.0
 21
403.0
 31
0.0
  0
LINE
  5
2CE9
  8
61
 10
86.0
 20
600.0
 30
0.0
 11
86.0
 21
403.0
 31
0.0
  0
LINE
  5
2CEB
  8
63
  6
DASHDOT
 10
285.0
 20
610.44043802255874
 30
0.0
 11
285.0
 21
190.8940656734836
 31
0.0
  0
LINE
  5
2CEC
  8
61
 10
117.683566786478
 20
594.0
 30
0.0
 11
285.0
 21
593.99999999999977
 31
0.0
  0
LINE
  5
2CED
  8
61
 10
88.0
 20
602.0
 30
0.0
 11
285.0
 21
602.0
 31
0.0
  0
ARC
  5
2CEF
  8
61
 10
92.0
 20
570.31643321352192
 30
0.0
 40
2.0
 50
0.0
 51
48.750392905993351
  0
CIRCLE
  5
2CF0
  8
61
 10
104.0
 20
584.0
 30
0.0
 40
13.0
  0
ARC
  5
2CF1
  8
61
 10
104.0
 20
584.0
 30
0.0
 40
16.199999999999999
 50
29.59244167112243
 51
246.8532052883005
  0
ARC
  5
2CF2
  8
61
 10
104.0
 20
584.0
 30
0.0
 40
8.0
 50
270.0
 51
0.0
  0
CIRCLE
  5
2CF3
  8
61
 10
104.0
 20
584.0
 30
0.0
 40
6.0
  0
LINE
  5
2CF4
  8
61
 10
98.0
 20
592.0
 30
0.0
 11
109.8786796564403
 21
592.0
 31
0.0
  0
ARC
  5
2CF5
  8
61
 10
88.0
 20
600.0
 30
0.0
 40
2.0
 50
90.0
 51
180.0
  0
LINE
  5
2CF6
  8
61
 10
96.0
 20
578.0
 30
0.0
 11
96.0
 21
590.0
 31
0.0
  0
CIRCLE
  5
2CF7
  8
61
 10
104.0
 20
584.0
 30
0.0
 40
4.25
  0
ARC
  5
2CF8
  8
61
 10
98.0
 20
590.0
 30
0.0
 40
2.0
 50
90.0
 51
180.0
  0
LINE
  5
2CF9
  8
61
 10
98.0
 20
576.0
 30
0.0
 11
104.0
 21
576.0
 31
0.0
  0
LINE
  5
2CFA
  8
61
 10
112.0
 20
589.87867965644034
 30
0.0
 11
113.3597565081287
 21
591.23843616456895
 31
0.0
  0
LINE
  5
2CFB
  8
61
 10
109.8786796564403
 20
592.0
 30
0.0
 11
112.0
 21
589.87867965644034
 31
0.0
  0
ARC
  5
2CFC
  8
61
 10
110.5313293833825
 20
594.06686328931517
 30
0.0
 40
1.0
 50
314.99999999999932
 51
57.02469918056547
  0
LINE
  5
2CFD
  8
61
 10
109.8786796564403
 20
592.0
 30
0.0
 11
111.23843616456899
 21
593.35975650812873
 31
0.0
  0
ARC
  5
2CFE
  8
61
 10
114.06686328931519
 20
590.53132938338263
 30
0.0
 40
1.0
 50
32.975300819434977
 51
135.00000000000111
  0
ARC
  5
2CFF
  8
61
 10
117.683566786478
 20
596.0
 30
0.0
 40
2.0
 50
221.2496070940069
 51
270.0
  0
LINE
  5
2D01
  8
61
 10
112.0
 20
589.87867965644034
 30
0.0
 11
112.0
 21
584.0
 31
0.0
  0
LINE
  5
2D02
  8
61
 10
476.0
 20
235.68356678647811
 30
0.0
 11
476.0
 21
403.0
 31
0.0
  0
LINE
  5
2D03
  8
61
 10
484.0
 20
206.0
 30
0.0
 11
484.0
 21
403.0
 31
0.0
  0
LINE
  5
2D05
  8
61
 10
452.31643321352198
 20
212.0
 30
0.0
 11
285.0
 21
212.0
 31
0.0
  0
LINE
  5
2D06
  8
61
 10
482.0
 20
204.0
 30
0.0
 11
285.0
 21
204.0
 31
0.0
  0
ARC
  5
2D08
  8
61
 10
478.0
 20
235.68356678647811
 30
0.0
 40
2.0
 50
180.0
 51
228.75039290599329
  0
CIRCLE
  5
2D09
  8
61
 10
466.0
 20
222.0
 30
0.0
 40
13.0
  0
ARC
  5
2D0A
  8
61
 10
466.0
 20
222.0
 30
0.0
 40
16.199999999999999
 50
209.59244167112229
 51
66.853205288300586
  0
ARC
  5
2D0B
  8
61
 10
466.0
 20
222.0
 30
0.0
 40
8.0
 50
90.0
 51
180.0
  0
CIRCLE
  5
2D0C
  8
61
 10
466.0
 20
222.0
 30
0.0
 40
6.0
  0
LINE
  5
2D0D
  8
61
 10
472.0
 20
214.0
 30
0.0
 11
460.1213203435596
 21
214.0
 31
0.0
  0
ARC
  5
2D0E
  8
61
 10
482.0
 20
206.0
 30
0.0
 40
2.0
 50
270.0
 51
0.0
  0
LINE
  5
2D0F
  8
61
 10
474.0
 20
228.0
 30
0.0
 11
474.0
 21
216.0
 31
0.0
  0
CIRCLE
  5
2D10
  8
61
 10
466.0
 20
222.0
 30
0.0
 40
4.25
  0
ARC
  5
2D11
  8
61
 10
472.0
 20
216.0
 30
0.0
 40
2.0
 50
270.0
 51
0.0
  0
LINE
  5
2D12
  8
61
 10
472.0
 20
230.0
 30
0.0
 11
466.0
 21
230.0
 31
0.0
  0
LINE
  5
2D13
  8
61
 10
458.0
 20
216.1213203435596
 30
0.0
 11
456.64024349187122
 21
214.76156383543091
 31
0.0
  0
LINE
  5
2D14
  8
61
 10
460.1213203435596
 20
214.0
 30
0.0
 11
458.0
 21
216.1213203435596
 31
0.0
  0
ARC
  5
2D15
  8
61
 10
459.46867061661737
 20
211.93313671068469
 30
0.0
 40
1.0
 50
134.9999999999994
 51
237.02469918056539
  0
LINE
  5
2D16
  8
61
 10
460.1213203435596
 20
214.0
 30
0.0
 11
458.76156383543088
 21
212.64024349187119
 31
0.0
  0
ARC
  5
2D17
  8
61
 10
455.93313671068472
 20
215.46867061661729
 30
0.0
 40
1.0
 50
212.97530081943489
 51
315.00000000000108
  0
ARC
  5
2D18
  8
61
 10
452.31643321352198
 20
210.0
 30
0.0
 40
2.0
 50
41.24960709400689
 51
90.0
  0
LINE
  5
2D1A
  8
61
 10
458.0
 20
216.1213203435596
 30
0.0
 11
458.0
 21
222.0
 31
0.0
  0
LINE
  5
2D1C
  8
61
 10
482.0
 20
602.0
 30
0.0
 11
285.0
 21
602.0
 31
0.0
  0
LINE
  5
2D1D
  8
61
 10
452.31643321352198
 20
594.0
 30
0.0
 11
285.0
 21
594.0
 31
0.0
  0
LINE
  5
2D20
  8
61
 10
484.0
 20
600.0
 30
0.0
 11
484.0
 21
403.0
 31
0.0
  0
LINE
  5
2D21
  8
61
 10
476.0
 20
570.31643321352192
 30
0.0
 11
476.0
 21
403.0
 31
0.0
  0
LINE
  5
2D22
  8
61
 10
472.0
 20
592.0
 30
0.0
 11
460.0
 21
592.0
 31
0.0
  0
CIRCLE
  5
2D23
  8
61
 10
466.0
 20
584.0
 30
0.0
 40
6.0
  0
ARC
  5
2D24
  8
61
 10
466.0
 20
584.0
 30
0.0
 40
8.0
 50
180.0
 51
270.0
  0
ARC
  5
2D25
  8
61
 10
466.0
 20
584.0
 30
0.0
 40
16.199999999999999
 50
293.14679471169939
 51
150.40755832887751
  0
CIRCLE
  5
2D26
  8
61
 10
466.0
 20
584.0
 30
0.0
 40
13.0
  0
ARC
  5
2D27
  8
61
 10
472.0
 20
590.0
 30
0.0
 40
2.0
 50
0.0
 51
90.0
  0
LINE
  5
2D28
  8
61
 10
474.0
 20
578.12132034355955
 30
0.0
 11
474.0
 21
590.0
 31
0.0
  0
LINE
  5
2D29
  8
61
 10
471.87867965644028
 20
576.0
 30
0.0
 11
466.0
 21
576.0
 31
0.0
  0
ARC
  5
2D2A
  8
61
 10
472.53132938338263
 20
573.93313671068472
 30
0.0
 40
1.0
 50
302.97530081943501
 51
45.000000000001172
  0
LINE
  5
2D2B
  8
61
 10
474.0
 20
578.12132034355955
 30
0.0
 11
475.35975650812873
 21
576.76156383543093
 31
0.0
  0
ARC
  5
2D2C
  8
61
 10
476.06686328931522
 20
577.46867061661749
 30
0.0
 40
1.0
 50
224.99999999999929
 51
327.02469918056551
  0
LINE
  5
2D2D
  8
61
 10
474.0
 20
578.12132034355955
 30
0.0
 11
471.87867965644028
 21
576.0
 31
0.0
  0
LINE
  5
2D2E
  8
61
 10
471.87867965644028
 20
576.0
 30
0.0
 11
473.23843616456901
 21
574.64024349187127
 31
0.0
  0
ARC
  5
2D2F
  8
61
 10
478.0
 20
570.31643321352192
 30
0.0
 40
2.0
 50
131.24960709400659
 51
180.0
  0
CIRCLE
  5
2D30
  8
61
 10
466.0
 20
584.0
 30
0.0
 40
4.25
  0
ARC
  5
2D31
  8
61
 10
482.0
 20
600.0
 30
0.0
 40
2.0
 50
0.0
 51
90.0
  0
ARC
  5
2D32
  8
61
 10
460.0
 20
590.0
 30
0.0
 40
2.0
 50
90.0
 51
180.0
  0
LINE
  5
2D33
  8
61
 10
458.0
 20
590.0
 30
0.0
 11
458.0
 21
584.0
 31
0.0
  0
ARC
  5
2D34
  8
61
 10
452.31643321352198
 20
596.0
 30
0.0
 40
2.0
 50
270.0
 51
318.75039290599312
  0
LINE
  5
4C04
  8
63
  6
DASHDOT
 10
81.793052058548881
 20
403.0
 30
0.0
 11
499.62870997528449
 21
403.0
 31
0.0
  0
ARC
  5
CD7C
  8
61
 10
98.0
 20
578.0
 30
0.0
 40
2.0
 50
180.0
 51
270.0
  0
ARC
  5
CD7D
  8
61
 10
472.0
 20
228.0
 30
0.0
 40
2.0
 50
0.0
 51
90.0
  0
LINE
  5
10CD7
  8
51
 10
-474.87129002471539
 20
214.0
 30
0.0
 11
-299.37129002471539
 21
214.0
 31
0.0
  0
LINE
  5
10CD8
  8
52
 10
-495.87129002471539
 20
206.0
 30
0.0
 11
-299.37129002471539
 21
206.0
 31
0.0
  0
LINE
  5
10CD9
  8
52
 10
-487.87129002471539
 20
212.0
 30
0.0
 11
-299.37129002471539
 21
212.0
 31
0.0
  0
LINE
  5
10CDA
  8
51
 10
-495.87129002471539
 20
204.0
 30
0.0
 11
-299.37129002471539
 21
204.0
 31
0.0
  0
LINE
  5
10CDF
  8
52
 10
-496.37129002471539
 20
206.49999999999989
 30
0.0
 11
-496.37129002471539
 21
403.0
 31
0.0
  0
LINE
  5
10CE0
  8
51
 10
-488.37129002471539
 20
403.0
 30
0.0
 11
-488.37129002471539
 21
227.49999999999989
 31
0.0
  0
LINE
  5
10CE1
  8
52
 10
-490.37129002471539
 20
403.0
 30
0.0
 11
-490.37129002471539
 21
214.5
 31
0.0
  0
ARC
  5
10CE2
  8
51
 10
-480.37129002471551
 20
222.0
 30
0.0
 40
15.699999999999999
 50
329.36586419625331
 51
120.6341358037466
  0
LINE
  5
10CE3
  8
51
 10
-498.37129002471539
 20
206.49999999999989
 30
0.0
 11
-498.37129002471539
 21
403.0
 31
0.0
  0
LINE
  5
10CE6
  8
51
 10
-484.29777803788841
 20
223.6264045875516
 30
0.0
 11
-486.37650698603869
 21
224.48744231037301
 31
0.0
  0
LINE
  5
10CE7
  8
51
 10
-484.29777803788841
 20
220.37359541244831
 30
0.0
 11
-486.37650698603869
 21
219.5125576896269
 31
0.0
  0
LINE
  5
10CE8
  8
51
 10
-480.37129002471551
 20
232.19999999999999
 30
0.0
 11
-487.37129002471539
 21
232.19999999999999
 31
0.0
  0
LINE
  5
10CE9
  8
51
 10
-487.87129002471539
 20
214.0
 30
0.0
 11
-481.87129002471539
 21
214.0
 31
0.0
  0
CIRCLE
  5
10CEA
  8
51
 10
-480.37129002471551
 20
222.0
 30
0.0
 40
6.5
  0
LINE
  5
10CEB
  8
51
 10
-488.37129002471539
 20
220.5
 30
0.0
 11
-488.37129002471539
 21
214.5
 31
0.0
  0
ARC
  5
10CEC
  8
51
 10
-495.87129002471539
 20
206.49999999999989
 30
0.0
 40
2.5
 50
180.0
 51
270.0
  0
ARC
  5
10CED
  8
52
 10
-495.87129002471539
 20
206.49999999999989
 30
0.0
 40
0.5
 50
180.0
 51
270.0
  0
ARC
  5
10CEE
  8
52
 10
-487.87129002471539
 20
214.5
 30
0.0
 40
2.5
 50
180.0
 51
270.0
  0
ARC
  5
10CEF
  8
51
 10
-487.87129002471539
 20
214.5
 30
0.0
 40
0.5
 50
180.0
 51
270.0
  0
LINE
  5
10CF0
  8
51
 10
-490.37129002471539
 20
220.5
 30
0.0
 11
-488.37129002471539
 21
220.5
 31
0.0
  0
LINE
  5
10CF1
  8
51
 10
-490.37129002471539
 20
227.49999999999989
 30
0.0
 11
-488.37129002471539
 21
227.49999999999989
 31
0.0
  0
ARC
  5
10CF2
  8
51
 10
-487.37129002471539
 20
233.1999999999999
 30
0.0
 40
1.0
 50
180.0
 51
270.0
  0
LINE
  5
10CF3
  8
51
 10
-470.17129002471552
 20
222.0
 30
0.0
 11
-470.17129002471552
 21
215.0
 31
0.0
  0
LINE
  5
10CF4
  8
51
 10
-481.87129002471539
 20
212.0
 30
0.0
 11
-481.87129002471539
 21
214.0
 31
0.0
  0
LINE
  5
10CF5
  8
51
 10
-474.87129002471539
 20
212.0
 30
0.0
 11
-474.87129002471539
 21
214.0
 31
0.0
  0
ARC
  5
10CF6
  8
51
 10
-469.1712900247154
 20
215.0
 30
0.0
 40
1.0
 50
180.0
 51
270.0
  0
ARC
  5
10CF7
  8
51
 10
-480.37129002471551
 20
222.0
 30
0.0
 40
10.199999999999999
 50
0.0
 51
90.0
  0
LINE
  5
10CF8
  8
51
 10
-481.99769461226708
 20
225.9264880131729
 30
0.0
 11
-482.8587323350884
 21
228.0052169613233
 31
0.0
  0
LINE
  5
10CF9
  8
51
 10
-478.74488543716382
 20
225.9264880131729
 30
0.0
 11
-477.88384771434238
 21
228.0052169613233
 31
0.0
  0
CIRCLE
  5
10CFA
  8
51
 10
-480.37129002471551
 20
222.0
 30
0.0
 40
4.25
  0
LINE
  5
10CFB
  8
51
 10
-481.99769461226708
 20
218.07351198682699
 30
0.0
 11
-482.8587323350884
 21
215.99478303867659
 31
0.0
  0
LINE
  5
10CFC
  8
51
 10
-478.74488543716382
 20
218.07351198682699
 30
0.0
 11
-477.88384771434238
 21
215.99478303867659
 31
0.0
  0
LINE
  5
10CFD
  8
51
 10
-476.44480201154238
 20
220.37359541244831
 30
0.0
 11
-474.36607306339209
 21
219.5125576896269
 31
0.0
  0
LINE
  5
10CFE
  8
51
 10
-476.44480201154238
 20
223.6264045875516
 30
0.0
 11
-474.36607306339209
 21
224.48744231037301
 31
0.0
  0
LINE
  5
10D02
  8
51
 10
-498.37129002471539
 20
599.5
 30
0.0
 11
-498.37129002471539
 21
403.0
 31
0.0
  0
LINE
  5
10D03
  8
52
 10
-490.37129002471539
 20
403.0
 30
0.0
 11
-490.37129002471539
 21
591.5
 31
0.0
  0
LINE
  5
10D04
  8
51
 10
-488.37129002471539
 20
403.0
 30
0.0
 11
-488.37129002471539
 21
578.5
 31
0.0
  0
LINE
  5
10D05
  8
52
 10
-496.37129002471539
 20
599.5
 30
0.0
 11
-496.37129002471539
 21
403.0
 31
0.0
  0
LINE
  5
10D08
  8
51
 10
-474.87129002471539
 20
592.0
 30
0.0
 11
-299.37129002471539
 21
592.0
 31
0.0
  0
LINE
  5
10D09
  8
52
 10
-495.87129002471539
 20
600.0
 30
0.0
 11
-299.37129002471539
 21
600.0
 31
0.0
  0
LINE
  5
10D0A
  8
52
 10
-487.87129002471539
 20
594.0
 30
0.0
 11
-299.37129002471539
 21
594.0
 31
0.0
  0
LINE
  5
10D0B
  8
51
 10
-495.87129002471539
 20
602.0
 30
0.0
 11
-299.37129002471539
 21
602.0
 31
0.0
  0
ARC
  5
10D0D
  8
51
 10
-495.87129002471539
 20
599.5
 30
0.0
 40
2.5
 50
90.0
 51
180.0
  0
LINE
  5
10D0F
  8
51
 10
-480.37129002471551
 20
573.79999999999995
 30
0.0
 11
-487.37129002471539
 21
573.79999999999995
 31
0.0
  0
LINE
  5
10D10
  8
51
 10
-484.29777803788841
 20
582.37359541244825
 30
0.0
 11
-486.37650698603869
 21
581.51255768962676
 31
0.0
  0
LINE
  5
10D11
  8
51
 10
-484.29777803788841
 20
585.62640458755163
 30
0.0
 11
-486.37650698603869
 21
586.48744231037313
 31
0.0
  0
LINE
  5
10D12
  8
51
 10
-487.87129002471539
 20
592.0
 30
0.0
 11
-481.87129002471539
 21
592.0
 31
0.0
  0
ARC
  5
10D14
  8
51
 10
-480.37129002471551
 20
584.0
 30
0.0
 40
15.699999999999999
 50
239.36586419625331
 51
30.63413580374668
  0
CIRCLE
  5
10D16
  8
51
 10
-480.37129002471551
 20
584.0
 30
0.0
 40
6.5
  0
LINE
  5
10D17
  8
51
 10
-488.37129002471539
 20
585.5
 30
0.0
 11
-488.37129002471539
 21
591.5
 31
0.0
  0
ARC
  5
10D18
  8
52
 10
-495.87129002471539
 20
599.5
 30
0.0
 40
0.5
 50
90.0
 51
180.0
  0
ARC
  5
10D19
  8
51
 10
-487.87129002471539
 20
591.5
 30
0.0
 40
0.5
 50
90.0
 51
180.0
  0
ARC
  5
10D1A
  8
52
 10
-487.87129002471539
 20
591.5
 30
0.0
 40
2.5
 50
90.0
 51
180.0
  0
LINE
  5
10D1B
  8
51
 10
-490.37129002471539
 20
578.5
 30
0.0
 11
-488.37129002471539
 21
578.5
 31
0.0
  0
LINE
  5
10D1C
  8
51
 10
-490.37129002471539
 20
585.5
 30
0.0
 11
-488.37129002471539
 21
585.5
 31
0.0
  0
ARC
  5
10D1D
  8
51
 10
-487.37129002471539
 20
572.79999999999995
 30
0.0
 40
1.0
 50
90.0
 51
180.0
  0
ARC
  5
10D1E
  8
51
 10
-480.37129002471551
 20
584.0
 30
0.0
 40
10.199999999999999
 50
270.0
 51
0.0
  0
LINE
  5
10D1F
  8
51
 10
-470.17129002471552
 20
584.0
 30
0.0
 11
-470.17129002471552
 21
591.0
 31
0.0
  0
LINE
  5
10D20
  8
51
 10
-478.74488543716382
 20
587.92648801317284
 30
0.0
 11
-477.88384771434238
 21
590.00521696132341
 31
0.0
  0
LINE
  5
10D21
  8
51
 10
-481.99769461226708
 20
587.92648801317284
 30
0.0
 11
-482.8587323350884
 21
590.00521696132341
 31
0.0
  0
LINE
  5
10D22
  8
51
 10
-481.87129002471539
 20
594.0
 30
0.0
 11
-481.87129002471539
 21
592.0
 31
0.0
  0
ARC
  5
10D23
  8
51
 10
-469.1712900247154
 20
591.0
 30
0.0
 40
1.0
 50
90.0
 51
180.0
  0
LINE
  5
10D24
  8
51
 10
-474.87129002471539
 20
594.0
 30
0.0
 11
-474.87129002471539
 21
592.0
 31
0.0
  0
CIRCLE
  5
10D25
  8
51
 10
-480.37129002471551
 20
584.0
 30
0.0
 40
4.25
  0
LINE
  5
10D26
  8
51
 10
-478.74488543716382
 20
580.07351198682704
 30
0.0
 11
-477.88384771434238
 21
577.99478303867659
 31
0.0
  0
LINE
  5
10D27
  8
51
 10
-481.99769461226708
 20
580.07351198682704
 30
0.0
 11
-482.8587323350884
 21
577.99478303867659
 31
0.0
  0
LINE
  5
10D28
  8
51
 10
-476.44480201154238
 20
585.62640458755163
 30
0.0
 11
-474.36607306339209
 21
586.48744231037313
 31
0.0
  0
LINE
  5
10D29
  8
51
 10
-476.44480201154238
 20
582.37359541244825
 30
0.0
 11
-474.36607306339209
 21
581.51255768962676
 31
0.0
  0
LINE
  5
22F4A
  8
53
  6
DASHDOT
 10
-299.37129002471539
 20
199.8940656734836
 30
0.0
 11
-299.37129002471539
 21
605.89406567348362
 31
0.0
  0
LINE
  5
22F4B
  8
52
 10
-102.37129002471551
 20
206.49999999999989
 30
0.0
 11
-102.37129002471551
 21
403.0
 31
0.0
  0
LINE
  5
22F4C
  8
51
 10
-110.37129002471551
 20
403.0
 30
0.0
 11
-110.37129002471551
 21
227.49999999999989
 31
0.0
  0
LINE
  5
22F4D
  8
52
 10
-108.37129002471551
 20
403.0
 30
0.0
 11
-108.37129002471551
 21
214.5
 31
0.0
  0
LINE
  5
22F4E
  8
51
 10
-100.37129002471551
 20
206.49999999999989
 30
0.0
 11
-100.37129002471551
 21
403.0
 31
0.0
  0
LINE
  5
22F4F
  8
51
 10
-123.87129002471551
 20
214.0
 30
0.0
 11
-299.37129002471551
 21
214.0
 31
0.0
  0
LINE
  5
22F50
  8
51
 10
-102.87129002471551
 20
204.0
 30
0.0
 11
-299.37129002471551
 21
204.0
 31
0.0
  0
LINE
  5
22F51
  8
52
 10
-110.87129002471551
 20
212.0
 30
0.0
 11
-299.37129002471551
 21
212.0
 31
0.0
  0
LINE
  5
22F52
  8
52
 10
-102.87129002471551
 20
206.0
 30
0.0
 11
-299.37129002471551
 21
206.0
 31
0.0
  0
ARC
  5
22F53
  8
51
 10
-118.37129002471551
 20
222.0
 30
0.0
 40
15.699999999999999
 50
59.365864196253312
 51
210.6341358037466
  0
LINE
  5
22F54
  8
51
 10
-118.37129002471551
 20
232.19999999999999
 30
0.0
 11
-111.37129002471551
 21
232.19999999999999
 31
0.0
  0
LINE
  5
22F55
  8
51
 10
-110.87129002471551
 20
214.0
 30
0.0
 11
-116.87129002471551
 21
214.0
 31
0.0
  0
CIRCLE
  5
22F56
  8
51
 10
-118.37129002471551
 20
222.0
 30
0.0
 40
6.5
  0
CIRCLE
  5
22F57
  8
51
 10
-118.37129002471551
 20
222.0
 30
0.0
 40
4.25
  0
ARC
  5
22F58
  8
52
 10
-102.87129002471551
 20
206.49999999999989
 30
0.0
 40
0.5
 50
270.0
 51
0.0
  0
ARC
  5
22F59
  8
51
 10
-102.87129002471551
 20
206.49999999999989
 30
0.0
 40
2.5
 50
270.0
 51
0.0
  0
LINE
  5
22F5A
  8
51
 10
-110.37129002471551
 20
220.5
 30
0.0
 11
-110.37129002471551
 21
214.5
 31
0.0
  0
ARC
  5
22F5B
  8
52
 10
-110.87129002471551
 20
214.5
 30
0.0
 40
2.5
 50
270.0
 51
0.0
  0
ARC
  5
22F5C
  8
51
 10
-110.87129002471551
 20
214.5
 30
0.0
 40
0.5
 50
270.0
 51
0.0
  0
LINE
  5
22F5D
  8
51
 10
-114.44480201154261
 20
223.6264045875516
 30
0.0
 11
-112.36607306339231
 21
224.48744231037301
 31
0.0
  0
LINE
  5
22F5E
  8
51
 10
-114.44480201154261
 20
220.37359541244831
 30
0.0
 11
-112.36607306339231
 21
219.5125576896269
 31
0.0
  0
LINE
  5
22F5F
  8
51
 10
-108.37129002471551
 20
220.5
 30
0.0
 11
-110.37129002471551
 21
220.5
 31
0.0
  0
LINE
  5
22F60
  8
51
 10
-108.37129002471551
 20
227.49999999999989
 30
0.0
 11
-110.37129002471551
 21
227.49999999999989
 31
0.0
  0
ARC
  5
22F61
  8
51
 10
-111.37129002471551
 20
233.1999999999999
 30
0.0
 40
1.0
 50
270.0
 51
0.0
  0
ARC
  5
22F62
  8
51
 10
-118.37129002471551
 20
222.0
 30
0.0
 40
10.199999999999999
 50
90.0
 51
180.0
  0
LINE
  5
22F63
  8
51
 10
-128.5712900247153
 20
222.0
 30
0.0
 11
-128.5712900247153
 21
215.0
 31
0.0
  0
LINE
  5
22F64
  8
51
 10
-116.87129002471551
 20
212.0
 30
0.0
 11
-116.87129002471551
 21
214.0
 31
0.0
  0
LINE
  5
22F65
  8
51
 10
-116.7448854371639
 20
218.07351198682699
 30
0.0
 11
-115.88384771434259
 21
215.99478303867659
 31
0.0
  0
LINE
  5
22F66
  8
51
 10
-119.9976946122671
 20
218.07351198682699
 30
0.0
 11
-120.8587323350884
 21
215.99478303867659
 31
0.0
  0
LINE
  5
22F67
  8
51
 10
-123.87129002471551
 20
212.0
 30
0.0
 11
-123.87129002471551
 21
214.0
 31
0.0
  0
ARC
  5
22F68
  8
51
 10
-129.5712900247153
 20
215.0
 30
0.0
 40
1.0
 50
270.0
 51
0.0
  0
LINE
  5
22F69
  8
51
 10
-122.29777803788851
 20
220.37359541244831
 30
0.0
 11
-124.37650698603871
 21
219.5125576896269
 31
0.0
  0
LINE
  5
22F6A
  8
51
 10
-122.29777803788851
 20
223.6264045875516
 30
0.0
 11
-124.37650698603871
 21
224.48744231037301
 31
0.0
  0
LINE
  5
22F6B
  8
51
 10
-116.7448854371639
 20
225.9264880131729
 30
0.0
 11
-115.88384771434259
 21
228.0052169613233
 31
0.0
  0
LINE
  5
22F6C
  8
51
 10
-119.9976946122671
 20
225.9264880131729
 30
0.0
 11
-120.8587323350884
 21
228.0052169613233
 31
0.0
  0
LINE
  5
22F6D
  8
52
 10
-102.37129002471551
 20
599.5
 30
0.0
 11
-102.37129002471551
 21
403.0
 31
0.0
  0
LINE
  5
22F6E
  8
51
 10
-110.37129002471551
 20
403.0
 30
0.0
 11
-110.37129002471551
 21
578.5
 31
0.0
  0
LINE
  5
22F6F
  8
52
 10
-108.37129002471551
 20
403.0
 30
0.0
 11
-108.37129002471551
 21
591.5
 31
0.0
  0
LINE
  5
22F70
  8
51
 10
-100.37129002471551
 20
599.5
 30
0.0
 11
-100.37129002471551
 21
403.0
 31
0.0
  0
LINE
  5
22F71
  8
51
 10
-123.87129002471551
 20
592.0
 30
0.0
 11
-299.37129002471551
 21
592.0
 31
0.0
  0
LINE
  5
22F72
  8
52
 10
-102.87129002471551
 20
600.0
 30
0.0
 11
-299.37129002471551
 21
600.0
 31
0.0
  0
LINE
  5
22F73
  8
52
 10
-110.87129002471551
 20
594.0
 30
0.0
 11
-299.37129002471551
 21
594.0
 31
0.0
  0
LINE
  5
22F74
  8
51
 10
-102.87129002471551
 20
602.0
 30
0.0
 11
-299.37129002471551
 21
602.0
 31
0.0
  0
CIRCLE
  5
22F75
  8
51
 10
-118.37129002471551
 20
584.0
 30
0.0
 40
4.25
  0
CIRCLE
  5
22F76
  8
51
 10
-118.37129002471551
 20
584.0
 30
0.0
 40
6.5
  0
ARC
  5
22F77
  8
51
 10
-118.37129002471551
 20
584.0
 30
0.0
 40
15.699999999999999
 50
149.36586419625331
 51
300.63413580374669
  0
LINE
  5
22F78
  8
51
 10
-110.87129002471551
 20
592.0
 30
0.0
 11
-116.87129002471551
 21
592.0
 31
0.0
  0
LINE
  5
22F79
  8
51
 10
-118.37129002471551
 20
573.79999999999995
 30
0.0
 11
-111.37129002471551
 21
573.79999999999995
 31
0.0
  0
ARC
  5
22F7A
  8
52
 10
-110.87129002471551
 20
591.5
 30
0.0
 40
2.5
 50
0.0
 51
90.0
  0
ARC
  5
22F7B
  8
51
 10
-111.37129002471551
 20
572.79999999999995
 30
0.0
 40
1.0
 50
0.0
 51
90.0
  0
LINE
  5
22F7C
  8
51
 10
-108.37129002471551
 20
578.5
 30
0.0
 11
-110.37129002471551
 21
578.5
 31
0.0
  0
LINE
  5
22F7D
  8
51
 10
-108.37129002471551
 20
585.5
 30
0.0
 11
-110.37129002471551
 21
585.5
 31
0.0
  0
ARC
  5
22F7E
  8
51
 10
-110.87129002471551
 20
591.5
 30
0.0
 40
0.5
 50
0.0
 51
90.0
  0
LINE
  5
22F7F
  8
51
 10
-110.37129002471551
 20
585.5
 30
0.0
 11
-110.37129002471551
 21
591.5
 31
0.0
  0
LINE
  5
22F80
  8
51
 10
-114.44480201154261
 20
585.62640458755163
 30
0.0
 11
-112.36607306339231
 21
586.48744231037313
 31
0.0
  0
LINE
  5
22F81
  8
51
 10
-114.44480201154261
 20
582.37359541244825
 30
0.0
 11
-112.36607306339231
 21
581.51255768962676
 31
0.0
  0
ARC
  5
22F82
  8
52
 10
-102.87129002471551
 20
599.5
 30
0.0
 40
0.5
 50
0.0
 51
90.0
  0
ARC
  5
22F83
  8
51
 10
-102.87129002471551
 20
599.5
 30
0.0
 40
2.5
 50
0.0
 51
90.0
  0
LINE
  5
22F84
  8
51
 10
-123.87129002471551
 20
594.0
 30
0.0
 11
-123.87129002471551
 21
592.0
 31
0.0
  0
LINE
  5
22F85
  8
51
 10
-116.87129002471551
 20
594.0
 30
0.0
 11
-116.87129002471551
 21
592.0
 31
0.0
  0
ARC
  5
22F86
  8
51
 10
-118.37129002471551
 20
584.0
 30
0.0
 40
10.199999999999999
 50
180.0
 51
270.0
  0
LINE
  5
22F87
  8
51
 10
-116.7448854371639
 20
580.07351198682704
 30
0.0
 11
-115.88384771434259
 21
577.99478303867659
 31
0.0
  0
LINE
  5
22F88
  8
51
 10
-119.9976946122671
 20
580.07351198682704
 30
0.0
 11
-120.8587323350884
 21
577.99478303867659
 31
0.0
  0
LINE
  5
22F89
  8
51
 10
-122.29777803788851
 20
582.37359541244825
 30
0.0
 11
-124.37650698603871
 21
581.51255768962676
 31
0.0
  0
LINE
  5
22F8A
  8
51
 10
-122.29777803788851
 20
585.62640458755163
 30
0.0
 11
-124.37650698603871
 21
586.48744231037313
 31
0.0
  0
LINE
  5
22F8B
  8
51
 10
-116.7448854371639
 20
587.92648801317284
 30
0.0
 11
-115.88384771434259
 21
590.00521696132341
 31
0.0
  0
LINE
  5
22F8C
  8
51
 10
-119.9976946122671
 20
587.92648801317284
 30
0.0
 11
-120.8587323350884
 21
590.00521696132341
 31
0.0
  0
ARC
  5
22F8D
  8
51
 10
-129.5712900247153
 20
591.0
 30
0.0
 40
1.0
 50
0.0
 51
90.0
  0
LINE
  5
22F8E
  8
51
 10
-128.5712900247153
 20
584.0
 30
0.0
 11
-128.5712900247153
 21
591.0
 31
0.0
  0
ARC
  5
23008
  8
24
 10
458.30000000000001
 20
669.15483974710355
 30
0.0
 40
2.5
 50
180.0
 51
270.0
  0
LINE
  5
23009
  8
21
 10
472.23653997187932
 20
704.65483974710367
 30
0.0
 11
285.0
 21
704.65483974710287
 31
0.0
  0
LINE
  5
2300A
  8
21
 10
460.5
 20
662.65483974710367
 30
0.0
 11
285.0
 21
662.65483974710367
 31
0.0
  0
LINE
  5
2300B
  8
21
 10
481.99999999999989
 20
665.65483974710355
 30
0.0
 11
284.99999999999989
 21
665.65483974710355
 31
0.0
  0
LINE
  5
2300C
  8
21
 10
481.49999999999977
 20
704.65483974710367
 30
0.0
 11
482.01239030459533
 21
675.30001885686102
 31
0.0
  0
LINE
  5
2300D
  8
21
 10
483.99999999999977
 20
665.65483974710355
 30
0.0
 11
483.73042381260268
 21
673.37449172845129
 31
0.0
  0
LINE
  5
2300E
  8
21
 10
483.99999999999977
 20
665.65483974710355
 30
0.0
 11
481.99999999999989
 21
665.65483974710355
 31
0.0
  0
ARC
  5
2300F
  8
21
 10
481.73164215856451
 20
673.30469273504616
 30
0.0
 40
2.0
 50
1.999999999999992
 51
74.999999999999886
  0
LINE
  5
23010
  8
21
 10
482.01239030459533
 20
675.30001885686113
 30
0.0
 11
482.24928024876959
 21
675.23654438762435
 31
0.0
  0
ARC
  5
23011
  8
21
 10
463.9247005920559
 20
660.00364504927666
 30
0.0
 40
5.3269168285901847
 50
23.818133896525861
 51
29.847803102647269
  0
LINE
  5
23012
  8
21
 10
473.99999999999989
 20
662.65483974710367
 30
0.0
 11
467.49999999999977
 21
662.65483974710367
 31
0.0
  0
LINE
  5
23013
  8
21
 10
475.99999999999977
 20
662.65483974710367
 30
0.0
 11
476.10476230847519
 21
665.65483974710355
 31
0.0
  0
LINE
  5
23014
  8
21
 10
472.17544498560488
 20
662.15483974710367
 30
0.0
 11
472.49999999999977
 21
662.65483974710367
 31
0.0
  0
LINE
  5
23015
  8
21
 10
475.99999999999977
 20
662.65483974710367
 30
0.0
 11
473.99999999999989
 21
662.65483974710367
 31
0.0
  0
LINE
  5
23016
  8
21
 10
472.17544498560488
 20
662.15483974710367
 30
0.0
 11
468.79793404334572
 21
662.15483974710367
 31
0.0
  0
ARC
  5
23017
  8
21
 10
471.00910118793911
 20
658.2290500751343
 30
0.0
 40
6.9437627269178526
 50
122.1155675852546
 51
145.57206591513241
  0
ARC
  5
23018
  8
21
 10
463.9247005920559
 20
660.00364504927666
 30
0.0
 40
5.3269168285901847
 50
47.842096102123932
 51
75.242457259329001
  0
LINE
  5
23019
  8
21
 10
467.49999999999977
 20
665.65483974710355
 30
0.0
 11
467.49999999999977
 21
662.65483974710367
 31
0.0
  0
ARC
  5
2301A
  8
21
 10
462.22262020582281
 20
662.50527320165202
 30
0.0
 40
2.7450800336642791
 50
105.1586260971181
 51
128.8681281500466
  0
LINE
  5
2301B
  8
21
 10
459.49999999999977
 20
662.65483974710367
 30
0.0
 11
459.49999999999977
 21
662.15483974710367
 31
0.0
  0
LINE
  5
2301C
  8
21
 10
460.49999999999977
 20
665.65483974710355
 30
0.0
 11
460.49999999999977
 21
662.65483974710367
 31
0.0
  0
ARC
  5
2301D
  8
21
 10
464.47262020582292
 20
662.50527320165202
 30
0.0
 40
2.7450800336642791
 50
105.1586260971181
 51
187.33432063944991
  0
LINE
  5
2301E
  8
21
 10
459.49999999999977
 20
662.15483974710367
 30
0.0
 11
465.28162213872253
 21
662.15483974710367
 31
0.0
  0
LINE
  5
2301F
  8
21
 10
461.5048030198725
 20
665.15483974710355
 30
0.0
 11
465.28162213871821
 21
665.15483974710355
 31
0.0
  0
LINE
  5
23020
  8
24
 10
459.49999999999989
 20
666.65483974710367
 30
0.0
 11
459.49999999999989
 21
662.65483974710367
 31
0.0
  0
LINE
  5
23021
  8
24
 10
458.30000000000001
 20
666.65483974710367
 30
0.0
 11
459.49999999999989
 21
666.65483974710367
 31
0.0
  0
LINE
  5
23022
  8
21
 10
481.49999999999977
 20
704.65483974710367
 30
0.0
 11
471.48928177459948
 21
704.65483974710367
 31
0.0
  0
LINE
  5
23023
  8
24
 10
120.7001523280439
 20
701.85483974710371
 30
0.0
 11
284.99999999999989
 21
701.8548397471036
 31
0.0
  0
LINE
  5
23024
  8
21
 10
88.0
 20
665.65483974710355
 30
0.0
 11
285.0
 21
665.65483974710355
 31
0.0
  0
LINE
  5
23025
  8
21
 10
109.4999999999998
 20
662.65483974710367
 30
0.0
 11
284.99999999999989
 21
662.65483974710367
 31
0.0
  0
LINE
  5
23026
  8
21
 10
97.763460028120562
 20
704.65483974710367
 30
0.0
 11
284.99999999999989
 21
704.65483974710287
 31
0.0
  0
LINE
  5
23027
  8
24
 10
449.299847671956
 20
701.85483974710371
 30
0.0
 11
285.0
 21
701.8548397471036
 31
0.0
  0
LINE
  5
23028
  8
24
 10
450.29969536711241
 20
700.87229215354091
 30
0.0
 11
450.74920443443023
 21
675.11993493422915
 31
0.0
  0
ARC
  5
23029
  8
24
 10
452.74889982474292
 20
675.15483974710367
 30
0.0
 40
2.0
 50
181.0
 51
270.0
  0
LINE
  5
2302A
  8
24
 10
452.74889982474292
 20
673.15483974710355
 30
0.0
 11
455.7999999999999
 21
673.15483974710355
 31
0.0
  0
LINE
  5
2302B
  8
24
 10
455.7999999999999
 20
673.15483974710355
 30
0.0
 11
455.7999999999999
 21
669.15483974710355
 31
0.0
  0
ARC
  5
2302C
  8
24
 10
449.299847671956
 20
700.85483974710348
 30
0.0
 40
1.0
 50
0.9999999999999965
 51
90.0
  0
LINE
  5
2302D
  8
23
  6
DASHDOT
 10
284.99999999999989
 20
714.89406567348362
 30
0.0
 11
284.99999999999989
 21
657.93329159986365
 31
0.0
  0
LINE
  5
23033
  8
21
 10
88.499999999999986
 20
704.65483974710367
 30
0.0
 11
98.510718225400424
 21
704.65483974710367
 31
0.0
  0
LINE
  5
23034
  8
21
 10
94.0
 20
662.65483974710367
 30
0.0
 11
96.0
 21
662.65483974710367
 31
0.0
  0
LINE
  5
23035
  8
24
 10
119.70030463288749
 20
700.87229215354091
 30
0.0
 11
119.2507955655696
 21
675.11993493422915
 31
0.0
  0
LINE
  5
23036
  8
24
 10
117.25110017525689
 20
673.15483974710355
 30
0.0
 11
114.1999999999999
 21
673.15483974710355
 31
0.0
  0
ARC
  5
23037
  8
24
 10
117.25110017525689
 20
675.15483974710367
 30
0.0
 40
2.0
 50
270.0
 51
359.0
  0
LINE
  5
23038
  8
21
 10
108.4951969801273
 20
665.15483974710355
 30
0.0
 11
104.7183778612816
 21
665.15483974710355
 31
0.0
  0
LINE
  5
23039
  8
21
 10
110.4999999999999
 20
662.15483974710367
 30
0.0
 11
104.7183778612773
 21
662.15483974710367
 31
0.0
  0
ARC
  5
2303A
  8
24
 10
111.6999999999999
 20
669.15483974710355
 30
0.0
 40
2.5
 50
270.0
 51
0.0
  0
LINE
  5
2303B
  8
24
 10
111.6999999999999
 20
666.65483974710367
 30
0.0
 11
110.4999999999999
 21
666.65483974710367
 31
0.0
  0
LINE
  5
2303C
  8
24
 10
110.4999999999999
 20
666.65483974710367
 30
0.0
 11
110.4999999999999
 21
662.65483974710367
 31
0.0
  0
LINE
  5
2303D
  8
21
 10
109.4999999999999
 20
665.65483974710355
 30
0.0
 11
109.4999999999999
 21
662.65483974710367
 31
0.0
  0
LINE
  5
2303E
  8
21
 10
110.4999999999999
 20
662.65483974710367
 30
0.0
 11
110.4999999999999
 21
662.15483974710367
 31
0.0
  0
ARC
  5
2303F
  8
21
 10
107.77737979417699
 20
662.50527320165202
 30
0.0
 40
2.7450800336642791
 50
51.131871849953313
 51
74.841373902881827
  0
ARC
  5
23040
  8
21
 10
105.52737979417699
 20
662.50527320165202
 30
0.0
 40
2.7450800336642791
 50
352.66567936054997
 51
74.841373902881827
  0
LINE
  5
23041
  8
24
 10
114.1999999999999
 20
673.15483974710355
 30
0.0
 11
114.1999999999999
 21
669.15483974710355
 31
0.0
  0
ARC
  5
23042
  8
21
 10
106.0752994079439
 20
660.00364504927666
 30
0.0
 40
5.3269168285901847
 50
150.1521968973527
 51
156.18186610347411
  0
LINE
  5
23043
  8
21
 10
102.4999999999999
 20
665.65483974710355
 30
0.0
 11
102.4999999999999
 21
662.65483974710367
 31
0.0
  0
LINE
  5
23044
  8
21
 10
96.0
 20
662.65483974710367
 30
0.0
 11
102.4999999999999
 21
662.65483974710367
 31
0.0
  0
LINE
  5
23045
  8
21
 10
97.824555014394946
 20
662.15483974710367
 30
0.0
 11
97.5
 21
662.65483974710367
 31
0.0
  0
LINE
  5
23046
  8
21
 10
97.824555014394946
 20
662.15483974710367
 30
0.0
 11
101.2020659566541
 21
662.15483974710367
 31
0.0
  0
ARC
  5
23047
  8
21
 10
106.0752994079439
 20
660.00364504927666
 30
0.0
 40
5.3269168285901847
 50
104.7575427406709
 51
132.157903897876
  0
ARC
  5
23048
  8
21
 10
98.990898812060777
 20
658.2290500751343
 30
0.0
 40
6.9437627269178526
 50
34.427934084867488
 51
57.884432414745369
  0
ARC
  5
23049
  8
24
 10
120.7001523280439
 20
700.85483974710348
 30
0.0
 40
1.0
 50
90.0
 51
179.0
  0
LINE
  5
2304A
  8
21
 10
88.499999999999986
 20
704.65483974710367
 30
0.0
 11
87.987609695404558
 21
675.30001885686102
 31
0.0
  0
LINE
  5
2304B
  8
21
 10
86.0
 20
665.65483974710355
 30
0.0
 11
86.269576187397092
 21
673.37449172845129
 31
0.0
  0
LINE
  5
2304C
  8
21
 10
94.0
 20
662.65483974710367
 30
0.0
 11
93.895237691524699
 21
665.65483974710355
 31
0.0
  0
LINE
  5
2304D
  8
21
 10
86.0
 20
665.65483974710355
 30
0.0
 11
88.0
 21
665.65483974710355
 31
0.0
  0
LINE
  5
2304E
  8
21
 10
87.987609695404558
 20
675.30001885686113
 30
0.0
 11
87.750719751230235
 21
675.23654438762435
 31
0.0
  0
ARC
  5
2304F
  8
21
 10
88.268357841435304
 20
673.30469273504616
 30
0.0
 40
2.0
 50
105.0
 51
178.0
  0
LINE
  5
23050
  8
41
 10
14.61051595109552
 20
602.0
 30
0.0
 11
6.8908639697477829
 21
601.73042381260291
 31
0.0
  0
ARC
  5
23051
  8
44
 10
11.11051595109552
 20
576.29999999999995
 30
0.0
 40
2.5
 50
270.0
 51
0.0
  0
LINE
  5
23052
  8
43
  6
DASHDOT
 10
-37.371290024715449
 20
403.0
 30
0.0
 11
22.332064098335419
 21
403.0
 31
0.0
  0
LINE
  5
23054
  8
41
 10
14.61051595109552
 20
204.00000000000011
 30
0.0
 11
6.8908639697477829
 21
204.26957618739721
 31
0.0
  0
ARC
  5
23055
  8
44
 10
11.11051595109552
 20
229.69999999999999
 30
0.0
 40
2.5
 50
0.0
 51
90.0
  0
LINE
  5
23056
  8
41
 10
14.61051595109552
 20
206.00000000000011
 30
0.0
 11
14.61051595109552
 21
403.0
 31
0.0
  0
LINE
  5
23057
  8
41
 10
17.610515951095518
 20
227.49999999999989
 30
0.0
 11
17.610515951095518
 21
403.0
 31
0.0
  0
LINE
  5
23058
  8
41
 10
14.61051595109552
 20
204.00000000000011
 30
0.0
 11
14.61051595109552
 21
206.00000000000011
 31
0.0
  0
LINE
  5
23059
  8
41
 10
17.610515951095518
 20
214.00000000000011
 30
0.0
 11
17.610515951095518
 21
220.50000000000011
 31
0.0
  0
ARC
  5
2305A
  8
41
 10
20.261710648922531
 20
224.07529940794399
 30
0.0
 40
5.3269168285901847
 50
240.15219689735261
 51
246.18186610347411
  0
LINE
  5
2305B
  8
41
 10
18.110515951095518
 20
215.824555014395
 30
0.0
 11
18.110515951095518
 21
219.2020659566542
 31
0.0
  0
LINE
  5
2305C
  8
41
 10
17.610515951095518
 20
212.0
 30
0.0
 11
17.610515951095518
 21
214.00000000000011
 31
0.0
  0
LINE
  5
2305D
  8
41
 10
18.110515951095518
 20
215.824555014395
 30
0.0
 11
17.610515951095518
 21
215.50000000000011
 31
0.0
  0
LINE
  5
2305E
  8
41
 10
17.610515951095518
 20
212.0
 30
0.0
 11
14.61051595109563
 21
211.89523769152481
 31
0.0
  0
LINE
  5
2305F
  8
44
 10
13.61051595109552
 20
229.69999999999999
 30
0.0
 11
13.61051595109552
 21
228.5
 31
0.0
  0
LINE
  5
23060
  8
44
 10
13.61051595109552
 20
228.5
 30
0.0
 11
17.610515951095518
 21
228.5
 31
0.0
  0
LINE
  5
23061
  8
41
 10
15.11051595109552
 20
226.4951969801275
 30
0.0
 11
15.11051595109552
 21
222.71837786128171
 31
0.0
  0
LINE
  5
23062
  8
41
 10
18.110515951095518
 20
228.50000000000011
 30
0.0
 11
18.110515951095518
 21
222.71837786127739
 31
0.0
  0
ARC
  5
23063
  8
41
 10
17.76008249654717
 20
223.52737979417711
 30
0.0
 40
2.7450800336642791
 50
82.665679360550058
 51
164.8413739028818
  0
LINE
  5
23064
  8
41
 10
14.61051595109552
 20
227.50000000000011
 30
0.0
 11
17.610515951095518
 21
227.50000000000011
 31
0.0
  0
LINE
  5
23065
  8
41
 10
17.610515951095518
 20
228.50000000000011
 30
0.0
 11
18.110515951095518
 21
228.50000000000011
 31
0.0
  0
ARC
  5
23066
  8
41
 10
17.76008249654717
 20
225.77737979417711
 30
0.0
 40
2.7450800336642791
 50
141.13187184995331
 51
164.8413739028818
  0
LINE
  5
23067
  8
41
 10
14.61051595109552
 20
220.50000000000011
 30
0.0
 11
17.610515951095518
 21
220.50000000000011
 31
0.0
  0
ARC
  5
23068
  8
41
 10
20.261710648922531
 20
224.07529940794399
 30
0.0
 40
5.3269168285901847
 50
194.75754274067091
 51
222.157903897876
  0
ARC
  5
23069
  8
41
 10
22.03630562306477
 20
216.99089881206081
 30
0.0
 40
6.9437627269178526
 50
124.4279340848674
 51
147.88443241474539
  0
LINE
  5
2306A
  8
41
 10
17.610515951095518
 20
578.50000000000011
 30
0.0
 11
17.610515951095518
 21
403.0
 31
0.0
  0
LINE
  5
2306B
  8
41
 10
14.61051595109552
 20
600.0
 30
0.0
 11
14.61051595109552
 21
403.0
 31
0.0
  0
LINE
  5
2306C
  8
41
 10
17.610515951095518
 20
594.0
 30
0.0
 11
17.610515951095518
 21
592.0
 31
0.0
  0
LINE
  5
2306D
  8
41
 10
18.110515951095518
 20
577.5
 30
0.0
 11
18.110515951095518
 21
583.28162213872258
 31
0.0
  0
LINE
  5
2306E
  8
41
 10
15.11051595109552
 20
579.50480301987261
 30
0.0
 11
15.11051595109552
 21
583.28162213871826
 31
0.0
  0
ARC
  5
2306F
  8
41
 10
17.76008249654717
 20
582.47262020582286
 30
0.0
 40
2.7450800336642791
 50
195.15862609711809
 51
277.33432063944991
  0
ARC
  5
23070
  8
41
 10
17.76008249654717
 20
580.22262020582286
 30
0.0
 40
2.7450800336642791
 50
195.15862609711809
 51
218.8681281500466
  0
LINE
  5
23071
  8
41
 10
17.610515951095518
 20
577.5
 30
0.0
 11
18.110515951095518
 21
577.5
 31
0.0
  0
LINE
  5
23072
  8
41
 10
14.61051595109552
 20
578.5
 30
0.0
 11
17.610515951095518
 21
578.5
 31
0.0
  0
LINE
  5
23073
  8
44
 10
13.61051595109552
 20
577.5
 30
0.0
 11
17.610515951095518
 21
577.5
 31
0.0
  0
LINE
  5
23074
  8
44
 10
13.61051595109552
 20
576.29999999999995
 30
0.0
 11
13.61051595109552
 21
577.5
 31
0.0
  0
ARC
  5
23075
  8
41
 10
22.03630562306477
 20
589.00910118793922
 30
0.0
 40
6.9437627269178526
 50
212.11556758525461
 51
235.57206591513241
  0
ARC
  5
23076
  8
41
 10
20.261710648922531
 20
581.92470059205596
 30
0.0
 40
5.3269168285901847
 50
137.84209610212389
 51
165.242457259329
  0
LINE
  5
23077
  8
41
 10
18.110515951095518
 20
590.17544498560505
 30
0.0
 11
18.110515951095518
 21
586.79793404334589
 31
0.0
  0
LINE
  5
23078
  8
41
 10
18.110515951095518
 20
590.17544498560505
 30
0.0
 11
17.610515951095518
 21
590.5
 31
0.0
  0
LINE
  5
23079
  8
41
 10
17.610515951095518
 20
592.0
 30
0.0
 11
17.610515951095518
 21
585.5
 31
0.0
  0
LINE
  5
2307A
  8
41
 10
14.61051595109552
 20
585.5
 30
0.0
 11
17.610515951095518
 21
585.5
 31
0.0
  0
ARC
  5
2307B
  8
41
 10
20.261710648922531
 20
581.92470059205596
 30
0.0
 40
5.3269168285901847
 50
113.81813389652579
 51
119.8478031026473
  0
LINE
  5
2307C
  8
41
 10
14.61051595109552
 20
602.0
 30
0.0
 11
14.61051595109552
 21
600.0
 31
0.0
  0
LINE
  5
2307D
  8
41
 10
17.610515951095518
 20
594.0
 30
0.0
 11
14.61051595109563
 21
594.10476230847519
 31
0.0
  0
LINE
  5
2307E
  8
41
 10
-24.389484048904588
 20
215.76346002812059
 30
0.0
 11
-24.389484048903789
 21
403.0
 31
0.0
  0
LINE
  5
2307F
  8
41
 10
-24.389484048904588
 20
206.50000000000011
 30
0.0
 11
-24.389484048904588
 21
216.5107182254005
 31
0.0
  0
LINE
  5
23080
  8
41
 10
-24.389484048904588
 20
206.50000000000011
 30
0.0
 11
4.9653368413381713
 21
205.98760969540459
 31
0.0
  0
LINE
  5
23081
  8
41
 10
4.9653368413380568
 20
205.98760969540459
 30
0.0
 11
5.0288113105747243
 21
205.75071975123029
 31
0.0
  0
ARC
  5
23082
  8
41
 10
6.9606629631529131
 20
206.2683578414354
 30
0.0
 40
2.0
 50
195.0
 51
268.0
  0
LINE
  5
23083
  8
41
 10
-24.389484048904588
 20
590.23653997187944
 30
0.0
 11
-24.389484048903789
 21
403.0
 31
0.0
  0
LINE
  5
23084
  8
44
 10
-21.58948404890452
 20
567.29984767195594
 30
0.0
 11
-21.58948404890441
 21
403.0
 31
0.0
  0
LINE
  5
23085
  8
44
 10
-21.58948404890452
 20
238.70015232804391
 30
0.0
 11
-21.58948404890441
 21
403.0
 31
0.0
  0
LINE
  5
23086
  8
44
 10
-20.606936455341721
 20
237.70030463288751
 30
0.0
 11
5.1454207639700371
 21
237.25079556556969
 31
0.0
  0
LINE
  5
23087
  8
44
 10
7.1105159510955209
 20
232.19999999999999
 30
0.0
 11
11.11051595109552
 21
232.19999999999999
 31
0.0
  0
LINE
  5
23088
  8
44
 10
7.1105159510955209
 20
235.25110017525699
 30
0.0
 11
7.1105159510955209
 21
232.19999999999999
 31
0.0
  0
ARC
  5
23089
  8
44
 10
5.1105159510955209
 20
235.25110017525699
 30
0.0
 40
2.0
 50
0.0
 51
89.000000000000014
  0
ARC
  5
2308A
  8
44
 10
-20.58948404890441
 20
238.70015232804391
 30
0.0
 40
1.0
 50
180.0
 51
269.0
  0
LINE
  5
2308F
  8
41
 10
-24.389484048904588
 20
599.5
 30
0.0
 11
-24.389484048904588
 21
589.48928177459948
 31
0.0
  0
LINE
  5
23090
  8
44
 10
7.1105159510955209
 20
570.74889982474303
 30
0.0
 11
7.1105159510955209
 21
573.79999999999995
 31
0.0
  0
LINE
  5
23091
  8
44
 10
-20.606936455341721
 20
568.29969536711235
 30
0.0
 11
5.1454207639700371
 21
568.74920443443034
 31
0.0
  0
ARC
  5
23092
  8
44
 10
5.1105159510955209
 20
570.74889982474303
 30
0.0
 40
2.0
 50
271.0
 51
0.0
  0
ARC
  5
23093
  8
44
 10
-20.58948404890441
 20
567.29984767195594
 30
0.0
 40
1.0
 50
91.0
 51
180.0
  0
LINE
  5
23094
  8
44
 10
7.1105159510955209
 20
573.79999999999995
 30
0.0
 11
11.11051595109552
 21
573.79999999999995
 31
0.0
  0
LINE
  5
23095
  8
41
 10
-24.389484048904588
 20
599.5
 30
0.0
 11
4.9653368413381713
 21
600.01239030459544
 31
0.0
  0
ARC
  5
23096
  8
41
 10
6.9606629631529131
 20
599.73164215856457
 30
0.0
 40
2.0
 50
91.999999999999972
 51
164.99999999999989
  0
LINE
  5
23097
  8
41
 10
4.9653368413380568
 20
600.01239030459544
 30
0.0
 11
5.0288113105747243
 21
600.24928024876965
 31
0.0
  0
LINE
  5
230E0
  8
53
  6
DASHDOT
 10
-502.57823796616663
 20
403.0
 30
0.0
 11
-164.97038936452319
 21
403.0
 31
0.0
  0
LINE
  5
230E1
  8
53
  6
DASHDOT
 10
-89.925521923158897
 20
403.0
 30
0.0
 11
-361.91146481215168
 21
403.0
 31
0.0
  0
TEXT
  5
230E2
  8
L20
 10
-417.97721033405111
 20
724.995685457175
 30
0.0
 40
18.0
  1
FIBOX EKI 400x400x40 COVER
  0
LINE
  5
230E9
  8
41
 10
5.0288113105749508
 20
600.24928024877045
 30
0.0
 11
4.9653368413380568
 21
205.98760969540459
 31
0.0
  0
LINE
  5
230EA
  8
41
 10
6.8908639697478966
 20
204.26957618739721
 30
0.0
 11
6.8908639697478966
 21
601.73042381260291
 31
0.0
  0
LINE
  5
230EB
  8
21
 10
87.75071975122944
 20
675.23654438762424
 30
0.0
 11
482.01239030459533
 21
675.30001885686113
 31
0.0
  0
LINE
  5
230EC
  8
21
 10
483.73042381260268
 20
673.37449172845118
 30
0.0
 11
86.269576187397092
 21
673.37449172845118
 31
0.0
  0
LINE
  5
230ED
  8
31
 10
563.10913603025199
 20
601.73042381260279
 30
0.0
 11
563.10913603025199
 21
204.26957618739709
 31
0.0
  0
LINE
  5
230EE
  8
31
 10
564.97118868942505
 20
205.75071975122941
 30
0.0
 11
565.03466315866194
 21
600.01239030459521
 31
0.0
  0
LINE
  5
230EF
  8
34
 10
591.58948404890452
 20
567.29984767195594
 30
0.0
 11
591.58948404890441
 21
403.0
 31
0.0
  0
LINE
  5
230F0
  8
31
 10
594.38948404890448
 20
590.23653997187932
 30
0.0
 11
594.38948404890368
 21
403.0
 31
0.0
  0
LINE
  5
230F1
  8
31
 10
552.38948404890436
 20
578.5
 30
0.0
 11
552.38948404890436
 21
403.0
 31
0.0
  0
LINE
  5
230F2
  8
31
 10
555.38948404890448
 20
599.99999999999989
 30
0.0
 11
555.38948404890448
 21
402.99999999999989
 31
0.0
  0
LINE
  5
230F3
  8
31
 10
551.88948404890436
 20
577.49999999999977
 30
0.0
 11
551.88948404890436
 21
583.28162213872258
 31
0.0
  0
ARC
  5
230F4
  8
31
 10
563.03933703684697
 20
599.73164215856457
 30
0.0
 40
2.0
 50
15.000000000000099
 51
88.000000000000014
  0
LINE
  5
230F5
  8
31
 10
594.38948404890448
 20
599.49999999999989
 30
0.0
 11
565.03466315866183
 21
600.01239030459521
 31
0.0
  0
LINE
  5
230F6
  8
31
 10
594.38948404890448
 20
599.49999999999989
 30
0.0
 11
594.38948404890448
 21
589.48928177459936
 31
0.0
  0
LINE
  5
230F7
  8
31
 10
552.38948404890436
 20
591.99999999999989
 30
0.0
 11
552.38948404890436
 21
585.49999999999977
 31
0.0
  0
LINE
  5
230F8
  8
31
 10
552.38948404890436
 20
593.99999999999977
 30
0.0
 11
555.38948404890425
 21
594.10476230847507
 31
0.0
  0
LINE
  5
230F9
  8
31
 10
565.03466315866194
 20
600.01239030459521
 30
0.0
 11
564.97118868942528
 21
600.24928024876965
 31
0.0
  0
LINE
  5
230FA
  8
31
 10
555.38948404890448
 20
601.99999999999977
 30
0.0
 11
555.38948404890448
 21
599.99999999999989
 31
0.0
  0
LINE
  5
230FB
  8
31
 10
555.38948404890448
 20
601.99999999999977
 30
0.0
 11
563.10913603025222
 21
601.73042381260279
 31
0.0
  0
LINE
  5
230FC
  8
31
 10
552.38948404890436
 20
593.99999999999977
 30
0.0
 11
552.38948404890436
 21
591.99999999999989
 31
0.0
  0
ARC
  5
230FD
  8
31
 10
549.73828935107736
 20
581.92470059205596
 30
0.0
 40
5.3269168285901847
 50
14.75754274067099
 51
42.157903897876061
  0
LINE
  5
230FE
  8
31
 10
555.38948404890448
 20
585.49999999999977
 30
0.0
 11
552.38948404890436
 21
585.49999999999977
 31
0.0
  0
LINE
  5
230FF
  8
31
 10
555.38948404890448
 20
578.49999999999989
 30
0.0
 11
552.38948404890436
 21
578.49999999999989
 31
0.0
  0
ARC
  5
23100
  8
31
 10
552.23991750345283
 20
582.47262020582275
 30
0.0
 40
2.7450800336642791
 50
262.66567936054997
 51
344.8413739028818
  0
ARC
  5
23101
  8
31
 10
552.23991750345283
 20
580.22262020582275
 30
0.0
 40
2.7450800336642791
 50
321.13187184995331
 51
344.8413739028818
  0
LINE
  5
23102
  8
31
 10
554.88948404890448
 20
579.50480301987238
 30
0.0
 11
554.88948404890448
 21
583.28162213871815
 31
0.0
  0
ARC
  5
23103
  8
31
 10
547.96369437693522
 20
589.009101187939
 30
0.0
 40
6.9437627269178526
 50
304.4279340848675
 51
327.88443241474539
  0
LINE
  5
23104
  8
31
 10
551.88948404890436
 20
590.17544498560494
 30
0.0
 11
552.38948404890436
 21
590.49999999999989
 31
0.0
  0
LINE
  5
23105
  8
31
 10
551.88948404890436
 20
590.17544498560494
 30
0.0
 11
551.88948404890436
 21
586.79793404334566
 31
0.0
  0
ARC
  5
23106
  8
31
 10
549.73828935107736
 20
581.92470059205596
 30
0.0
 40
5.3269168285901847
 50
60.152196897352717
 51
66.181866103474135
  0
LINE
  5
23107
  8
34
 10
590.60693645534172
 20
568.29969536711235
 30
0.0
 11
564.85457923602985
 21
568.74920443443023
 31
0.0
  0
ARC
  5
23108
  8
34
 10
590.58948404890441
 20
567.29984767195594
 30
0.0
 40
1.0
 50
0.0
 51
89.0
  0
LINE
  5
23109
  8
34
 10
556.38948404890436
 20
577.5
 30
0.0
 11
552.38948404890436
 21
577.5
 31
0.0
  0
ARC
  5
2310A
  8
34
 10
564.88948404890436
 20
570.74889982474292
 30
0.0
 40
2.0
 50
180.0
 51
269.0
  0
LINE
  5
2310B
  8
34
 10
562.88948404890448
 20
570.74889982474292
 30
0.0
 11
562.88948404890448
 21
573.79999999999995
 31
0.0
  0
LINE
  5
2310C
  8
34
 10
562.88948404890448
 20
573.79999999999995
 30
0.0
 11
558.88948404890448
 21
573.79999999999995
 31
0.0
  0
LINE
  5
2310D
  8
34
 10
556.38948404890436
 20
576.29999999999995
 30
0.0
 11
556.38948404890436
 21
577.5
 31
0.0
  0
ARC
  5
2310E
  8
34
 10
558.88948404890448
 20
576.29999999999995
 30
0.0
 40
2.5
 50
180.0
 51
270.0
  0
LINE
  5
2310F
  8
31
 10
552.38948404890436
 20
577.49999999999977
 30
0.0
 11
551.88948404890436
 21
577.49999999999977
 31
0.0
  0
LINE
  5
23110
  8
31
 10
594.38948404890448
 20
215.76346002812051
 30
0.0
 11
594.38948404890368
 21
402.99999999999989
 31
0.0
  0
ARC
  5
23111
  8
31
 10
549.73828935107736
 20
224.0752994079439
 30
0.0
 40
5.3269168285901847
 50
317.84209610212389
 51
345.242457259329
  0
ARC
  5
23112
  8
31
 10
547.96369437693522
 20
216.99089881206069
 30
0.0
 40
6.9437627269178526
 50
32.115567585254638
 51
55.572065915132498
  0
LINE
  5
23113
  8
31
 10
555.38948404890448
 20
206.0
 30
0.0
 11
555.38948404890448
 21
403.0
 31
0.0
  0
LINE
  5
23114
  8
34
 10
591.58948404890452
 20
238.70015232804391
 30
0.0
 11
591.58948404890441
 21
402.99999999999989
 31
0.0
  0
LINE
  5
23115
  8
31
 10
552.38948404890436
 20
227.49999999999989
 30
0.0
 11
552.38948404890436
 21
402.99999999999989
 31
0.0
  0
LINE
  5
23116
  8
33
  6
DASHDOT
 10
610.62870997528455
 20
402.99999999999989
 30
0.0
 11
547.66793590166446
 21
402.99999999999989
 31
0.0
  0
LINE
  5
2311C
  8
34
 10
590.60693645534172
 20
237.70030463288751
 30
0.0
 11
564.85457923602985
 21
237.2507955655696
 31
0.0
  0
ARC
  5
2311D
  8
34
 10
590.58948404890441
 20
238.70015232804391
 30
0.0
 40
1.0
 50
271.0
 51
0.0
  0
LINE
  5
2311E
  8
34
 10
562.88948404890448
 20
235.25110017525691
 30
0.0
 11
562.88948404890448
 21
232.1999999999999
 31
0.0
  0
ARC
  5
2311F
  8
34
 10
564.88948404890436
 20
235.25110017525691
 30
0.0
 40
2.0
 50
91.0
 51
180.0
  0
LINE
  5
23120
  8
34
 10
556.38948404890436
 20
228.5
 30
0.0
 11
552.38948404890436
 21
228.5
 31
0.0
  0
LINE
  5
23121
  8
31
 10
555.38948404890448
 20
227.49999999999989
 30
0.0
 11
552.38948404890436
 21
227.49999999999989
 31
0.0
  0
ARC
  5
23122
  8
31
 10
552.23991750345283
 20
223.52737979417699
 30
0.0
 40
2.7450800336642791
 50
15.158626097118169
 51
97.334320639449956
  0
LINE
  5
23123
  8
34
 10
562.88948404890448
 20
232.1999999999999
 30
0.0
 11
558.88948404890448
 21
232.1999999999999
 31
0.0
  0
LINE
  5
23124
  8
34
 10
556.38948404890436
 20
229.6999999999999
 30
0.0
 11
556.38948404890436
 21
228.5
 31
0.0
  0
ARC
  5
23125
  8
31
 10
552.23991750345283
 20
225.77737979417699
 30
0.0
 40
2.7450800336642791
 50
15.158626097118169
 51
38.868128150046687
  0
LINE
  5
23126
  8
31
 10
554.88948404890448
 20
226.4951969801273
 30
0.0
 11
554.88948404890448
 21
222.7183778612816
 31
0.0
  0
ARC
  5
23127
  8
34
 10
558.88948404890448
 20
229.6999999999999
 30
0.0
 40
2.5
 50
90.0
 51
180.0
  0
LINE
  5
23128
  8
31
 10
552.38948404890436
 20
228.5
 30
0.0
 11
551.88948404890436
 21
228.5
 31
0.0
  0
LINE
  5
23129
  8
31
 10
551.88948404890436
 20
228.5
 30
0.0
 11
551.88948404890436
 21
222.7183778612773
 31
0.0
  0
ARC
  5
2312A
  8
31
 10
563.03933703684697
 20
206.26835784143529
 30
0.0
 40
2.0
 50
272.0
 51
344.99999999999977
  0
LINE
  5
2312B
  8
31
 10
594.38948404890448
 20
206.49999999999989
 30
0.0
 11
565.03466315866183
 21
205.9876096954045
 31
0.0
  0
LINE
  5
2312C
  8
31
 10
594.38948404890448
 20
206.49999999999989
 30
0.0
 11
594.38948404890448
 21
216.51071822540041
 31
0.0
  0
LINE
  5
2312D
  8
31
 10
552.38948404890436
 20
212.0
 30
0.0
 11
555.38948404890425
 21
211.8952376915247
 31
0.0
  0
LINE
  5
2312E
  8
31
 10
555.38948404890448
 20
220.5
 30
0.0
 11
552.38948404890436
 21
220.5
 31
0.0
  0
ARC
  5
2312F
  8
31
 10
549.73828935107736
 20
224.0752994079439
 30
0.0
 40
5.3269168285901847
 50
293.81813389652581
 51
299.84780310264722
  0
LINE
  5
23130
  8
31
 10
552.38948404890436
 20
214.0
 30
0.0
 11
552.38948404890436
 21
220.5
 31
0.0
  0
LINE
  5
23131
  8
31
 10
551.88948404890436
 20
215.82455501439489
 30
0.0
 11
552.38948404890436
 21
215.5
 31
0.0
  0
LINE
  5
23132
  8
31
 10
551.88948404890436
 20
215.82455501439489
 30
0.0
 11
551.88948404890436
 21
219.20206595665411
 31
0.0
  0
LINE
  5
23133
  8
31
 10
552.38948404890436
 20
212.0
 30
0.0
 11
552.38948404890436
 21
214.0
 31
0.0
  0
LINE
  5
23134
  8
31
 10
565.03466315866194
 20
205.9876096954045
 30
0.0
 11
564.97118868942528
 21
205.75071975123021
 31
0.0
  0
LINE
  5
23135
  8
31
 10
555.38948404890448
 20
204.0
 30
0.0
 11
555.38948404890448
 21
206.0
 31
0.0
  0
LINE
  5
23136
  8
31
 10
555.38948404890448
 20
204.0
 30
0.0
 11
563.10913603025222
 21
204.26957618739709
 31
0.0
  0
LINE
  5
23137
  8
11
 10
86.269576187397206
 20
132.62550827154871
 30
0.0
 11
483.73042381260291
 21
132.62550827154871
 31
0.0
  0
LINE
  5
23138
  8
11
 10
482.24928024877062
 20
130.76345561237571
 30
0.0
 11
87.987609695404672
 21
130.69998114313881
 31
0.0
  0
LINE
  5
23139
  8
14
 10
120.7001523280439
 20
104.1451602528962
 30
0.0
 11
285.0
 21
104.1451602528963
 31
0.0
  0
LINE
  5
2313A
  8
11
 10
88.000000000000114
 20
140.34516025289631
 30
0.0
 11
285.0
 21
140.34516025289631
 31
0.0
  0
LINE
  5
2313B
  8
11
 10
109.4999999999999
 20
143.34516025289631
 30
0.0
 11
285.0
 21
143.34516025289631
 31
0.0
  0
LINE
  5
2313C
  8
11
 10
97.76346002812069
 20
101.34516025289621
 30
0.0
 11
285.0
 21
101.345160252897
 31
0.0
  0
LINE
  5
2313D
  8
11
 10
472.23653997187938
 20
101.34516025289621
 30
0.0
 11
285.0
 21
101.345160252897
 31
0.0
  0
LINE
  5
2313E
  8
11
 10
460.50000000000011
 20
143.34516025289631
 30
0.0
 11
285.0
 21
143.34516025289631
 31
0.0
  0
LINE
  5
2313F
  8
11
 10
482.0
 20
140.34516025289631
 30
0.0
 11
285.0
 21
140.34516025289631
 31
0.0
  0
LINE
  5
23140
  8
14
 10
449.299847671956
 20
104.1451602528962
 30
0.0
 11
285.0
 21
104.1451602528963
 31
0.0
  0
LINE
  5
23141
  8
11
 10
481.5
 20
101.34516025289621
 30
0.0
 11
482.01239030459539
 21
130.6999811431389
 31
0.0
  0
LINE
  5
23142
  8
14
 10
450.29969536711241
 20
105.127707846459
 30
0.0
 11
450.74920443443028
 21
130.88006506577079
 31
0.0
  0
ARC
  5
23143
  8
11
 10
481.73164215856468
 20
132.6953072649537
 30
0.0
 40
2.0
 50
285.0
 51
358.0
  0
LINE
  5
23144
  8
11
 10
484.0
 20
140.34516025289631
 30
0.0
 11
482.0
 21
140.34516025289631
 31
0.0
  0
LINE
  5
23145
  8
11
 10
484.0
 20
140.34516025289631
 30
0.0
 11
483.73042381260291
 21
132.62550827154851
 31
0.0
  0
LINE
  5
23146
  8
11
 10
482.01239030459539
 20
130.69998114313881
 30
0.0
 11
482.24928024876982
 21
130.76345561237551
 31
0.0
  0
ARC
  5
23147
  8
11
 10
471.00910118793911
 20
147.7709499248655
 30
0.0
 40
6.9437627269178526
 50
214.4279340848675
 51
237.88443241474539
  0
LINE
  5
23148
  8
11
 10
472.175444985605
 20
143.84516025289631
 30
0.0
 11
472.5
 21
143.34516025289631
 31
0.0
  0
ARC
  5
23149
  8
11
 10
463.92470059205613
 20
145.99635495072329
 30
0.0
 40
5.3269168285901847
 50
330.15219689735261
 51
336.18186610347408
  0
ARC
  5
2314A
  8
11
 10
464.47262020582298
 20
143.4947267983479
 30
0.0
 40
2.7450800336642791
 50
172.66567936055
 51
254.8413739028818
  0
LINE
  5
2314B
  8
11
 10
459.49999999999989
 20
143.34516025289631
 30
0.0
 11
459.49999999999989
 21
143.84516025289631
 31
0.0
  0
LINE
  5
2314C
  8
11
 10
472.175444985605
 20
143.84516025289631
 30
0.0
 11
468.79793404334578
 21
143.84516025289631
 31
0.0
  0
LINE
  5
2314D
  8
11
 10
459.49999999999989
 20
143.84516025289631
 30
0.0
 11
465.2816221387227
 21
143.84516025289631
 31
0.0
  0
ARC
  5
2314E
  8
14
 10
458.30000000000013
 20
136.84516025289631
 30
0.0
 40
2.5
 50
90.0
 51
180.0
  0
LINE
  5
2314F
  8
11
 10
474.0
 20
143.34516025289631
 30
0.0
 11
467.49999999999989
 21
143.34516025289631
 31
0.0
  0
LINE
  5
23150
  8
11
 10
476.0
 20
143.34516025289631
 30
0.0
 11
476.1047623084753
 21
140.34516025289639
 31
0.0
  0
LINE
  5
23151
  8
11
 10
476.0
 20
143.34516025289631
 30
0.0
 11
474.0
 21
143.34516025289631
 31
0.0
  0
ARC
  5
23152
  8
11
 10
463.92470059205613
 20
145.99635495072329
 30
0.0
 40
5.3269168285901847
 50
284.75754274067089
 51
312.15790389787611
  0
LINE
  5
23153
  8
11
 10
467.49999999999989
 20
140.34516025289631
 30
0.0
 11
467.49999999999989
 21
143.34516025289631
 31
0.0
  0
ARC
  5
23154
  8
11
 10
462.22262020582298
 20
143.4947267983479
 30
0.0
 40
2.7450800336642791
 50
231.13187184995331
 51
254.8413739028818
  0
LINE
  5
23155
  8
11
 10
460.5
 20
140.34516025289631
 30
0.0
 11
460.5
 21
143.34516025289631
 31
0.0
  0
LINE
  5
23156
  8
14
 10
459.49999999999989
 20
139.34516025289631
 30
0.0
 11
459.49999999999989
 21
143.34516025289631
 31
0.0
  0
LINE
  5
23157
  8
14
 10
458.30000000000013
 20
139.34516025289631
 30
0.0
 11
459.49999999999989
 21
139.34516025289631
 31
0.0
  0
LINE
  5
23158
  8
11
 10
461.50480301987261
 20
140.84516025289631
 30
0.0
 11
465.28162213871832
 21
140.84516025289631
 31
0.0
  0
LINE
  5
23159
  8
14
 10
455.80000000000001
 20
132.84516025289631
 30
0.0
 11
455.80000000000001
 21
136.84516025289631
 31
0.0
  0
ARC
  5
2315A
  8
14
 10
452.74889982474298
 20
130.84516025289631
 30
0.0
 40
2.0
 50
90.0
 51
179.0
  0
LINE
  5
2315B
  8
14
 10
452.74889982474298
 20
132.84516025289631
 30
0.0
 11
455.80000000000001
 21
132.84516025289631
 31
0.0
  0
LINE
  5
2315C
  8
11
 10
481.5
 20
101.34516025289621
 30
0.0
 11
471.48928177459959
 21
101.34516025289621
 31
0.0
  0
ARC
  5
2315D
  8
14
 10
449.299847671956
 20
105.1451602528963
 30
0.0
 40
1.0
 50
270.0
 51
359.0
  0
LINE
  5
2315E
  8
13
  6
DASHDOT
 10
285.0
 20
89.894065673483624
 30
0.0
 11
285.0
 21
148.06670840013621
 31
0.0
  0
LINE
  5
23164
  8
14
 10
119.70030463288749
 20
105.127707846459
 30
0.0
 11
119.2507955655697
 21
130.88006506577079
 31
0.0
  0
LINE
  5
23165
  8
11
 10
88.500000000000114
 20
101.34516025289621
 30
0.0
 11
87.987609695404672
 21
130.6999811431389
 31
0.0
  0
ARC
  5
23166
  8
11
 10
105.52737979417709
 20
143.4947267983479
 30
0.0
 40
2.7450800336642791
 50
285.15862609711809
 51
7.334320639449956
  0
LINE
  5
23167
  8
11
 10
110.5000000000001
 20
143.34516025289631
 30
0.0
 11
110.5000000000001
 21
143.84516025289631
 31
0.0
  0
ARC
  5
23168
  8
11
 10
98.990898812060891
 20
147.7709499248655
 30
0.0
 40
6.9437627269178526
 50
302.11556758525461
 51
325.5720659151325
  0
LINE
  5
23169
  8
11
 10
97.824555014395074
 20
143.84516025289631
 30
0.0
 11
97.500000000000114
 21
143.34516025289631
 31
0.0
  0
ARC
  5
2316A
  8
11
 10
106.075299407944
 20
145.99635495072329
 30
0.0
 40
5.3269168285901847
 50
203.81813389652581
 51
209.8478031026473
  0
LINE
  5
2316B
  8
11
 10
110.5000000000001
 20
143.84516025289631
 30
0.0
 11
104.7183778612774
 21
143.84516025289631
 31
0.0
  0
LINE
  5
2316C
  8
11
 10
97.824555014395074
 20
143.84516025289631
 30
0.0
 11
101.2020659566542
 21
143.84516025289631
 31
0.0
  0
ARC
  5
2316D
  8
14
 10
111.6999999999999
 20
136.84516025289631
 30
0.0
 40
2.5
 50
0.0
 51
90.0
  0
LINE
  5
2316E
  8
14
 10
114.1999999999999
 20
132.84516025289631
 30
0.0
 11
114.1999999999999
 21
136.84516025289631
 31
0.0
  0
LINE
  5
2316F
  8
14
 10
117.25110017525689
 20
132.84516025289631
 30
0.0
 11
114.1999999999999
 21
132.84516025289631
 31
0.0
  0
ARC
  5
23170
  8
14
 10
117.25110017525689
 20
130.84516025289631
 30
0.0
 40
2.0
 50
0.9999999999999965
 51
90.0
  0
ARC
  5
23171
  8
11
 10
106.075299407944
 20
145.99635495072329
 30
0.0
 40
5.3269168285901847
 50
227.84209610212389
 51
255.242457259329
  0
LINE
  5
23172
  8
14
 10
111.6999999999999
 20
139.34516025289631
 30
0.0
 11
110.4999999999999
 21
139.34516025289631
 31
0.0
  0
LINE
  5
23173
  8
14
 10
110.4999999999999
 20
139.34516025289631
 30
0.0
 11
110.4999999999999
 21
143.34516025289631
 31
0.0
  0
LINE
  5
23174
  8
11
 10
108.4951969801275
 20
140.84516025289631
 30
0.0
 11
104.7183778612817
 21
140.84516025289631
 31
0.0
  0
LINE
  5
23175
  8
11
 10
109.5000000000001
 20
140.34516025289631
 30
0.0
 11
109.5000000000001
 21
143.34516025289631
 31
0.0
  0
ARC
  5
23176
  8
11
 10
107.77737979417709
 20
143.4947267983479
 30
0.0
 40
2.7450800336642791
 50
285.15862609711809
 51
308.86812815004657
  0
LINE
  5
23177
  8
11
 10
102.5000000000001
 20
140.34516025289631
 30
0.0
 11
102.5000000000001
 21
143.34516025289631
 31
0.0
  0
LINE
  5
23178
  8
11
 10
94.000000000000114
 20
143.34516025289631
 30
0.0
 11
96.000000000000114
 21
143.34516025289631
 31
0.0
  0
LINE
  5
23179
  8
11
 10
94.000000000000114
 20
143.34516025289631
 30
0.0
 11
93.895237691524798
 21
140.34516025289639
 31
0.0
  0
LINE
  5
2317A
  8
11
 10
96.000000000000114
 20
143.34516025289631
 30
0.0
 11
102.5000000000001
 21
143.34516025289631
 31
0.0
  0
ARC
  5
2317B
  8
11
 10
88.268357841435432
 20
132.6953072649537
 30
0.0
 40
2.0
 50
182.0
 51
254.99999999999989
  0
LINE
  5
2317C
  8
11
 10
86.000000000000114
 20
140.34516025289631
 30
0.0
 11
88.000000000000114
 21
140.34516025289631
 31
0.0
  0
LINE
  5
2317D
  8
11
 10
86.000000000000114
 20
140.34516025289631
 30
0.0
 11
86.269576187397206
 21
132.62550827154851
 31
0.0
  0
LINE
  5
2317E
  8
11
 10
87.987609695404672
 20
130.69998114313881
 30
0.0
 11
87.750719751230349
 21
130.76345561237551
 31
0.0
  0
LINE
  5
2317F
  8
11
 10
88.500000000000114
 20
101.34516025289621
 30
0.0
 11
98.510718225400524
 21
101.34516025289621
 31
0.0
  0
ARC
  5
23180
  8
14
 10
120.7001523280439
 20
105.1451602528963
 30
0.0
 40
1.0
 50
181.0
 51
270.0
  0
VIEWPORT
  5
1
 67
     1
  8
0
 10
210.0
 20
152.0942408376963
 30
0.0
 40
420.0
 41
304.18848167539261
 68
     1
 69
     1
1001
ACAD
1000
MVIEW
1002
{
1070
    16
1010
0.0
1020
0.0
1030
0.0
1010
0.0
1020
0.0
1030
1.0
1040
0.0
1040
8.7496599440687284
1040
5.64708379309947
1040
3.8970833125076889
1040
50.0
1040
0.0
1040
0.0
1070
     0
1070
   100
1070
     1
1070
     1
1070
     0
1070
     0
1070
     0
1070
     0
1040
0.0
1040
0.0
1040
0.0
1040
10.0
1040
10.0
1040
10.0
1040
10.0
1070
     0
1002
{
1002
}
1002
}
  0
ENDSEC
  0
EOF
