  0
SECTION
  2
HEADER
  9
$ACADVER
  1
AC1009
  9
$INSBASE
 10
0.0
 20
0.0
 30
0.0
  9
$EXTMIN
 10
-519.596732
 20
75.031241
 30
0.0
  9
$EXTMAX
 10
756.046466
 20
750.968759
 30
0.0
  9
$LIMMIN
 10
0.0
 20
0.0
  9
$LIMMAX
 10
420.0
 20
297.0
  9
$ORTHOMODE
 70
     0
  9
$REGENMODE
 70
     1
  9
$FILLMODE
 70
     1
  9
$QTEXTMODE
 70
     0
  9
$MIRRTEXT
 70
     1
  9
$DRAGMODE
 70
     2
  9
$LTSCALE
 40
7.0
  9
$OSMODE
 70
     0
  9
$ATTMODE
 70
     1
  9
$TEXTSIZE
 40
3.5
  9
$TRACEWID
 40
0.05
  9
$TEXTSTYLE
  7
STANDARD
  9
$CLAYER
  8
L1
  9
$CELTYPE
  6
BYLAYER
  9
$CECOLOR
 62
   256
  9
$DIMSCALE
 40
1.0
  9
$DIMASZ
 40
3.5
  9
$DIMEXO
 40
0.0
  9
$DIMDLI
 40
10.0
  9
$DIMRND
 40
0.0
  9
$DIMDLE
 40
0.0
  9
$DIMEXE
 40
2.0
  9
$DIMTP
 40
0.0
  9
$DIMTM
 40
0.0
  9
$DIMTXT
 40
3.5
  9
$DIMCEN
 40
2.5
  9
$DIMTSZ
 40
0.0
  9
$DIMTOL
 70
     0
  9
$DIMLIM
 70
     0
  9
$DIMTIH
 70
     0
  9
$DIMTOH
 70
     0
  9
$DIMSE1
 70
     0
  9
$DIMSE2
 70
     0
  9
$DIMTAD
 70
     1
  9
$DIMZIN
 70
     8
  9
$DIMBLK
  1

  9
$DIMASO
 70
     1
  9
$DIMSHO
 70
     1
  9
$DIMPOST
  1

  9
$DIMAPOST
  1

  9
$DIMALT
 70
     0
  9
$DIMALTD
 70
     2
  9
$DIMALTF
 40
25.4
  9
$DIMLFAC
 40
1.0
  9
$DIMTOFL
 70
     1
  9
$DIMTVP
 40
0.0
  9
$DIMTIX
 70
     0
  9
$DIMSOXD
 70
     0
  9
$DIMSAH
 70
     0
  9
$DIMBLK1
  1

  9
$DIMBLK2
  1

  9
$DIMSTYLE
  2
*UNNAMED
  9
$DIMCLRD
 70
   256
  9
$DIMCLRE
 70
   256
  9
$DIMCLRT
 70
     3
  9
$DIMTFAC
 40
1.0
  9
$DIMGAP
 40
2.0
  9
$LUNITS
 70
     2
  9
$LUPREC
 70
     2
  9
$SKETCHINC
 40
1.0
  9
$FILLETRAD
 40
0.0
  9
$AUNITS
 70
     0
  9
$AUPREC
 70
     2
  9
$MENU
  1
CAESAR
  9
$ELEVATION
 40
0.0
  9
$PELEVATION
 40
0.0
  9
$THICKNESS
 40
0.0
  9
$LIMCHECK
 70
     0
  9
$BLIPMODE
 70
     1
  9
$CHAMFERA
 40
5.0
  9
$CHAMFERB
 40
5.0
  9
$SKPOLY
 70
     0
  9
$TDCREATE
 40
2449682.494724189
  9
$TDUPDATE
 40
2449682.494724189
  9
$TDINDWG
 40
0.0000000000
  9
$TDUSRTIMER
 40
0.0000000000
  9
$USRTIMER
 70
     1
  9
$ANGBASE
 50
0.0
  9
$ANGDIR
 70
     0
  9
$PDMODE
 70
     0
  9
$PDSIZE
 40
0.0
  9
$PLINEWID
 40
0.0
  9
$COORDS
 70
     2
  9
$SPLFRAME
 70
     0
  9
$SPLINETYPE
 70
     6
  9
$SPLINESEGS
 70
     8
  9
$ATTDIA
 70
     0
  9
$ATTREQ
 70
     1
  9
$HANDLING
 70
     1
  9
$HANDSEED
  5
22457
  9
$SURFTAB1
 70
     6
  9
$SURFTAB2
 70
     6
  9
$SURFTYPE
 70
     6
  9
$SURFU
 70
     6
  9
$SURFV
 70
     6
  9
$UCSNAME
  2

  9
$UCSORG
 10
0.0
 20
0.0
 30
0.0
  9
$UCSXDIR
 10
1.0
 20
0.0
 30
0.0
  9
$UCSYDIR
 10
0.0
 20
1.0
 30
0.0
  9
$PUCSNAME
  2

  9
$PUCSORG
 10
0.0
 20
0.0
 30
0.0
  9
$PUCSXDIR
 10
1.0
 20
0.0
 30
0.0
  9
$PUCSYDIR
 10
0.0
 20
1.0
 30
0.0
  9
$USERI1
 70
     0
  9
$USERI2
 70
     0
  9
$USERI3
 70
     0
  9
$USERI4
 70
     0
  9
$USERI5
 70
     0
  9
$USERR1
 40
1.0
  9
$USERR2
 40
0.0
  9
$USERR3
 40
3.5
  9
$USERR4
 40
0.0
  9
$USERR5
 40
0.0
  9
$WORLDVIEW
 70
     1
  9
$SHADEDGE
 70
     3
  9
$SHADEDIF
 70
    70
  9
$TILEMODE
 70
     1
  9
$MAXACTVP
 70
    16
  9
$PINSBASE
 10
0.0
 20
0.0
 30
0.0
  9
$PLIMCHECK
 70
     0
  9
$PEXTMIN
 10
1.000000E+20
 20
1.000000E+20
 30
1.000000E+20
  9
$PEXTMAX
 10
-1.000000E+20
 20
-1.000000E+20
 30
-1.000000E+20
  9
$PLIMMIN
 10
0.0
 20
0.0
  9
$PLIMMAX
 10
420.0
 20
297.0
  9
$UNITMODE
 70
     0
  9
$VISRETAIN
 70
     0
  9
$PLINEGEN
 70
     0
  9
$PSLTSCALE
 70
     0
  9
$TREEDEPTH
 70
  3020
  9
$DWGCODEPAGE
  3
dos850
  0
ENDSEC
  0
SECTION
  2
TABLES
  0
TABLE
  2
VPORT
 70
     2
  0
VPORT
  2
*ACTIVE
 70
     0
 10
0.0
 20
0.0
 11
1.0
 21
1.0
 12
287.564723
 22
225.231556
 13
0.0
 23
0.0
 14
1.0
 24
1.0
 15
10.0
 25
10.0
 16
0.0
 26
0.0
 36
1.0
 17
0.0
 27
0.0
 37
0.0
 40
456.463112
 41
1.273114
 42
50.0
 43
0.0
 44
0.0
 50
0.0
 51
0.0
 71
     0
 72
  1000
 73
     1
 74
     1
 75
     1
 76
     0
 77
     0
 78
     0
  0
ENDTAB
  0
TABLE
  2
LTYPE
 70
    10
  0
LTYPE
  2
CONTINUOUS
 70
    64
  3
Solid line
 72
    65
 73
     0
 40
0.0
  0
LTYPE
  2
BORDER
 70
     0
  3
__ __ . __ __ . __ __ . __ __ . __ __ . __ __ .
 72
    65
 73
     6
 40
1.75
 49
0.5
 49
-0.25
 49
0.5
 49
-0.25
 49
0.0
 49
-0.25
  0
LTYPE
  2
CENTER
 70
    64
  3
____ _ ____ _ ____ _ ____ _ ____ _ ____ _ ____ 
 72
    65
 73
     4
 40
2.0
 49
1.25
 49
-0.25
 49
0.25
 49
-0.25
  0
LTYPE
  2
DASHDOT
 70
     0
  3
__ . __ . __ . __ . __ . __ . __ . __ . __ . __
 72
    65
 73
     4
 40
1.0
 49
0.5
 49
-0.25
 49
0.0
 49
-0.25
  0
LTYPE
  2
DASHED
 70
    64
  3
__ __ __ __ __ __ __ __ __ __ __ __ __ __ __ __
 72
    65
 73
     2
 40
0.75
 49
0.5
 49
-0.25
  0
LTYPE
  2
DIVIDE
 70
     0
  3
____ . . ____ . . ____ . . ____ . . ____ . . __
 72
    65
 73
     6
 40
1.25
 49
0.5
 49
-0.25
 49
0.0
 49
-0.25
 49
0.0
 49
-0.25
  0
LTYPE
  2
DOT
 70
     0
  3
. . . . . . . . . . . . . . . . . . . . . . . .
 72
    65
 73
     2
 40
0.25
 49
0.0
 49
-0.25
  0
LTYPE
  2
HIDDEN
 70
    64
  3
__ __ __ __ __ __ __ __ __ __ __ __ __ __ __ __
 72
    65
 73
     2
 40
0.375
 49
0.25
 49
-0.125
  0
LTYPE
  2
PHANTOM
 70
    64
  3
______  __  __  ______  __  __  ______  __  __ 
 72
    65
 73
     6
 40
2.5
 49
1.25
 49
-0.25
 49
0.25
 49
-0.25
 49
0.25
 49
-0.25
  0
LTYPE
  2
DOTX2
 70
    64
  3
.  .  .  .  .  .  .  .  .  .  .  .  .  .  .  . 
 72
    65
 73
     2
 40
0.5
 49
0.0
 49
-0.5
  0
ENDTAB
  0
TABLE
  2
LAYER
 70
    76
  0
LAYER
  2
0
 70
    64
 62
     7
  6
CONTINUOUS
  0
LAYER
  2
L1
 70
     0
 62
     3
  6
CONTINUOUS
  0
LAYER
  2
L2
 70
     0
 62
     1
  6
CONTINUOUS
  0
LAYER
  2
L3
 70
     0
 62
     7
  6
DASHED
  0
LAYER
  2
L4
 70
     0
 62
     1
  6
DASHED
  0
LAYER
  2
L5
 70
     0
 62
     6
  6
CENTER
  0
LAYER
  2
L6
 70
     0
 62
     1
  6
CENTER
  0
LAYER
  2
L7
 70
     0
 62
     1
  6
PHANTOM
  0
LAYER
  2
VPORT
 70
     0
 62
     7
  6
CONTINUOUS
  0
LAYER
  2
L8
 70
     0
 62
     1
  6
CONTINUOUS
  0
LAYER
  2
L20
 70
     0
 62
     3
  6
CONTINUOUS
  0
LAYER
  2
L21
 70
     0
 62
     1
  6
CONTINUOUS
  0
LAYER
  2
L22
 70
     0
 62
     1
  6
CONTINUOUS
  0
LAYER
  2
L23
 70
     0
 62
     1
  6
CONTINUOUS
  0
LAYER
  2
L30
 70
     0
 62
     3
  6
CONTINUOUS
  0
LAYER
  2
L31
 70
     0
 62
     1
  6
CONTINUOUS
  0
LAYER
  2
L32
 70
     0
 62
     3
  6
CONTINUOUS
  0
LAYER
  2
L33
 70
     0
 62
     1
  6
CONTINUOUS
  0
LAYER
  2
L34
 70
     0
 62
     3
  6
CONTINUOUS
  0
LAYER
  2
L35
 70
     0
 62
     1
  6
CONTINUOUS
  0
LAYER
  2
L40
 70
     0
 62
     7
  6
CONTINUOUS
  0
LAYER
  2
L41
 70
     0
 62
     1
  6
CONTINUOUS
  0
LAYER
  2
L42
 70
     0
 62
     1
  6
CONTINUOUS
  0
LAYER
  2
L43
 70
     0
 62
     7
  6
CONTINUOUS
  0
LAYER
  2
L44
 70
     0
 62
     1
  6
CONTINUOUS
  0
LAYER
  2
L45
 70
     0
 62
     1
  6
CONTINUOUS
  0
LAYER
  2
L46
 70
     0
 62
     3
  6
CONTINUOUS
  0
LAYER
  2
L50
 70
     0
 62
     7
  6
CONTINUOUS
  0
LAYER
  2
L51
 70
     0
 62
     1
  6
CONTINUOUS
  0
LAYER
  2
L52
 70
     0
 62
     7
  6
CONTINUOUS
  0
LAYER
  2
L53
 70
     0
 62
     1
  6
CONTINUOUS
  0
LAYER
  2
L54
 70
     0
 62
     3
  6
CONTINUOUS
  0
LAYER
  2
L55
 70
     0
 62
     3
  6
CONTINUOUS
  0
LAYER
  2
L56
 70
     0
 62
     3
  6
CONTINUOUS
  0
LAYER
  2
L57
 70
     0
 62
     1
  6
CONTINUOUS
  0
LAYER
  2
L9
 70
     0
 62
     7
  6
HIDDEN
  0
LAYER
  2
L15
 70
     0
 62
     2
  6
CONTINUOUS
  0
LAYER
  2
L16
 70
     0
 62
     5
  6
DOTX2
  0
LAYER
  2
L24
 70
     0
 62
     1
  6
CONTINUOUS
  0
LAYER
  2
A1
 70
     0
 62
     7
  6
CONTINUOUS
  0
LAYER
  2
RA1
 70
     0
 62
     1
  6
CONTINUOUS
  0
LAYER
  2
TITEL
 70
     0
 62
     7
  6
CONTINUOUS
  0
LAYER
  2
DEFPOINTS
 70
     0
 62
     7
  6
CONTINUOUS
  0
LAYER
  2
CAM-A1
 70
     0
 62
     7
  6
CONTINUOUS
  0
LAYER
  2
CAM-A2
 70
     0
 62
     1
  6
CONTINUOUS
  0
LAYER
  2
CAM-A3
 70
     0
 62
     1
  6
DASHED
  0
LAYER
  2
11
 70
    64
 62
     7
  6
CONTINUOUS
  0
LAYER
  2
12
 70
     0
 62
     1
  6
CONTINUOUS
  0
LAYER
  2
13
 70
    64
 62
     1
  6
CENTER
  0
LAYER
  2
14
 70
    64
 62
     1
  6
DASHED
  0
LAYER
  2
15
 70
     0
 62
     2
  6
DASHED
  0
LAYER
  2
21
 70
    64
 62
     7
  6
CONTINUOUS
  0
LAYER
  2
22
 70
     0
 62
     1
  6
CONTINUOUS
  0
LAYER
  2
23
 70
    64
 62
     1
  6
CENTER
  0
LAYER
  2
24
 70
    64
 62
     1
  6
DASHED
  0
LAYER
  2
25
 70
     0
 62
     2
  6
DASHED
  0
LAYER
  2
31
 70
    64
 62
     7
  6
CONTINUOUS
  0
LAYER
  2
32
 70
     0
 62
     1
  6
CONTINUOUS
  0
LAYER
  2
33
 70
    64
 62
     1
  6
CENTER
  0
LAYER
  2
34
 70
    64
 62
     1
  6
DASHED
  0
LAYER
  2
35
 70
     0
 62
     2
  6
DASHED
  0
LAYER
  2
41
 70
    64
 62
     7
  6
CONTINUOUS
  0
LAYER
  2
42
 70
     0
 62
     1
  6
CONTINUOUS
  0
LAYER
  2
43
 70
    64
 62
     1
  6
CENTER
  0
LAYER
  2
44
 70
    64
 62
     1
  6
DASHED
  0
LAYER
  2
45
 70
     0
 62
     2
  6
DASHED
  0
LAYER
  2
51
 70
    64
 62
     7
  6
CONTINUOUS
  0
LAYER
  2
52
 70
    64
 62
     1
  6
CONTINUOUS
  0
LAYER
  2
53
 70
    64
 62
     1
  6
CENTER
  0
LAYER
  2
54
 70
     0
 62
     1
  6
DASHED
  0
LAYER
  2
55
 70
     0
 62
     2
  6
DASHED
  0
LAYER
  2
61
 70
    64
 62
     7
  6
CONTINUOUS
  0
LAYER
  2
62
 70
     0
 62
     1
  6
CONTINUOUS
  0
LAYER
  2
63
 70
    64
 62
     1
  6
CENTER
  0
LAYER
  2
64
 70
     0
 62
     1
  6
DASHED
  0
LAYER
  2
65
 70
     0
 62
     2
  6
DASHED
  0
ENDTAB
  0
TABLE
  2
STYLE
 70
     4
  0
STYLE
  2
STANDARD
 70
     0
 40
0.0
 41
1.0
 50
0.0
 71
     0
 42
3.5
  3
CAEISO
  4

  0
STYLE
  2
SIMPLEX
 70
    64
 40
0.0
 41
1.0
 50
0.0
 71
     0
 42
20.0
  3
SIMPLEX.SHX
  4

  0
STYLE
  2
COMPLEX
 70
    64
 40
5.0
 41
1.0
 50
0.0
 71
     0
 42
5.0
  3
COMPLEX
  4

  0
STYLE
  2
CAEISO
 70
     0
 40
0.0
 41
1.0
 50
0.0
 71
     0
 42
1.0
  3
CAEISO
  4

  0
ENDTAB
  0
TABLE
  2
VIEW
 70
     0
  0
ENDTAB
  0
TABLE
  2
UCS
 70
     0
  0
ENDTAB
  0
TABLE
  2
APPID
 70
     1
  0
APPID
  2
ACAD
 70
    64
  0
ENDTAB
  0
TABLE
  2
DIMSTYLE
 70
     6
  0
DIMSTYLE
  2
ACADUS
 70
     0
  3

  4

  5

  6

  7

 40
1.0
 41
0.18
 42
0.0625
 43
0.38
 44
0.18
 45
0.0
 46
0.0
 47
0.0
 48
0.0
140
0.18
141
0.09
142
0.0
143
25.4
144
1.0
145
0.0
146
1.0
147
0.09
 71
     0
 72
     0
 73
     1
 74
     1
 75
     0
 76
     0
 77
     0
 78
     0
170
     0
171
     2
172
     0
173
     0
174
     0
175
     0
176
     0
177
     0
178
     0
  0
DIMSTYLE
  2
NORDIC
 70
     0
  3

  4

  5

  6

  7

 40
1.0
 41
3.5
 42
1.0
 43
10.0
 44
2.0
 45
0.0
 46
0.0
 47
0.0
 48
0.0
140
3.5
141
2.5
142
0.0
143
25.4
144
1.0
145
0.0
146
1.0
147
2.0
 71
     0
 72
     0
 73
     0
 74
     0
 75
     0
 76
     0
 77
     1
 78
     8
170
     0
171
     2
172
     1
173
     0
174
     0
175
     0
176
     0
177
     0
178
     0
  0
DIMSTYLE
  2
RADIAL
 70
     0
  3

  4

  5

  6

  7

 40
1.0
 41
3.5
 42
1.0
 43
10.0
 44
2.0
 45
0.0
 46
0.0
 47
0.0
 48
0.0
140
3.5
141
2.5
142
0.0
143
25.4
144
1.0
145
0.0
146
1.0
147
2.0
 71
     0
 72
     0
 73
     0
 74
     1
 75
     0
 76
     0
 77
     1
 78
     8
170
     0
171
     2
172
     0
173
     0
174
     0
175
     0
176
     0
177
     0
178
     0
  0
DIMSTYLE
  2
NORTOL
 70
     0
  3

  4

  5

  6

  7

 40
1.0
 41
3.5
 42
1.0
 43
10.0
 44
2.0
 45
0.0
 46
0.0
 47
0.2
 48
0.1
140
3.5
141
2.5
142
0.0
143
25.4
144
1.0
145
0.7
146
0.71
147
2.0
 71
     1
 72
     0
 73
     0
 74
     0
 75
     0
 76
     0
 77
     0
 78
     8
170
     0
171
     2
172
     1
173
     0
174
     0
175
     0
176
     0
177
     0
178
     0
  0
DIMSTYLE
  2
RADTOL
 70
     0
  3

  4

  5

  6

  7

 40
1.0
 41
3.5
 42
1.0
 43
10.0
 44
2.0
 45
0.0
 46
0.0
 47
0.2
 48
0.1
140
3.5
141
2.5
142
0.0
143
25.4
144
1.0
145
0.7
146
0.7
147
2.0
 71
     1
 72
     0
 73
     0
 74
     1
 75
     0
 76
     0
 77
     0
 78
     8
170
     0
171
     2
172
     0
173
     0
174
     0
175
     0
176
     0
177
     0
178
     0
  0
DIMSTYLE
  2
HANSU
 70
     0
  3

  4

  5

  6

  7

 40
1.0
 41
3.5
 42
0.0
 43
10.0
 44
2.0
 45
0.0
 46
0.0
 47
0.0
 48
0.0
140
3.5
141
2.5
142
0.0
143
25.4
144
0.8
145
0.0
146
1.0
147
2.0
 71
     0
 72
     0
 73
     0
 74
     0
 75
     0
 76
     0
 77
     1
 78
     8
170
     0
171
     2
172
     1
173
     0
174
     0
175
     0
176
   256
177
   256
178
     3
  0
ENDTAB
  0
ENDSEC
  0
SECTION
  2
BLOCKS
  0
BLOCK
  8
0
  5
2329
  2
AME_NIL
 70
     0
 10
0.0
 20
0.0
 30
0.0
  1
AME_NIL
  3
AME_NIL
  0
ENDBLK
  8
0
  5
232A
  0
BLOCK
  8
0
  5
232C
  2
AME_SOL
 70
     0
 10
0.0
 20
0.0
 30
0.0
  1
AME_SOL
  3
AME_SOL
  0
ENDBLK
  8
0
  5
232D
  0
BLOCK
  8
0
  5
233F
  2
SOLAXES
 70
     0
 10
0.0
 20
0.0
 30
0.0
  1
SOLAXES
  3
SOLAXES
  0
LINE
  8
0
 62
     0
  5
2340
 10
0.0
 20
0.0
 30
0.0
 11
63.851158
 21
0.0
 31
0.0
  0
LINE
  8
0
 62
     0
  5
2341
 10
0.0
 20
0.0
 30
0.0
 11
0.0
 21
63.851158
 31
0.0
  0
LINE
  8
0
 62
     0
  5
2342
 10
0.0
 20
0.0
 30
0.0
 11
0.0
 21
0.0
 31
63.851158
  0
CIRCLE
  8
0
 62
     0
  5
2343
 10
0.0
 20
0.0
 30
57.466042
 40
3.192558
210
1.0
220
0.0
230
0.0
  0
LINE
  8
0
 62
     0
  5
2344
 10
57.466042
 20
3.192558
 30
0.0
 11
63.851158
 21
0.0
 31
0.0
  0
LINE
  8
0
 62
     0
  5
2345
 10
57.466042
 20
0.0
 30
3.192558
 11
63.851158
 21
0.0
 31
0.0
  0
LINE
  8
0
 62
     0
  5
2346
 10
57.466042
 20
-3.192558
 30
0.0
 11
63.851158
 21
0.0
 31
0.0
  0
LINE
  8
0
 62
     0
  5
2347
 10
57.466042
 20
0.0
 30
-3.192558
 11
63.851158
 21
0.0
 31
0.0
  0
CIRCLE
  8
0
 62
     0
  5
2348
 10
0.0
 20
0.0
 30
57.466042
 40
3.192558
210
0.0
220
1.0
230
0.0
  0
LINE
  8
0
 62
     0
  5
2349
 10
3.192558
 20
57.466042
 30
0.0
 11
0.0
 21
63.851158
 31
0.0
  0
LINE
  8
0
 62
     0
  5
234A
 10
0.0
 20
57.466042
 30
3.192558
 11
0.0
 21
63.851158
 31
0.0
  0
LINE
  8
0
 62
     0
  5
234B
 10
-3.192558
 20
57.466042
 30
0.0
 11
0.0
 21
63.851158
 31
0.0
  0
LINE
  8
0
 62
     0
  5
234C
 10
0.0
 20
57.466042
 30
-3.192558
 11
0.0
 21
63.851158
 31
0.0
  0
CIRCLE
  8
0
 62
     0
  5
234D
 10
0.0
 20
0.0
 30
51.080927
 40
3.192558
210
0.0
220
1.0
230
0.0
  0
LINE
  8
0
 62
     0
  5
234E
 10
3.192558
 20
51.080927
 30
0.0
 11
0.0
 21
57.466042
 31
0.0
  0
LINE
  8
0
 62
     0
  5
234F
 10
0.0
 20
51.080927
 30
3.192558
 11
0.0
 21
57.466042
 31
0.0
  0
LINE
  8
0
 62
     0
  5
2350
 10
-3.192558
 20
51.080927
 30
0.0
 11
0.0
 21
57.466042
 31
0.0
  0
LINE
  8
0
 62
     0
  5
2351
 10
0.0
 20
51.080927
 30
-3.192558
 11
0.0
 21
57.466042
 31
0.0
  0
CIRCLE
  8
0
 62
     0
  5
2352
 10
0.0
 20
0.0
 30
57.466042
 40
3.192558
  0
LINE
  8
0
 62
     0
  5
2353
 10
3.192558
 20
0.0
 30
57.466042
 11
0.0
 21
0.0
 31
63.851158
  0
LINE
  8
0
 62
     0
  5
2354
 10
0.0
 20
3.192558
 30
57.466042
 11
0.0
 21
0.0
 31
63.851158
  0
LINE
  8
0
 62
     0
  5
2355
 10
-3.192558
 20
0.0
 30
57.466042
 11
0.0
 21
0.0
 31
63.851158
  0
LINE
  8
0
 62
     0
  5
2356
 10
0.0
 20
-3.192558
 30
57.466042
 11
0.0
 21
0.0
 31
63.851158
  0
CIRCLE
  8
0
 62
     0
  5
2357
 10
0.0
 20
0.0
 30
51.080927
 40
3.192558
  0
LINE
  8
0
 62
     0
  5
2358
 10
3.192558
 20
0.0
 30
51.080927
 11
0.0
 21
0.0
 31
57.466042
  0
LINE
  8
0
 62
     0
  5
2359
 10
0.0
 20
3.192558
 30
51.080927
 11
0.0
 21
0.0
 31
57.466042
  0
LINE
  8
0
 62
     0
  5
235A
 10
-3.192558
 20
0.0
 30
51.080927
 11
0.0
 21
0.0
 31
57.466042
  0
LINE
  8
0
 62
     0
  5
235B
 10
0.0
 20
-3.192558
 30
51.080927
 11
0.0
 21
0.0
 31
57.466042
  0
CIRCLE
  8
0
 62
     0
  5
235C
 10
0.0
 20
0.0
 30
44.695811
 40
3.192558
  0
LINE
  8
0
 62
     0
  5
235D
 10
3.192558
 20
0.0
 30
44.695811
 11
0.0
 21
0.0
 31
51.080927
  0
LINE
  8
0
 62
     0
  5
235E
 10
0.0
 20
3.192558
 30
44.695811
 11
0.0
 21
0.0
 31
51.080927
  0
LINE
  8
0
 62
     0
  5
235F
 10
-3.192558
 20
0.0
 30
44.695811
 11
0.0
 21
0.0
 31
51.080927
  0
LINE
  8
0
 62
     0
  5
2360
 10
0.0
 20
-3.192558
 30
44.695811
 11
0.0
 21
0.0
 31
51.080927
  0
ENDBLK
  8
0
  5
2361
  0
BLOCK
  8
0
  5
2460
  2
AME_MAT
 70
     0
 10
0.0
 20
0.0
 30
0.0
  1
AME_MAT
  3
AME_MAT
  0
ENDBLK
  8
0
  5
2461
  0
BLOCK
  8
0
  5
2465
  2
EKI4310C
 70
    64
 10
0.0
 20
0.0
 30
0.0
  3
EKI4310C
  0
LINE
  8
61
  5
116A3
 10
167.63658
 20
266.0
 30
0.0
 11
167.63658
 21
413.0
 31
0.0
  0
ARC
  8
61
  5
116A4
 10
185.63658
 20
282.0
 30
0.0
 40
16.2
 50
113.146795
 51
330.407558
  0
CIRCLE
  8
61
  5
116A5
 10
185.63658
 20
282.0
 30
0.0
 40
13.0
  0
LINE
  8
61
  5
116A7
 10
169.63658
 20
264.0
 30
0.0
 11
366.63658
 21
264.0
 31
0.0
  0
LINE
  8
61
  5
116A8
 10
199.320147
 20
272.0
 30
0.0
 11
366.63658
 21
272.0
 31
0.0
  0
LINE
  8
61
  5
116A9
 10
179.757901
 20
290.0
 30
0.0
 11
178.398144
 21
291.359757
 31
0.0
  0
LINE
  8
61
  5
116AA
 10
177.63658
 20
287.87868
 30
0.0
 11
179.757901
 21
290.0
 31
0.0
  0
ARC
  8
61
  5
116AB
 10
179.63658
 20
276.0
 30
0.0
 40
2.0
 50
180.0
 51
270.0
  0
ARC
  8
61
  5
116AC
 10
169.63658
 20
266.0
 30
0.0
 40
2.0
 50
180.0
 51
270.0
  0
LINE
  8
61
  5
116AD
 10
177.63658
 20
287.87868
 30
0.0
 11
177.63658
 21
276.0
 31
0.0
  0
ARC
  8
61
  5
116AE
 10
175.569717
 20
288.531329
 30
0.0
 40
1.0
 50
45.0
 51
147.024699
  0
LINE
  8
61
  5
116AF
 10
177.63658
 20
287.87868
 30
0.0
 11
176.276824
 21
289.238436
 31
0.0
  0
ARC
  8
61
  5
116B0
 10
179.105251
 20
292.066863
 30
0.0
 40
1.0
 50
122.975301
 51
225.0
  0
ARC
  8
61
  5
116B1
 10
185.63658
 20
282.0
 30
0.0
 40
8.0
 50
0.0
 51
90.0
  0
LINE
  8
61
  5
116B2
 10
193.63658
 20
276.0
 30
0.0
 11
193.63658
 21
282.0
 31
0.0
  0
CIRCLE
  8
61
  5
116B3
 10
185.63658
 20
282.0
 30
0.0
 40
6.0
  0
CIRCLE
  8
61
  5
116B4
 10
185.63658
 20
282.0
 30
0.0
 40
4.25
  0
LINE
  8
61
  5
116B5
 10
179.63658
 20
274.0
 30
0.0
 11
191.63658
 21
274.0
 31
0.0
  0
ARC
  8
61
  5
116B6
 10
191.63658
 20
276.0
 30
0.0
 40
2.0
 50
270.0
 51
0.0
  0
LINE
  8
61
  5
116B7
 10
179.757901
 20
290.0
 30
0.0
 11
185.63658
 21
290.0
 31
0.0
  0
ARC
  8
61
  5
116B8
 10
199.320147
 20
270.0
 30
0.0
 40
2.0
 50
90.0
 51
138.750393
  0
LINE
  8
61
  5
116B9
 10
175.63658
 20
295.683567
 30
0.0
 11
175.63658
 21
413.0
 31
0.0
  0
ARC
  8
61
  5
116BA
 10
173.63658
 20
295.683567
 30
0.0
 40
2.0
 50
311.249607
 51
0.0
  0
LINE
  8
63
  6
DASHDOT
  5
116CA
 10
366.63658
 20
255.559562
 30
0.0
 11
366.63658
 21
418.609224
 31
0.0
  0
LINE
  8
61
  5
116CB
 10
175.63658
 20
530.316433
 30
0.0
 11
175.63658
 21
413.0
 31
0.0
  0
LINE
  8
61
  5
116CC
 10
167.63658
 20
560.0
 30
0.0
 11
167.63658
 21
413.0
 31
0.0
  0
LINE
  8
63
  6
DASHDOT
  5
116CE
 10
366.63658
 20
570.440438
 30
0.0
 11
366.63658
 21
407.390776
 31
0.0
  0
LINE
  8
61
  5
116CF
 10
199.320147
 20
554.0
 30
0.0
 11
366.63658
 21
554.0
 31
0.0
  0
LINE
  8
61
  5
116D0
 10
169.63658
 20
562.0
 30
0.0
 11
366.63658
 21
562.0
 31
0.0
  0
ARC
  8
61
  5
116D2
 10
173.63658
 20
530.316433
 30
0.0
 40
2.0
 50
0.0
 51
48.750393
  0
CIRCLE
  8
61
  5
116D3
 10
185.63658
 20
544.0
 30
0.0
 40
13.0
  0
ARC
  8
61
  5
116D4
 10
185.63658
 20
544.0
 30
0.0
 40
16.2
 50
29.592442
 51
246.853205
  0
ARC
  8
61
  5
116D5
 10
185.63658
 20
544.0
 30
0.0
 40
8.0
 50
270.0
 51
0.0
  0
CIRCLE
  8
61
  5
116D6
 10
185.63658
 20
544.0
 30
0.0
 40
6.0
  0
LINE
  8
61
  5
116D7
 10
179.63658
 20
552.0
 30
0.0
 11
191.51526
 21
552.0
 31
0.0
  0
ARC
  8
61
  5
116D8
 10
169.63658
 20
560.0
 30
0.0
 40
2.0
 50
90.0
 51
180.0
  0
LINE
  8
61
  5
116D9
 10
177.63658
 20
538.0
 30
0.0
 11
177.63658
 21
550.0
 31
0.0
  0
CIRCLE
  8
61
  5
116DA
 10
185.63658
 20
544.0
 30
0.0
 40
4.25
  0
ARC
  8
61
  5
116DB
 10
179.63658
 20
550.0
 30
0.0
 40
2.0
 50
90.0
 51
180.0
  0
LINE
  8
61
  5
116DC
 10
179.63658
 20
536.0
 30
0.0
 11
185.63658
 21
536.0
 31
0.0
  0
LINE
  8
61
  5
116DD
 10
193.63658
 20
549.87868
 30
0.0
 11
194.996337
 21
551.238436
 31
0.0
  0
LINE
  8
61
  5
116DE
 10
191.51526
 20
552.0
 30
0.0
 11
193.63658
 21
549.87868
 31
0.0
  0
ARC
  8
61
  5
116DF
 10
192.16791
 20
554.066863
 30
0.0
 40
1.0
 50
315.0
 51
57.024699
  0
LINE
  8
61
  5
116E0
 10
191.51526
 20
552.0
 30
0.0
 11
192.875016
 21
553.359757
 31
0.0
  0
ARC
  8
61
  5
116E1
 10
195.703444
 20
550.531329
 30
0.0
 40
1.0
 50
32.975301
 51
135.0
  0
ARC
  8
61
  5
116E2
 10
199.320147
 20
556.0
 30
0.0
 40
2.0
 50
221.249607
 51
270.0
  0
LINE
  8
61
  5
116E3
 10
193.63658
 20
549.87868
 30
0.0
 11
193.63658
 21
544.0
 31
0.0
  0
LINE
  8
61
  5
116E4
 10
557.63658
 20
295.683567
 30
0.0
 11
557.63658
 21
413.0
 31
0.0
  0
LINE
  8
61
  5
116E5
 10
565.63658
 20
266.0
 30
0.0
 11
565.63658
 21
413.0
 31
0.0
  0
LINE
  8
61
  5
116E7
 10
533.953014
 20
272.0
 30
0.0
 11
366.63658
 21
272.0
 31
0.0
  0
LINE
  8
61
  5
116E8
 10
563.63658
 20
264.0
 30
0.0
 11
366.63658
 21
264.0
 31
0.0
  0
ARC
  8
61
  5
116EA
 10
559.63658
 20
295.683567
 30
0.0
 40
2.0
 50
180.0
 51
228.750393
  0
CIRCLE
  8
61
  5
116EB
 10
547.63658
 20
282.0
 30
0.0
 40
13.0
  0
ARC
  8
61
  5
116EC
 10
547.63658
 20
282.0
 30
0.0
 40
16.2
 50
209.592442
 51
66.853205
  0
ARC
  8
61
  5
116ED
 10
547.63658
 20
282.0
 30
0.0
 40
8.0
 50
90.0
 51
180.0
  0
CIRCLE
  8
61
  5
116EE
 10
547.63658
 20
282.0
 30
0.0
 40
6.0
  0
LINE
  8
61
  5
116EF
 10
553.63658
 20
274.0
 30
0.0
 11
541.757901
 21
274.0
 31
0.0
  0
ARC
  8
61
  5
116F0
 10
563.63658
 20
266.0
 30
0.0
 40
2.0
 50
270.0
 51
0.0
  0
LINE
  8
61
  5
116F1
 10
555.63658
 20
288.0
 30
0.0
 11
555.63658
 21
276.0
 31
0.0
  0
CIRCLE
  8
61
  5
116F2
 10
547.63658
 20
282.0
 30
0.0
 40
4.25
  0
ARC
  8
61
  5
116F3
 10
553.63658
 20
276.0
 30
0.0
 40
2.0
 50
270.0
 51
0.0
  0
LINE
  8
61
  5
116F4
 10
553.63658
 20
290.0
 30
0.0
 11
547.63658
 21
290.0
 31
0.0
  0
LINE
  8
61
  5
116F5
 10
539.63658
 20
276.12132
 30
0.0
 11
538.276824
 21
274.761564
 31
0.0
  0
LINE
  8
61
  5
116F6
 10
541.757901
 20
274.0
 30
0.0
 11
539.63658
 21
276.12132
 31
0.0
  0
ARC
  8
61
  5
116F7
 10
541.105251
 20
271.933137
 30
0.0
 40
1.0
 50
135.0
 51
237.024699
  0
LINE
  8
61
  5
116F8
 10
541.757901
 20
274.0
 30
0.0
 11
540.398144
 21
272.640243
 31
0.0
  0
ARC
  8
61
  5
116F9
 10
537.569717
 20
275.468671
 30
0.0
 40
1.0
 50
212.975301
 51
315.0
  0
ARC
  8
61
  5
116FA
 10
533.953014
 20
270.0
 30
0.0
 40
2.0
 50
41.249607
 51
90.0
  0
LINE
  8
61
  5
116FB
 10
539.63658
 20
276.12132
 30
0.0
 11
539.63658
 21
282.0
 31
0.0
  0
LINE
  8
61
  5
116FD
 10
563.63658
 20
562.0
 30
0.0
 11
366.63658
 21
562.0
 31
0.0
  0
LINE
  8
61
  5
116FE
 10
533.953014
 20
554.0
 30
0.0
 11
366.63658
 21
554.0
 31
0.0
  0
LINE
  8
61
  5
11701
 10
565.63658
 20
560.0
 30
0.0
 11
565.63658
 21
413.0
 31
0.0
  0
LINE
  8
61
  5
11702
 10
557.63658
 20
530.316433
 30
0.0
 11
557.63658
 21
413.0
 31
0.0
  0
LINE
  8
61
  5
11703
 10
553.63658
 20
552.0
 30
0.0
 11
541.63658
 21
552.0
 31
0.0
  0
CIRCLE
  8
61
  5
11704
 10
547.63658
 20
544.0
 30
0.0
 40
6.0
  0
ARC
  8
61
  5
11705
 10
547.63658
 20
544.0
 30
0.0
 40
8.0
 50
180.0
 51
270.0
  0
ARC
  8
61
  5
11706
 10
547.63658
 20
544.0
 30
0.0
 40
16.2
 50
293.146795
 51
150.407558
  0
CIRCLE
  8
61
  5
11707
 10
547.63658
 20
544.0
 30
0.0
 40
13.0
  0
ARC
  8
61
  5
11708
 10
553.63658
 20
550.0
 30
0.0
 40
2.0
 50
0.0
 51
90.0
  0
LINE
  8
61
  5
11709
 10
555.63658
 20
538.12132
 30
0.0
 11
555.63658
 21
550.0
 31
0.0
  0
LINE
  8
61
  5
1170A
 10
553.51526
 20
536.0
 30
0.0
 11
547.63658
 21
536.0
 31
0.0
  0
ARC
  8
61
  5
1170B
 10
554.16791
 20
533.933137
 30
0.0
 40
1.0
 50
302.975301
 51
45.0
  0
LINE
  8
61
  5
1170C
 10
555.63658
 20
538.12132
 30
0.0
 11
556.996337
 21
536.761564
 31
0.0
  0
ARC
  8
61
  5
1170D
 10
557.703444
 20
537.468671
 30
0.0
 40
1.0
 50
225.0
 51
327.024699
  0
LINE
  8
61
  5
1170E
 10
555.63658
 20
538.12132
 30
0.0
 11
553.51526
 21
536.0
 31
0.0
  0
LINE
  8
61
  5
1170F
 10
553.51526
 20
536.0
 30
0.0
 11
554.875016
 21
534.640243
 31
0.0
  0
ARC
  8
61
  5
11710
 10
559.63658
 20
530.316433
 30
0.0
 40
2.0
 50
131.249607
 51
180.0
  0
CIRCLE
  8
61
  5
11711
 10
547.63658
 20
544.0
 30
0.0
 40
4.25
  0
ARC
  8
61
  5
11712
 10
563.63658
 20
560.0
 30
0.0
 40
2.0
 50
0.0
 51
90.0
  0
ARC
  8
61
  5
11713
 10
541.63658
 20
550.0
 30
0.0
 40
2.0
 50
90.0
 51
180.0
  0
LINE
  8
61
  5
11714
 10
539.63658
 20
550.0
 30
0.0
 11
539.63658
 21
544.0
 31
0.0
  0
ARC
  8
61
  5
11715
 10
533.953014
 20
556.0
 30
0.0
 40
2.0
 50
270.0
 51
318.750393
  0
LINE
  8
63
  6
DASHDOT
  5
119CC
 10
574.253328
 20
413.0
 30
0.0
 11
363.605944
 21
413.0
 31
0.0
  0
ARC
  8
61
  5
11B8B
 10
179.63658
 20
538.0
 30
0.0
 40
2.0
 50
180.0
 51
270.0
  0
ARC
  8
61
  5
11B8C
 10
553.63658
 20
288.0
 30
0.0
 40
2.0
 50
0.0
 51
90.0
  0
LINE
  8
63
  6
DASHDOT
  5
12BB6
 10
162.27151
 20
413.0
 30
0.0
 11
369.667217
 21
413.0
 31
0.0
  0
LINE
  8
51
  5
14EB5
 10
-485.396732
 20
282.0
 30
0.0
 11
-485.396732
 21
275.0
 31
0.0
  0
LINE
  8
51
  5
14EB6
 10
-491.670244
 20
280.373595
 30
0.0
 11
-489.591515
 21
279.512558
 31
0.0
  0
LINE
  8
51
  5
14EB7
 10
-499.52322
 20
280.373595
 30
0.0
 11
-501.601949
 21
279.512558
 31
0.0
  0
CIRCLE
  8
51
  5
14EB8
 10
-495.596732
 20
282.0
 30
0.0
 40
4.25
  0
LINE
  8
51
  5
14EB9
 10
-503.596732
 20
280.5
 30
0.0
 11
-503.596732
 21
274.5
 31
0.0
  0
CIRCLE
  8
51
  5
14EBA
 10
-495.596732
 20
282.0
 30
0.0
 40
6.5
  0
ARC
  8
51
  5
14EBC
 10
-495.596732
 20
282.0
 30
0.0
 40
15.7
 50
329.365864
 51
120.634136
  0
LINE
  8
51
  5
14EBF
 10
-513.596732
 20
266.5
 30
0.0
 11
-513.596732
 21
413.0
 31
0.0
  0
LINE
  8
52
  5
14EC0
 10
-511.596732
 20
266.5
 30
0.0
 11
-511.596732
 21
413.0
 31
0.0
  0
LINE
  8
52
  5
14EC1
 10
-505.596732
 20
413.0
 30
0.0
 11
-505.596732
 21
274.5
 31
0.0
  0
LINE
  8
53
  6
DASHDOT
  5
14EC2
 10
-314.596732
 20
413.0
 30
0.0
 11
-314.596732
 21
255.813896
 31
0.0
  0
LINE
  8
51
  5
14EC4
 10
-511.096732
 20
264.0
 30
0.0
 11
-314.596732
 21
264.0
 31
0.0
  0
LINE
  8
52
  5
14EC5
 10
-503.096732
 20
272.0
 30
0.0
 11
-314.596732
 21
272.0
 31
0.0
  0
LINE
  8
52
  5
14EC6
 10
-511.096732
 20
266.0
 30
0.0
 11
-314.596732
 21
266.0
 31
0.0
  0
ARC
  8
52
  5
14EC7
 10
-511.096732
 20
266.5
 30
0.0
 40
0.5
 50
180.0
 51
270.0
  0
ARC
  8
51
  5
14EC8
 10
-511.096732
 20
266.5
 30
0.0
 40
2.5
 50
180.0
 51
270.0
  0
LINE
  8
51
  5
14EC9
 10
-503.096732
 20
274.0
 30
0.0
 11
-497.096732
 21
274.0
 31
0.0
  0
ARC
  8
52
  5
14ECA
 10
-503.096732
 20
274.5
 30
0.0
 40
2.5
 50
180.0
 51
270.0
  0
ARC
  8
51
  5
14ECB
 10
-503.096732
 20
274.5
 30
0.0
 40
0.5
 50
180.0
 51
270.0
  0
LINE
  8
51
  5
14ECC
 10
-497.096732
 20
272.0
 30
0.0
 11
-497.096732
 21
274.0
 31
0.0
  0
LINE
  8
51
  5
14ECD
 10
-497.223137
 20
278.073512
 30
0.0
 11
-498.084174
 21
275.994783
 31
0.0
  0
LINE
  8
51
  5
14ECE
 10
-493.970327
 20
278.073512
 30
0.0
 11
-493.10929
 21
275.994783
 31
0.0
  0
LINE
  8
51
  5
14ED0
 10
-490.096732
 20
274.0
 30
0.0
 11
-314.596732
 21
274.0
 31
0.0
  0
LINE
  8
51
  5
14ED1
 10
-490.096732
 20
272.0
 30
0.0
 11
-490.096732
 21
274.0
 31
0.0
  0
ARC
  8
51
  5
14ED2
 10
-484.396732
 20
275.0
 30
0.0
 40
1.0
 50
180.0
 51
270.0
  0
LINE
  8
53
  6
DASHDOT
  5
14ED3
 10
-519.596732
 20
413.0
 30
0.0
 11
-314.596732
 21
413.0
 31
0.0
  0
LINE
  8
51
  5
14ED4
 10
-491.670244
 20
283.626405
 30
0.0
 11
-489.591515
 21
284.487442
 31
0.0
  0
ARC
  8
51
  5
14ED6
 10
-495.596732
 20
282.0
 30
0.0
 40
10.2
 50
0.0
 51
90.0
  0
LINE
  8
51
  5
14ED8
 10
-503.596732
 20
413.0
 30
0.0
 11
-503.596732
 21
287.5
 31
0.0
  0
LINE
  8
51
  5
14ED9
 10
-505.596732
 20
280.5
 30
0.0
 11
-503.596732
 21
280.5
 31
0.0
  0
LINE
  8
51
  5
14EDA
 10
-499.52322
 20
283.626405
 30
0.0
 11
-501.601949
 21
284.487442
 31
0.0
  0
LINE
  8
51
  5
14EDB
 10
-505.596732
 20
287.5
 30
0.0
 11
-503.596732
 21
287.5
 31
0.0
  0
LINE
  8
51
  5
14EDC
 10
-497.223137
 20
285.926488
 30
0.0
 11
-498.084174
 21
288.005217
 31
0.0
  0
LINE
  8
51
  5
14EDD
 10
-493.970327
 20
285.926488
 30
0.0
 11
-493.10929
 21
288.005217
 31
0.0
  0
LINE
  8
51
  5
14EDE
 10
-495.596732
 20
292.2
 30
0.0
 11
-502.596732
 21
292.2
 31
0.0
  0
ARC
  8
51
  5
14EDF
 10
-502.596732
 20
293.2
 30
0.0
 40
1.0
 50
180.0
 51
270.0
  0
LINE
  8
53
  6
DASHDOT
  5
14EE0
 10
-314.596732
 20
413.0
 30
0.0
 11
-314.596732
 21
567.0
 31
0.0
  0
LINE
  8
51
  5
14EE1
 10
-503.596732
 20
413.0
 30
0.0
 11
-503.596732
 21
538.5
 31
0.0
  0
LINE
  8
52
  5
14EE2
 10
-505.596732
 20
413.0
 30
0.0
 11
-505.596732
 21
551.5
 31
0.0
  0
LINE
  8
52
  5
14EE3
 10
-511.596732
 20
559.5
 30
0.0
 11
-511.596732
 21
413.0
 31
0.0
  0
LINE
  8
51
  5
14EE4
 10
-513.596732
 20
559.5
 30
0.0
 11
-513.596732
 21
413.0
 31
0.0
  0
LINE
  8
51
  5
14EE7
 10
-490.096732
 20
552.0
 30
0.0
 11
-314.596732
 21
552.0
 31
0.0
  0
LINE
  8
52
  5
14EEA
 10
-511.096732
 20
560.0
 30
0.0
 11
-314.596732
 21
560.0
 31
0.0
  0
LINE
  8
51
  5
14EEB
 10
-503.096732
 20
554.0
 30
0.0
 11
-314.596732
 21
554.0
 31
0.0
  0
LINE
  8
51
  5
14EEC
 10
-511.096732
 20
562.0
 30
0.0
 11
-314.596732
 21
562.0
 31
0.0
  0
CIRCLE
  8
51
  5
14EED
 10
-495.596732
 20
544.0
 30
0.0
 40
4.25
  0
CIRCLE
  8
51
  5
14EEE
 10
-495.596732
 20
544.0
 30
0.0
 40
6.5
  0
LINE
  8
51
  5
14EEF
 10
-495.596732
 20
533.8
 30
0.0
 11
-502.596732
 21
533.8
 31
0.0
  0
ARC
  8
51
  5
14EF1
 10
-495.596732
 20
544.0
 30
0.0
 40
15.7
 50
239.365864
 51
30.634136
  0
ARC
  8
51
  5
14EF3
 10
-511.096732
 20
559.5
 30
0.0
 40
2.5
 50
90.0
 51
180.0
  0
ARC
  8
52
  5
14EF4
 10
-511.096732
 20
559.5
 30
0.0
 40
0.5
 50
90.0
 51
180.0
  0
ARC
  8
52
  5
14EF5
 10
-503.096732
 20
551.5
 30
0.0
 40
2.5
 50
90.0
 51
180.0
  0
LINE
  8
51
  5
14EF6
 10
-505.596732
 20
545.5
 30
0.0
 11
-503.596732
 21
545.5
 31
0.0
  0
LINE
  8
51
  5
14EF7
 10
-497.223137
 20
547.926488
 30
0.0
 11
-498.084174
 21
550.005217
 31
0.0
  0
LINE
  8
51
  5
14EF8
 10
-499.52322
 20
545.626405
 30
0.0
 11
-501.601949
 21
546.487442
 31
0.0
  0
LINE
  8
51
  5
14EF9
 10
-497.096732
 20
554.0
 30
0.0
 11
-497.096732
 21
552.0
 31
0.0
  0
ARC
  8
51
  5
14EFA
 10
-503.096732
 20
551.5
 30
0.0
 40
0.5
 50
90.0
 51
180.0
  0
LINE
  8
51
  5
14EFB
 10
-503.096732
 20
552.0
 30
0.0
 11
-497.096732
 21
552.0
 31
0.0
  0
LINE
  8
51
  5
14EFC
 10
-503.596732
 20
545.5
 30
0.0
 11
-503.596732
 21
551.5
 31
0.0
  0
LINE
  8
51
  5
14EFD
 10
-505.596732
 20
538.5
 30
0.0
 11
-503.596732
 21
538.5
 31
0.0
  0
ARC
  8
51
  5
14EFE
 10
-502.596732
 20
532.8
 30
0.0
 40
1.0
 50
90.0
 51
180.0
  0
LINE
  8
51
  5
14EFF
 10
-499.52322
 20
542.373595
 30
0.0
 11
-501.601949
 21
541.512558
 31
0.0
  0
LINE
  8
51
  5
14F00
 10
-497.223137
 20
540.073512
 30
0.0
 11
-498.084174
 21
537.994783
 31
0.0
  0
LINE
  8
51
  5
14F01
 10
-485.396732
 20
544.0
 30
0.0
 11
-485.396732
 21
551.0
 31
0.0
  0
LINE
  8
51
  5
14F03
 10
-491.670244
 20
545.626405
 30
0.0
 11
-489.591515
 21
546.487442
 31
0.0
  0
LINE
  8
51
  5
14F04
 10
-493.970327
 20
547.926488
 30
0.0
 11
-493.10929
 21
550.005217
 31
0.0
  0
LINE
  8
51
  5
14F05
 10
-490.096732
 20
554.0
 30
0.0
 11
-490.096732
 21
552.0
 31
0.0
  0
ARC
  8
51
  5
14F06
 10
-484.396732
 20
551.0
 30
0.0
 40
1.0
 50
90.0
 51
180.0
  0
ARC
  8
51
  5
14F07
 10
-495.596732
 20
544.0
 30
0.0
 40
10.2
 50
270.0
 51
0.0
  0
LINE
  8
51
  5
14F08
 10
-491.670244
 20
542.373595
 30
0.0
 11
-489.591515
 21
541.512558
 31
0.0
  0
LINE
  8
51
  5
14F09
 10
-493.970327
 20
540.073512
 30
0.0
 11
-493.10929
 21
537.994783
 31
0.0
  0
ARC
  8
51
  5
2229A
 10
-133.596732
 20
282.0
 30
0.0
 40
10.2
 50
90.0
 51
180.0
  0
CIRCLE
  8
51
  5
2229B
 10
-133.596732
 20
282.0
 30
0.0
 40
6.5
  0
CIRCLE
  8
51
  5
2229C
 10
-133.596732
 20
282.0
 30
0.0
 40
4.25
  0
ARC
  8
51
  5
2229D
 10
-133.596732
 20
282.0
 30
0.0
 40
15.7
 50
59.365864
 51
210.634136
  0
LINE
  8
52
  5
2229E
 10
-123.596732
 20
413.0
 30
0.0
 11
-123.596732
 21
274.5
 31
0.0
  0
LINE
  8
52
  5
2229F
 10
-117.596732
 20
266.5
 30
0.0
 11
-117.596732
 21
413.0
 31
0.0
  0
LINE
  8
51
  5
222A0
 10
-115.596732
 20
266.5
 30
0.0
 11
-115.596732
 21
413.0
 31
0.0
  0
LINE
  8
51
  5
222A1
 10
-118.096732
 20
264.0
 30
0.0
 11
-314.596732
 21
264.0
 31
0.0
  0
LINE
  8
52
  5
222A2
 10
-126.096732
 20
272.0
 30
0.0
 11
-314.596732
 21
272.0
 31
0.0
  0
LINE
  8
52
  5
222A3
 10
-118.096732
 20
266.0
 30
0.0
 11
-314.596732
 21
266.0
 31
0.0
  0
LINE
  8
51
  5
222A4
 10
-139.096732
 20
274.0
 30
0.0
 11
-314.596732
 21
274.0
 31
0.0
  0
LINE
  8
51
  5
222A5
 10
-129.670244
 20
283.626405
 30
0.0
 11
-127.591515
 21
284.487442
 31
0.0
  0
LINE
  8
51
  5
222A6
 10
-129.670244
 20
280.373595
 30
0.0
 11
-127.591515
 21
279.512558
 31
0.0
  0
LINE
  8
51
  5
222A7
 10
-126.096732
 20
274.0
 30
0.0
 11
-132.096732
 21
274.0
 31
0.0
  0
ARC
  8
51
  5
222A8
 10
-126.096732
 20
274.5
 30
0.0
 40
0.5
 50
270.0
 51
0.0
  0
ARC
  8
52
  5
222A9
 10
-126.096732
 20
274.5
 30
0.0
 40
2.5
 50
270.0
 51
0.0
  0
ARC
  8
51
  5
222AA
 10
-118.096732
 20
266.5
 30
0.0
 40
2.5
 50
270.0
 51
0.0
  0
ARC
  8
52
  5
222AB
 10
-118.096732
 20
266.5
 30
0.0
 40
0.5
 50
270.0
 51
0.0
  0
LINE
  8
51
  5
222AC
 10
-123.596732
 20
280.5
 30
0.0
 11
-125.596732
 21
280.5
 31
0.0
  0
LINE
  8
51
  5
222AD
 10
-125.596732
 20
280.5
 30
0.0
 11
-125.596732
 21
274.5
 31
0.0
  0
ARC
  8
51
  5
222AE
 10
-144.796732
 20
275.0
 30
0.0
 40
1.0
 50
270.0
 51
0.0
  0
LINE
  8
51
  5
222AF
 10
-132.096732
 20
272.0
 30
0.0
 11
-132.096732
 21
274.0
 31
0.0
  0
LINE
  8
51
  5
222B0
 10
-139.096732
 20
272.0
 30
0.0
 11
-139.096732
 21
274.0
 31
0.0
  0
LINE
  8
51
  5
222B1
 10
-135.223137
 20
278.073512
 30
0.0
 11
-136.084174
 21
275.994783
 31
0.0
  0
LINE
  8
51
  5
222B2
 10
-131.970327
 20
278.073512
 30
0.0
 11
-131.10929
 21
275.994783
 31
0.0
  0
LINE
  8
51
  5
222B3
 10
-137.52322
 20
283.626405
 30
0.0
 11
-139.601949
 21
284.487442
 31
0.0
  0
LINE
  8
51
  5
222B4
 10
-137.52322
 20
280.373595
 30
0.0
 11
-139.601949
 21
279.512558
 31
0.0
  0
LINE
  8
51
  5
222B5
 10
-143.796732
 20
282.0
 30
0.0
 11
-143.796732
 21
275.0
 31
0.0
  0
LINE
  8
53
  6
DASHDOT
  5
222B6
 10
-109.596732
 20
413.0
 30
0.0
 11
-314.596732
 21
413.0
 31
0.0
  0
LINE
  8
51
  5
222B7
 10
-139.096732
 20
552.0
 30
0.0
 11
-314.596732
 21
552.0
 31
0.0
  0
LINE
  8
52
  5
222B8
 10
-118.096732
 20
560.0
 30
0.0
 11
-314.596732
 21
560.0
 31
0.0
  0
LINE
  8
52
  5
222B9
 10
-126.096732
 20
554.0
 30
0.0
 11
-314.596732
 21
554.0
 31
0.0
  0
LINE
  8
51
  5
222BA
 10
-118.096732
 20
562.0
 30
0.0
 11
-314.596732
 21
562.0
 31
0.0
  0
ARC
  8
51
  5
222BB
 10
-133.596732
 20
544.0
 30
0.0
 40
10.2
 50
180.0
 51
270.0
  0
ARC
  8
51
  5
222BC
 10
-133.596732
 20
544.0
 30
0.0
 40
15.7
 50
149.365864
 51
300.634136
  0
LINE
  8
51
  5
222BD
 10
-115.596732
 20
559.5
 30
0.0
 11
-115.596732
 21
413.0
 31
0.0
  0
LINE
  8
52
  5
222BE
 10
-117.596732
 20
559.5
 30
0.0
 11
-117.596732
 21
413.0
 31
0.0
  0
LINE
  8
52
  5
222BF
 10
-123.596732
 20
413.0
 30
0.0
 11
-123.596732
 21
551.5
 31
0.0
  0
LINE
  8
51
  5
222C0
 10
-125.596732
 20
413.0
 30
0.0
 11
-125.596732
 21
538.5
 31
0.0
  0
LINE
  8
51
  5
222C1
 10
-125.596732
 20
413.0
 30
0.0
 11
-125.596732
 21
287.5
 31
0.0
  0
LINE
  8
51
  5
222C2
 10
-133.596732
 20
292.2
 30
0.0
 11
-126.596732
 21
292.2
 31
0.0
  0
LINE
  8
51
  5
222C3
 10
-123.596732
 20
287.5
 30
0.0
 11
-125.596732
 21
287.5
 31
0.0
  0
ARC
  8
51
  5
222C4
 10
-126.596732
 20
293.2
 30
0.0
 40
1.0
 50
270.0
 51
0.0
  0
LINE
  8
51
  5
222C5
 10
-135.223137
 20
285.926488
 30
0.0
 11
-136.084174
 21
288.005217
 31
0.0
  0
LINE
  8
51
  5
222C6
 10
-131.970327
 20
285.926488
 30
0.0
 11
-131.10929
 21
288.005217
 31
0.0
  0
LINE
  8
51
  5
222C7
 10
-139.096732
 20
554.0
 30
0.0
 11
-139.096732
 21
552.0
 31
0.0
  0
LINE
  8
51
  5
222C8
 10
-132.096732
 20
554.0
 30
0.0
 11
-132.096732
 21
552.0
 31
0.0
  0
ARC
  8
52
  5
222C9
 10
-126.096732
 20
551.5
 30
0.0
 40
2.5
 50
0.0
 51
90.0
  0
LINE
  8
51
  5
222CA
 10
-129.670244
 20
545.626405
 30
0.0
 11
-127.591515
 21
546.487442
 31
0.0
  0
LINE
  8
51
  5
222CB
 10
-126.096732
 20
552.0
 30
0.0
 11
-132.096732
 21
552.0
 31
0.0
  0
LINE
  8
51
  5
222CC
 10
-129.670244
 20
542.373595
 30
0.0
 11
-127.591515
 21
541.512558
 31
0.0
  0
LINE
  8
51
  5
222CD
 10
-133.596732
 20
533.8
 30
0.0
 11
-126.596732
 21
533.8
 31
0.0
  0
CIRCLE
  8
51
  5
222CE
 10
-133.596732
 20
544.0
 30
0.0
 40
6.5
  0
ARC
  8
51
  5
222CF
 10
-126.596732
 20
532.8
 30
0.0
 40
1.0
 50
0.0
 51
90.0
  0
LINE
  8
51
  5
222D0
 10
-123.596732
 20
538.5
 30
0.0
 11
-125.596732
 21
538.5
 31
0.0
  0
LINE
  8
51
  5
222D1
 10
-125.596732
 20
545.5
 30
0.0
 11
-125.596732
 21
551.5
 31
0.0
  0
ARC
  8
51
  5
222D2
 10
-126.096732
 20
551.5
 30
0.0
 40
0.5
 50
0.0
 51
90.0
  0
LINE
  8
51
  5
222D3
 10
-123.596732
 20
545.5
 30
0.0
 11
-125.596732
 21
545.5
 31
0.0
  0
CIRCLE
  8
51
  5
222D4
 10
-133.596732
 20
544.0
 30
0.0
 40
4.25
  0
LINE
  8
51
  5
222D5
 10
-135.223137
 20
540.073512
 30
0.0
 11
-136.084174
 21
537.994783
 31
0.0
  0
LINE
  8
51
  5
222D6
 10
-131.970327
 20
540.073512
 30
0.0
 11
-131.10929
 21
537.994783
 31
0.0
  0
LINE
  8
51
  5
222D7
 10
-135.223137
 20
547.926488
 30
0.0
 11
-136.084174
 21
550.005217
 31
0.0
  0
LINE
  8
51
  5
222D8
 10
-131.970327
 20
547.926488
 30
0.0
 11
-131.10929
 21
550.005217
 31
0.0
  0
ARC
  8
51
  5
222D9
 10
-144.796732
 20
551.0
 30
0.0
 40
1.0
 50
0.0
 51
90.0
  0
LINE
  8
51
  5
222DA
 10
-143.796732
 20
544.0
 30
0.0
 11
-143.796732
 21
551.0
 31
0.0
  0
LINE
  8
51
  5
222DB
 10
-137.52322
 20
545.626405
 30
0.0
 11
-139.601949
 21
546.487442
 31
0.0
  0
LINE
  8
51
  5
222DC
 10
-137.52322
 20
542.373595
 30
0.0
 11
-139.601949
 21
541.512558
 31
0.0
  0
ARC
  8
52
  5
222DD
 10
-118.096732
 20
559.5
 30
0.0
 40
0.5
 50
0.0
 51
90.0
  0
ARC
  8
51
  5
222DE
 10
-118.096732
 20
559.5
 30
0.0
 40
2.5
 50
0.0
 51
90.0
  0
LINE
  8
41
  5
222DF
 10
85.63658
 20
560.0
 30
0.0
 11
85.63658
 21
413.0
 31
0.0
  0
LINE
  8
41
  5
222E0
 10
86.13658
 20
539.504803
 30
0.0
 11
86.13658
 21
543.281622
 31
0.0
  0
LINE
  8
41
  5
222E1
 10
89.13658
 20
537.5
 30
0.0
 11
89.13658
 21
543.281622
 31
0.0
  0
ARC
  8
41
  5
222E2
 10
88.786147
 20
542.47262
 30
0.0
 40
2.74508
 50
195.158626
 51
277.334321
  0
LINE
  8
41
  5
222E3
 10
-13.36342
 20
549.489282
 30
0.0
 11
-13.36342
 21
413.0
 31
0.0
  0
LINE
  8
41
  5
222E4
 10
-13.36342
 20
559.5
 30
0.0
 11
76.499228
 21
561.068558
 31
0.0
  0
LINE
  8
41
  5
222E5
 10
88.63658
 20
552.0
 30
0.0
 11
88.63658
 21
545.5
 31
0.0
  0
LINE
  8
41
  5
222E6
 10
85.63658
 20
562.0
 30
0.0
 11
77.916928
 21
561.730424
 31
0.0
  0
LINE
  8
41
  5
222E7
 10
85.63658
 20
562.0
 30
0.0
 11
85.63658
 21
560.0
 31
0.0
  0
LINE
  8
41
  5
222E8
 10
88.63658
 20
554.0
 30
0.0
 11
88.63658
 21
552.0
 31
0.0
  0
LINE
  8
41
  5
222E9
 10
88.63658
 20
554.0
 30
0.0
 11
85.63658
 21
554.104762
 31
0.0
  0
ARC
  8
41
  5
222EA
 10
77.986727
 20
559.731642
 30
0.0
 40
2.0
 50
92.0
 51
138.051829
  0
ARC
  8
41
  5
222EB
 10
91.287775
 20
541.924701
 30
0.0
 40
5.326917
 50
137.842096
 51
165.242457
  0
LINE
  8
41
  5
222EC
 10
85.63658
 20
545.5
 30
0.0
 11
88.63658
 21
545.5
 31
0.0
  0
LINE
  8
41
  5
222ED
 10
89.13658
 20
550.175445
 30
0.0
 11
89.13658
 21
546.797934
 31
0.0
  0
ARC
  8
41
  5
222EE
 10
93.06237
 20
549.009101
 30
0.0
 40
6.943763
 50
212.115568
 51
235.572066
  0
ARC
  8
41
  5
222EF
 10
91.287775
 20
541.924701
 30
0.0
 40
5.326917
 50
113.818134
 51
119.847803
  0
LINE
  8
41
  5
222F0
 10
89.13658
 20
550.175445
 30
0.0
 11
88.63658
 21
550.5
 31
0.0
  0
LINE
  8
41
  5
222F1
 10
-13.36342
 20
559.5
 30
0.0
 11
-13.36342
 21
549.489282
 31
0.0
  0
LINE
  8
41
  5
222F2
 10
85.63658
 20
266.0
 30
0.0
 11
85.63658
 21
413.0
 31
0.0
  0
LINE
  8
41
  5
222F3
 10
88.63658
 20
287.5
 30
0.0
 11
88.63658
 21
413.0
 31
0.0
  0
LINE
  8
41
  5
222F4
 10
-13.36342
 20
276.510718
 30
0.0
 11
-13.36342
 21
413.0
 31
0.0
  0
LINE
  8
44
  5
222F5
 10
-10.36342
 20
298.63082
 30
0.0
 11
-10.36342
 21
413.0
 31
0.0
  0
LINE
  8
41
  5
222F6
 10
88.63658
 20
538.5
 30
0.0
 11
88.63658
 21
413.0
 31
0.0
  0
LINE
  8
44
  5
222F7
 10
-10.36342
 20
527.36918
 30
0.0
 11
-10.36342
 21
413.0
 31
0.0
  0
LINE
  8
44
  5
222F8
 10
-9.380872
 20
528.369028
 30
0.0
 11
75.680211
 21
529.853775
 31
0.0
  0
ARC
  8
44
  5
222F9
 10
75.63658
 20
532.353394
 30
0.0
 40
2.5
 50
271.0
 51
0.0
  0
ARC
  8
44
  5
222FA
 10
82.13658
 20
536.3
 30
0.0
 40
2.5
 50
270.0
 51
0.0
  0
LINE
  8
44
  5
222FB
 10
84.63658
 20
537.5
 30
0.0
 11
88.63658
 21
537.5
 31
0.0
  0
LINE
  8
44
  5
222FC
 10
84.63658
 20
536.3
 30
0.0
 11
84.63658
 21
537.5
 31
0.0
  0
ARC
  8
41
  5
222FD
 10
88.786147
 20
540.22262
 30
0.0
 40
2.74508
 50
195.158626
 51
218.868128
  0
LINE
  8
41
  5
222FE
 10
85.63658
 20
538.5
 30
0.0
 11
88.63658
 21
538.5
 31
0.0
  0
LINE
  8
44
  5
222FF
 10
78.13658
 20
533.8
 30
0.0
 11
82.13658
 21
533.8
 31
0.0
  0
LINE
  8
44
  5
22300
 10
78.13658
 20
532.353394
 30
0.0
 11
78.13658
 21
533.8
 31
0.0
  0
LINE
  8
41
  5
22301
 10
88.435713
 20
537.5
 30
0.0
 11
89.13658
 21
537.5
 31
0.0
  0
ARC
  8
41
  5
22302
 10
88.786147
 20
540.22262
 30
0.0
 40
2.74508
 50
262.665679
 51
277.334321
  0
ARC
  8
44
  5
22303
 10
-9.36342
 20
527.36918
 30
0.0
 40
1.0
 50
91.0
 51
180.0
  0
LINE
  8
43
  6
DASHDOT
  5
22304
 10
91.473264
 20
413.0
 30
0.0
 11
-22.773305
 21
413.0
 31
0.0
  0
LINE
  8
41
  5
2230A
 10
88.63658
 20
272.0
 30
0.0
 11
88.63658
 21
274.0
 31
0.0
  0
LINE
  8
41
  5
2230B
 10
-13.36342
 20
266.5
 30
0.0
 11
-13.36342
 21
276.510718
 31
0.0
  0
LINE
  8
44
  5
2230C
 10
-9.380872
 20
297.630972
 30
0.0
 11
75.680211
 21
296.146225
 31
0.0
  0
ARC
  8
44
  5
2230D
 10
75.63658
 20
293.646606
 30
0.0
 40
2.5
 50
0.0
 51
89.0
  0
LINE
  8
41
  5
2230E
 10
86.13658
 20
286.495197
 30
0.0
 11
86.13658
 21
282.718378
 31
0.0
  0
LINE
  8
41
  5
2230F
 10
89.13658
 20
288.5
 30
0.0
 11
89.13658
 21
282.718378
 31
0.0
  0
ARC
  8
41
  5
22310
 10
88.786147
 20
283.52738
 30
0.0
 40
2.74508
 50
82.665679
 51
164.841374
  0
ARC
  8
44
  5
22311
 10
82.13658
 20
289.7
 30
0.0
 40
2.5
 50
0.0
 51
90.0
  0
LINE
  8
41
  5
22312
 10
85.63658
 20
287.5
 30
0.0
 11
88.63658
 21
287.5
 31
0.0
  0
ARC
  8
41
  5
22313
 10
88.786147
 20
285.77738
 30
0.0
 40
2.74508
 50
141.131872
 51
164.841374
  0
LINE
  8
44
  5
22314
 10
84.63658
 20
289.7
 30
0.0
 11
84.63658
 21
288.5
 31
0.0
  0
LINE
  8
44
  5
22315
 10
84.63658
 20
288.5
 30
0.0
 11
88.63658
 21
288.5
 31
0.0
  0
LINE
  8
44
  5
22316
 10
78.13658
 20
292.2
 30
0.0
 11
82.13658
 21
292.2
 31
0.0
  0
LINE
  8
44
  5
22317
 10
78.13658
 20
293.646606
 30
0.0
 11
78.13658
 21
292.2
 31
0.0
  0
ARC
  8
41
  5
22318
 10
88.786147
 20
285.77738
 30
0.0
 40
2.74508
 50
82.665679
 51
97.334321
  0
LINE
  8
41
  5
22319
 10
88.435713
 20
288.5
 30
0.0
 11
89.13658
 21
288.5
 31
0.0
  0
LINE
  8
41
  5
2231A
 10
88.63658
 20
274.0
 30
0.0
 11
88.63658
 21
280.5
 31
0.0
  0
ARC
  8
41
  5
2231B
 10
91.287775
 20
284.075299
 30
0.0
 40
5.326917
 50
194.757543
 51
222.157904
  0
LINE
  8
41
  5
2231C
 10
85.63658
 20
280.5
 30
0.0
 11
88.63658
 21
280.5
 31
0.0
  0
LINE
  8
41
  5
2231D
 10
89.13658
 20
275.824555
 30
0.0
 11
89.13658
 21
279.202066
 31
0.0
  0
LINE
  8
41
  5
2231E
 10
89.13658
 20
275.824555
 30
0.0
 11
88.63658
 21
275.5
 31
0.0
  0
ARC
  8
41
  5
2231F
 10
93.06237
 20
276.990899
 30
0.0
 40
6.943763
 50
124.427934
 51
147.884432
  0
ARC
  8
41
  5
22320
 10
91.287775
 20
284.075299
 30
0.0
 40
5.326917
 50
240.152197
 51
246.181866
  0
ARC
  8
44
  5
22321
 10
-9.36342
 20
298.63082
 30
0.0
 40
1.0
 50
180.0
 51
269.0
  0
LINE
  8
41
  5
22322
 10
-13.36342
 20
266.5
 30
0.0
 11
76.499228
 21
264.931442
 31
0.0
  0
LINE
  8
41
  5
22323
 10
85.63658
 20
264.0
 30
0.0
 11
77.916928
 21
264.269576
 31
0.0
  0
LINE
  8
41
  5
22324
 10
88.63658
 20
272.0
 30
0.0
 11
85.63658
 21
271.895238
 31
0.0
  0
LINE
  8
41
  5
22325
 10
85.63658
 20
264.0
 30
0.0
 11
85.63658
 21
266.0
 31
0.0
  0
ARC
  8
41
  5
22326
 10
77.986727
 20
266.268358
 30
0.0
 40
2.0
 50
221.948171
 51
268.0
  0
LINE
  8
21
  5
22327
 10
563.63658
 20
637.153113
 30
0.0
 11
366.63658
 21
637.153113
 31
0.0
  0
LINE
  8
21
  5
22328
 10
543.141383
 20
636.653113
 30
0.0
 11
546.918202
 21
636.653113
 31
0.0
  0
LINE
  8
21
  5
22329
 10
541.13658
 20
633.653113
 30
0.0
 11
546.918202
 21
633.653113
 31
0.0
  0
ARC
  8
21
  5
2232A
 10
546.109201
 20
634.003547
 30
0.0
 40
2.74508
 50
105.158626
 51
187.334321
  0
LINE
  8
21
  5
2232B
 10
553.125862
 20
736.153113
 30
0.0
 11
366.63658
 21
736.153113
 31
0.0
  0
LINE
  8
21
  5
2232C
 10
563.13658
 20
736.153113
 30
0.0
 11
564.705139
 21
646.290466
 31
0.0
  0
LINE
  8
21
  5
2232D
 10
555.63658
 20
634.153113
 30
0.0
 11
549.13658
 21
634.153113
 31
0.0
  0
LINE
  8
21
  5
2232E
 10
565.63658
 20
637.153113
 30
0.0
 11
565.367004
 21
644.872765
 31
0.0
  0
LINE
  8
21
  5
2232F
 10
565.63658
 20
637.153113
 30
0.0
 11
563.63658
 21
637.153113
 31
0.0
  0
LINE
  8
21
  5
22330
 10
557.63658
 20
634.153113
 30
0.0
 11
555.63658
 21
634.153113
 31
0.0
  0
LINE
  8
21
  5
22331
 10
557.63658
 20
634.153113
 30
0.0
 11
557.741343
 21
637.153113
 31
0.0
  0
ARC
  8
21
  5
22332
 10
563.368222
 20
644.802966
 30
0.0
 40
2.0
 50
2.0
 51
48.051829
  0
ARC
  8
21
  5
22333
 10
545.561281
 20
631.501919
 30
0.0
 40
5.326917
 50
47.842096
 51
75.242457
  0
LINE
  8
21
  5
22334
 10
549.13658
 20
637.153113
 30
0.0
 11
549.13658
 21
634.153113
 31
0.0
  0
LINE
  8
21
  5
22335
 10
553.812025
 20
633.653113
 30
0.0
 11
550.434514
 21
633.653113
 31
0.0
  0
ARC
  8
21
  5
22336
 10
552.645681
 20
629.727324
 30
0.0
 40
6.943763
 50
122.115568
 51
145.572066
  0
ARC
  8
21
  5
22337
 10
545.561281
 20
631.501919
 30
0.0
 40
5.326917
 50
23.818134
 51
29.847803
  0
LINE
  8
21
  5
22338
 10
553.812025
 20
633.653113
 30
0.0
 11
554.13658
 21
634.153113
 31
0.0
  0
LINE
  8
21
  5
22339
 10
563.13658
 20
736.153113
 30
0.0
 11
553.125862
 21
736.153113
 31
0.0
  0
LINE
  8
21
  5
2233A
 10
169.63658
 20
637.153113
 30
0.0
 11
366.63658
 21
637.153113
 31
0.0
  0
LINE
  8
21
  5
2233B
 10
191.13658
 20
634.153113
 30
0.0
 11
366.63658
 21
634.153113
 31
0.0
  0
LINE
  8
21
  5
2233C
 10
180.147299
 20
736.153113
 30
0.0
 11
366.63658
 21
736.153113
 31
0.0
  0
LINE
  8
24
  5
2233D
 10
202.2674
 20
733.153113
 30
0.0
 11
366.63658
 21
733.153113
 31
0.0
  0
LINE
  8
21
  5
2233E
 10
542.13658
 20
634.153113
 30
0.0
 11
366.63658
 21
634.153113
 31
0.0
  0
LINE
  8
24
  5
2233F
 10
531.005761
 20
733.153113
 30
0.0
 11
366.63658
 21
733.153113
 31
0.0
  0
LINE
  8
24
  5
22340
 10
532.005608
 20
732.170566
 30
0.0
 11
533.490355
 21
647.109482
 31
0.0
  0
ARC
  8
24
  5
22341
 10
535.989974
 20
647.153113
 30
0.0
 40
2.5
 50
181.0
 51
270.0
  0
ARC
  8
24
  5
22342
 10
539.93658
 20
640.653113
 30
0.0
 40
2.5
 50
180.0
 51
270.0
  0
LINE
  8
24
  5
22343
 10
541.13658
 20
638.153113
 30
0.0
 11
541.13658
 21
634.153113
 31
0.0
  0
LINE
  8
24
  5
22344
 10
539.93658
 20
638.153113
 30
0.0
 11
541.13658
 21
638.153113
 31
0.0
  0
ARC
  8
21
  5
22345
 10
543.859201
 20
634.003547
 30
0.0
 40
2.74508
 50
105.158626
 51
128.868128
  0
LINE
  8
21
  5
22346
 10
542.13658
 20
637.153113
 30
0.0
 11
542.13658
 21
634.153113
 31
0.0
  0
LINE
  8
24
  5
22347
 10
537.43658
 20
644.653113
 30
0.0
 11
537.43658
 21
640.653113
 31
0.0
  0
LINE
  8
24
  5
22348
 10
535.989974
 20
644.653113
 30
0.0
 11
537.43658
 21
644.653113
 31
0.0
  0
LINE
  8
21
  5
22349
 10
541.13658
 20
634.35398
 30
0.0
 11
541.13658
 21
633.653113
 31
0.0
  0
ARC
  8
21
  5
2234A
 10
543.859201
 20
634.003547
 30
0.0
 40
2.74508
 50
172.665679
 51
187.334321
  0
ARC
  8
24
  5
2234B
 10
531.005761
 20
732.153113
 30
0.0
 40
1.0
 50
1.0
 51
90.0
  0
LINE
  8
23
  5
2234C
 10
366.63658
 20
631.31643
 30
0.0
 11
366.63658
 21
750.968759
 31
0.0
  0
LINE
  8
21
  5
22352
 10
175.63658
 20
634.153113
 30
0.0
 11
177.63658
 21
634.153113
 31
0.0
  0
LINE
  8
21
  5
22353
 10
170.13658
 20
736.153113
 30
0.0
 11
180.147299
 21
736.153113
 31
0.0
  0
LINE
  8
24
  5
22354
 10
201.267552
 20
732.170566
 30
0.0
 11
199.782805
 21
647.109482
 31
0.0
  0
ARC
  8
24
  5
22355
 10
197.283186
 20
647.153113
 30
0.0
 40
2.5
 50
270.0
 51
359.0
  0
LINE
  8
21
  5
22356
 10
190.131777
 20
636.653113
 30
0.0
 11
186.354958
 21
636.653113
 31
0.0
  0
LINE
  8
21
  5
22357
 10
192.13658
 20
633.653113
 30
0.0
 11
186.354958
 21
633.653113
 31
0.0
  0
ARC
  8
21
  5
22358
 10
187.16396
 20
634.003547
 30
0.0
 40
2.74508
 50
352.665679
 51
74.841374
  0
ARC
  8
24
  5
22359
 10
193.33658
 20
640.653113
 30
0.0
 40
2.5
 50
270.0
 51
0.0
  0
LINE
  8
21
  5
2235A
 10
191.13658
 20
637.153113
 30
0.0
 11
191.13658
 21
634.153113
 31
0.0
  0
ARC
  8
21
  5
2235B
 10
189.41396
 20
634.003547
 30
0.0
 40
2.74508
 50
51.131872
 51
74.841374
  0
LINE
  8
24
  5
2235C
 10
193.33658
 20
638.153113
 30
0.0
 11
192.13658
 21
638.153113
 31
0.0
  0
LINE
  8
24
  5
2235D
 10
192.13658
 20
638.153113
 30
0.0
 11
192.13658
 21
634.153113
 31
0.0
  0
LINE
  8
24
  5
2235E
 10
195.83658
 20
644.653113
 30
0.0
 11
195.83658
 21
640.653113
 31
0.0
  0
LINE
  8
24
  5
2235F
 10
197.283186
 20
644.653113
 30
0.0
 11
195.83658
 21
644.653113
 31
0.0
  0
ARC
  8
21
  5
22360
 10
189.41396
 20
634.003547
 30
0.0
 40
2.74508
 50
352.665679
 51
7.334321
  0
LINE
  8
21
  5
22361
 10
192.13658
 20
634.35398
 30
0.0
 11
192.13658
 21
633.653113
 31
0.0
  0
LINE
  8
21
  5
22362
 10
177.63658
 20
634.153113
 30
0.0
 11
184.13658
 21
634.153113
 31
0.0
  0
ARC
  8
21
  5
22363
 10
187.71188
 20
631.501919
 30
0.0
 40
5.326917
 50
104.757543
 51
132.157904
  0
LINE
  8
21
  5
22364
 10
184.13658
 20
637.153113
 30
0.0
 11
184.13658
 21
634.153113
 31
0.0
  0
LINE
  8
21
  5
22365
 10
179.461135
 20
633.653113
 30
0.0
 11
182.838646
 21
633.653113
 31
0.0
  0
LINE
  8
21
  5
22366
 10
179.461135
 20
633.653113
 30
0.0
 11
179.13658
 21
634.153113
 31
0.0
  0
ARC
  8
21
  5
22367
 10
180.627479
 20
629.727324
 30
0.0
 40
6.943763
 50
34.427934
 51
57.884432
  0
ARC
  8
21
  5
22368
 10
187.71188
 20
631.501919
 30
0.0
 40
5.326917
 50
150.152197
 51
156.181866
  0
ARC
  8
24
  5
22369
 10
202.2674
 20
732.153113
 30
0.0
 40
1.0
 50
90.0
 51
179.0
  0
LINE
  8
21
  5
2236A
 10
170.13658
 20
736.153113
 30
0.0
 11
168.568022
 21
646.290466
 31
0.0
  0
LINE
  8
21
  5
2236B
 10
167.63658
 20
637.153113
 30
0.0
 11
167.906156
 21
644.872765
 31
0.0
  0
LINE
  8
21
  5
2236C
 10
175.63658
 20
634.153113
 30
0.0
 11
175.531818
 21
637.153113
 31
0.0
  0
LINE
  8
21
  5
2236D
 10
167.63658
 20
637.153113
 30
0.0
 11
169.63658
 21
637.153113
 31
0.0
  0
ARC
  8
21
  5
2236E
 10
169.904938
 20
644.802966
 30
0.0
 40
2.0
 50
131.948171
 51
178.0
  0
TEXT
  8
L20
  5
223B7
 10
-403.186677
 20
670.156604
 30
0.0
 40
17.5
  1
FIBOX EKI 400x300x100 COVER
  0
LINE
  8
41
  5
223BE
 10
76.499228
 20
561.068558
 30
0.0
 11
76.499228
 21
413.0
 31
0.0
  0
LINE
  8
41
  5
223BF
 10
77.916928
 20
561.730424
 30
0.0
 11
77.916928
 21
413.0
 31
0.0
  0
LINE
  8
41
  5
223C0
 10
76.499228
 20
413.0
 30
0.0
 11
76.499228
 21
264.931442
 31
0.0
  0
LINE
  8
41
  5
223C1
 10
77.916928
 20
413.0
 30
0.0
 11
77.916928
 21
264.269576
 31
0.0
  0
LINE
  8
21
  5
223C2
 10
168.568022
 20
646.290466
 30
0.0
 11
366.63658
 21
646.290466
 31
0.0
  0
LINE
  8
21
  5
223C3
 10
167.906156
 20
644.872765
 30
0.0
 11
366.63658
 21
644.872765
 31
0.0
  0
LINE
  8
21
  5
223C4
 10
366.63658
 20
646.290466
 30
0.0
 11
564.705139
 21
646.290466
 31
0.0
  0
LINE
  8
21
  5
223C5
 10
366.63658
 20
644.872765
 30
0.0
 11
565.367004
 21
644.872765
 31
0.0
  0
LINE
  8
31
  5
223C6
 10
655.356232
 20
413.0
 30
0.0
 11
655.356232
 21
561.730424
 31
0.0
  0
LINE
  8
31
  5
223C7
 10
656.773933
 20
413.0
 30
0.0
 11
656.773933
 21
561.068558
 31
0.0
  0
LINE
  8
34
  5
223C8
 10
743.63658
 20
527.36918
 30
0.0
 11
743.63658
 21
413.0
 31
0.0
  0
LINE
  8
31
  5
223C9
 10
746.63658
 20
549.489282
 30
0.0
 11
746.63658
 21
413.0
 31
0.0
  0
LINE
  8
31
  5
223CA
 10
644.63658
 20
538.5
 30
0.0
 11
644.63658
 21
413.0
 31
0.0
  0
LINE
  8
31
  5
223CB
 10
647.63658
 20
560.0
 30
0.0
 11
647.63658
 21
413.0
 31
0.0
  0
LINE
  8
31
  5
223CC
 10
746.63658
 20
559.5
 30
0.0
 11
656.773933
 21
561.068558
 31
0.0
  0
LINE
  8
34
  5
223CD
 10
742.654033
 20
528.369028
 30
0.0
 11
657.592949
 21
529.853775
 31
0.0
  0
LINE
  8
31
  5
223CE
 10
746.63658
 20
559.5
 30
0.0
 11
746.63658
 21
549.489282
 31
0.0
  0
ARC
  8
34
  5
223CF
 10
742.63658
 20
527.36918
 30
0.0
 40
1.0
 50
0.0
 51
89.0
  0
ARC
  8
31
  5
223D0
 10
644.487014
 20
542.47262
 30
0.0
 40
2.74508
 50
262.665679
 51
344.841374
  0
LINE
  8
31
  5
223D1
 10
644.13658
 20
537.5
 30
0.0
 11
644.13658
 21
543.281622
 31
0.0
  0
LINE
  8
31
  5
223D2
 10
647.13658
 20
539.504803
 30
0.0
 11
647.13658
 21
543.281622
 31
0.0
  0
LINE
  8
31
  5
223D3
 10
647.63658
 20
562.0
 30
0.0
 11
655.356232
 21
561.730424
 31
0.0
  0
ARC
  8
31
  5
223D4
 10
655.286433
 20
559.731642
 30
0.0
 40
2.0
 50
41.948171
 51
88.0
  0
LINE
  8
31
  5
223D5
 10
647.63658
 20
562.0
 30
0.0
 11
647.63658
 21
560.0
 31
0.0
  0
LINE
  8
31
  5
223D6
 10
644.63658
 20
554.0
 30
0.0
 11
647.63658
 21
554.104762
 31
0.0
  0
ARC
  8
31
  5
223D7
 10
641.985386
 20
541.924701
 30
0.0
 40
5.326917
 50
60.152197
 51
66.181866
  0
ARC
  8
31
  5
223D8
 10
640.210791
 20
549.009101
 30
0.0
 40
6.943763
 50
304.427934
 51
327.884432
  0
LINE
  8
31
  5
223D9
 10
644.13658
 20
550.175445
 30
0.0
 11
644.63658
 21
550.5
 31
0.0
  0
LINE
  8
31
  5
223DA
 10
644.13658
 20
550.175445
 30
0.0
 11
644.13658
 21
546.797934
 31
0.0
  0
LINE
  8
31
  5
223DB
 10
647.63658
 20
545.5
 30
0.0
 11
644.63658
 21
545.5
 31
0.0
  0
ARC
  8
31
  5
223DC
 10
641.985386
 20
541.924701
 30
0.0
 40
5.326917
 50
14.757543
 51
42.157904
  0
LINE
  8
31
  5
223DD
 10
644.63658
 20
552.0
 30
0.0
 11
644.63658
 21
545.5
 31
0.0
  0
LINE
  8
31
  5
223DE
 10
644.63658
 20
554.0
 30
0.0
 11
644.63658
 21
552.0
 31
0.0
  0
LINE
  8
34
  5
223DF
 10
655.13658
 20
533.8
 30
0.0
 11
651.13658
 21
533.8
 31
0.0
  0
LINE
  8
34
  5
223E0
 10
655.13658
 20
532.353394
 30
0.0
 11
655.13658
 21
533.8
 31
0.0
  0
ARC
  8
34
  5
223E1
 10
657.63658
 20
532.353394
 30
0.0
 40
2.5
 50
180.0
 51
269.0
  0
LINE
  8
31
  5
223E2
 10
644.837447
 20
537.5
 30
0.0
 11
644.13658
 21
537.5
 31
0.0
  0
ARC
  8
31
  5
223E3
 10
644.487014
 20
540.22262
 30
0.0
 40
2.74508
 50
262.665679
 51
277.334321
  0
LINE
  8
34
  5
223E4
 10
648.63658
 20
537.5
 30
0.0
 11
644.63658
 21
537.5
 31
0.0
  0
LINE
  8
34
  5
223E5
 10
648.63658
 20
536.3
 30
0.0
 11
648.63658
 21
537.5
 31
0.0
  0
ARC
  8
31
  5
223E6
 10
644.487014
 20
540.22262
 30
0.0
 40
2.74508
 50
321.131872
 51
344.841374
  0
LINE
  8
31
  5
223E7
 10
647.63658
 20
538.5
 30
0.0
 11
644.63658
 21
538.5
 31
0.0
  0
ARC
  8
34
  5
223E8
 10
651.13658
 20
536.3
 30
0.0
 40
2.5
 50
180.0
 51
270.0
  0
LINE
  8
31
  5
223E9
 10
655.356232
 20
264.269576
 30
0.0
 11
655.356232
 21
413.0
 31
0.0
  0
LINE
  8
31
  5
223EA
 10
656.773933
 20
264.931442
 30
0.0
 11
656.773933
 21
413.0
 31
0.0
  0
LINE
  8
34
  5
223EB
 10
743.63658
 20
298.63082
 30
0.0
 11
743.63658
 21
413.0
 31
0.0
  0
LINE
  8
31
  5
223EC
 10
644.63658
 20
287.5
 30
0.0
 11
644.63658
 21
413.0
 31
0.0
  0
LINE
  8
31
  5
223ED
 10
746.63658
 20
276.510718
 30
0.0
 11
746.63658
 21
413.0
 31
0.0
  0
LINE
  8
31
  5
223EE
 10
647.63658
 20
266.0
 30
0.0
 11
647.63658
 21
413.0
 31
0.0
  0
LINE
  8
33
  6
DASHDOT
  5
223EF
 10
641.799897
 20
413.0
 30
0.0
 11
756.046466
 21
413.0
 31
0.0
  0
LINE
  8
34
  5
223F0
 10
742.654033
 20
297.630972
 30
0.0
 11
657.592949
 21
296.146225
 31
0.0
  0
LINE
  8
31
  5
223F1
 10
746.63658
 20
266.5
 30
0.0
 11
656.773933
 21
264.931442
 31
0.0
  0
ARC
  8
34
  5
223F2
 10
742.63658
 20
298.63082
 30
0.0
 40
1.0
 50
271.0
 51
0.0
  0
LINE
  8
31
  5
223F3
 10
746.63658
 20
266.5
 30
0.0
 11
746.63658
 21
276.510718
 31
0.0
  0
LINE
  8
31
  5
223F4
 10
644.13658
 20
275.824555
 30
0.0
 11
644.13658
 21
279.202066
 31
0.0
  0
LINE
  8
31
  5
223F5
 10
644.63658
 20
274.0
 30
0.0
 11
644.63658
 21
280.5
 31
0.0
  0
LINE
  8
34
  5
223F6
 10
655.13658
 20
293.646606
 30
0.0
 11
655.13658
 21
292.2
 31
0.0
  0
ARC
  8
34
  5
223F7
 10
657.63658
 20
293.646606
 30
0.0
 40
2.5
 50
91.0
 51
180.0
  0
LINE
  8
34
  5
223F8
 10
655.13658
 20
292.2
 30
0.0
 11
651.13658
 21
292.2
 31
0.0
  0
ARC
  8
31
  5
223F9
 10
644.487014
 20
285.77738
 30
0.0
 40
2.74508
 50
82.665679
 51
97.334321
  0
LINE
  8
31
  5
223FA
 10
644.837447
 20
288.5
 30
0.0
 11
644.13658
 21
288.5
 31
0.0
  0
LINE
  8
31
  5
223FB
 10
647.63658
 20
287.5
 30
0.0
 11
644.63658
 21
287.5
 31
0.0
  0
ARC
  8
31
  5
223FC
 10
644.487014
 20
285.77738
 30
0.0
 40
2.74508
 50
15.158626
 51
38.868128
  0
LINE
  8
34
  5
223FD
 10
648.63658
 20
289.7
 30
0.0
 11
648.63658
 21
288.5
 31
0.0
  0
LINE
  8
34
  5
223FE
 10
648.63658
 20
288.5
 30
0.0
 11
644.63658
 21
288.5
 31
0.0
  0
ARC
  8
34
  5
223FF
 10
651.13658
 20
289.7
 30
0.0
 40
2.5
 50
90.0
 51
180.0
  0
ARC
  8
31
  5
22400
 10
641.985386
 20
284.075299
 30
0.0
 40
5.326917
 50
293.818134
 51
299.847803
  0
ARC
  8
31
  5
22401
 10
640.210791
 20
276.990899
 30
0.0
 40
6.943763
 50
32.115568
 51
55.572066
  0
LINE
  8
31
  5
22402
 10
647.63658
 20
280.5
 30
0.0
 11
644.63658
 21
280.5
 31
0.0
  0
ARC
  8
31
  5
22403
 10
641.985386
 20
284.075299
 30
0.0
 40
5.326917
 50
317.842096
 51
345.242457
  0
ARC
  8
31
  5
22404
 10
644.487014
 20
283.52738
 30
0.0
 40
2.74508
 50
15.158626
 51
97.334321
  0
LINE
  8
31
  5
22405
 10
644.13658
 20
288.5
 30
0.0
 11
644.13658
 21
282.718378
 31
0.0
  0
LINE
  8
31
  5
22406
 10
647.13658
 20
286.495197
 30
0.0
 11
647.13658
 21
282.718378
 31
0.0
  0
ARC
  8
31
  5
22407
 10
655.286433
 20
266.268358
 30
0.0
 40
2.0
 50
272.0
 51
318.051829
  0
LINE
  8
31
  5
22408
 10
647.63658
 20
264.0
 30
0.0
 11
647.63658
 21
266.0
 31
0.0
  0
LINE
  8
31
  5
22409
 10
644.13658
 20
275.824555
 30
0.0
 11
644.63658
 21
275.5
 31
0.0
  0
LINE
  8
31
  5
2240A
 10
644.63658
 20
272.0
 30
0.0
 11
647.63658
 21
271.895238
 31
0.0
  0
LINE
  8
31
  5
2240B
 10
644.63658
 20
272.0
 30
0.0
 11
644.63658
 21
274.0
 31
0.0
  0
LINE
  8
31
  5
2240C
 10
647.63658
 20
264.0
 30
0.0
 11
655.356232
 21
264.269576
 31
0.0
  0
LINE
  8
11
  5
2240D
 10
366.63658
 20
181.127235
 30
0.0
 11
167.906156
 21
181.127235
 31
0.0
  0
LINE
  8
11
  5
2240E
 10
366.63658
 20
179.709534
 30
0.0
 11
168.568022
 21
179.709534
 31
0.0
  0
LINE
  8
14
  5
2240F
 10
202.2674
 20
92.846887
 30
0.0
 11
366.63658
 21
92.846887
 31
0.0
  0
LINE
  8
11
  5
22410
 10
191.13658
 20
191.846887
 30
0.0
 11
366.63658
 21
191.846887
 31
0.0
  0
LINE
  8
11
  5
22411
 10
180.147299
 20
89.846887
 30
0.0
 11
366.63658
 21
89.846887
 31
0.0
  0
LINE
  8
11
  5
22412
 10
169.63658
 20
188.846887
 30
0.0
 11
366.63658
 21
188.846887
 31
0.0
  0
LINE
  8
11
  5
22413
 10
565.367004
 20
181.127235
 30
0.0
 11
366.63658
 21
181.127235
 31
0.0
  0
LINE
  8
11
  5
22414
 10
564.705139
 20
179.709534
 30
0.0
 11
366.63658
 21
179.709534
 31
0.0
  0
LINE
  8
14
  5
22415
 10
531.005761
 20
92.846887
 30
0.0
 11
366.63658
 21
92.846887
 31
0.0
  0
LINE
  8
11
  5
22416
 10
553.125862
 20
89.846887
 30
0.0
 11
366.63658
 21
89.846887
 31
0.0
  0
LINE
  8
11
  5
22417
 10
542.13658
 20
191.846887
 30
0.0
 11
366.63658
 21
191.846887
 31
0.0
  0
LINE
  8
11
  5
22418
 10
563.63658
 20
188.846887
 30
0.0
 11
366.63658
 21
188.846887
 31
0.0
  0
LINE
  8
11
  5
22419
 10
563.13658
 20
89.846887
 30
0.0
 11
564.705139
 21
179.709534
 31
0.0
  0
LINE
  8
14
  5
2241A
 10
532.005608
 20
93.829434
 30
0.0
 11
533.490355
 21
178.890518
 31
0.0
  0
LINE
  8
11
  5
2241B
 10
565.63658
 20
188.846887
 30
0.0
 11
563.63658
 21
188.846887
 31
0.0
  0
LINE
  8
11
  5
2241C
 10
565.63658
 20
188.846887
 30
0.0
 11
565.367004
 21
181.127235
 31
0.0
  0
LINE
  8
11
  5
2241D
 10
557.63658
 20
191.846887
 30
0.0
 11
557.741343
 21
188.846887
 31
0.0
  0
ARC
  8
11
  5
2241E
 10
552.645681
 20
196.272676
 30
0.0
 40
6.943763
 50
214.427934
 51
237.884432
  0
LINE
  8
11
  5
2241F
 10
549.13658
 20
188.846887
 30
0.0
 11
549.13658
 21
191.846887
 31
0.0
  0
LINE
  8
14
  5
22420
 10
541.13658
 20
187.846887
 30
0.0
 11
541.13658
 21
191.846887
 31
0.0
  0
LINE
  8
11
  5
22421
 10
542.13658
 20
188.846887
 30
0.0
 11
542.13658
 21
191.846887
 31
0.0
  0
ARC
  8
11
  5
22422
 10
546.109201
 20
191.996453
 30
0.0
 40
2.74508
 50
172.665679
 51
254.841374
  0
LINE
  8
11
  5
22423
 10
553.812025
 20
192.346887
 30
0.0
 11
550.434514
 21
192.346887
 31
0.0
  0
LINE
  8
11
  5
22424
 10
555.63658
 20
191.846887
 30
0.0
 11
549.13658
 21
191.846887
 31
0.0
  0
LINE
  8
11
  5
22425
 10
553.812025
 20
192.346887
 30
0.0
 11
554.13658
 21
191.846887
 31
0.0
  0
LINE
  8
11
  5
22426
 10
557.63658
 20
191.846887
 30
0.0
 11
555.63658
 21
191.846887
 31
0.0
  0
ARC
  8
11
  5
22427
 10
545.561281
 20
194.498081
 30
0.0
 40
5.326917
 50
330.152197
 51
336.181866
  0
LINE
  8
11
  5
22428
 10
541.13658
 20
191.64602
 30
0.0
 11
541.13658
 21
192.346887
 31
0.0
  0
ARC
  8
11
  5
22429
 10
543.859201
 20
191.996453
 30
0.0
 40
2.74508
 50
172.665679
 51
187.334321
  0
LINE
  8
11
  5
2242A
 10
541.13658
 20
192.346887
 30
0.0
 11
546.918202
 21
192.346887
 31
0.0
  0
LINE
  8
14
  5
2242B
 10
539.93658
 20
187.846887
 30
0.0
 11
541.13658
 21
187.846887
 31
0.0
  0
ARC
  8
11
  5
2242C
 10
563.368222
 20
181.197034
 30
0.0
 40
2.0
 50
311.948171
 51
358.0
  0
ARC
  8
11
  5
2242D
 10
545.561281
 20
194.498081
 30
0.0
 40
5.326917
 50
284.757543
 51
312.157904
  0
ARC
  8
11
  5
2242E
 10
543.859201
 20
191.996453
 30
0.0
 40
2.74508
 50
231.131872
 51
254.841374
  0
LINE
  8
11
  5
2242F
 10
543.141383
 20
189.346887
 30
0.0
 11
546.918202
 21
189.346887
 31
0.0
  0
LINE
  8
14
  5
22430
 10
535.989974
 20
181.346887
 30
0.0
 11
537.43658
 21
181.346887
 31
0.0
  0
LINE
  8
14
  5
22431
 10
537.43658
 20
181.346887
 30
0.0
 11
537.43658
 21
185.346887
 31
0.0
  0
ARC
  8
14
  5
22432
 10
539.93658
 20
185.346887
 30
0.0
 40
2.5
 50
90.0
 51
180.0
  0
ARC
  8
14
  5
22433
 10
535.989974
 20
178.846887
 30
0.0
 40
2.5
 50
90.0
 51
179.0
  0
LINE
  8
11
  5
22434
 10
563.13658
 20
89.846887
 30
0.0
 11
553.125862
 21
89.846887
 31
0.0
  0
ARC
  8
14
  5
22435
 10
531.005761
 20
93.846887
 30
0.0
 40
1.0
 50
270.0
 51
359.0
  0
LINE
  8
13
  5
22436
 10
366.63658
 20
194.68357
 30
0.0
 11
366.63658
 21
75.031241
 31
0.0
  0
LINE
  8
14
  5
22437
 10
201.267552
 20
93.829434
 30
0.0
 11
199.782805
 21
178.890518
 31
0.0
  0
LINE
  8
11
  5
22438
 10
170.13658
 20
89.846887
 30
0.0
 11
168.568022
 21
179.709534
 31
0.0
  0
LINE
  8
11
  5
22439
 10
191.13658
 20
188.846887
 30
0.0
 11
191.13658
 21
191.846887
 31
0.0
  0
LINE
  8
14
  5
2243A
 10
192.13658
 20
187.846887
 30
0.0
 11
192.13658
 21
191.846887
 31
0.0
  0
ARC
  8
11
  5
2243B
 10
180.627479
 20
196.272676
 30
0.0
 40
6.943763
 50
302.115568
 51
325.572066
  0
LINE
  8
11
  5
2243C
 10
184.13658
 20
188.846887
 30
0.0
 11
184.13658
 21
191.846887
 31
0.0
  0
LINE
  8
11
  5
2243D
 10
175.63658
 20
191.846887
 30
0.0
 11
175.531818
 21
188.846887
 31
0.0
  0
ARC
  8
11
  5
2243E
 10
187.16396
 20
191.996453
 30
0.0
 40
2.74508
 50
285.158626
 51
7.334321
  0
LINE
  8
11
  5
2243F
 10
192.13658
 20
192.346887
 30
0.0
 11
186.354958
 21
192.346887
 31
0.0
  0
ARC
  8
11
  5
22440
 10
189.41396
 20
191.996453
 30
0.0
 40
2.74508
 50
352.665679
 51
7.334321
  0
LINE
  8
11
  5
22441
 10
192.13658
 20
191.64602
 30
0.0
 11
192.13658
 21
192.346887
 31
0.0
  0
LINE
  8
11
  5
22442
 10
179.461135
 20
192.346887
 30
0.0
 11
182.838646
 21
192.346887
 31
0.0
  0
LINE
  8
11
  5
22443
 10
177.63658
 20
191.846887
 30
0.0
 11
184.13658
 21
191.846887
 31
0.0
  0
ARC
  8
11
  5
22444
 10
187.71188
 20
194.498081
 30
0.0
 40
5.326917
 50
203.818134
 51
209.847803
  0
LINE
  8
11
  5
22445
 10
179.461135
 20
192.346887
 30
0.0
 11
179.13658
 21
191.846887
 31
0.0
  0
LINE
  8
11
  5
22446
 10
175.63658
 20
191.846887
 30
0.0
 11
177.63658
 21
191.846887
 31
0.0
  0
LINE
  8
14
  5
22447
 10
197.283186
 20
181.346887
 30
0.0
 11
195.83658
 21
181.346887
 31
0.0
  0
LINE
  8
14
  5
22448
 10
195.83658
 20
181.346887
 30
0.0
 11
195.83658
 21
185.346887
 31
0.0
  0
LINE
  8
14
  5
22449
 10
193.33658
 20
187.846887
 30
0.0
 11
192.13658
 21
187.846887
 31
0.0
  0
ARC
  8
14
  5
2244A
 10
193.33658
 20
185.346887
 30
0.0
 40
2.5
 50
0.0
 51
90.0
  0
ARC
  8
14
  5
2244B
 10
197.283186
 20
178.846887
 30
0.0
 40
2.5
 50
1.0
 51
90.0
  0
ARC
  8
11
  5
2244C
 10
189.41396
 20
191.996453
 30
0.0
 40
2.74508
 50
285.158626
 51
308.868128
  0
ARC
  8
11
  5
2244D
 10
187.71188
 20
194.498081
 30
0.0
 40
5.326917
 50
227.842096
 51
255.242457
  0
LINE
  8
11
  5
2244E
 10
190.131777
 20
189.346887
 30
0.0
 11
186.354958
 21
189.346887
 31
0.0
  0
ARC
  8
11
  5
2244F
 10
169.904938
 20
181.197034
 30
0.0
 40
2.0
 50
182.0
 51
228.051829
  0
LINE
  8
11
  5
22450
 10
167.63658
 20
188.846887
 30
0.0
 11
169.63658
 21
188.846887
 31
0.0
  0
LINE
  8
11
  5
22451
 10
167.63658
 20
188.846887
 30
0.0
 11
167.906156
 21
181.127235
 31
0.0
  0
ARC
  8
14
  5
22452
 10
202.2674
 20
93.846887
 30
0.0
 40
1.0
 50
181.0
 51
270.0
  0
LINE
  8
11
  5
22453
 10
170.13658
 20
89.846887
 30
0.0
 11
180.147299
 21
89.846887
 31
0.0
  0
ENDBLK
  8
0
  5
22455
  0
ENDSEC
  0
SECTION
  2
ENTITIES
  0
VIEWPORT
  8
0
  5
1
 67
     1
 68
     1
 10
210.0
 20
152.094241
 30
0.0
 40
420.0
 41
304.188482
 69
     1
1001
ACAD
1000
MVIEW
1002
{
1070
    16
1010
0.0
1020
0.0
1030
0.0
1010
0.0
1020
0.0
1030
1.0
1040
0.0
1040
304.188482
1040
210.0
1040
152.094241
1040
50.0
1040
0.0
1040
0.0
1070
     0
1070
   100
1070
     1
1070
     1
1070
     1
1070
     0
1070
     0
1070
     0
1040
0.0
1040
0.0
1040
0.0
1040
1.0
1040
1.0
1040
0.0
1040
0.0
1070
     0
1002
{
1002
}
1002
}
  0
INSERT
  8
L1
  5
22456
  2
EKI4310C
 10
0.0
 20
0.0
 30
0.0
  0
ENDSEC
  0
EOF
