  0
SECTION
  2
HEADER
  9
$ACADVER
  1
AC1009
  9
$INSBASE
 10
0.0
 20
0.0
 30
0.0
  9
$EXTMIN
 10
-460.37129
 20
121.705047
 30
0.0
  9
$EXTMAX
 10
476.574905
 20
685.751732
 30
0.0
  9
$LIMMIN
 10
0.0
 20
0.0
  9
$LIMMAX
 10
420.0
 20
297.0
  9
$ORTHOMODE
 70
     0
  9
$REGENMODE
 70
     1
  9
$FILLMODE
 70
     1
  9
$QTEXTMODE
 70
     0
  9
$MIRRTEXT
 70
     1
  9
$DRAGMODE
 70
     2
  9
$LTSCALE
 40
7.0
  9
$OSMODE
 70
     0
  9
$ATTMODE
 70
     1
  9
$TEXTSIZE
 40
3.5
  9
$TRACEWID
 40
0.05
  9
$TEXTSTYLE
  7
STANDARD
  9
$CLAYER
  8
L1
  9
$CELTYPE
  6
BYLAYER
  9
$CECOLOR
 62
   256
  9
$DIMSCALE
 40
1.0
  9
$DIMASZ
 40
3.5
  9
$DIMEXO
 40
0.0
  9
$DIMDLI
 40
10.0
  9
$DIMRND
 40
0.0
  9
$DIMDLE
 40
0.0
  9
$DIMEXE
 40
2.0
  9
$DIMTP
 40
0.0
  9
$DIMTM
 40
0.0
  9
$DIMTXT
 40
3.5
  9
$DIMCEN
 40
2.5
  9
$DIMTSZ
 40
0.0
  9
$DIMTOL
 70
     0
  9
$DIMLIM
 70
     0
  9
$DIMTIH
 70
     0
  9
$DIMTOH
 70
     0
  9
$DIMSE1
 70
     0
  9
$DIMSE2
 70
     0
  9
$DIMTAD
 70
     1
  9
$DIMZIN
 70
     8
  9
$DIMBLK
  1

  9
$DIMASO
 70
     1
  9
$DIMSHO
 70
     1
  9
$DIMPOST
  1

  9
$DIMAPOST
  1

  9
$DIMALT
 70
     0
  9
$DIMALTD
 70
     2
  9
$DIMALTF
 40
25.4
  9
$DIMLFAC
 40
1.0
  9
$DIMTOFL
 70
     1
  9
$DIMTVP
 40
0.0
  9
$DIMTIX
 70
     0
  9
$DIMSOXD
 70
     0
  9
$DIMSAH
 70
     0
  9
$DIMBLK1
  1

  9
$DIMBLK2
  1

  9
$DIMSTYLE
  2
*UNNAMED
  9
$DIMCLRD
 70
   256
  9
$DIMCLRE
 70
   256
  9
$DIMCLRT
 70
     3
  9
$DIMTFAC
 40
1.0
  9
$DIMGAP
 40
2.0
  9
$LUNITS
 70
     2
  9
$LUPREC
 70
     2
  9
$SKETCHINC
 40
1.0
  9
$FILLETRAD
 40
0.0
  9
$AUNITS
 70
     0
  9
$AUPREC
 70
     2
  9
$MENU
  1
CAESAR
  9
$ELEVATION
 40
0.0
  9
$PELEVATION
 40
0.0
  9
$THICKNESS
 40
0.0
  9
$LIMCHECK
 70
     0
  9
$BLIPMODE
 70
     1
  9
$CHAMFERA
 40
5.0
  9
$CHAMFERB
 40
5.0
  9
$SKPOLY
 70
     0
  9
$TDCREATE
 40
2449682.494265856
  9
$TDUPDATE
 40
2449682.494265856
  9
$TDINDWG
 40
0.0000000000
  9
$TDUSRTIMER
 40
0.0000000000
  9
$USRTIMER
 70
     1
  9
$ANGBASE
 50
0.0
  9
$ANGDIR
 70
     0
  9
$PDMODE
 70
     0
  9
$PDSIZE
 40
0.0
  9
$PLINEWID
 40
0.0
  9
$COORDS
 70
     2
  9
$SPLFRAME
 70
     0
  9
$SPLINETYPE
 70
     6
  9
$SPLINESEGS
 70
     8
  9
$ATTDIA
 70
     0
  9
$ATTREQ
 70
     1
  9
$HANDLING
 70
     1
  9
$HANDSEED
  5
1A13D
  9
$SURFTAB1
 70
     6
  9
$SURFTAB2
 70
     6
  9
$SURFTYPE
 70
     6
  9
$SURFU
 70
     6
  9
$SURFV
 70
     6
  9
$UCSNAME
  2

  9
$UCSORG
 10
0.0
 20
0.0
 30
0.0
  9
$UCSXDIR
 10
1.0
 20
0.0
 30
0.0
  9
$UCSYDIR
 10
0.0
 20
1.0
 30
0.0
  9
$PUCSNAME
  2

  9
$PUCSORG
 10
0.0
 20
0.0
 30
0.0
  9
$PUCSXDIR
 10
1.0
 20
0.0
 30
0.0
  9
$PUCSYDIR
 10
0.0
 20
1.0
 30
0.0
  9
$USERI1
 70
     0
  9
$USERI2
 70
     0
  9
$USERI3
 70
     0
  9
$USERI4
 70
     0
  9
$USERI5
 70
     0
  9
$USERR1
 40
1.0
  9
$USERR2
 40
0.0
  9
$USERR3
 40
3.5
  9
$USERR4
 40
0.0
  9
$USERR5
 40
0.0
  9
$WORLDVIEW
 70
     1
  9
$SHADEDGE
 70
     3
  9
$SHADEDIF
 70
    70
  9
$TILEMODE
 70
     1
  9
$MAXACTVP
 70
    16
  9
$PINSBASE
 10
0.0
 20
0.0
 30
0.0
  9
$PLIMCHECK
 70
     0
  9
$PEXTMIN
 10
1.000000E+20
 20
1.000000E+20
 30
1.000000E+20
  9
$PEXTMAX
 10
-1.000000E+20
 20
-1.000000E+20
 30
-1.000000E+20
  9
$PLIMMIN
 10
0.0
 20
0.0
  9
$PLIMMAX
 10
420.0
 20
297.0
  9
$UNITMODE
 70
     0
  9
$VISRETAIN
 70
     0
  9
$PLINEGEN
 70
     0
  9
$PSLTSCALE
 70
     0
  9
$TREEDEPTH
 70
  3020
  9
$DWGCODEPAGE
  3
dos850
  0
ENDSEC
  0
SECTION
  2
TABLES
  0
TABLE
  2
VPORT
 70
     2
  0
VPORT
  2
*ACTIVE
 70
     0
 10
0.0
 20
0.0
 11
1.0
 21
1.0
 12
287.564723
 22
225.231556
 13
0.0
 23
0.0
 14
1.0
 24
1.0
 15
10.0
 25
10.0
 16
0.0
 26
0.0
 36
1.0
 17
0.0
 27
0.0
 37
0.0
 40
456.463112
 41
1.273114
 42
50.0
 43
0.0
 44
0.0
 50
0.0
 51
0.0
 71
     0
 72
  1000
 73
     1
 74
     1
 75
     1
 76
     0
 77
     0
 78
     0
  0
ENDTAB
  0
TABLE
  2
LTYPE
 70
    10
  0
LTYPE
  2
CONTINUOUS
 70
    64
  3
Solid line
 72
    65
 73
     0
 40
0.0
  0
LTYPE
  2
BORDER
 70
     0
  3
__ __ . __ __ . __ __ . __ __ . __ __ . __ __ .
 72
    65
 73
     6
 40
1.75
 49
0.5
 49
-0.25
 49
0.5
 49
-0.25
 49
0.0
 49
-0.25
  0
LTYPE
  2
CENTER
 70
    64
  3
____ _ ____ _ ____ _ ____ _ ____ _ ____ _ ____ 
 72
    65
 73
     4
 40
2.0
 49
1.25
 49
-0.25
 49
0.25
 49
-0.25
  0
LTYPE
  2
DASHDOT
 70
     0
  3
__ . __ . __ . __ . __ . __ . __ . __ . __ . __
 72
    65
 73
     4
 40
1.0
 49
0.5
 49
-0.25
 49
0.0
 49
-0.25
  0
LTYPE
  2
DASHED
 70
    64
  3
__ __ __ __ __ __ __ __ __ __ __ __ __ __ __ __
 72
    65
 73
     2
 40
0.75
 49
0.5
 49
-0.25
  0
LTYPE
  2
DIVIDE
 70
     0
  3
____ . . ____ . . ____ . . ____ . . ____ . . __
 72
    65
 73
     6
 40
1.25
 49
0.5
 49
-0.25
 49
0.0
 49
-0.25
 49
0.0
 49
-0.25
  0
LTYPE
  2
DOT
 70
     0
  3
. . . . . . . . . . . . . . . . . . . . . . . .
 72
    65
 73
     2
 40
0.25
 49
0.0
 49
-0.25
  0
LTYPE
  2
HIDDEN
 70
    64
  3
__ __ __ __ __ __ __ __ __ __ __ __ __ __ __ __
 72
    65
 73
     2
 40
0.375
 49
0.25
 49
-0.125
  0
LTYPE
  2
PHANTOM
 70
    64
  3
______  __  __  ______  __  __  ______  __  __ 
 72
    65
 73
     6
 40
2.5
 49
1.25
 49
-0.25
 49
0.25
 49
-0.25
 49
0.25
 49
-0.25
  0
LTYPE
  2
DOTX2
 70
    64
  3
.  .  .  .  .  .  .  .  .  .  .  .  .  .  .  . 
 72
    65
 73
     2
 40
0.5
 49
0.0
 49
-0.5
  0
ENDTAB
  0
TABLE
  2
LAYER
 70
    92
  0
LAYER
  2
0
 70
    64
 62
     7
  6
CONTINUOUS
  0
LAYER
  2
L1
 70
     0
 62
     3
  6
CONTINUOUS
  0
LAYER
  2
L2
 70
     0
 62
     1
  6
CONTINUOUS
  0
LAYER
  2
L3
 70
     0
 62
     7
  6
DASHED
  0
LAYER
  2
L4
 70
     0
 62
     1
  6
DASHED
  0
LAYER
  2
L5
 70
     0
 62
     6
  6
CENTER
  0
LAYER
  2
L6
 70
     0
 62
     1
  6
CENTER
  0
LAYER
  2
L7
 70
     0
 62
     1
  6
PHANTOM
  0
LAYER
  2
VPORT
 70
     0
 62
     7
  6
CONTINUOUS
  0
LAYER
  2
L8
 70
     0
 62
     1
  6
CONTINUOUS
  0
LAYER
  2
L20
 70
     0
 62
     3
  6
CONTINUOUS
  0
LAYER
  2
L21
 70
     0
 62
     1
  6
CONTINUOUS
  0
LAYER
  2
L22
 70
     0
 62
     1
  6
CONTINUOUS
  0
LAYER
  2
L23
 70
     0
 62
     1
  6
CONTINUOUS
  0
LAYER
  2
L30
 70
     0
 62
     3
  6
CONTINUOUS
  0
LAYER
  2
L31
 70
     0
 62
     1
  6
CONTINUOUS
  0
LAYER
  2
L32
 70
     0
 62
     3
  6
CONTINUOUS
  0
LAYER
  2
L33
 70
     0
 62
     1
  6
CONTINUOUS
  0
LAYER
  2
L34
 70
     0
 62
     3
  6
CONTINUOUS
  0
LAYER
  2
L35
 70
     0
 62
     1
  6
CONTINUOUS
  0
LAYER
  2
L40
 70
     0
 62
     7
  6
CONTINUOUS
  0
LAYER
  2
L41
 70
     0
 62
     1
  6
CONTINUOUS
  0
LAYER
  2
L42
 70
     0
 62
     1
  6
CONTINUOUS
  0
LAYER
  2
L43
 70
     0
 62
     7
  6
CONTINUOUS
  0
LAYER
  2
L44
 70
     0
 62
     1
  6
CONTINUOUS
  0
LAYER
  2
L45
 70
     0
 62
     1
  6
CONTINUOUS
  0
LAYER
  2
L46
 70
     0
 62
     3
  6
CONTINUOUS
  0
LAYER
  2
L50
 70
     0
 62
     7
  6
CONTINUOUS
  0
LAYER
  2
L51
 70
     0
 62
     1
  6
CONTINUOUS
  0
LAYER
  2
L52
 70
     0
 62
     7
  6
CONTINUOUS
  0
LAYER
  2
L53
 70
     0
 62
     1
  6
CONTINUOUS
  0
LAYER
  2
L54
 70
     0
 62
     3
  6
CONTINUOUS
  0
LAYER
  2
L55
 70
     0
 62
     3
  6
CONTINUOUS
  0
LAYER
  2
L56
 70
     0
 62
     3
  6
CONTINUOUS
  0
LAYER
  2
L57
 70
     0
 62
     1
  6
CONTINUOUS
  0
LAYER
  2
L9
 70
     0
 62
     7
  6
HIDDEN
  0
LAYER
  2
L15
 70
     0
 62
     2
  6
CONTINUOUS
  0
LAYER
  2
L16
 70
     0
 62
     5
  6
DOTX2
  0
LAYER
  2
L24
 70
     0
 62
     1
  6
CONTINUOUS
  0
LAYER
  2
A1
 70
     0
 62
     7
  6
CONTINUOUS
  0
LAYER
  2
RA1
 70
     0
 62
     1
  6
CONTINUOUS
  0
LAYER
  2
TITEL
 70
     0
 62
     7
  6
CONTINUOUS
  0
LAYER
  2
DEFPOINTS
 70
     0
 62
     7
  6
CONTINUOUS
  0
LAYER
  2
CAM-A1
 70
     0
 62
     7
  6
CONTINUOUS
  0
LAYER
  2
CAM-A2
 70
     0
 62
     1
  6
CONTINUOUS
  0
LAYER
  2
CAM-A3
 70
     0
 62
     1
  6
DASHED
  0
LAYER
  2
CAM-B1
 70
     0
 62
     7
  6
CONTINUOUS
  0
LAYER
  2
CAM-B2
 70
     0
 62
     1
  6
CONTINUOUS
  0
LAYER
  2
CAM-B3
 70
     0
 62
     1
  6
DASHED
  0
LAYER
  2
CAM-C1
 70
     0
 62
     7
  6
CONTINUOUS
  0
LAYER
  2
CAM-C2
 70
     0
 62
     1
  6
CONTINUOUS
  0
LAYER
  2
CAM-C3
 70
     0
 62
     1
  6
DASHED
  0
LAYER
  2
CAM-D1
 70
     0
 62
     7
  6
CONTINUOUS
  0
LAYER
  2
CAM-D2
 70
     0
 62
     1
  6
CONTINUOUS
  0
LAYER
  2
CAM-D3
 70
     0
 62
     1
  6
DASHED
  0
LAYER
  2
CAM-E1
 70
     0
 62
     7
  6
CONTINUOUS
  0
LAYER
  2
CAM-E2
 70
     0
 62
     1
  6
CONTINUOUS
  0
LAYER
  2
CAM-E3
 70
     0
 62
     1
  6
DASHED
  0
LAYER
  2
CAM-F1
 70
     0
 62
     7
  6
CONTINUOUS
  0
LAYER
  2
CAM-F2
 70
     0
 62
     1
  6
CONTINUOUS
  0
LAYER
  2
CAM-F3
 70
     0
 62
     1
  6
DASHED
  0
LAYER
  2
1
 70
     0
 62
     7
  6
CONTINUOUS
  0
LAYER
  2
11
 70
    64
 62
     7
  6
CONTINUOUS
  0
LAYER
  2
12
 70
     0
 62
     1
  6
CONTINUOUS
  0
LAYER
  2
13
 70
    64
 62
     1
  6
CENTER
  0
LAYER
  2
14
 70
    64
 62
     1
  6
DASHED
  0
LAYER
  2
15
 70
     0
 62
     2
  6
DASHED
  0
LAYER
  2
21
 70
    64
 62
     7
  6
CONTINUOUS
  0
LAYER
  2
22
 70
     0
 62
     1
  6
CONTINUOUS
  0
LAYER
  2
23
 70
    64
 62
     1
  6
CENTER
  0
LAYER
  2
24
 70
    64
 62
     1
  6
DASHED
  0
LAYER
  2
25
 70
     0
 62
     2
  6
DASHED
  0
LAYER
  2
31
 70
    64
 62
     7
  6
CONTINUOUS
  0
LAYER
  2
32
 70
     0
 62
     1
  6
CONTINUOUS
  0
LAYER
  2
33
 70
    64
 62
     1
  6
CENTER
  0
LAYER
  2
34
 70
    64
 62
     1
  6
DASHED
  0
LAYER
  2
35
 70
     0
 62
     2
  6
DASHED
  0
LAYER
  2
41
 70
    64
 62
     7
  6
CONTINUOUS
  0
LAYER
  2
42
 70
     0
 62
     1
  6
CONTINUOUS
  0
LAYER
  2
43
 70
    64
 62
     1
  6
CENTER
  0
LAYER
  2
44
 70
    64
 62
     1
  6
DASHED
  0
LAYER
  2
45
 70
     0
 62
     2
  6
DASHED
  0
LAYER
  2
51
 70
    64
 62
     7
  6
CONTINUOUS
  0
LAYER
  2
52
 70
    64
 62
     1
  6
CONTINUOUS
  0
LAYER
  2
53
 70
    64
 62
     1
  6
CENTER
  0
LAYER
  2
54
 70
     0
 62
     1
  6
DASHED
  0
LAYER
  2
55
 70
     0
 62
     2
  6
DASHED
  0
LAYER
  2
61
 70
    64
 62
     7
  6
CONTINUOUS
  0
LAYER
  2
62
 70
     0
 62
     1
  6
CONTINUOUS
  0
LAYER
  2
63
 70
    64
 62
     1
  6
CENTER
  0
LAYER
  2
64
 70
     0
 62
     1
  6
DASHED
  0
LAYER
  2
65
 70
     0
 62
     2
  6
DASHED
  0
ENDTAB
  0
TABLE
  2
STYLE
 70
     4
  0
STYLE
  2
STANDARD
 70
     0
 40
0.0
 41
1.0
 50
0.0
 71
     0
 42
3.5
  3
CAEISO
  4

  0
STYLE
  2
SIMPLEX
 70
    64
 40
0.0
 41
1.0
 50
0.0
 71
     0
 42
20.0
  3
SIMPLEX.SHX
  4

  0
STYLE
  2
COMPLEX
 70
    64
 40
5.0
 41
1.0
 50
0.0
 71
     0
 42
5.0
  3
COMPLEX
  4

  0
STYLE
  2
CAEISO
 70
     0
 40
0.0
 41
1.0
 50
0.0
 71
     0
 42
1.0
  3
CAEISO
  4

  0
ENDTAB
  0
TABLE
  2
VIEW
 70
     0
  0
ENDTAB
  0
TABLE
  2
UCS
 70
     0
  0
ENDTAB
  0
TABLE
  2
APPID
 70
     1
  0
APPID
  2
ACAD
 70
    64
  0
ENDTAB
  0
TABLE
  2
DIMSTYLE
 70
     6
  0
DIMSTYLE
  2
ACADUS
 70
     0
  3

  4

  5

  6

  7

 40
1.0
 41
0.18
 42
0.0625
 43
0.38
 44
0.18
 45
0.0
 46
0.0
 47
0.0
 48
0.0
140
0.18
141
0.09
142
0.0
143
25.4
144
1.0
145
0.0
146
1.0
147
0.09
 71
     0
 72
     0
 73
     1
 74
     1
 75
     0
 76
     0
 77
     0
 78
     0
170
     0
171
     2
172
     0
173
     0
174
     0
175
     0
176
     0
177
     0
178
     0
  0
DIMSTYLE
  2
NORDIC
 70
     0
  3

  4

  5

  6

  7

 40
1.0
 41
3.5
 42
1.0
 43
10.0
 44
2.0
 45
0.0
 46
0.0
 47
0.0
 48
0.0
140
3.5
141
2.5
142
0.0
143
25.4
144
1.0
145
0.0
146
1.0
147
2.0
 71
     0
 72
     0
 73
     0
 74
     0
 75
     0
 76
     0
 77
     1
 78
     8
170
     0
171
     2
172
     1
173
     0
174
     0
175
     0
176
     0
177
     0
178
     0
  0
DIMSTYLE
  2
RADIAL
 70
     0
  3

  4

  5

  6

  7

 40
1.0
 41
3.5
 42
1.0
 43
10.0
 44
2.0
 45
0.0
 46
0.0
 47
0.0
 48
0.0
140
3.5
141
2.5
142
0.0
143
25.4
144
1.0
145
0.0
146
1.0
147
2.0
 71
     0
 72
     0
 73
     0
 74
     1
 75
     0
 76
     0
 77
     1
 78
     8
170
     0
171
     2
172
     0
173
     0
174
     0
175
     0
176
     0
177
     0
178
     0
  0
DIMSTYLE
  2
NORTOL
 70
     0
  3

  4

  5

  6

  7

 40
1.0
 41
3.5
 42
1.0
 43
10.0
 44
2.0
 45
0.0
 46
0.0
 47
0.2
 48
0.1
140
3.5
141
2.5
142
0.0
143
25.4
144
1.0
145
0.7
146
0.71
147
2.0
 71
     1
 72
     0
 73
     0
 74
     0
 75
     0
 76
     0
 77
     0
 78
     8
170
     0
171
     2
172
     1
173
     0
174
     0
175
     0
176
     0
177
     0
178
     0
  0
DIMSTYLE
  2
RADTOL
 70
     0
  3

  4

  5

  6

  7

 40
1.0
 41
3.5
 42
1.0
 43
10.0
 44
2.0
 45
0.0
 46
0.0
 47
0.2
 48
0.1
140
3.5
141
2.5
142
0.0
143
25.4
144
1.0
145
0.7
146
0.7
147
2.0
 71
     1
 72
     0
 73
     0
 74
     1
 75
     0
 76
     0
 77
     0
 78
     8
170
     0
171
     2
172
     0
173
     0
174
     0
175
     0
176
     0
177
     0
178
     0
  0
DIMSTYLE
  2
HANSU
 70
     0
  3

  4

  5

  6

  7

 40
1.0
 41
3.5
 42
0.0
 43
10.0
 44
2.0
 45
0.0
 46
0.0
 47
0.0
 48
0.0
140
3.5
141
2.5
142
0.0
143
25.4
144
0.8
145
0.0
146
1.0
147
2.0
 71
     0
 72
     0
 73
     0
 74
     0
 75
     0
 76
     0
 77
     1
 78
     8
170
     0
171
     2
172
     1
173
     0
174
     0
175
     0
176
   256
177
   256
178
     3
  0
ENDTAB
  0
ENDSEC
  0
SECTION
  2
BLOCKS
  0
BLOCK
  8
0
  5
2329
  2
AME_NIL
 70
     0
 10
0.0
 20
0.0
 30
0.0
  1
AME_NIL
  3
AME_NIL
  0
ENDBLK
  8
0
  5
232A
  0
BLOCK
  8
0
  5
232C
  2
AME_SOL
 70
     0
 10
0.0
 20
0.0
 30
0.0
  1
AME_SOL
  3
AME_SOL
  0
ENDBLK
  8
0
  5
232D
  0
BLOCK
  8
0
  5
233F
  2
SOLAXES
 70
     0
 10
0.0
 20
0.0
 30
0.0
  1
SOLAXES
  3
SOLAXES
  0
LINE
  8
0
 62
     0
  5
2340
 10
0.0
 20
0.0
 30
0.0
 11
63.851158
 21
0.0
 31
0.0
  0
LINE
  8
0
 62
     0
  5
2341
 10
0.0
 20
0.0
 30
0.0
 11
0.0
 21
63.851158
 31
0.0
  0
LINE
  8
0
 62
     0
  5
2342
 10
0.0
 20
0.0
 30
0.0
 11
0.0
 21
0.0
 31
63.851158
  0
CIRCLE
  8
0
 62
     0
  5
2343
 10
0.0
 20
0.0
 30
57.466042
 40
3.192558
210
1.0
220
0.0
230
0.0
  0
LINE
  8
0
 62
     0
  5
2344
 10
57.466042
 20
3.192558
 30
0.0
 11
63.851158
 21
0.0
 31
0.0
  0
LINE
  8
0
 62
     0
  5
2345
 10
57.466042
 20
0.0
 30
3.192558
 11
63.851158
 21
0.0
 31
0.0
  0
LINE
  8
0
 62
     0
  5
2346
 10
57.466042
 20
-3.192558
 30
0.0
 11
63.851158
 21
0.0
 31
0.0
  0
LINE
  8
0
 62
     0
  5
2347
 10
57.466042
 20
0.0
 30
-3.192558
 11
63.851158
 21
0.0
 31
0.0
  0
CIRCLE
  8
0
 62
     0
  5
2348
 10
0.0
 20
0.0
 30
57.466042
 40
3.192558
210
0.0
220
1.0
230
0.0
  0
LINE
  8
0
 62
     0
  5
2349
 10
3.192558
 20
57.466042
 30
0.0
 11
0.0
 21
63.851158
 31
0.0
  0
LINE
  8
0
 62
     0
  5
234A
 10
0.0
 20
57.466042
 30
3.192558
 11
0.0
 21
63.851158
 31
0.0
  0
LINE
  8
0
 62
     0
  5
234B
 10
-3.192558
 20
57.466042
 30
0.0
 11
0.0
 21
63.851158
 31
0.0
  0
LINE
  8
0
 62
     0
  5
234C
 10
0.0
 20
57.466042
 30
-3.192558
 11
0.0
 21
63.851158
 31
0.0
  0
CIRCLE
  8
0
 62
     0
  5
234D
 10
0.0
 20
0.0
 30
51.080927
 40
3.192558
210
0.0
220
1.0
230
0.0
  0
LINE
  8
0
 62
     0
  5
234E
 10
3.192558
 20
51.080927
 30
0.0
 11
0.0
 21
57.466042
 31
0.0
  0
LINE
  8
0
 62
     0
  5
234F
 10
0.0
 20
51.080927
 30
3.192558
 11
0.0
 21
57.466042
 31
0.0
  0
LINE
  8
0
 62
     0
  5
2350
 10
-3.192558
 20
51.080927
 30
0.0
 11
0.0
 21
57.466042
 31
0.0
  0
LINE
  8
0
 62
     0
  5
2351
 10
0.0
 20
51.080927
 30
-3.192558
 11
0.0
 21
57.466042
 31
0.0
  0
CIRCLE
  8
0
 62
     0
  5
2352
 10
0.0
 20
0.0
 30
57.466042
 40
3.192558
  0
LINE
  8
0
 62
     0
  5
2353
 10
3.192558
 20
0.0
 30
57.466042
 11
0.0
 21
0.0
 31
63.851158
  0
LINE
  8
0
 62
     0
  5
2354
 10
0.0
 20
3.192558
 30
57.466042
 11
0.0
 21
0.0
 31
63.851158
  0
LINE
  8
0
 62
     0
  5
2355
 10
-3.192558
 20
0.0
 30
57.466042
 11
0.0
 21
0.0
 31
63.851158
  0
LINE
  8
0
 62
     0
  5
2356
 10
0.0
 20
-3.192558
 30
57.466042
 11
0.0
 21
0.0
 31
63.851158
  0
CIRCLE
  8
0
 62
     0
  5
2357
 10
0.0
 20
0.0
 30
51.080927
 40
3.192558
  0
LINE
  8
0
 62
     0
  5
2358
 10
3.192558
 20
0.0
 30
51.080927
 11
0.0
 21
0.0
 31
57.466042
  0
LINE
  8
0
 62
     0
  5
2359
 10
0.0
 20
3.192558
 30
51.080927
 11
0.0
 21
0.0
 31
57.466042
  0
LINE
  8
0
 62
     0
  5
235A
 10
-3.192558
 20
0.0
 30
51.080927
 11
0.0
 21
0.0
 31
57.466042
  0
LINE
  8
0
 62
     0
  5
235B
 10
0.0
 20
-3.192558
 30
51.080927
 11
0.0
 21
0.0
 31
57.466042
  0
CIRCLE
  8
0
 62
     0
  5
235C
 10
0.0
 20
0.0
 30
44.695811
 40
3.192558
  0
LINE
  8
0
 62
     0
  5
235D
 10
3.192558
 20
0.0
 30
44.695811
 11
0.0
 21
0.0
 31
51.080927
  0
LINE
  8
0
 62
     0
  5
235E
 10
0.0
 20
3.192558
 30
44.695811
 11
0.0
 21
0.0
 31
51.080927
  0
LINE
  8
0
 62
     0
  5
235F
 10
-3.192558
 20
0.0
 30
44.695811
 11
0.0
 21
0.0
 31
51.080927
  0
LINE
  8
0
 62
     0
  5
2360
 10
0.0
 20
-3.192558
 30
44.695811
 11
0.0
 21
0.0
 31
51.080927
  0
ENDBLK
  8
0
  5
2361
  0
BLOCK
  8
0
  5
2460
  2
AME_MAT
 70
     0
 10
0.0
 20
0.0
 30
0.0
  1
AME_MAT
  3
AME_MAT
  0
ENDBLK
  8
0
  5
2461
  0
BLOCK
  8
0
  5
2465
  2
EKI3304C
 70
    64
 10
0.0
 20
0.0
 30
0.0
  3
EKI3304C
  0
LINE
  8
61
  5
5119
 10
46.031734
 20
256.0
 30
0.0
 11
46.031734
 21
403.0
 31
0.0
  0
ARC
  8
61
  5
511B
 10
64.031734
 20
272.0
 30
0.0
 40
16.2
 50
113.146795
 51
330.407558
  0
CIRCLE
  8
61
  5
511C
 10
64.031734
 20
272.0
 30
0.0
 40
13.0
  0
LINE
  8
61
  5
511E
 10
48.031734
 20
254.0
 30
0.0
 11
195.031734
 21
254.0
 31
0.0
  0
LINE
  8
61
  5
511F
 10
77.7153
 20
262.0
 30
0.0
 11
195.031734
 21
262.0
 31
0.0
  0
LINE
  8
61
  5
5121
 10
58.153054
 20
280.0
 30
0.0
 11
56.793297
 21
281.359757
 31
0.0
  0
LINE
  8
61
  5
5122
 10
56.031734
 20
277.87868
 30
0.0
 11
58.153054
 21
280.0
 31
0.0
  0
ARC
  8
61
  5
5123
 10
58.031734
 20
266.0
 30
0.0
 40
2.0
 50
180.0
 51
270.0
  0
ARC
  8
61
  5
5124
 10
48.031734
 20
256.0
 30
0.0
 40
2.0
 50
180.0
 51
270.0
  0
LINE
  8
61
  5
5125
 10
56.031734
 20
277.87868
 30
0.0
 11
56.031734
 21
266.0
 31
0.0
  0
ARC
  8
61
  5
5126
 10
53.96487
 20
278.531329
 30
0.0
 40
1.0
 50
45.0
 51
147.024699
  0
LINE
  8
61
  5
5127
 10
56.031734
 20
277.87868
 30
0.0
 11
54.671977
 21
279.238436
 31
0.0
  0
ARC
  8
61
  5
5128
 10
57.500404
 20
282.066863
 30
0.0
 40
1.0
 50
122.975301
 51
225.0
  0
ARC
  8
61
  5
5129
 10
64.031734
 20
272.0
 30
0.0
 40
8.0
 50
0.0
 51
90.0
  0
LINE
  8
61
  5
512A
 10
72.031734
 20
266.0
 30
0.0
 11
72.031734
 21
272.0
 31
0.0
  0
CIRCLE
  8
61
  5
512B
 10
64.031734
 20
272.0
 30
0.0
 40
6.0
  0
CIRCLE
  8
61
  5
512C
 10
64.031734
 20
272.0
 30
0.0
 40
4.25
  0
LINE
  8
61
  5
512D
 10
58.031734
 20
264.0
 30
0.0
 11
70.031734
 21
264.0
 31
0.0
  0
ARC
  8
61
  5
512E
 10
70.031734
 20
266.0
 30
0.0
 40
2.0
 50
270.0
 51
0.0
  0
LINE
  8
61
  5
512F
 10
58.153054
 20
280.0
 30
0.0
 11
64.031734
 21
280.0
 31
0.0
  0
ARC
  8
61
  5
5131
 10
77.7153
 20
260.0
 30
0.0
 40
2.0
 50
90.0
 51
138.750393
  0
LINE
  8
61
  5
5133
 10
54.031734
 20
285.683567
 30
0.0
 11
54.031734
 21
403.0
 31
0.0
  0
ARC
  8
61
  5
5134
 10
52.031734
 20
285.683567
 30
0.0
 40
2.0
 50
311.249607
 51
0.0
  0
LINE
  8
61
  5
514E
 10
54.031734
 20
520.316433
 30
0.0
 11
54.031734
 21
403.0
 31
0.0
  0
LINE
  8
61
  5
514F
 10
46.031734
 20
550.0
 30
0.0
 11
46.031734
 21
403.0
 31
0.0
  0
LINE
  8
23
  6
DASHDOT
  5
5151
 10
195.031734
 20
685.751732
 30
0.0
 11
195.031734
 21
618.300742
 31
0.0
  0
LINE
  8
61
  5
5152
 10
77.7153
 20
544.0
 30
0.0
 11
195.031734
 21
544.0
 31
0.0
  0
LINE
  8
61
  5
5153
 10
48.031734
 20
552.0
 30
0.0
 11
195.031734
 21
552.0
 31
0.0
  0
ARC
  8
61
  5
5155
 10
52.031734
 20
520.316433
 30
0.0
 40
2.0
 50
0.0
 51
48.750393
  0
CIRCLE
  8
61
  5
5156
 10
64.031734
 20
534.0
 30
0.0
 40
13.0
  0
ARC
  8
61
  5
5157
 10
64.031734
 20
534.0
 30
0.0
 40
16.2
 50
29.592442
 51
246.853205
  0
ARC
  8
61
  5
5158
 10
64.031734
 20
534.0
 30
0.0
 40
8.0
 50
270.0
 51
0.0
  0
CIRCLE
  8
61
  5
5159
 10
64.031734
 20
534.0
 30
0.0
 40
6.0
  0
LINE
  8
61
  5
515A
 10
58.031734
 20
542.0
 30
0.0
 11
69.910413
 21
542.0
 31
0.0
  0
ARC
  8
61
  5
515B
 10
48.031734
 20
550.0
 30
0.0
 40
2.0
 50
90.0
 51
180.0
  0
LINE
  8
61
  5
515C
 10
56.031734
 20
528.0
 30
0.0
 11
56.031734
 21
540.0
 31
0.0
  0
CIRCLE
  8
61
  5
515D
 10
64.031734
 20
534.0
 30
0.0
 40
4.25
  0
ARC
  8
61
  5
515E
 10
58.031734
 20
540.0
 30
0.0
 40
2.0
 50
90.0
 51
180.0
  0
LINE
  8
61
  5
515F
 10
58.031734
 20
526.0
 30
0.0
 11
64.031734
 21
526.0
 31
0.0
  0
LINE
  8
61
  5
5160
 10
72.031734
 20
539.87868
 30
0.0
 11
73.39149
 21
541.238436
 31
0.0
  0
LINE
  8
61
  5
5161
 10
69.910413
 20
542.0
 30
0.0
 11
72.031734
 21
539.87868
 31
0.0
  0
ARC
  8
61
  5
5162
 10
70.563063
 20
544.066863
 30
0.0
 40
1.0
 50
315.0
 51
57.024699
  0
LINE
  8
61
  5
5163
 10
69.910413
 20
542.0
 30
0.0
 11
71.27017
 21
543.359757
 31
0.0
  0
ARC
  8
61
  5
5164
 10
74.098597
 20
540.531329
 30
0.0
 40
1.0
 50
32.975301
 51
135.0
  0
ARC
  8
61
  5
5165
 10
77.7153
 20
546.0
 30
0.0
 40
2.0
 50
221.249607
 51
270.0
  0
LINE
  8
61
  5
5167
 10
72.031734
 20
539.87868
 30
0.0
 11
72.031734
 21
534.0
 31
0.0
  0
LINE
  8
61
  5
5168
 10
336.031734
 20
285.683567
 30
0.0
 11
336.031734
 21
403.0
 31
0.0
  0
LINE
  8
61
  5
5169
 10
344.031734
 20
256.0
 30
0.0
 11
344.031734
 21
403.0
 31
0.0
  0
LINE
  8
61
  5
516B
 10
312.348167
 20
262.0
 30
0.0
 11
195.031734
 21
262.0
 31
0.0
  0
LINE
  8
61
  5
516C
 10
342.031734
 20
254.0
 30
0.0
 11
195.031734
 21
254.0
 31
0.0
  0
ARC
  8
61
  5
516E
 10
338.031734
 20
285.683567
 30
0.0
 40
2.0
 50
180.0
 51
228.750393
  0
CIRCLE
  8
61
  5
516F
 10
326.031734
 20
272.0
 30
0.0
 40
13.0
  0
ARC
  8
61
  5
5170
 10
326.031734
 20
272.0
 30
0.0
 40
16.2
 50
209.592442
 51
66.853205
  0
ARC
  8
61
  5
5171
 10
326.031734
 20
272.0
 30
0.0
 40
8.0
 50
90.0
 51
180.0
  0
CIRCLE
  8
61
  5
5172
 10
326.031734
 20
272.0
 30
0.0
 40
6.0
  0
LINE
  8
61
  5
5173
 10
332.031734
 20
264.0
 30
0.0
 11
320.153054
 21
264.0
 31
0.0
  0
ARC
  8
61
  5
5174
 10
342.031734
 20
256.0
 30
0.0
 40
2.0
 50
270.0
 51
0.0
  0
LINE
  8
61
  5
5175
 10
334.031734
 20
278.0
 30
0.0
 11
334.031734
 21
266.0
 31
0.0
  0
CIRCLE
  8
61
  5
5176
 10
326.031734
 20
272.0
 30
0.0
 40
4.25
  0
ARC
  8
61
  5
5177
 10
332.031734
 20
266.0
 30
0.0
 40
2.0
 50
270.0
 51
0.0
  0
LINE
  8
61
  5
5178
 10
332.031734
 20
280.0
 30
0.0
 11
326.031734
 21
280.0
 31
0.0
  0
LINE
  8
61
  5
5179
 10
318.031734
 20
266.12132
 30
0.0
 11
316.671977
 21
264.761564
 31
0.0
  0
LINE
  8
61
  5
517A
 10
320.153054
 20
264.0
 30
0.0
 11
318.031734
 21
266.12132
 31
0.0
  0
ARC
  8
61
  5
517B
 10
319.500404
 20
261.933137
 30
0.0
 40
1.0
 50
135.0
 51
237.024699
  0
LINE
  8
61
  5
517C
 10
320.153054
 20
264.0
 30
0.0
 11
318.793297
 21
262.640243
 31
0.0
  0
ARC
  8
61
  5
517D
 10
315.96487
 20
265.468671
 30
0.0
 40
1.0
 50
212.975301
 51
315.0
  0
ARC
  8
61
  5
517E
 10
312.348167
 20
260.0
 30
0.0
 40
2.0
 50
41.249607
 51
90.0
  0
LINE
  8
61
  5
5180
 10
318.031734
 20
266.12132
 30
0.0
 11
318.031734
 21
272.0
 31
0.0
  0
LINE
  8
61
  5
5182
 10
342.031734
 20
552.0
 30
0.0
 11
195.031734
 21
552.0
 31
0.0
  0
LINE
  8
61
  5
5183
 10
312.348167
 20
544.0
 30
0.0
 11
195.031734
 21
544.0
 31
0.0
  0
LINE
  8
61
  5
5186
 10
344.031734
 20
550.0
 30
0.0
 11
344.031734
 21
403.0
 31
0.0
  0
LINE
  8
61
  5
5187
 10
336.031734
 20
520.316433
 30
0.0
 11
336.031734
 21
403.0
 31
0.0
  0
LINE
  8
61
  5
5188
 10
332.031734
 20
542.0
 30
0.0
 11
320.031734
 21
542.0
 31
0.0
  0
CIRCLE
  8
61
  5
5189
 10
326.031734
 20
534.0
 30
0.0
 40
6.0
  0
ARC
  8
61
  5
518A
 10
326.031734
 20
534.0
 30
0.0
 40
8.0
 50
180.0
 51
270.0
  0
ARC
  8
61
  5
518B
 10
326.031734
 20
534.0
 30
0.0
 40
16.2
 50
293.146795
 51
150.407558
  0
CIRCLE
  8
61
  5
518C
 10
326.031734
 20
534.0
 30
0.0
 40
13.0
  0
ARC
  8
61
  5
518D
 10
332.031734
 20
540.0
 30
0.0
 40
2.0
 50
0.0
 51
90.0
  0
LINE
  8
61
  5
518E
 10
334.031734
 20
528.12132
 30
0.0
 11
334.031734
 21
540.0
 31
0.0
  0
LINE
  8
61
  5
518F
 10
331.910413
 20
526.0
 30
0.0
 11
326.031734
 21
526.0
 31
0.0
  0
ARC
  8
61
  5
5190
 10
332.563063
 20
523.933137
 30
0.0
 40
1.0
 50
302.975301
 51
45.0
  0
LINE
  8
61
  5
5191
 10
334.031734
 20
528.12132
 30
0.0
 11
335.39149
 21
526.761564
 31
0.0
  0
ARC
  8
61
  5
5192
 10
336.098597
 20
527.468671
 30
0.0
 40
1.0
 50
225.0
 51
327.024699
  0
LINE
  8
61
  5
5193
 10
334.031734
 20
528.12132
 30
0.0
 11
331.910413
 21
526.0
 31
0.0
  0
LINE
  8
61
  5
5194
 10
331.910413
 20
526.0
 30
0.0
 11
333.27017
 21
524.640243
 31
0.0
  0
ARC
  8
61
  5
5195
 10
338.031734
 20
520.316433
 30
0.0
 40
2.0
 50
131.249607
 51
180.0
  0
CIRCLE
  8
61
  5
5196
 10
326.031734
 20
534.0
 30
0.0
 40
4.25
  0
ARC
  8
61
  5
5197
 10
342.031734
 20
550.0
 30
0.0
 40
2.0
 50
0.0
 51
90.0
  0
ARC
  8
61
  5
5198
 10
320.031734
 20
540.0
 30
0.0
 40
2.0
 50
90.0
 51
180.0
  0
LINE
  8
61
  5
5199
 10
318.031734
 20
540.0
 30
0.0
 11
318.031734
 21
534.0
 31
0.0
  0
ARC
  8
61
  5
519A
 10
312.348167
 20
546.0
 30
0.0
 40
2.0
 50
270.0
 51
318.750393
  0
LINE
  8
43
  6
DASHDOT
  5
706A
 10
-92.575169
 20
403.0
 30
0.0
 11
-20.209008
 21
403.0
 31
0.0
  0
ARC
  8
61
  5
F1E2
 10
58.031734
 20
528.0
 30
0.0
 40
2.0
 50
180.0
 51
270.0
  0
ARC
  8
61
  5
F1E3
 10
332.031734
 20
278.0
 30
0.0
 40
2.0
 50
0.0
 51
90.0
  0
LINE
  8
53
  6
DASHDOT
  5
1313B
 10
-460.37129
 20
403.0
 30
0.0
 11
-304.37129
 21
403.0
 31
0.0
  0
LINE
  8
51
  5
1313D
 10
-430.87129
 20
264.0
 30
0.0
 11
-305.37129
 21
264.0
 31
0.0
  0
LINE
  8
52
  5
1313E
 10
-451.87129
 20
256.0
 30
0.0
 11
-305.37129
 21
256.0
 31
0.0
  0
LINE
  8
52
  5
1313F
 10
-443.87129
 20
262.0
 30
0.0
 11
-305.37129
 21
262.0
 31
0.0
  0
LINE
  8
51
  5
13140
 10
-451.87129
 20
254.0
 30
0.0
 11
-305.37129
 21
254.0
 31
0.0
  0
LINE
  8
52
  5
13145
 10
-452.37129
 20
256.5
 30
0.0
 11
-452.37129
 21
403.0
 31
0.0
  0
LINE
  8
51
  5
13146
 10
-444.37129
 20
403.0
 30
0.0
 11
-444.37129
 21
277.5
 31
0.0
  0
LINE
  8
52
  5
13147
 10
-446.37129
 20
403.0
 30
0.0
 11
-446.37129
 21
264.5
 31
0.0
  0
ARC
  8
51
  5
13148
 10
-436.37129
 20
272.0
 30
0.0
 40
15.7
 50
329.365864
 51
120.634136
  0
LINE
  8
51
  5
13149
 10
-454.37129
 20
256.5
 30
0.0
 11
-454.37129
 21
403.0
 31
0.0
  0
LINE
  8
51
  5
1314C
 10
-440.297778
 20
273.626405
 30
0.0
 11
-442.376507
 21
274.487442
 31
0.0
  0
LINE
  8
51
  5
1314D
 10
-440.297778
 20
270.373595
 30
0.0
 11
-442.376507
 21
269.512558
 31
0.0
  0
LINE
  8
51
  5
1314E
 10
-436.37129
 20
282.2
 30
0.0
 11
-443.37129
 21
282.2
 31
0.0
  0
LINE
  8
51
  5
1314F
 10
-443.87129
 20
264.0
 30
0.0
 11
-437.87129
 21
264.0
 31
0.0
  0
CIRCLE
  8
51
  5
13150
 10
-436.37129
 20
272.0
 30
0.0
 40
6.5
  0
LINE
  8
51
  5
13151
 10
-444.37129
 20
270.5
 30
0.0
 11
-444.37129
 21
264.5
 31
0.0
  0
ARC
  8
51
  5
13152
 10
-451.87129
 20
256.5
 30
0.0
 40
2.5
 50
180.0
 51
270.0
  0
ARC
  8
52
  5
13153
 10
-451.87129
 20
256.5
 30
0.0
 40
0.5
 50
180.0
 51
270.0
  0
ARC
  8
52
  5
13154
 10
-443.87129
 20
264.5
 30
0.0
 40
2.5
 50
180.0
 51
270.0
  0
ARC
  8
51
  5
13155
 10
-443.87129
 20
264.5
 30
0.0
 40
0.5
 50
180.0
 51
270.0
  0
LINE
  8
51
  5
13156
 10
-446.37129
 20
270.5
 30
0.0
 11
-444.37129
 21
270.5
 31
0.0
  0
LINE
  8
51
  5
13157
 10
-446.37129
 20
277.5
 30
0.0
 11
-444.37129
 21
277.5
 31
0.0
  0
ARC
  8
51
  5
13158
 10
-443.37129
 20
283.2
 30
0.0
 40
1.0
 50
180.0
 51
270.0
  0
LINE
  8
51
  5
13159
 10
-426.17129
 20
272.0
 30
0.0
 11
-426.17129
 21
265.0
 31
0.0
  0
LINE
  8
51
  5
1315A
 10
-437.87129
 20
262.0
 30
0.0
 11
-437.87129
 21
264.0
 31
0.0
  0
LINE
  8
51
  5
1315B
 10
-430.87129
 20
262.0
 30
0.0
 11
-430.87129
 21
264.0
 31
0.0
  0
ARC
  8
51
  5
1315C
 10
-425.17129
 20
265.0
 30
0.0
 40
1.0
 50
180.0
 51
270.0
  0
ARC
  8
51
  5
1315D
 10
-436.37129
 20
272.0
 30
0.0
 40
10.2
 50
0.0
 51
90.0
  0
LINE
  8
51
  5
1315E
 10
-437.997695
 20
275.926488
 30
0.0
 11
-438.858732
 21
278.005217
 31
0.0
  0
LINE
  8
51
  5
1315F
 10
-434.744885
 20
275.926488
 30
0.0
 11
-433.883848
 21
278.005217
 31
0.0
  0
CIRCLE
  8
51
  5
13160
 10
-436.37129
 20
272.0
 30
0.0
 40
4.25
  0
LINE
  8
51
  5
13161
 10
-437.997695
 20
268.073512
 30
0.0
 11
-438.858732
 21
265.994783
 31
0.0
  0
LINE
  8
51
  5
13162
 10
-434.744885
 20
268.073512
 30
0.0
 11
-433.883848
 21
265.994783
 31
0.0
  0
LINE
  8
51
  5
13163
 10
-432.444802
 20
270.373595
 30
0.0
 11
-430.366073
 21
269.512558
 31
0.0
  0
LINE
  8
51
  5
13164
 10
-432.444802
 20
273.626405
 30
0.0
 11
-430.366073
 21
274.487442
 31
0.0
  0
LINE
  8
53
  6
DASHDOT
  5
13165
 10
-305.37129
 20
403.0
 30
0.0
 11
-305.37129
 21
247.0
 31
0.0
  0
LINE
  8
53
  6
DASHDOT
  5
13166
 10
-305.37129
 20
403.0
 30
0.0
 11
-305.37129
 21
557.0
 31
0.0
  0
LINE
  8
51
  5
13168
 10
-454.37129
 20
549.5
 30
0.0
 11
-454.37129
 21
403.0
 31
0.0
  0
LINE
  8
52
  5
13169
 10
-446.37129
 20
403.0
 30
0.0
 11
-446.37129
 21
541.5
 31
0.0
  0
LINE
  8
51
  5
1316A
 10
-444.37129
 20
403.0
 30
0.0
 11
-444.37129
 21
528.5
 31
0.0
  0
LINE
  8
52
  5
1316B
 10
-452.37129
 20
549.5
 30
0.0
 11
-452.37129
 21
403.0
 31
0.0
  0
LINE
  8
51
  5
1316E
 10
-430.87129
 20
542.0
 30
0.0
 11
-305.37129
 21
542.0
 31
0.0
  0
LINE
  8
52
  5
1316F
 10
-451.87129
 20
550.0
 30
0.0
 11
-305.37129
 21
550.0
 31
0.0
  0
LINE
  8
52
  5
13170
 10
-443.87129
 20
544.0
 30
0.0
 11
-305.37129
 21
544.0
 31
0.0
  0
LINE
  8
51
  5
13171
 10
-451.87129
 20
552.0
 30
0.0
 11
-305.37129
 21
552.0
 31
0.0
  0
ARC
  8
51
  5
13173
 10
-451.87129
 20
549.5
 30
0.0
 40
2.5
 50
90.0
 51
180.0
  0
LINE
  8
51
  5
13175
 10
-436.37129
 20
523.8
 30
0.0
 11
-443.37129
 21
523.8
 31
0.0
  0
LINE
  8
51
  5
13176
 10
-440.297778
 20
532.373595
 30
0.0
 11
-442.376507
 21
531.512558
 31
0.0
  0
LINE
  8
51
  5
13177
 10
-440.297778
 20
535.626405
 30
0.0
 11
-442.376507
 21
536.487442
 31
0.0
  0
LINE
  8
51
  5
13178
 10
-443.87129
 20
542.0
 30
0.0
 11
-437.87129
 21
542.0
 31
0.0
  0
ARC
  8
51
  5
1317A
 10
-436.37129
 20
534.0
 30
0.0
 40
15.7
 50
239.365864
 51
30.634136
  0
CIRCLE
  8
51
  5
1317C
 10
-436.37129
 20
534.0
 30
0.0
 40
6.5
  0
LINE
  8
51
  5
1317D
 10
-444.37129
 20
535.5
 30
0.0
 11
-444.37129
 21
541.5
 31
0.0
  0
ARC
  8
52
  5
1317E
 10
-451.87129
 20
549.5
 30
0.0
 40
0.5
 50
90.0
 51
180.0
  0
ARC
  8
51
  5
1317F
 10
-443.87129
 20
541.5
 30
0.0
 40
0.5
 50
90.0
 51
180.0
  0
ARC
  8
52
  5
13180
 10
-443.87129
 20
541.5
 30
0.0
 40
2.5
 50
90.0
 51
180.0
  0
LINE
  8
51
  5
13181
 10
-446.37129
 20
528.5
 30
0.0
 11
-444.37129
 21
528.5
 31
0.0
  0
LINE
  8
51
  5
13182
 10
-446.37129
 20
535.5
 30
0.0
 11
-444.37129
 21
535.5
 31
0.0
  0
ARC
  8
51
  5
13183
 10
-443.37129
 20
522.8
 30
0.0
 40
1.0
 50
90.0
 51
180.0
  0
ARC
  8
51
  5
13184
 10
-436.37129
 20
534.0
 30
0.0
 40
10.2
 50
270.0
 51
0.0
  0
LINE
  8
51
  5
13185
 10
-426.17129
 20
534.0
 30
0.0
 11
-426.17129
 21
541.0
 31
0.0
  0
LINE
  8
51
  5
13186
 10
-434.744885
 20
537.926488
 30
0.0
 11
-433.883848
 21
540.005217
 31
0.0
  0
LINE
  8
51
  5
13187
 10
-437.997695
 20
537.926488
 30
0.0
 11
-438.858732
 21
540.005217
 31
0.0
  0
LINE
  8
51
  5
13188
 10
-437.87129
 20
544.0
 30
0.0
 11
-437.87129
 21
542.0
 31
0.0
  0
ARC
  8
51
  5
13189
 10
-425.17129
 20
541.0
 30
0.0
 40
1.0
 50
90.0
 51
180.0
  0
LINE
  8
51
  5
1318A
 10
-430.87129
 20
544.0
 30
0.0
 11
-430.87129
 21
542.0
 31
0.0
  0
CIRCLE
  8
51
  5
1318B
 10
-436.37129
 20
534.0
 30
0.0
 40
4.25
  0
LINE
  8
51
  5
1318C
 10
-434.744885
 20
530.073512
 30
0.0
 11
-433.883848
 21
527.994783
 31
0.0
  0
LINE
  8
51
  5
1318D
 10
-437.997695
 20
530.073512
 30
0.0
 11
-438.858732
 21
527.994783
 31
0.0
  0
LINE
  8
51
  5
1318E
 10
-432.444802
 20
535.626405
 30
0.0
 11
-430.366073
 21
536.487442
 31
0.0
  0
LINE
  8
51
  5
1318F
 10
-432.444802
 20
532.373595
 30
0.0
 11
-430.366073
 21
531.512558
 31
0.0
  0
LINE
  8
44
  5
19F3E
 10
-70.403212
 20
288.700152
 30
0.0
 11
-70.403212
 21
403.0
 31
0.0
  0
LINE
  8
41
  5
19F3F
 10
-73.003212
 20
265.76346
 30
0.0
 11
-73.003212
 21
403.0
 31
0.0
  0
LINE
  8
41
  5
19F40
 10
-31.003212
 20
277.5
 30
0.0
 11
-31.003212
 21
403.0
 31
0.0
  0
LINE
  8
41
  5
19F41
 10
-34.003212
 20
256.0
 30
0.0
 11
-34.003212
 21
403.0
 31
0.0
  0
LINE
  8
41
  5
19F42
 10
-73.003212
 20
256.5
 30
0.0
 11
-73.003212
 21
266.510718
 31
0.0
  0
LINE
  8
41
  5
19F43
 10
-73.003212
 20
256.5
 30
0.0
 11
-43.648391
 21
255.98761
 31
0.0
  0
LINE
  8
41
  5
19F44
 10
-34.003212
 20
254.0
 30
0.0
 11
-41.722864
 21
254.269576
 31
0.0
  0
LINE
  8
41
  5
19F45
 10
-34.003212
 20
254.0
 30
0.0
 11
-34.003212
 21
256.0
 31
0.0
  0
ARC
  8
41
  5
19F46
 10
-41.653065
 20
256.268358
 30
0.0
 40
2.0
 50
195.0
 51
268.0
  0
LINE
  8
41
  5
19F47
 10
-43.648391
 20
255.98761
 30
0.0
 11
-43.584917
 21
255.75072
 31
0.0
  0
LINE
  8
44
  5
19F48
 10
-69.420665
 20
287.700305
 30
0.0
 11
-43.468308
 21
287.250796
 31
0.0
  0
ARC
  8
44
  5
19F49
 10
-37.503212
 20
279.7
 30
0.0
 40
2.5
 50
0.0
 51
90.0
  0
LINE
  8
41
  5
19F4A
 10
-30.503212
 20
265.824555
 30
0.0
 11
-30.503212
 21
269.202066
 31
0.0
  0
LINE
  8
41
  5
19F4B
 10
-31.003212
 20
264.0
 30
0.0
 11
-31.003212
 21
270.5
 31
0.0
  0
LINE
  8
41
  5
19F4C
 10
-31.003212
 20
262.0
 30
0.0
 11
-34.003212
 21
261.895238
 31
0.0
  0
LINE
  8
41
  5
19F4D
 10
-30.503212
 20
265.824555
 30
0.0
 11
-31.003212
 21
265.5
 31
0.0
  0
LINE
  8
41
  5
19F4E
 10
-31.003212
 20
262.0
 30
0.0
 11
-31.003212
 21
264.0
 31
0.0
  0
LINE
  8
44
  5
19F4F
 10
-35.003212
 20
278.5
 30
0.0
 11
-31.003212
 21
278.5
 31
0.0
  0
LINE
  8
44
  5
19F50
 10
-35.003212
 20
279.7
 30
0.0
 11
-35.003212
 21
278.5
 31
0.0
  0
ARC
  8
41
  5
19F51
 10
-26.577423
 20
266.990899
 30
0.0
 40
6.943763
 50
124.427934
 51
147.884432
  0
ARC
  8
41
  5
19F52
 10
-28.352018
 20
274.075299
 30
0.0
 40
5.326917
 50
194.757543
 51
222.157904
  0
LINE
  8
41
  5
19F53
 10
-34.003212
 20
270.5
 30
0.0
 11
-31.003212
 21
270.5
 31
0.0
  0
ARC
  8
41
  5
19F54
 10
-28.352018
 20
274.075299
 30
0.0
 40
5.326917
 50
240.152197
 51
246.181866
  0
ARC
  8
41
  5
19F55
 10
-30.853646
 20
275.77738
 30
0.0
 40
2.74508
 50
141.131872
 51
164.841374
  0
LINE
  8
41
  5
19F56
 10
-31.003212
 20
278.5
 30
0.0
 11
-30.503212
 21
278.5
 31
0.0
  0
LINE
  8
41
  5
19F57
 10
-34.003212
 20
277.5
 30
0.0
 11
-31.003212
 21
277.5
 31
0.0
  0
ARC
  8
41
  5
19F58
 10
-30.853646
 20
273.52738
 30
0.0
 40
2.74508
 50
82.665679
 51
164.841374
  0
LINE
  8
41
  5
19F59
 10
-30.503212
 20
278.5
 30
0.0
 11
-30.503212
 21
272.718378
 31
0.0
  0
LINE
  8
41
  5
19F5A
 10
-33.503212
 20
276.495197
 30
0.0
 11
-33.503212
 21
272.718378
 31
0.0
  0
ARC
  8
44
  5
19F5B
 10
-43.503212
 20
285.2511
 30
0.0
 40
2.0
 50
0.0
 51
89.0
  0
LINE
  8
44
  5
19F5C
 10
-41.503212
 20
285.2511
 30
0.0
 11
-41.503212
 21
282.2
 31
0.0
  0
LINE
  8
44
  5
19F5D
 10
-41.503212
 20
282.2
 30
0.0
 11
-37.503212
 21
282.2
 31
0.0
  0
ARC
  8
44
  5
19F5E
 10
-69.403212
 20
288.700152
 30
0.0
 40
1.0
 50
180.0
 51
269.0
  0
LINE
  8
44
  5
19F5F
 10
-70.403212
 20
517.299848
 30
0.0
 11
-70.403212
 21
403.0
 31
0.0
  0
LINE
  8
41
  5
19F60
 10
-34.003212
 20
550.0
 30
0.0
 11
-34.003212
 21
403.0
 31
0.0
  0
LINE
  8
41
  5
19F61
 10
-31.003212
 20
528.5
 30
0.0
 11
-31.003212
 21
403.0
 31
0.0
  0
LINE
  8
41
  5
19F62
 10
-73.003212
 20
540.23654
 30
0.0
 11
-73.003212
 21
403.0
 31
0.0
  0
LINE
  8
41
  5
19F69
 10
-73.003212
 20
549.5
 30
0.0
 11
-73.003212
 21
539.489282
 31
0.0
  0
LINE
  8
41
  5
19F6A
 10
-31.003212
 20
544.0
 30
0.0
 11
-31.003212
 21
542.0
 31
0.0
  0
LINE
  8
44
  5
19F6B
 10
-69.420665
 20
518.299695
 30
0.0
 11
-43.468308
 21
518.749204
 31
0.0
  0
ARC
  8
44
  5
19F6C
 10
-43.503212
 20
520.7489
 30
0.0
 40
2.0
 50
271.0
 51
0.0
  0
ARC
  8
44
  5
19F6D
 10
-37.503212
 20
526.3
 30
0.0
 40
2.5
 50
270.0
 51
0.0
  0
LINE
  8
41
  5
19F6E
 10
-33.503212
 20
529.504803
 30
0.0
 11
-33.503212
 21
533.281622
 31
0.0
  0
LINE
  8
41
  5
19F6F
 10
-30.503212
 20
527.5
 30
0.0
 11
-30.503212
 21
533.281622
 31
0.0
  0
ARC
  8
41
  5
19F70
 10
-30.853646
 20
532.47262
 30
0.0
 40
2.74508
 50
195.158626
 51
277.334321
  0
LINE
  8
44
  5
19F71
 10
-35.003212
 20
526.3
 30
0.0
 11
-35.003212
 21
527.5
 31
0.0
  0
LINE
  8
44
  5
19F72
 10
-35.003212
 20
527.5
 30
0.0
 11
-31.003212
 21
527.5
 31
0.0
  0
LINE
  8
41
  5
19F73
 10
-34.003212
 20
528.5
 30
0.0
 11
-31.003212
 21
528.5
 31
0.0
  0
LINE
  8
41
  5
19F74
 10
-31.003212
 20
527.5
 30
0.0
 11
-30.503212
 21
527.5
 31
0.0
  0
ARC
  8
41
  5
19F75
 10
-30.853646
 20
530.22262
 30
0.0
 40
2.74508
 50
195.158626
 51
218.868128
  0
ARC
  8
41
  5
19F76
 10
-28.352018
 20
531.924701
 30
0.0
 40
5.326917
 50
113.818134
 51
119.847803
  0
LINE
  8
41
  5
19F77
 10
-34.003212
 20
535.5
 30
0.0
 11
-31.003212
 21
535.5
 31
0.0
  0
LINE
  8
41
  5
19F78
 10
-31.003212
 20
542.0
 30
0.0
 11
-31.003212
 21
535.5
 31
0.0
  0
LINE
  8
41
  5
19F79
 10
-30.503212
 20
540.175445
 30
0.0
 11
-31.003212
 21
540.5
 31
0.0
  0
LINE
  8
41
  5
19F7A
 10
-30.503212
 20
540.175445
 30
0.0
 11
-30.503212
 21
536.797934
 31
0.0
  0
ARC
  8
41
  5
19F7B
 10
-28.352018
 20
531.924701
 30
0.0
 40
5.326917
 50
137.842096
 51
165.242457
  0
ARC
  8
41
  5
19F7C
 10
-26.577423
 20
539.009101
 30
0.0
 40
6.943763
 50
212.115568
 51
235.572066
  0
LINE
  8
44
  5
19F7D
 10
-41.503212
 20
520.7489
 30
0.0
 11
-41.503212
 21
523.8
 31
0.0
  0
LINE
  8
44
  5
19F7E
 10
-41.503212
 20
523.8
 30
0.0
 11
-37.503212
 21
523.8
 31
0.0
  0
ARC
  8
44
  5
19F7F
 10
-69.403212
 20
517.299848
 30
0.0
 40
1.0
 50
91.0
 51
180.0
  0
LINE
  8
41
  5
19F80
 10
-73.003212
 20
549.5
 30
0.0
 11
-43.648391
 21
550.01239
 31
0.0
  0
LINE
  8
41
  5
19F81
 10
-34.003212
 20
552.0
 30
0.0
 11
-41.722864
 21
551.730424
 31
0.0
  0
LINE
  8
41
  5
19F82
 10
-31.003212
 20
544.0
 30
0.0
 11
-34.003212
 21
544.104762
 31
0.0
  0
LINE
  8
41
  5
19F83
 10
-34.003212
 20
552.0
 30
0.0
 11
-34.003212
 21
550.0
 31
0.0
  0
ARC
  8
41
  5
19F84
 10
-41.653065
 20
549.731642
 30
0.0
 40
2.0
 50
92.0
 51
165.0
  0
LINE
  8
41
  5
19F85
 10
-43.648391
 20
550.01239
 30
0.0
 11
-43.584917
 21
550.24928
 31
0.0
  0
LINE
  8
52
  5
1A016
 10
-156.37129
 20
256.5
 30
0.0
 11
-156.37129
 21
403.0
 31
0.0
  0
LINE
  8
51
  5
1A017
 10
-164.37129
 20
403.0
 30
0.0
 11
-164.37129
 21
277.5
 31
0.0
  0
LINE
  8
52
  5
1A018
 10
-162.37129
 20
403.0
 30
0.0
 11
-162.37129
 21
264.5
 31
0.0
  0
LINE
  8
51
  5
1A019
 10
-154.37129
 20
256.5
 30
0.0
 11
-154.37129
 21
403.0
 31
0.0
  0
ARC
  8
52
  5
1A01A
 10
-164.87129
 20
264.5
 30
0.0
 40
2.5
 50
270.0
 51
0.0
  0
LINE
  8
52
  5
1A01B
 10
-156.87129
 20
256.0
 30
0.0
 11
-303.37129
 21
256.0
 31
0.0
  0
LINE
  8
51
  5
1A01C
 10
-156.87129
 20
254.0
 30
0.0
 11
-303.37129
 21
254.0
 31
0.0
  0
ARC
  8
52
  5
1A01D
 10
-156.87129
 20
256.5
 30
0.0
 40
0.5
 50
270.0
 51
0.0
  0
ARC
  8
51
  5
1A01E
 10
-156.87129
 20
256.5
 30
0.0
 40
2.5
 50
270.0
 51
0.0
  0
LINE
  8
51
  5
1A01F
 10
-177.87129
 20
264.0
 30
0.0
 11
-303.37129
 21
264.0
 31
0.0
  0
LINE
  8
52
  5
1A020
 10
-164.87129
 20
262.0
 30
0.0
 11
-303.37129
 21
262.0
 31
0.0
  0
ARC
  8
51
  5
1A021
 10
-172.37129
 20
272.0
 30
0.0
 40
15.7
 50
59.365864
 51
210.634136
  0
CIRCLE
  8
51
  5
1A022
 10
-172.37129
 20
272.0
 30
0.0
 40
6.5
  0
ARC
  8
51
  5
1A023
 10
-172.37129
 20
272.0
 30
0.0
 40
10.2
 50
90.0
 51
180.0
  0
ARC
  8
51
  5
1A024
 10
-164.87129
 20
264.5
 30
0.0
 40
0.5
 50
270.0
 51
0.0
  0
LINE
  8
51
  5
1A025
 10
-170.87129
 20
262.0
 30
0.0
 11
-170.87129
 21
264.0
 31
0.0
  0
LINE
  8
51
  5
1A026
 10
-164.87129
 20
264.0
 30
0.0
 11
-170.87129
 21
264.0
 31
0.0
  0
LINE
  8
51
  5
1A027
 10
-177.87129
 20
262.0
 30
0.0
 11
-177.87129
 21
264.0
 31
0.0
  0
CIRCLE
  8
51
  5
1A028
 10
-172.37129
 20
272.0
 30
0.0
 40
4.25
  0
LINE
  8
51
  5
1A029
 10
-170.744885
 20
275.926488
 30
0.0
 11
-169.883848
 21
278.005217
 31
0.0
  0
LINE
  8
51
  5
1A02A
 10
-162.37129
 20
270.5
 30
0.0
 11
-164.37129
 21
270.5
 31
0.0
  0
LINE
  8
51
  5
1A02B
 10
-162.37129
 20
277.5
 30
0.0
 11
-164.37129
 21
277.5
 31
0.0
  0
LINE
  8
51
  5
1A02C
 10
-168.444802
 20
273.626405
 30
0.0
 11
-166.366073
 21
274.487442
 31
0.0
  0
LINE
  8
51
  5
1A02D
 10
-168.444802
 20
270.373595
 30
0.0
 11
-166.366073
 21
269.512558
 31
0.0
  0
LINE
  8
51
  5
1A02E
 10
-170.744885
 20
268.073512
 30
0.0
 11
-169.883848
 21
265.994783
 31
0.0
  0
LINE
  8
51
  5
1A02F
 10
-164.37129
 20
270.5
 30
0.0
 11
-164.37129
 21
264.5
 31
0.0
  0
LINE
  8
51
  5
1A030
 10
-176.297778
 20
270.373595
 30
0.0
 11
-178.376507
 21
269.512558
 31
0.0
  0
LINE
  8
51
  5
1A031
 10
-176.297778
 20
273.626405
 30
0.0
 11
-178.376507
 21
274.487442
 31
0.0
  0
LINE
  8
51
  5
1A032
 10
-173.997695
 20
275.926488
 30
0.0
 11
-174.858732
 21
278.005217
 31
0.0
  0
LINE
  8
51
  5
1A033
 10
-173.997695
 20
268.073512
 30
0.0
 11
-174.858732
 21
265.994783
 31
0.0
  0
ARC
  8
51
  5
1A034
 10
-183.57129
 20
265.0
 30
0.0
 40
1.0
 50
270.0
 51
0.0
  0
LINE
  8
51
  5
1A035
 10
-182.57129
 20
272.0
 30
0.0
 11
-182.57129
 21
265.0
 31
0.0
  0
LINE
  8
51
  5
1A036
 10
-172.37129
 20
282.2
 30
0.0
 11
-165.37129
 21
282.2
 31
0.0
  0
ARC
  8
51
  5
1A037
 10
-165.37129
 20
283.2
 30
0.0
 40
1.0
 50
270.0
 51
0.0
  0
ARC
  8
52
  5
1A038
 10
-164.87129
 20
541.5
 30
0.0
 40
2.5
 50
0.0
 51
90.0
  0
LINE
  8
51
  5
1A039
 10
-156.87129
 20
552.0
 30
0.0
 11
-303.37129
 21
552.0
 31
0.0
  0
LINE
  8
52
  5
1A03A
 10
-156.87129
 20
550.0
 30
0.0
 11
-303.37129
 21
550.0
 31
0.0
  0
LINE
  8
53
  6
DASHDOT
  5
1A03B
 10
-148.37129
 20
403.0
 30
0.0
 11
-304.37129
 21
403.0
 31
0.0
  0
LINE
  8
52
  5
1A03C
 10
-156.37129
 20
549.5
 30
0.0
 11
-156.37129
 21
403.0
 31
0.0
  0
LINE
  8
51
  5
1A03D
 10
-154.37129
 20
549.5
 30
0.0
 11
-154.37129
 21
403.0
 31
0.0
  0
ARC
  8
52
  5
1A03E
 10
-156.87129
 20
549.5
 30
0.0
 40
0.5
 50
0.0
 51
90.0
  0
ARC
  8
51
  5
1A03F
 10
-156.87129
 20
549.5
 30
0.0
 40
2.5
 50
0.0
 51
90.0
  0
LINE
  8
51
  5
1A040
 10
-177.87129
 20
542.0
 30
0.0
 11
-303.37129
 21
542.0
 31
0.0
  0
LINE
  8
52
  5
1A041
 10
-164.87129
 20
544.0
 30
0.0
 11
-303.37129
 21
544.0
 31
0.0
  0
LINE
  8
51
  5
1A042
 10
-164.37129
 20
403.0
 30
0.0
 11
-164.37129
 21
528.5
 31
0.0
  0
LINE
  8
52
  5
1A043
 10
-162.37129
 20
403.0
 30
0.0
 11
-162.37129
 21
541.5
 31
0.0
  0
LINE
  8
51
  5
1A044
 10
-182.57129
 20
534.0
 30
0.0
 11
-182.57129
 21
541.0
 31
0.0
  0
CIRCLE
  8
51
  5
1A045
 10
-172.37129
 20
534.0
 30
0.0
 40
4.25
  0
CIRCLE
  8
51
  5
1A046
 10
-172.37129
 20
534.0
 30
0.0
 40
6.5
  0
ARC
  8
51
  5
1A047
 10
-172.37129
 20
534.0
 30
0.0
 40
15.7
 50
149.365864
 51
300.634136
  0
ARC
  8
51
  5
1A048
 10
-172.37129
 20
534.0
 30
0.0
 40
10.2
 50
180.0
 51
270.0
  0
LINE
  8
51
  5
1A049
 10
-172.37129
 20
523.8
 30
0.0
 11
-165.37129
 21
523.8
 31
0.0
  0
LINE
  8
51
  5
1A04A
 10
-168.444802
 20
532.373595
 30
0.0
 11
-166.366073
 21
531.512558
 31
0.0
  0
LINE
  8
51
  5
1A04B
 10
-170.744885
 20
530.073512
 30
0.0
 11
-169.883848
 21
527.994783
 31
0.0
  0
ARC
  8
51
  5
1A04C
 10
-165.37129
 20
522.8
 30
0.0
 40
1.0
 50
0.0
 51
90.0
  0
LINE
  8
51
  5
1A04D
 10
-162.37129
 20
528.5
 30
0.0
 11
-164.37129
 21
528.5
 31
0.0
  0
LINE
  8
51
  5
1A04E
 10
-176.297778
 20
532.373595
 30
0.0
 11
-178.376507
 21
531.512558
 31
0.0
  0
LINE
  8
51
  5
1A04F
 10
-173.997695
 20
530.073512
 30
0.0
 11
-174.858732
 21
527.994783
 31
0.0
  0
LINE
  8
51
  5
1A050
 10
-170.744885
 20
537.926488
 30
0.0
 11
-169.883848
 21
540.005217
 31
0.0
  0
LINE
  8
51
  5
1A051
 10
-162.37129
 20
535.5
 30
0.0
 11
-164.37129
 21
535.5
 31
0.0
  0
ARC
  8
52
  5
1A052
 10
-164.87129
 20
541.5
 30
0.0
 40
0.5
 50
0.0
 51
90.0
  0
LINE
  8
51
  5
1A053
 10
-164.37129
 20
535.5
 30
0.0
 11
-164.37129
 21
541.5
 31
0.0
  0
LINE
  8
51
  5
1A054
 10
-164.87129
 20
542.0
 30
0.0
 11
-170.87129
 21
542.0
 31
0.0
  0
LINE
  8
51
  5
1A055
 10
-168.444802
 20
535.626405
 30
0.0
 11
-166.366073
 21
536.487442
 31
0.0
  0
LINE
  8
51
  5
1A056
 10
-170.87129
 20
544.0
 30
0.0
 11
-170.87129
 21
542.0
 31
0.0
  0
LINE
  8
51
  5
1A057
 10
-176.297778
 20
535.626405
 30
0.0
 11
-178.376507
 21
536.487442
 31
0.0
  0
LINE
  8
51
  5
1A058
 10
-177.87129
 20
544.0
 30
0.0
 11
-177.87129
 21
542.0
 31
0.0
  0
LINE
  8
51
  5
1A059
 10
-173.997695
 20
537.926488
 30
0.0
 11
-174.858732
 21
540.005217
 31
0.0
  0
ARC
  8
51
  5
1A05A
 10
-183.57129
 20
541.0
 30
0.0
 40
1.0
 50
0.0
 51
90.0
  0
TEXT
  8
L20
  5
1A05B
 10
-386.196408
 20
617.188885
 30
0.0
 40
14.32833
  1
FIBOX EKI 300x300x40 Cover
  0
LINE
  8
41
  5
1A05E
 10
-43.648391
 20
550.01239
 30
0.0
 11
-43.648391
 21
255.98761
 31
0.0
  0
LINE
  8
41
  5
1A05F
 10
-41.722864
 20
254.269576
 30
0.0
 11
-41.722864
 21
551.730424
 31
0.0
  0
LINE
  8
11
  5
1A060
 10
343.762157
 20
166.245402
 30
0.0
 11
46.30131
 21
166.245402
 31
0.0
  0
LINE
  8
11
  5
1A061
 10
48.019343
 20
164.319875
 30
0.0
 11
342.044124
 21
164.319875
 31
0.0
  0
LINE
  8
11
  5
1A062
 10
342.031734
 20
173.965054
 30
0.0
 11
195.031734
 21
173.965054
 31
0.0
  0
LINE
  8
11
  5
1A063
 10
320.531734
 20
176.965054
 30
0.0
 11
195.031734
 21
176.965054
 31
0.0
  0
LINE
  8
11
  5
1A064
 10
332.268274
 20
134.965054
 30
0.0
 11
195.031734
 21
134.965054
 31
0.0
  0
LINE
  8
14
  5
1A065
 10
309.331581
 20
137.565054
 30
0.0
 11
195.031734
 21
137.565054
 31
0.0
  0
LINE
  8
11
  5
1A066
 10
341.531734
 20
134.965054
 30
0.0
 11
342.044124
 21
164.319875
 31
0.0
  0
LINE
  8
11
  5
1A067
 10
341.531734
 20
134.965054
 30
0.0
 11
331.521015
 21
134.965054
 31
0.0
  0
ARC
  8
14
  5
1A068
 10
318.331734
 20
170.465054
 30
0.0
 40
2.5
 50
90.0
 51
180.0
  0
LINE
  8
11
  5
1A069
 10
344.031734
 20
173.965054
 30
0.0
 11
343.762157
 21
166.245402
 31
0.0
  0
ARC
  8
11
  5
1A06A
 10
341.763376
 20
166.315201
 30
0.0
 40
2.0
 50
285.0
 51
358.0
  0
LINE
  8
11
  5
1A06B
 10
342.044124
 20
164.319875
 30
0.0
 11
342.281014
 21
164.383349
 31
0.0
  0
LINE
  8
11
  5
1A06C
 10
344.031734
 20
173.965054
 30
0.0
 11
342.031734
 21
173.965054
 31
0.0
  0
LINE
  8
11
  5
1A06D
 10
334.031734
 20
176.965054
 30
0.0
 11
327.531734
 21
176.965054
 31
0.0
  0
LINE
  8
11
  5
1A06E
 10
332.207179
 20
177.465054
 30
0.0
 11
328.829668
 21
177.465054
 31
0.0
  0
LINE
  8
11
  5
1A06F
 10
336.031734
 20
176.965054
 30
0.0
 11
334.031734
 21
176.965054
 31
0.0
  0
LINE
  8
11
  5
1A070
 10
332.207179
 20
177.465054
 30
0.0
 11
332.531734
 21
176.965054
 31
0.0
  0
LINE
  8
11
  5
1A071
 10
336.031734
 20
176.965054
 30
0.0
 11
336.136496
 21
173.965054
 31
0.0
  0
LINE
  8
11
  5
1A072
 10
321.536537
 20
174.465054
 30
0.0
 11
325.313356
 21
174.465054
 31
0.0
  0
LINE
  8
11
  5
1A073
 10
319.531734
 20
177.465054
 30
0.0
 11
325.313356
 21
177.465054
 31
0.0
  0
ARC
  8
11
  5
1A074
 10
324.504354
 20
177.114621
 30
0.0
 40
2.74508
 50
172.665679
 51
254.841374
  0
LINE
  8
11
  5
1A075
 10
320.531734
 20
173.965054
 30
0.0
 11
320.531734
 21
176.965054
 31
0.0
  0
LINE
  8
11
  5
1A076
 10
319.531734
 20
176.965054
 30
0.0
 11
319.531734
 21
177.465054
 31
0.0
  0
ARC
  8
11
  5
1A077
 10
322.254354
 20
177.114621
 30
0.0
 40
2.74508
 50
231.131872
 51
254.841374
  0
ARC
  8
11
  5
1A078
 10
323.956434
 20
179.616249
 30
0.0
 40
5.326917
 50
330.152197
 51
336.181866
  0
LINE
  8
11
  5
1A079
 10
327.531734
 20
173.965054
 30
0.0
 11
327.531734
 21
176.965054
 31
0.0
  0
ARC
  8
11
  5
1A07A
 10
323.956434
 20
179.616249
 30
0.0
 40
5.326917
 50
284.757543
 51
312.157904
  0
ARC
  8
11
  5
1A07B
 10
331.040835
 20
181.390844
 30
0.0
 40
6.943763
 50
214.427934
 51
237.884432
  0
LINE
  8
14
  5
1A07C
 10
318.331734
 20
172.965054
 30
0.0
 11
319.531734
 21
172.965054
 31
0.0
  0
LINE
  8
14
  5
1A07D
 10
319.531734
 20
172.965054
 30
0.0
 11
319.531734
 21
176.965054
 31
0.0
  0
LINE
  8
14
  5
1A07E
 10
310.331429
 20
138.547602
 30
0.0
 11
310.780938
 21
164.499959
 31
0.0
  0
ARC
  8
14
  5
1A07F
 10
309.331581
 20
138.565054
 30
0.0
 40
1.0
 50
270.0
 51
359.0
  0
LINE
  8
14
  5
1A080
 10
315.831734
 20
166.465054
 30
0.0
 11
315.831734
 21
170.465054
 31
0.0
  0
LINE
  8
14
  5
1A081
 10
312.780633
 20
166.465054
 30
0.0
 11
315.831734
 21
166.465054
 31
0.0
  0
ARC
  8
14
  5
1A082
 10
312.780633
 20
164.465054
 30
0.0
 40
2.0
 50
90.0
 51
179.0
  0
LINE
  8
11
  5
1A083
 10
57.856289
 20
177.465054
 30
0.0
 11
61.2338
 21
177.465054
 31
0.0
  0
LINE
  8
11
  5
1A084
 10
56.031734
 20
176.965054
 30
0.0
 11
62.531734
 21
176.965054
 31
0.0
  0
LINE
  8
11
  5
1A085
 10
57.795194
 20
134.965054
 30
0.0
 11
195.031734
 21
134.965054
 31
0.0
  0
LINE
  8
11
  5
1A086
 10
48.031734
 20
173.965054
 30
0.0
 11
195.031734
 21
173.965054
 31
0.0
  0
LINE
  8
11
  5
1A087
 10
69.531734
 20
176.965054
 30
0.0
 11
195.031734
 21
176.965054
 31
0.0
  0
LINE
  8
14
  5
1A088
 10
80.731886
 20
137.565054
 30
0.0
 11
195.031734
 21
137.565054
 31
0.0
  0
ARC
  8
14
  5
1A08A
 10
71.731734
 20
170.465054
 30
0.0
 40
2.5
 50
0.0
 51
90.0
  0
LINE
  8
14
  5
1A08B
 10
79.732038
 20
138.547602
 30
0.0
 11
79.282529
 21
164.499959
 31
0.0
  0
ARC
  8
14
  5
1A08C
 10
80.731886
 20
138.565054
 30
0.0
 40
1.0
 50
181.0
 51
270.0
  0
LINE
  8
14
  5
1A08D
 10
74.231734
 20
166.465054
 30
0.0
 11
74.231734
 21
170.465054
 31
0.0
  0
LINE
  8
14
  5
1A08E
 10
77.282834
 20
166.465054
 30
0.0
 11
74.231734
 21
166.465054
 31
0.0
  0
ARC
  8
14
  5
1A08F
 10
77.282834
 20
164.465054
 30
0.0
 40
2.0
 50
1.0
 51
90.0
  0
ARC
  8
11
  5
1A090
 10
59.022632
 20
181.390844
 30
0.0
 40
6.943763
 50
302.115568
 51
325.572066
  0
ARC
  8
11
  5
1A091
 10
66.107033
 20
179.616249
 30
0.0
 40
5.326917
 50
227.842096
 51
255.242457
  0
LINE
  8
11
  5
1A092
 10
62.531734
 20
173.965054
 30
0.0
 11
62.531734
 21
176.965054
 31
0.0
  0
ARC
  8
11
  5
1A093
 10
66.107033
 20
179.616249
 30
0.0
 40
5.326917
 50
203.818134
 51
209.847803
  0
ARC
  8
11
  5
1A094
 10
67.809113
 20
177.114621
 30
0.0
 40
2.74508
 50
285.158626
 51
308.868128
  0
LINE
  8
11
  5
1A095
 10
70.531734
 20
176.965054
 30
0.0
 11
70.531734
 21
177.465054
 31
0.0
  0
LINE
  8
11
  5
1A096
 10
69.531734
 20
173.965054
 30
0.0
 11
69.531734
 21
176.965054
 31
0.0
  0
LINE
  8
14
  5
1A097
 10
70.531734
 20
172.965054
 30
0.0
 11
70.531734
 21
176.965054
 31
0.0
  0
LINE
  8
14
  5
1A098
 10
71.731734
 20
172.965054
 30
0.0
 11
70.531734
 21
172.965054
 31
0.0
  0
ARC
  8
11
  5
1A099
 10
65.559113
 20
177.114621
 30
0.0
 40
2.74508
 50
285.158626
 51
7.334321
  0
LINE
  8
11
  5
1A09A
 10
70.531734
 20
177.465054
 30
0.0
 11
64.750111
 21
177.465054
 31
0.0
  0
LINE
  8
11
  5
1A09B
 10
68.526931
 20
174.465054
 30
0.0
 11
64.750111
 21
174.465054
 31
0.0
  0
LINE
  8
11
  5
1A09C
 10
48.531734
 20
134.965054
 30
0.0
 11
48.019343
 21
164.319875
 31
0.0
  0
LINE
  8
11
  5
1A09D
 10
48.531734
 20
134.965054
 30
0.0
 11
58.542452
 21
134.965054
 31
0.0
  0
LINE
  8
11
  5
1A09E
 10
46.031734
 20
173.965054
 30
0.0
 11
46.30131
 21
166.245402
 31
0.0
  0
LINE
  8
11
  5
1A09F
 10
48.019343
 20
164.319875
 30
0.0
 11
47.782453
 21
164.383349
 31
0.0
  0
ARC
  8
11
  5
1A0A0
 10
48.300091
 20
166.315201
 30
0.0
 40
2.0
 50
182.0
 51
255.0
  0
LINE
  8
11
  5
1A0A1
 10
46.031734
 20
173.965054
 30
0.0
 11
48.031734
 21
173.965054
 31
0.0
  0
LINE
  8
11
  5
1A0A2
 10
54.031734
 20
176.965054
 30
0.0
 11
53.926971
 21
173.965054
 31
0.0
  0
LINE
  8
11
  5
1A0A3
 10
57.856289
 20
177.465054
 30
0.0
 11
57.531734
 21
176.965054
 31
0.0
  0
LINE
  8
11
  5
1A0A4
 10
54.031734
 20
176.965054
 30
0.0
 11
56.031734
 21
176.965054
 31
0.0
  0
LINE
  8
31
  5
1A0A5
 10
431.786332
 20
551.730424
 30
0.0
 11
431.786332
 21
254.269576
 31
0.0
  0
LINE
  8
31
  5
1A0A6
 10
433.711859
 20
255.98761
 30
0.0
 11
433.711859
 21
550.01239
 31
0.0
  0
LINE
  8
31
  5
1A0A7
 10
424.06668
 20
550.0
 30
0.0
 11
424.06668
 21
403.0
 31
0.0
  0
LINE
  8
31
  5
1A0A8
 10
421.06668
 20
528.5
 30
0.0
 11
421.06668
 21
403.0
 31
0.0
  0
LINE
  8
31
  5
1A0A9
 10
463.06668
 20
540.23654
 30
0.0
 11
463.06668
 21
403.0
 31
0.0
  0
LINE
  8
34
  5
1A0AA
 10
460.46668
 20
517.299848
 30
0.0
 11
460.46668
 21
403.0
 31
0.0
  0
LINE
  8
31
  5
1A0AB
 10
463.06668
 20
549.5
 30
0.0
 11
433.711859
 21
550.01239
 31
0.0
  0
LINE
  8
31
  5
1A0AC
 10
463.06668
 20
549.5
 30
0.0
 11
463.06668
 21
539.489282
 31
0.0
  0
ARC
  8
34
  5
1A0AD
 10
427.56668
 20
526.3
 30
0.0
 40
2.5
 50
180.0
 51
270.0
  0
LINE
  8
31
  5
1A0AE
 10
424.06668
 20
552.0
 30
0.0
 11
431.786332
 21
551.730424
 31
0.0
  0
ARC
  8
31
  5
1A0AF
 10
431.716533
 20
549.731642
 30
0.0
 40
2.0
 50
15.0
 51
88.0
  0
LINE
  8
31
  5
1A0B0
 10
433.711859
 20
550.01239
 30
0.0
 11
433.648384
 21
550.24928
 31
0.0
  0
LINE
  8
31
  5
1A0B1
 10
424.06668
 20
552.0
 30
0.0
 11
424.06668
 21
550.0
 31
0.0
  0
LINE
  8
31
  5
1A0B2
 10
421.06668
 20
542.0
 30
0.0
 11
421.06668
 21
535.5
 31
0.0
  0
LINE
  8
31
  5
1A0B3
 10
420.56668
 20
540.175445
 30
0.0
 11
420.56668
 21
536.797934
 31
0.0
  0
LINE
  8
31
  5
1A0B4
 10
421.06668
 20
544.0
 30
0.0
 11
421.06668
 21
542.0
 31
0.0
  0
LINE
  8
31
  5
1A0B5
 10
420.56668
 20
540.175445
 30
0.0
 11
421.06668
 21
540.5
 31
0.0
  0
LINE
  8
31
  5
1A0B6
 10
421.06668
 20
544.0
 30
0.0
 11
424.06668
 21
544.104762
 31
0.0
  0
LINE
  8
31
  5
1A0B7
 10
423.56668
 20
529.504803
 30
0.0
 11
423.56668
 21
533.281622
 31
0.0
  0
LINE
  8
31
  5
1A0B8
 10
420.56668
 20
527.5
 30
0.0
 11
420.56668
 21
533.281622
 31
0.0
  0
ARC
  8
31
  5
1A0B9
 10
420.917113
 20
532.47262
 30
0.0
 40
2.74508
 50
262.665679
 51
344.841374
  0
LINE
  8
31
  5
1A0BA
 10
424.06668
 20
528.5
 30
0.0
 11
421.06668
 21
528.5
 31
0.0
  0
LINE
  8
31
  5
1A0BB
 10
421.06668
 20
527.5
 30
0.0
 11
420.56668
 21
527.5
 31
0.0
  0
ARC
  8
31
  5
1A0BC
 10
420.917113
 20
530.22262
 30
0.0
 40
2.74508
 50
321.131872
 51
344.841374
  0
ARC
  8
31
  5
1A0BD
 10
418.415485
 20
531.924701
 30
0.0
 40
5.326917
 50
60.152197
 51
66.181866
  0
LINE
  8
31
  5
1A0BE
 10
424.06668
 20
535.5
 30
0.0
 11
421.06668
 21
535.5
 31
0.0
  0
ARC
  8
31
  5
1A0BF
 10
418.415485
 20
531.924701
 30
0.0
 40
5.326917
 50
14.757543
 51
42.157904
  0
ARC
  8
31
  5
1A0C0
 10
416.64089
 20
539.009101
 30
0.0
 40
6.943763
 50
304.427934
 51
327.884432
  0
LINE
  8
34
  5
1A0C1
 10
425.06668
 20
526.3
 30
0.0
 11
425.06668
 21
527.5
 31
0.0
  0
LINE
  8
34
  5
1A0C2
 10
425.06668
 20
527.5
 30
0.0
 11
421.06668
 21
527.5
 31
0.0
  0
LINE
  8
34
  5
1A0C3
 10
459.484132
 20
518.299695
 30
0.0
 11
433.531775
 21
518.749204
 31
0.0
  0
ARC
  8
34
  5
1A0C4
 10
459.46668
 20
517.299848
 30
0.0
 40
1.0
 50
0.0
 51
89.0
  0
LINE
  8
34
  5
1A0C5
 10
431.56668
 20
523.8
 30
0.0
 11
427.56668
 21
523.8
 31
0.0
  0
LINE
  8
34
  5
1A0C6
 10
431.56668
 20
520.7489
 30
0.0
 11
431.56668
 21
523.8
 31
0.0
  0
ARC
  8
34
  5
1A0C7
 10
433.56668
 20
520.7489
 30
0.0
 40
2.0
 50
180.0
 51
269.0
  0
LINE
  8
31
  5
1A0C8
 10
420.56668
 20
265.824555
 30
0.0
 11
420.56668
 21
269.202066
 31
0.0
  0
LINE
  8
31
  5
1A0C9
 10
421.06668
 20
264.0
 30
0.0
 11
421.06668
 21
270.5
 31
0.0
  0
LINE
  8
31
  5
1A0CA
 10
463.06668
 20
265.76346
 30
0.0
 11
463.06668
 21
403.0
 31
0.0
  0
LINE
  8
31
  5
1A0CB
 10
424.06668
 20
256.0
 30
0.0
 11
424.06668
 21
403.0
 31
0.0
  0
LINE
  8
31
  5
1A0CC
 10
421.06668
 20
277.5
 30
0.0
 11
421.06668
 21
403.0
 31
0.0
  0
LINE
  8
34
  5
1A0CD
 10
460.46668
 20
288.700152
 30
0.0
 11
460.46668
 21
403.0
 31
0.0
  0
ARC
  8
34
  5
1A0CF
 10
427.56668
 20
279.7
 30
0.0
 40
2.5
 50
90.0
 51
180.0
  0
LINE
  8
34
  5
1A0D0
 10
459.484132
 20
287.700305
 30
0.0
 11
433.531775
 21
287.250796
 31
0.0
  0
ARC
  8
34
  5
1A0D1
 10
459.46668
 20
288.700152
 30
0.0
 40
1.0
 50
271.0
 51
0.0
  0
LINE
  8
34
  5
1A0D2
 10
431.56668
 20
282.2
 30
0.0
 11
427.56668
 21
282.2
 31
0.0
  0
LINE
  8
34
  5
1A0D3
 10
431.56668
 20
285.2511
 30
0.0
 11
431.56668
 21
282.2
 31
0.0
  0
ARC
  8
34
  5
1A0D4
 10
433.56668
 20
285.2511
 30
0.0
 40
2.0
 50
91.0
 51
180.0
  0
ARC
  8
31
  5
1A0D5
 10
416.64089
 20
266.990899
 30
0.0
 40
6.943763
 50
32.115568
 51
55.572066
  0
ARC
  8
31
  5
1A0D6
 10
418.415485
 20
274.075299
 30
0.0
 40
5.326917
 50
317.842096
 51
345.242457
  0
LINE
  8
31
  5
1A0D7
 10
424.06668
 20
270.5
 30
0.0
 11
421.06668
 21
270.5
 31
0.0
  0
ARC
  8
31
  5
1A0D8
 10
418.415485
 20
274.075299
 30
0.0
 40
5.326917
 50
293.818134
 51
299.847803
  0
ARC
  8
31
  5
1A0D9
 10
420.917113
 20
275.77738
 30
0.0
 40
2.74508
 50
15.158626
 51
38.868128
  0
LINE
  8
31
  5
1A0DA
 10
421.06668
 20
278.5
 30
0.0
 11
420.56668
 21
278.5
 31
0.0
  0
LINE
  8
31
  5
1A0DB
 10
424.06668
 20
277.5
 30
0.0
 11
421.06668
 21
277.5
 31
0.0
  0
LINE
  8
34
  5
1A0DC
 10
425.06668
 20
278.5
 30
0.0
 11
421.06668
 21
278.5
 31
0.0
  0
LINE
  8
34
  5
1A0DD
 10
425.06668
 20
279.7
 30
0.0
 11
425.06668
 21
278.5
 31
0.0
  0
ARC
  8
31
  5
1A0DE
 10
420.917113
 20
273.52738
 30
0.0
 40
2.74508
 50
15.158626
 51
97.334321
  0
LINE
  8
31
  5
1A0DF
 10
420.56668
 20
278.5
 30
0.0
 11
420.56668
 21
272.718378
 31
0.0
  0
LINE
  8
31
  5
1A0E0
 10
423.56668
 20
276.495197
 30
0.0
 11
423.56668
 21
272.718378
 31
0.0
  0
LINE
  8
31
  5
1A0E1
 10
463.06668
 20
256.5
 30
0.0
 11
433.711859
 21
255.98761
 31
0.0
  0
LINE
  8
31
  5
1A0E2
 10
463.06668
 20
256.5
 30
0.0
 11
463.06668
 21
266.510718
 31
0.0
  0
LINE
  8
31
  5
1A0E3
 10
424.06668
 20
254.0
 30
0.0
 11
431.786332
 21
254.269576
 31
0.0
  0
LINE
  8
31
  5
1A0E4
 10
433.711859
 20
255.98761
 30
0.0
 11
433.648384
 21
255.75072
 31
0.0
  0
ARC
  8
31
  5
1A0E5
 10
431.716533
 20
256.268358
 30
0.0
 40
2.0
 50
272.0
 51
345.0
  0
LINE
  8
31
  5
1A0E6
 10
424.06668
 20
254.0
 30
0.0
 11
424.06668
 21
256.0
 31
0.0
  0
LINE
  8
31
  5
1A0E7
 10
421.06668
 20
262.0
 30
0.0
 11
424.06668
 21
261.895238
 31
0.0
  0
LINE
  8
31
  5
1A0E8
 10
420.56668
 20
265.824555
 30
0.0
 11
421.06668
 21
265.5
 31
0.0
  0
LINE
  8
31
  5
1A0E9
 10
421.06668
 20
262.0
 30
0.0
 11
421.06668
 21
264.0
 31
0.0
  0
LINE
  8
21
  5
1A0EA
 10
46.30131
 20
639.754598
 30
0.0
 11
343.762157
 21
639.754598
 31
0.0
  0
LINE
  8
21
  5
1A0EB
 10
342.044124
 20
641.680125
 30
0.0
 11
48.019343
 21
641.680125
 31
0.0
  0
LINE
  8
21
  5
1A0EC
 10
48.031734
 20
632.034946
 30
0.0
 11
195.031734
 21
632.034946
 31
0.0
  0
LINE
  8
21
  5
1A0ED
 10
69.531734
 20
629.034946
 30
0.0
 11
195.031734
 21
629.034946
 31
0.0
  0
LINE
  8
21
  5
1A0EE
 10
57.795194
 20
671.034946
 30
0.0
 11
195.031734
 21
671.034946
 31
0.0
  0
LINE
  8
24
  5
1A0EF
 10
80.731886
 20
668.434946
 30
0.0
 11
195.031734
 21
668.434946
 31
0.0
  0
LINE
  8
21
  5
1A0F0
 10
48.531734
 20
671.034946
 30
0.0
 11
48.019343
 21
641.680125
 31
0.0
  0
LINE
  8
21
  5
1A0F1
 10
48.531734
 20
671.034946
 30
0.0
 11
58.542452
 21
671.034946
 31
0.0
  0
ARC
  8
24
  5
1A0F2
 10
71.731734
 20
635.534946
 30
0.0
 40
2.5
 50
270.0
 51
0.0
  0
LINE
  8
21
  5
1A0F3
 10
46.031734
 20
632.034946
 30
0.0
 11
46.30131
 21
639.754598
 31
0.0
  0
ARC
  8
21
  5
1A0F4
 10
48.300091
 20
639.684799
 30
0.0
 40
2.0
 50
105.0
 51
178.0
  0
LINE
  8
21
  5
1A0F5
 10
48.019343
 20
641.680125
 30
0.0
 11
47.782453
 21
641.616651
 31
0.0
  0
LINE
  8
21
  5
1A0F6
 10
46.031734
 20
632.034946
 30
0.0
 11
48.031734
 21
632.034946
 31
0.0
  0
LINE
  8
21
  5
1A0F7
 10
56.031734
 20
629.034946
 30
0.0
 11
62.531734
 21
629.034946
 31
0.0
  0
LINE
  8
21
  5
1A0F8
 10
57.856289
 20
628.534946
 30
0.0
 11
61.2338
 21
628.534946
 31
0.0
  0
LINE
  8
21
  5
1A0F9
 10
54.031734
 20
629.034946
 30
0.0
 11
56.031734
 21
629.034946
 31
0.0
  0
LINE
  8
21
  5
1A0FA
 10
57.856289
 20
628.534946
 30
0.0
 11
57.531734
 21
629.034946
 31
0.0
  0
LINE
  8
21
  5
1A0FB
 10
54.031734
 20
629.034946
 30
0.0
 11
53.926971
 21
632.034946
 31
0.0
  0
LINE
  8
21
  5
1A0FC
 10
68.526931
 20
631.534946
 30
0.0
 11
64.750111
 21
631.534946
 31
0.0
  0
LINE
  8
21
  5
1A0FD
 10
70.531734
 20
628.534946
 30
0.0
 11
64.750111
 21
628.534946
 31
0.0
  0
ARC
  8
21
  5
1A0FE
 10
65.559113
 20
628.885379
 30
0.0
 40
2.74508
 50
352.665679
 51
74.841374
  0
LINE
  8
21
  5
1A0FF
 10
69.531734
 20
632.034946
 30
0.0
 11
69.531734
 21
629.034946
 31
0.0
  0
LINE
  8
21
  5
1A100
 10
70.531734
 20
629.034946
 30
0.0
 11
70.531734
 21
628.534946
 31
0.0
  0
ARC
  8
21
  5
1A101
 10
67.809113
 20
628.885379
 30
0.0
 40
2.74508
 50
51.131872
 51
74.841374
  0
ARC
  8
21
  5
1A102
 10
66.107033
 20
626.383751
 30
0.0
 40
5.326917
 50
150.152197
 51
156.181866
  0
LINE
  8
21
  5
1A103
 10
62.531734
 20
632.034946
 30
0.0
 11
62.531734
 21
629.034946
 31
0.0
  0
ARC
  8
21
  5
1A104
 10
66.107033
 20
626.383751
 30
0.0
 40
5.326917
 50
104.757543
 51
132.157904
  0
ARC
  8
21
  5
1A105
 10
59.022632
 20
624.609156
 30
0.0
 40
6.943763
 50
34.427934
 51
57.884432
  0
LINE
  8
24
  5
1A106
 10
71.731734
 20
633.034946
 30
0.0
 11
70.531734
 21
633.034946
 31
0.0
  0
LINE
  8
24
  5
1A107
 10
70.531734
 20
633.034946
 30
0.0
 11
70.531734
 21
629.034946
 31
0.0
  0
LINE
  8
24
  5
1A108
 10
79.732038
 20
667.452398
 30
0.0
 11
79.282529
 21
641.500041
 31
0.0
  0
ARC
  8
24
  5
1A109
 10
80.731886
 20
667.434946
 30
0.0
 40
1.0
 50
90.0
 51
179.0
  0
LINE
  8
24
  5
1A10A
 10
74.231734
 20
639.534946
 30
0.0
 11
74.231734
 21
635.534946
 31
0.0
  0
LINE
  8
24
  5
1A10B
 10
77.282834
 20
639.534946
 30
0.0
 11
74.231734
 21
639.534946
 31
0.0
  0
ARC
  8
24
  5
1A10C
 10
77.282834
 20
641.534946
 30
0.0
 40
2.0
 50
270.0
 51
359.0
  0
LINE
  8
21
  5
1A10D
 10
332.207179
 20
628.534946
 30
0.0
 11
328.829668
 21
628.534946
 31
0.0
  0
LINE
  8
21
  5
1A10E
 10
334.031734
 20
629.034946
 30
0.0
 11
327.531734
 21
629.034946
 31
0.0
  0
LINE
  8
21
  5
1A10F
 10
332.268274
 20
671.034946
 30
0.0
 11
195.031734
 21
671.034946
 31
0.0
  0
LINE
  8
21
  5
1A110
 10
342.031734
 20
632.034946
 30
0.0
 11
195.031734
 21
632.034946
 31
0.0
  0
LINE
  8
21
  5
1A111
 10
320.531734
 20
629.034946
 30
0.0
 11
195.031734
 21
629.034946
 31
0.0
  0
LINE
  8
24
  5
1A112
 10
309.331581
 20
668.434946
 30
0.0
 11
195.031734
 21
668.434946
 31
0.0
  0
ARC
  8
24
  5
1A114
 10
318.331734
 20
635.534946
 30
0.0
 40
2.5
 50
180.0
 51
270.0
  0
LINE
  8
24
  5
1A115
 10
310.331429
 20
667.452398
 30
0.0
 11
310.780938
 21
641.500041
 31
0.0
  0
ARC
  8
24
  5
1A116
 10
309.331581
 20
667.434946
 30
0.0
 40
1.0
 50
1.0
 51
90.0
  0
LINE
  8
24
  5
1A117
 10
315.831734
 20
639.534946
 30
0.0
 11
315.831734
 21
635.534946
 31
0.0
  0
LINE
  8
24
  5
1A118
 10
312.780633
 20
639.534946
 30
0.0
 11
315.831734
 21
639.534946
 31
0.0
  0
ARC
  8
24
  5
1A119
 10
312.780633
 20
641.534946
 30
0.0
 40
2.0
 50
181.0
 51
270.0
  0
ARC
  8
21
  5
1A11A
 10
331.040835
 20
624.609156
 30
0.0
 40
6.943763
 50
122.115568
 51
145.572066
  0
ARC
  8
21
  5
1A11B
 10
323.956434
 20
626.383751
 30
0.0
 40
5.326917
 50
47.842096
 51
75.242457
  0
LINE
  8
21
  5
1A11C
 10
327.531734
 20
632.034946
 30
0.0
 11
327.531734
 21
629.034946
 31
0.0
  0
ARC
  8
21
  5
1A11D
 10
323.956434
 20
626.383751
 30
0.0
 40
5.326917
 50
23.818134
 51
29.847803
  0
ARC
  8
21
  5
1A11E
 10
322.254354
 20
628.885379
 30
0.0
 40
2.74508
 50
105.158626
 51
128.868128
  0
LINE
  8
21
  5
1A11F
 10
319.531734
 20
629.034946
 30
0.0
 11
319.531734
 21
628.534946
 31
0.0
  0
LINE
  8
21
  5
1A120
 10
320.531734
 20
632.034946
 30
0.0
 11
320.531734
 21
629.034946
 31
0.0
  0
LINE
  8
24
  5
1A121
 10
319.531734
 20
633.034946
 30
0.0
 11
319.531734
 21
629.034946
 31
0.0
  0
LINE
  8
24
  5
1A122
 10
318.331734
 20
633.034946
 30
0.0
 11
319.531734
 21
633.034946
 31
0.0
  0
ARC
  8
21
  5
1A123
 10
324.504354
 20
628.885379
 30
0.0
 40
2.74508
 50
105.158626
 51
187.334321
  0
LINE
  8
21
  5
1A124
 10
319.531734
 20
628.534946
 30
0.0
 11
325.313356
 21
628.534946
 31
0.0
  0
LINE
  8
21
  5
1A125
 10
321.536537
 20
631.534946
 30
0.0
 11
325.313356
 21
631.534946
 31
0.0
  0
LINE
  8
21
  5
1A126
 10
341.531734
 20
671.034946
 30
0.0
 11
342.044124
 21
641.680125
 31
0.0
  0
LINE
  8
21
  5
1A127
 10
341.531734
 20
671.034946
 30
0.0
 11
331.521015
 21
671.034946
 31
0.0
  0
LINE
  8
21
  5
1A128
 10
344.031734
 20
632.034946
 30
0.0
 11
343.762157
 21
639.754598
 31
0.0
  0
LINE
  8
21
  5
1A129
 10
342.044124
 20
641.680125
 30
0.0
 11
342.281014
 21
641.616651
 31
0.0
  0
ARC
  8
21
  5
1A12A
 10
341.763376
 20
639.684799
 30
0.0
 40
2.0
 50
2.0
 51
75.0
  0
LINE
  8
21
  5
1A12B
 10
344.031734
 20
632.034946
 30
0.0
 11
342.031734
 21
632.034946
 31
0.0
  0
LINE
  8
21
  5
1A12C
 10
336.031734
 20
629.034946
 30
0.0
 11
336.136496
 21
632.034946
 31
0.0
  0
LINE
  8
21
  5
1A12D
 10
332.207179
 20
628.534946
 30
0.0
 11
332.531734
 21
629.034946
 31
0.0
  0
LINE
  8
21
  5
1A12E
 10
336.031734
 20
629.034946
 30
0.0
 11
334.031734
 21
629.034946
 31
0.0
  0
LINE
  8
63
  6
DASHDOT
  5
1A136
 10
32.598729
 20
403.0
 30
0.0
 11
356.29061
 21
403.0
 31
0.0
  0
LINE
  8
13
  6
DASHDOT
  5
1A137
 10
195.031734
 20
190.133587
 30
0.0
 11
195.031734
 21
121.705047
 31
0.0
  0
LINE
  8
33
  6
DASHDOT
  5
1A138
 10
413.010034
 20
403.0
 30
0.0
 11
476.574905
 21
403.0
 31
0.0
  0
LINE
  8
63
  6
DASHDOT
  5
1A139
 10
195.031734
 20
565.51301
 30
0.0
 11
195.031734
 21
240.966218
 31
0.0
  0
ENDBLK
  8
0
  5
1A13B
  0
ENDSEC
  0
SECTION
  2
ENTITIES
  0
VIEWPORT
  8
0
  5
1
 67
     1
 68
     1
 10
210.0
 20
152.094241
 30
0.0
 40
420.0
 41
304.188482
 69
     1
1001
ACAD
1000
MVIEW
1002
{
1070
    16
1010
0.0
1020
0.0
1030
0.0
1010
0.0
1020
0.0
1030
1.0
1040
0.0
1040
304.188482
1040
210.0
1040
152.094241
1040
50.0
1040
0.0
1040
0.0
1070
     0
1070
   100
1070
     1
1070
     1
1070
     1
1070
     0
1070
     0
1070
     0
1040
0.0
1040
0.0
1040
0.0
1040
1.0
1040
1.0
1040
0.0
1040
0.0
1070
     0
1002
{
1002
}
1002
}
  0
INSERT
  8
L1
  5
1A13C
  2
EKI3304C
 10
0.0
 20
0.0
 30
0.0
  0
ENDSEC
  0
EOF
