  0
SECTION
  2
HEADER
  9
$ACADVER
  1
AC1009
  9
$INSBASE
 10
0.0
 20
0.0
 30
0.0
  9
$EXTMIN
 10
-466.151358
 20
-38.0
 30
0.0
  9
$EXTMAX
 10
570.0
 20
536.0
 30
0.0
  9
$LIMMIN
 10
0.0
 20
0.0
  9
$LIMMAX
 10
420.0
 20
297.0
  9
$ORTHOMODE
 70
     0
  9
$REGENMODE
 70
     1
  9
$FILLMODE
 70
     1
  9
$QTEXTMODE
 70
     0
  9
$MIRRTEXT
 70
     1
  9
$DRAGMODE
 70
     2
  9
$LTSCALE
 40
7.0
  9
$OSMODE
 70
     0
  9
$ATTMODE
 70
     1
  9
$TEXTSIZE
 40
3.5
  9
$TRACEWID
 40
0.05
  9
$TEXTSTYLE
  7
STANDARD
  9
$CLAYER
  8
L1
  9
$CELTYPE
  6
BYLAYER
  9
$CECOLOR
 62
   256
  9
$DIMSCALE
 40
1.0
  9
$DIMASZ
 40
3.5
  9
$DIMEXO
 40
0.0
  9
$DIMDLI
 40
10.0
  9
$DIMRND
 40
0.0
  9
$DIMDLE
 40
0.0
  9
$DIMEXE
 40
2.0
  9
$DIMTP
 40
0.0
  9
$DIMTM
 40
0.0
  9
$DIMTXT
 40
3.5
  9
$DIMCEN
 40
2.5
  9
$DIMTSZ
 40
0.0
  9
$DIMTOL
 70
     0
  9
$DIMLIM
 70
     0
  9
$DIMTIH
 70
     0
  9
$DIMTOH
 70
     0
  9
$DIMSE1
 70
     0
  9
$DIMSE2
 70
     0
  9
$DIMTAD
 70
     1
  9
$DIMZIN
 70
     8
  9
$DIMBLK
  1

  9
$DIMASO
 70
     1
  9
$DIMSHO
 70
     1
  9
$DIMPOST
  1

  9
$DIMAPOST
  1

  9
$DIMALT
 70
     0
  9
$DIMALTD
 70
     2
  9
$DIMALTF
 40
25.4
  9
$DIMLFAC
 40
1.0
  9
$DIMTOFL
 70
     1
  9
$DIMTVP
 40
0.0
  9
$DIMTIX
 70
     0
  9
$DIMSOXD
 70
     0
  9
$DIMSAH
 70
     0
  9
$DIMBLK1
  1

  9
$DIMBLK2
  1

  9
$DIMSTYLE
  2
*UNNAMED
  9
$DIMCLRD
 70
   256
  9
$DIMCLRE
 70
   256
  9
$DIMCLRT
 70
     3
  9
$DIMTFAC
 40
1.0
  9
$DIMGAP
 40
2.0
  9
$LUNITS
 70
     2
  9
$LUPREC
 70
     2
  9
$SKETCHINC
 40
1.0
  9
$FILLETRAD
 40
0.0
  9
$AUNITS
 70
     0
  9
$AUPREC
 70
     2
  9
$MENU
  1
CAESAR
  9
$ELEVATION
 40
0.0
  9
$PELEVATION
 40
0.0
  9
$THICKNESS
 40
0.0
  9
$LIMCHECK
 70
     0
  9
$BLIPMODE
 70
     1
  9
$CHAMFERA
 40
5.0
  9
$CHAMFERB
 40
5.0
  9
$SKPOLY
 70
     0
  9
$TDCREATE
 40
2449682.494060532
  9
$TDUPDATE
 40
2449682.494060532
  9
$TDINDWG
 40
0.0000000000
  9
$TDUSRTIMER
 40
0.0000000000
  9
$USRTIMER
 70
     1
  9
$ANGBASE
 50
0.0
  9
$ANGDIR
 70
     0
  9
$PDMODE
 70
     0
  9
$PDSIZE
 40
0.0
  9
$PLINEWID
 40
0.0
  9
$COORDS
 70
     2
  9
$SPLFRAME
 70
     0
  9
$SPLINETYPE
 70
     6
  9
$SPLINESEGS
 70
     8
  9
$ATTDIA
 70
     0
  9
$ATTREQ
 70
     1
  9
$HANDLING
 70
     1
  9
$HANDSEED
  5
1D831
  9
$SURFTAB1
 70
     6
  9
$SURFTAB2
 70
     6
  9
$SURFTYPE
 70
     6
  9
$SURFU
 70
     6
  9
$SURFV
 70
     6
  9
$UCSNAME
  2

  9
$UCSORG
 10
0.0
 20
0.0
 30
0.0
  9
$UCSXDIR
 10
1.0
 20
0.0
 30
0.0
  9
$UCSYDIR
 10
0.0
 20
1.0
 30
0.0
  9
$PUCSNAME
  2

  9
$PUCSORG
 10
0.0
 20
0.0
 30
0.0
  9
$PUCSXDIR
 10
1.0
 20
0.0
 30
0.0
  9
$PUCSYDIR
 10
0.0
 20
1.0
 30
0.0
  9
$USERI1
 70
     0
  9
$USERI2
 70
     0
  9
$USERI3
 70
     0
  9
$USERI4
 70
     0
  9
$USERI5
 70
     0
  9
$USERR1
 40
1.0
  9
$USERR2
 40
0.0
  9
$USERR3
 40
3.5
  9
$USERR4
 40
0.0
  9
$USERR5
 40
0.0
  9
$WORLDVIEW
 70
     1
  9
$SHADEDGE
 70
     3
  9
$SHADEDIF
 70
    70
  9
$TILEMODE
 70
     1
  9
$MAXACTVP
 70
    16
  9
$PINSBASE
 10
0.0
 20
0.0
 30
0.0
  9
$PLIMCHECK
 70
     0
  9
$PEXTMIN
 10
1.000000E+20
 20
1.000000E+20
 30
1.000000E+20
  9
$PEXTMAX
 10
-1.000000E+20
 20
-1.000000E+20
 30
-1.000000E+20
  9
$PLIMMIN
 10
0.0
 20
0.0
  9
$PLIMMAX
 10
420.0
 20
297.0
  9
$UNITMODE
 70
     0
  9
$VISRETAIN
 70
     0
  9
$PLINEGEN
 70
     0
  9
$PSLTSCALE
 70
     0
  9
$TREEDEPTH
 70
  3020
  9
$DWGCODEPAGE
  3
dos850
  0
ENDSEC
  0
SECTION
  2
TABLES
  0
TABLE
  2
VPORT
 70
     2
  0
VPORT
  2
*ACTIVE
 70
     0
 10
0.0
 20
0.0
 11
1.0
 21
1.0
 12
287.564723
 22
225.231556
 13
0.0
 23
0.0
 14
1.0
 24
1.0
 15
10.0
 25
10.0
 16
0.0
 26
0.0
 36
1.0
 17
0.0
 27
0.0
 37
0.0
 40
456.463112
 41
1.273114
 42
50.0
 43
0.0
 44
0.0
 50
0.0
 51
0.0
 71
     0
 72
  1000
 73
     1
 74
     1
 75
     1
 76
     0
 77
     0
 78
     0
  0
ENDTAB
  0
TABLE
  2
LTYPE
 70
    10
  0
LTYPE
  2
CONTINUOUS
 70
    64
  3
Solid line
 72
    65
 73
     0
 40
0.0
  0
LTYPE
  2
BORDER
 70
     0
  3
__ __ . __ __ . __ __ . __ __ . __ __ . __ __ .
 72
    65
 73
     6
 40
1.75
 49
0.5
 49
-0.25
 49
0.5
 49
-0.25
 49
0.0
 49
-0.25
  0
LTYPE
  2
CENTER
 70
    64
  3
____ _ ____ _ ____ _ ____ _ ____ _ ____ _ ____ 
 72
    65
 73
     4
 40
2.0
 49
1.25
 49
-0.25
 49
0.25
 49
-0.25
  0
LTYPE
  2
DASHDOT
 70
     0
  3
__ . __ . __ . __ . __ . __ . __ . __ . __ . __
 72
    65
 73
     4
 40
1.0
 49
0.5
 49
-0.25
 49
0.0
 49
-0.25
  0
LTYPE
  2
DASHED
 70
    64
  3
__ __ __ __ __ __ __ __ __ __ __ __ __ __ __ __
 72
    65
 73
     2
 40
0.75
 49
0.5
 49
-0.25
  0
LTYPE
  2
DIVIDE
 70
     0
  3
____ . . ____ . . ____ . . ____ . . ____ . . __
 72
    65
 73
     6
 40
1.25
 49
0.5
 49
-0.25
 49
0.0
 49
-0.25
 49
0.0
 49
-0.25
  0
LTYPE
  2
DOT
 70
     0
  3
. . . . . . . . . . . . . . . . . . . . . . . .
 72
    65
 73
     2
 40
0.25
 49
0.0
 49
-0.25
  0
LTYPE
  2
HIDDEN
 70
    64
  3
__ __ __ __ __ __ __ __ __ __ __ __ __ __ __ __
 72
    65
 73
     2
 40
0.375
 49
0.25
 49
-0.125
  0
LTYPE
  2
PHANTOM
 70
    64
  3
______  __  __  ______  __  __  ______  __  __ 
 72
    65
 73
     6
 40
2.5
 49
1.25
 49
-0.25
 49
0.25
 49
-0.25
 49
0.25
 49
-0.25
  0
LTYPE
  2
DOTX2
 70
    64
  3
.  .  .  .  .  .  .  .  .  .  .  .  .  .  .  . 
 72
    65
 73
     2
 40
0.5
 49
0.0
 49
-0.5
  0
ENDTAB
  0
TABLE
  2
LAYER
 70
    93
  0
LAYER
  2
0
 70
    64
 62
     7
  6
CONTINUOUS
  0
LAYER
  2
L1
 70
     0
 62
     3
  6
CONTINUOUS
  0
LAYER
  2
L2
 70
     0
 62
     1
  6
CONTINUOUS
  0
LAYER
  2
L3
 70
     0
 62
     7
  6
DASHED
  0
LAYER
  2
L4
 70
     0
 62
     1
  6
DASHED
  0
LAYER
  2
L5
 70
     0
 62
     6
  6
CENTER
  0
LAYER
  2
L6
 70
     0
 62
     1
  6
CENTER
  0
LAYER
  2
L7
 70
     0
 62
     1
  6
PHANTOM
  0
LAYER
  2
VPORT
 70
     0
 62
     7
  6
CONTINUOUS
  0
LAYER
  2
L8
 70
     0
 62
     1
  6
CONTINUOUS
  0
LAYER
  2
L20
 70
     0
 62
     3
  6
CONTINUOUS
  0
LAYER
  2
L21
 70
     0
 62
     1
  6
CONTINUOUS
  0
LAYER
  2
L22
 70
     0
 62
     1
  6
CONTINUOUS
  0
LAYER
  2
L23
 70
     0
 62
     1
  6
CONTINUOUS
  0
LAYER
  2
L30
 70
     0
 62
     3
  6
CONTINUOUS
  0
LAYER
  2
L31
 70
     0
 62
     1
  6
CONTINUOUS
  0
LAYER
  2
L32
 70
     0
 62
     3
  6
CONTINUOUS
  0
LAYER
  2
L33
 70
     0
 62
     1
  6
CONTINUOUS
  0
LAYER
  2
L34
 70
     0
 62
     3
  6
CONTINUOUS
  0
LAYER
  2
L35
 70
     0
 62
     1
  6
CONTINUOUS
  0
LAYER
  2
L40
 70
     0
 62
     7
  6
CONTINUOUS
  0
LAYER
  2
L41
 70
     0
 62
     1
  6
CONTINUOUS
  0
LAYER
  2
L42
 70
     0
 62
     1
  6
CONTINUOUS
  0
LAYER
  2
L43
 70
     0
 62
     7
  6
CONTINUOUS
  0
LAYER
  2
L44
 70
     0
 62
     1
  6
CONTINUOUS
  0
LAYER
  2
L45
 70
     0
 62
     1
  6
CONTINUOUS
  0
LAYER
  2
L46
 70
     0
 62
     3
  6
CONTINUOUS
  0
LAYER
  2
L50
 70
     0
 62
     7
  6
CONTINUOUS
  0
LAYER
  2
L51
 70
     0
 62
     1
  6
CONTINUOUS
  0
LAYER
  2
L52
 70
     0
 62
     7
  6
CONTINUOUS
  0
LAYER
  2
L53
 70
     0
 62
     1
  6
CONTINUOUS
  0
LAYER
  2
L54
 70
     0
 62
     3
  6
CONTINUOUS
  0
LAYER
  2
L55
 70
     0
 62
     3
  6
CONTINUOUS
  0
LAYER
  2
L56
 70
     0
 62
     3
  6
CONTINUOUS
  0
LAYER
  2
L57
 70
     0
 62
     1
  6
CONTINUOUS
  0
LAYER
  2
L9
 70
     0
 62
     7
  6
HIDDEN
  0
LAYER
  2
L15
 70
     0
 62
     2
  6
CONTINUOUS
  0
LAYER
  2
L16
 70
     0
 62
     5
  6
DOTX2
  0
LAYER
  2
L24
 70
     0
 62
     1
  6
CONTINUOUS
  0
LAYER
  2
A1
 70
     0
 62
     7
  6
CONTINUOUS
  0
LAYER
  2
RA1
 70
     0
 62
     1
  6
CONTINUOUS
  0
LAYER
  2
TITEL
 70
     0
 62
     7
  6
CONTINUOUS
  0
LAYER
  2
DEFPOINTS
 70
     0
 62
     7
  6
CONTINUOUS
  0
LAYER
  2
AME_FRZ
 70
    64
 62
     7
  6
CONTINUOUS
  0
LAYER
  2
CAM-A1
 70
     0
 62
     7
  6
CONTINUOUS
  0
LAYER
  2
CAM-A2
 70
     0
 62
     1
  6
CONTINUOUS
  0
LAYER
  2
CAM-A3
 70
     0
 62
     1
  6
DASHED
  0
LAYER
  2
CAM-B1
 70
     0
 62
     7
  6
CONTINUOUS
  0
LAYER
  2
CAM-B2
 70
     0
 62
     1
  6
CONTINUOUS
  0
LAYER
  2
CAM-B3
 70
     0
 62
     1
  6
DASHED
  0
LAYER
  2
CAM-C1
 70
     0
 62
     7
  6
CONTINUOUS
  0
LAYER
  2
CAM-C2
 70
     0
 62
     1
  6
CONTINUOUS
  0
LAYER
  2
CAM-C3
 70
     0
 62
     1
  6
DASHED
  0
LAYER
  2
CAM-D1
 70
     0
 62
     7
  6
CONTINUOUS
  0
LAYER
  2
CAM-D2
 70
     0
 62
     1
  6
CONTINUOUS
  0
LAYER
  2
CAM-D3
 70
     0
 62
     1
  6
DASHED
  0
LAYER
  2
CAM-E1
 70
     0
 62
     7
  6
CONTINUOUS
  0
LAYER
  2
CAM-E2
 70
     0
 62
     1
  6
CONTINUOUS
  0
LAYER
  2
CAM-E3
 70
     0
 62
     1
  6
DASHED
  0
LAYER
  2
CAM-F1
 70
     0
 62
     7
  6
CONTINUOUS
  0
LAYER
  2
CAM-F2
 70
     0
 62
     1
  6
CONTINUOUS
  0
LAYER
  2
CAM-F3
 70
     0
 62
     1
  6
DASHED
  0
LAYER
  2
1
 70
     0
 62
     7
  6
CONTINUOUS
  0
LAYER
  2
11
 70
    64
 62
     7
  6
CONTINUOUS
  0
LAYER
  2
12
 70
     0
 62
     1
  6
CONTINUOUS
  0
LAYER
  2
13
 70
    64
 62
     1
  6
CENTER
  0
LAYER
  2
14
 70
    64
 62
     1
  6
DASHED
  0
LAYER
  2
15
 70
     0
 62
     2
  6
DASHED
  0
LAYER
  2
21
 70
    64
 62
     7
  6
CONTINUOUS
  0
LAYER
  2
22
 70
     0
 62
     1
  6
CONTINUOUS
  0
LAYER
  2
23
 70
    64
 62
     1
  6
CENTER
  0
LAYER
  2
24
 70
    64
 62
     1
  6
DASHED
  0
LAYER
  2
25
 70
     0
 62
     2
  6
DASHED
  0
LAYER
  2
31
 70
    64
 62
     7
  6
CONTINUOUS
  0
LAYER
  2
32
 70
     0
 62
     1
  6
CONTINUOUS
  0
LAYER
  2
33
 70
    64
 62
     1
  6
CENTER
  0
LAYER
  2
34
 70
    64
 62
     1
  6
DASHED
  0
LAYER
  2
35
 70
     0
 62
     2
  6
DASHED
  0
LAYER
  2
41
 70
    64
 62
     7
  6
CONTINUOUS
  0
LAYER
  2
42
 70
     0
 62
     1
  6
CONTINUOUS
  0
LAYER
  2
43
 70
    64
 62
     1
  6
CENTER
  0
LAYER
  2
44
 70
    64
 62
     1
  6
DASHED
  0
LAYER
  2
45
 70
     0
 62
     2
  6
DASHED
  0
LAYER
  2
51
 70
    64
 62
     7
  6
CONTINUOUS
  0
LAYER
  2
52
 70
     0
 62
     1
  6
CONTINUOUS
  0
LAYER
  2
53
 70
    64
 62
     1
  6
CENTER
  0
LAYER
  2
54
 70
     0
 62
     1
  6
DASHED
  0
LAYER
  2
55
 70
     0
 62
     2
  6
DASHED
  0
LAYER
  2
61
 70
    64
 62
     7
  6
CONTINUOUS
  0
LAYER
  2
62
 70
    64
 62
     1
  6
CONTINUOUS
  0
LAYER
  2
63
 70
    64
 62
     1
  6
CENTER
  0
LAYER
  2
64
 70
     0
 62
     1
  6
DASHED
  0
LAYER
  2
65
 70
     0
 62
     2
  6
DASHED
  0
ENDTAB
  0
TABLE
  2
STYLE
 70
     3
  0
STYLE
  2
STANDARD
 70
     0
 40
0.0
 41
1.0
 50
0.0
 71
     0
 42
3.5
  3
CAEISO
  4

  0
STYLE
  2
SIMPLEX
 70
    64
 40
0.0
 41
1.0
 50
0.0
 71
     0
 42
20.0
  3
SIMPLEX.SHX
  4

  0
STYLE
  2
COMPLEX
 70
    64
 40
5.0
 41
1.0
 50
0.0
 71
     0
 42
5.0
  3
COMPLEX
  4

  0
ENDTAB
  0
TABLE
  2
VIEW
 70
     0
  0
ENDTAB
  0
TABLE
  2
UCS
 70
     0
  0
ENDTAB
  0
TABLE
  2
APPID
 70
     2
  0
APPID
  2
ACAD
 70
    64
  0
APPID
  2
AME_SOL
 70
    64
  0
ENDTAB
  0
TABLE
  2
DIMSTYLE
 70
     6
  0
DIMSTYLE
  2
ACADUS
 70
     0
  3

  4

  5

  6

  7

 40
1.0
 41
0.18
 42
0.0625
 43
0.38
 44
0.18
 45
0.0
 46
0.0
 47
0.0
 48
0.0
140
0.18
141
0.09
142
0.0
143
25.4
144
1.0
145
0.0
146
1.0
147
0.09
 71
     0
 72
     0
 73
     1
 74
     1
 75
     0
 76
     0
 77
     0
 78
     0
170
     0
171
     2
172
     0
173
     0
174
     0
175
     0
176
     0
177
     0
178
     0
  0
DIMSTYLE
  2
NORDIC
 70
     0
  3

  4

  5

  6

  7

 40
1.0
 41
3.5
 42
1.0
 43
10.0
 44
2.0
 45
0.0
 46
0.0
 47
0.0
 48
0.0
140
3.5
141
2.5
142
0.0
143
25.4
144
1.0
145
0.0
146
1.0
147
2.0
 71
     0
 72
     0
 73
     0
 74
     0
 75
     0
 76
     0
 77
     1
 78
     8
170
     0
171
     2
172
     1
173
     0
174
     0
175
     0
176
     0
177
     0
178
     0
  0
DIMSTYLE
  2
RADIAL
 70
     0
  3

  4

  5

  6

  7

 40
1.0
 41
3.5
 42
1.0
 43
10.0
 44
2.0
 45
0.0
 46
0.0
 47
0.0
 48
0.0
140
3.5
141
2.5
142
0.0
143
25.4
144
1.0
145
0.0
146
1.0
147
2.0
 71
     0
 72
     0
 73
     0
 74
     1
 75
     0
 76
     0
 77
     1
 78
     8
170
     0
171
     2
172
     0
173
     0
174
     0
175
     0
176
     0
177
     0
178
     0
  0
DIMSTYLE
  2
NORTOL
 70
     0
  3

  4

  5

  6

  7

 40
1.0
 41
3.5
 42
1.0
 43
10.0
 44
2.0
 45
0.0
 46
0.0
 47
0.2
 48
0.1
140
3.5
141
2.5
142
0.0
143
25.4
144
1.0
145
0.7
146
0.71
147
2.0
 71
     1
 72
     0
 73
     0
 74
     0
 75
     0
 76
     0
 77
     0
 78
     8
170
     0
171
     2
172
     1
173
     0
174
     0
175
     0
176
     0
177
     0
178
     0
  0
DIMSTYLE
  2
RADTOL
 70
     0
  3

  4

  5

  6

  7

 40
1.0
 41
3.5
 42
1.0
 43
10.0
 44
2.0
 45
0.0
 46
0.0
 47
0.2
 48
0.1
140
3.5
141
2.5
142
0.0
143
25.4
144
1.0
145
0.7
146
0.7
147
2.0
 71
     1
 72
     0
 73
     0
 74
     1
 75
     0
 76
     0
 77
     0
 78
     8
170
     0
171
     2
172
     0
173
     0
174
     0
175
     0
176
     0
177
     0
178
     0
  0
DIMSTYLE
  2
HANSU
 70
     0
  3

  4

  5

  6

  7

 40
1.0
 41
3.5
 42
0.0
 43
10.0
 44
2.0
 45
0.0
 46
0.0
 47
0.0
 48
0.0
140
3.5
141
2.5
142
0.0
143
25.4
144
0.8
145
0.0
146
1.0
147
2.0
 71
     0
 72
     0
 73
     0
 74
     0
 75
     0
 76
     0
 77
     1
 78
     8
170
     0
171
     2
172
     1
173
     0
174
     0
175
     0
176
   256
177
   256
178
     3
  0
ENDTAB
  0
ENDSEC
  0
SECTION
  2
BLOCKS
  0
BLOCK
  8
0
  5
2329
  2
AME_NIL
 70
     0
 10
0.0
 20
0.0
 30
0.0
  1
AME_NIL
  3
AME_NIL
  0
ENDBLK
  8
0
  5
232A
  0
BLOCK
  8
0
  5
232C
  2
AME_SOL
 70
     0
 10
0.0
 20
0.0
 30
0.0
  1
AME_SOL
  3
AME_SOL
  0
ENDBLK
  8
0
  5
232D
  0
BLOCK
  8
0
  5
233F
  2
SOLAXES
 70
     0
 10
0.0
 20
0.0
 30
0.0
  1
SOLAXES
  3
SOLAXES
  0
LINE
  8
0
 62
     0
  5
2340
 10
0.0
 20
0.0
 30
0.0
 11
63.851158
 21
0.0
 31
0.0
  0
LINE
  8
0
 62
     0
  5
2341
 10
0.0
 20
0.0
 30
0.0
 11
0.0
 21
63.851158
 31
0.0
  0
LINE
  8
0
 62
     0
  5
2342
 10
0.0
 20
0.0
 30
0.0
 11
0.0
 21
0.0
 31
63.851158
  0
CIRCLE
  8
0
 62
     0
  5
2343
 10
0.0
 20
0.0
 30
57.466042
 40
3.192558
210
1.0
220
0.0
230
0.0
  0
LINE
  8
0
 62
     0
  5
2344
 10
57.466042
 20
3.192558
 30
0.0
 11
63.851158
 21
0.0
 31
0.0
  0
LINE
  8
0
 62
     0
  5
2345
 10
57.466042
 20
0.0
 30
3.192558
 11
63.851158
 21
0.0
 31
0.0
  0
LINE
  8
0
 62
     0
  5
2346
 10
57.466042
 20
-3.192558
 30
0.0
 11
63.851158
 21
0.0
 31
0.0
  0
LINE
  8
0
 62
     0
  5
2347
 10
57.466042
 20
0.0
 30
-3.192558
 11
63.851158
 21
0.0
 31
0.0
  0
CIRCLE
  8
0
 62
     0
  5
2348
 10
0.0
 20
0.0
 30
57.466042
 40
3.192558
210
0.0
220
1.0
230
0.0
  0
LINE
  8
0
 62
     0
  5
2349
 10
3.192558
 20
57.466042
 30
0.0
 11
0.0
 21
63.851158
 31
0.0
  0
LINE
  8
0
 62
     0
  5
234A
 10
0.0
 20
57.466042
 30
3.192558
 11
0.0
 21
63.851158
 31
0.0
  0
LINE
  8
0
 62
     0
  5
234B
 10
-3.192558
 20
57.466042
 30
0.0
 11
0.0
 21
63.851158
 31
0.0
  0
LINE
  8
0
 62
     0
  5
234C
 10
0.0
 20
57.466042
 30
-3.192558
 11
0.0
 21
63.851158
 31
0.0
  0
CIRCLE
  8
0
 62
     0
  5
234D
 10
0.0
 20
0.0
 30
51.080927
 40
3.192558
210
0.0
220
1.0
230
0.0
  0
LINE
  8
0
 62
     0
  5
234E
 10
3.192558
 20
51.080927
 30
0.0
 11
0.0
 21
57.466042
 31
0.0
  0
LINE
  8
0
 62
     0
  5
234F
 10
0.0
 20
51.080927
 30
3.192558
 11
0.0
 21
57.466042
 31
0.0
  0
LINE
  8
0
 62
     0
  5
2350
 10
-3.192558
 20
51.080927
 30
0.0
 11
0.0
 21
57.466042
 31
0.0
  0
LINE
  8
0
 62
     0
  5
2351
 10
0.0
 20
51.080927
 30
-3.192558
 11
0.0
 21
57.466042
 31
0.0
  0
CIRCLE
  8
0
 62
     0
  5
2352
 10
0.0
 20
0.0
 30
57.466042
 40
3.192558
  0
LINE
  8
0
 62
     0
  5
2353
 10
3.192558
 20
0.0
 30
57.466042
 11
0.0
 21
0.0
 31
63.851158
  0
LINE
  8
0
 62
     0
  5
2354
 10
0.0
 20
3.192558
 30
57.466042
 11
0.0
 21
0.0
 31
63.851158
  0
LINE
  8
0
 62
     0
  5
2355
 10
-3.192558
 20
0.0
 30
57.466042
 11
0.0
 21
0.0
 31
63.851158
  0
LINE
  8
0
 62
     0
  5
2356
 10
0.0
 20
-3.192558
 30
57.466042
 11
0.0
 21
0.0
 31
63.851158
  0
CIRCLE
  8
0
 62
     0
  5
2357
 10
0.0
 20
0.0
 30
51.080927
 40
3.192558
  0
LINE
  8
0
 62
     0
  5
2358
 10
3.192558
 20
0.0
 30
51.080927
 11
0.0
 21
0.0
 31
57.466042
  0
LINE
  8
0
 62
     0
  5
2359
 10
0.0
 20
3.192558
 30
51.080927
 11
0.0
 21
0.0
 31
57.466042
  0
LINE
  8
0
 62
     0
  5
235A
 10
-3.192558
 20
0.0
 30
51.080927
 11
0.0
 21
0.0
 31
57.466042
  0
LINE
  8
0
 62
     0
  5
235B
 10
0.0
 20
-3.192558
 30
51.080927
 11
0.0
 21
0.0
 31
57.466042
  0
CIRCLE
  8
0
 62
     0
  5
235C
 10
0.0
 20
0.0
 30
44.695811
 40
3.192558
  0
LINE
  8
0
 62
     0
  5
235D
 10
3.192558
 20
0.0
 30
44.695811
 11
0.0
 21
0.0
 31
51.080927
  0
LINE
  8
0
 62
     0
  5
235E
 10
0.0
 20
3.192558
 30
44.695811
 11
0.0
 21
0.0
 31
51.080927
  0
LINE
  8
0
 62
     0
  5
235F
 10
-3.192558
 20
0.0
 30
44.695811
 11
0.0
 21
0.0
 31
51.080927
  0
LINE
  8
0
 62
     0
  5
2360
 10
0.0
 20
-3.192558
 30
44.695811
 11
0.0
 21
0.0
 31
51.080927
  0
ENDBLK
  8
0
  5
2361
  0
BLOCK
  8
0
  5
2460
  2
AME_MAT
 70
     0
 10
0.0
 20
0.0
 30
0.0
  1
AME_MAT
  3
AME_MAT
  0
ENDBLK
  8
0
  5
2461
  0
BLOCK
  8
0
  5
2465
  2
EKI230B
 70
    64
 10
0.0
 20
0.0
 30
0.0
  3
EKI230B
  0
LINE
  8
61
  5
4B84
 10
105.0
 20
249.0
 30
0.0
 11
105.0
 21
151.5
 31
0.0
  0
LINE
  8
61
  5
4B85
 10
107.5
 20
149.0
 30
0.0
 11
256.0
 21
149.0
 31
0.0
  0
LINE
  8
61
  5
4B86
 10
113.0
 20
249.0
 30
0.0
 11
113.0
 21
172.5
 31
0.0
  0
LINE
  8
62
  5
4B87
 10
115.0
 20
157.0
 30
0.0
 11
124.0
 21
157.0
 31
0.0
  0
LINE
  8
62
  5
4B88
 10
115.0
 20
154.0
 30
0.0
 11
256.0
 21
154.0
 31
0.0
  0
LINE
  8
62
  5
4B89
 10
110.0
 20
249.0
 30
0.0
 11
110.0
 21
159.0
 31
0.0
  0
ARC
  8
61
  5
4B8A
 10
107.5
 20
151.5
 30
0.0
 40
2.5
 50
180.0
 51
270.0
  0
ARC
  8
62
  5
4B8B
 10
115.0
 20
159.0
 30
0.0
 40
5.0
 50
180.0
 51
270.0
  0
ARC
  8
62
  5
4B8C
 10
115.0
 20
159.0
 30
0.0
 40
2.0
 50
180.0
 51
270.0
  0
ARC
  8
62
  5
4B8E
 10
119.0
 20
163.0
 30
0.0
 40
6.0
 50
0.0
 51
90.0
  0
LINE
  8
61
  5
4B8F
 10
119.0
 20
171.5
 30
0.0
 11
114.0
 21
171.5
 31
0.0
  0
LINE
  8
62
  5
4B90
 10
119.0
 20
169.0
 30
0.0
 11
114.0
 21
169.0
 31
0.0
  0
LINE
  8
62
  5
4B91
 10
125.0
 20
163.0
 30
0.0
 11
125.0
 21
158.0
 31
0.0
  0
LINE
  8
61
  5
4B92
 10
127.5
 20
163.0
 30
0.0
 11
127.5
 21
158.0
 31
0.0
  0
ARC
  8
61
  5
4B93
 10
119.0
 20
163.0
 30
0.0
 40
8.5
 50
0.0
 51
90.0
  0
LINE
  8
61
  5
4B94
 10
128.5
 20
157.0
 30
0.0
 11
256.0
 21
157.0
 31
0.0
  0
LINE
  8
62
  5
4B95
 10
113.0
 20
168.0
 30
0.0
 11
113.0
 21
159.0
 31
0.0
  0
LINE
  8
61
  5
4BA4
 10
185.0
 20
249.0
 30
0.0
 11
185.0
 21
243.0
 31
0.0
  0
LINE
  8
61
  5
4BA6
 10
185.0
 20
243.0
 30
0.0
 11
175.0
 21
233.0
 31
0.0
  0
LINE
  8
61
  5
4BAA
 10
175.0
 20
233.0
 30
0.0
 11
175.0
 21
219.0
 31
0.0
  0
LINE
  8
61
  5
4BAE
 10
251.0
 20
219.0
 30
0.0
 11
209.0
 21
219.0
 31
0.0
  0
LINE
  8
61
  5
4BB0
 10
209.0
 20
219.0
 30
0.0
 11
209.0
 21
172.0
 31
0.0
  0
LINE
  8
61
  5
4BB4
 10
201.0
 20
219.0
 30
0.0
 11
201.0
 21
172.0
 31
0.0
  0
LINE
  8
61
  5
4BB5
 10
201.0
 20
219.0
 30
0.0
 11
175.0
 21
219.0
 31
0.0
  0
ARC
  8
61
  5
4BB6
 10
125.0
 20
199.0
 30
0.0
 40
5.0
 50
98.626927
 51
261.373073
  0
CIRCLE
  8
61
  5
4BB7
 10
125.0
 20
199.0
 30
0.0
 40
2.4
  0
CIRCLE
  8
61
  5
4BB8
 10
125.0
 20
199.0
 30
0.0
 40
2.1
  0
LINE
  8
61
  5
4BB9
 10
125.75
 20
203.94343
 30
0.0
 11
125.75
 21
209.0
 31
0.0
  0
LINE
  8
61
  5
4BBA
 10
125.75
 20
209.0
 30
0.0
 11
124.25
 21
209.0
 31
0.0
  0
LINE
  8
61
  5
4BBB
 10
124.25
 20
209.0
 30
0.0
 11
124.25
 21
203.94343
 31
0.0
  0
LINE
  8
61
  5
4BBC
 10
124.25
 20
189.0
 30
0.0
 11
124.25
 21
194.05657
 31
0.0
  0
LINE
  8
61
  5
4BBD
 10
125.75
 20
194.05657
 30
0.0
 11
125.75
 21
189.0
 31
0.0
  0
LINE
  8
61
  5
4BBE
 10
125.75
 20
189.0
 30
0.0
 11
124.25
 21
189.0
 31
0.0
  0
ARC
  8
61
  5
4BBF
 10
125.0
 20
199.0
 30
0.0
 40
5.0
 50
278.626927
 51
81.373073
  0
LINE
  8
61
  5
4BC5
 10
113.0
 20
249.0
 30
0.0
 11
113.0
 21
325.5
 31
0.0
  0
LINE
  8
62
  5
4BC6
 10
110.0
 20
249.0
 30
0.0
 11
110.0
 21
339.0
 31
0.0
  0
LINE
  8
61
  5
4BC7
 10
105.0
 20
249.0
 30
0.0
 11
105.0
 21
346.5
 31
0.0
  0
LINE
  8
61
  5
4BCB
 10
128.5
 20
341.0
 30
0.0
 11
256.0
 21
341.0
 31
0.0
  0
LINE
  8
62
  5
4BCC
 10
115.0
 20
344.0
 30
0.0
 11
256.0
 21
344.0
 31
0.0
  0
LINE
  8
61
  5
4BCD
 10
107.5
 20
349.0
 30
0.0
 11
256.0
 21
349.0
 31
0.0
  0
ARC
  8
61
  5
4BDA
 10
119.0
 20
335.0
 30
0.0
 40
8.5
 50
270.0
 51
0.0
  0
LINE
  8
62
  5
4BDB
 10
125.0
 20
335.0
 30
0.0
 11
125.0
 21
340.0
 31
0.0
  0
LINE
  8
61
  5
4BDC
 10
127.5
 20
335.0
 30
0.0
 11
127.5
 21
340.0
 31
0.0
  0
ARC
  8
62
  5
4BDE
 10
115.0
 20
339.0
 30
0.0
 40
2.0
 50
90.0
 51
180.0
  0
ARC
  8
62
  5
4BDF
 10
115.0
 20
339.0
 30
0.0
 40
5.0
 50
90.0
 51
180.0
  0
ARC
  8
61
  5
4BE0
 10
107.5
 20
346.5
 30
0.0
 40
2.5
 50
90.0
 51
180.0
  0
LINE
  8
62
  5
4BE1
 10
115.0
 20
341.0
 30
0.0
 11
124.0
 21
341.0
 31
0.0
  0
ARC
  8
62
  5
4BE5
 10
119.0
 20
335.0
 30
0.0
 40
6.0
 50
270.0
 51
0.0
  0
LINE
  8
62
  5
4BE7
 10
119.0
 20
329.0
 30
0.0
 11
114.0
 21
329.0
 31
0.0
  0
LINE
  8
62
  5
4BE8
 10
113.0
 20
330.0
 30
0.0
 11
113.0
 21
339.0
 31
0.0
  0
LINE
  8
61
  5
4BEC
 10
119.0
 20
326.5
 30
0.0
 11
114.0
 21
326.5
 31
0.0
  0
LINE
  8
61
  5
4BF0
 10
397.0
 20
249.0
 30
0.0
 11
397.0
 21
172.5
 31
0.0
  0
LINE
  8
62
  5
4BF1
 10
399.8
 20
249.0
 30
0.0
 11
399.8
 21
159.2
 31
0.0
  0
LINE
  8
61
  5
4BF2
 10
405.0
 20
249.0
 30
0.0
 11
405.0
 21
151.5
 31
0.0
  0
LINE
  8
61
  5
4BFF
 10
402.5
 20
349.0
 30
0.0
 11
254.0
 21
349.0
 31
0.0
  0
LINE
  8
62
  5
4C00
 10
394.8
 20
343.8
 30
0.0
 11
255.0
 21
343.8
 31
0.0
  0
LINE
  8
61
  5
4C01
 10
381.5
 20
341.0
 30
0.0
 11
254.0
 21
341.0
 31
0.0
  0
LINE
  8
61
  5
4C05
 10
405.0
 20
249.0
 30
0.0
 11
405.0
 21
346.5
 31
0.0
  0
LINE
  8
62
  5
4C06
 10
399.8
 20
249.0
 30
0.0
 11
399.8
 21
338.8
 31
0.0
  0
LINE
  8
61
  5
4C07
 10
397.0
 20
249.0
 30
0.0
 11
397.0
 21
325.5
 31
0.0
  0
ARC
  8
61
  5
4C08
 10
391.0
 20
335.0
 30
0.0
 40
8.5
 50
180.0
 51
270.0
  0
LINE
  8
62
  5
4C0C
 10
397.0
 20
330.0
 30
0.0
 11
397.0
 21
339.0
 31
0.0
  0
ARC
  8
62
  5
4C0D
 10
391.0
 20
335.0
 30
0.0
 40
6.0
 50
180.0
 51
270.0
  0
LINE
  8
61
  5
4C0F
 10
391.0
 20
326.5
 30
0.0
 11
396.0
 21
326.5
 31
0.0
  0
LINE
  8
62
  5
4C11
 10
391.0
 20
329.0
 30
0.0
 11
396.0
 21
329.0
 31
0.0
  0
LINE
  8
62
  5
4C15
 10
395.0
 20
341.0
 30
0.0
 11
386.0
 21
341.0
 31
0.0
  0
ARC
  8
62
  5
4C16
 10
395.0
 20
339.0
 30
0.0
 40
2.0
 50
0.0
 51
90.0
  0
LINE
  8
61
  5
4C1A
 10
382.5
 20
335.0
 30
0.0
 11
382.5
 21
340.0
 31
0.0
  0
LINE
  8
62
  5
4C1B
 10
385.0
 20
335.0
 30
0.0
 11
385.0
 21
340.0
 31
0.0
  0
ARC
  8
61
  5
4C1C
 10
402.5
 20
346.5
 30
0.0
 40
2.5
 50
0.0
 51
15.0
  0
LINE
  8
61
  5
4C2C
 10
381.5
 20
157.0
 30
0.0
 11
255.0
 21
157.0
 31
0.0
  0
LINE
  8
62
  5
4C2D
 10
394.8
 20
154.2
 30
0.0
 11
255.0
 21
154.2
 31
0.0
  0
LINE
  8
61
  5
4C2E
 10
402.5
 20
149.0
 30
0.0
 11
254.0
 21
149.0
 31
0.0
  0
ARC
  8
61
  5
4C31
 10
391.0
 20
163.0
 30
0.0
 40
8.5
 50
90.0
 51
180.0
  0
LINE
  8
62
  5
4C32
 10
385.0
 20
163.0
 30
0.0
 11
385.0
 21
159.0
 31
0.0
  0
LINE
  8
61
  5
4C33
 10
382.5
 20
163.0
 30
0.0
 11
382.5
 21
159.0
 31
0.0
  0
ARC
  8
62
  5
4C35
 10
395.0
 20
159.0
 30
0.0
 40
2.0
 50
270.0
 51
0.0
  0
ARC
  8
61
  5
4C37
 10
402.5
 20
151.5
 30
0.0
 40
2.5
 50
270.0
 51
0.0
  0
LINE
  8
62
  5
4C38
 10
395.0
 20
157.0
 30
0.0
 11
386.0
 21
157.0
 31
0.0
  0
ARC
  8
62
  5
4C3C
 10
391.0
 20
163.0
 30
0.0
 40
6.0
 50
90.0
 51
180.0
  0
LINE
  8
62
  5
4C3E
 10
391.0
 20
169.0
 30
0.0
 11
395.0
 21
169.0
 31
0.0
  0
LINE
  8
62
  5
4C3F
 10
397.0
 20
168.0
 30
0.0
 11
397.0
 21
159.0
 31
0.0
  0
LINE
  8
61
  5
4C43
 10
391.0
 20
171.5
 30
0.0
 11
395.0
 21
171.5
 31
0.0
  0
ARC
  8
61
  5
4C51
 10
125.0
 20
249.0
 30
0.0
 40
5.0
 50
278.626927
 51
81.373073
  0
LINE
  8
61
  5
4C53
 10
125.75
 20
253.94343
 30
0.0
 11
125.75
 21
259.0
 31
0.0
  0
LINE
  8
61
  5
4C54
 10
124.25
 20
259.0
 30
0.0
 11
124.25
 21
253.94343
 31
0.0
  0
ARC
  8
61
  5
4C55
 10
125.0
 20
249.0
 30
0.0
 40
5.0
 50
98.626927
 51
261.373073
  0
LINE
  8
61
  5
4C56
 10
125.75
 20
239.0
 30
0.0
 11
124.25
 21
239.0
 31
0.0
  0
LINE
  8
61
  5
4C57
 10
125.75
 20
244.05657
 30
0.0
 11
125.75
 21
239.0
 31
0.0
  0
LINE
  8
61
  5
4C58
 10
124.25
 20
239.0
 30
0.0
 11
124.25
 21
244.05657
 31
0.0
  0
CIRCLE
  8
61
  5
4C59
 10
125.0
 20
249.0
 30
0.0
 40
2.1
  0
CIRCLE
  8
61
  5
4C5A
 10
125.0
 20
249.0
 30
0.0
 40
2.4
  0
LINE
  8
61
  5
4C5B
 10
125.75
 20
259.0
 30
0.0
 11
124.25
 21
259.0
 31
0.0
  0
ARC
  8
61
  5
4C69
 10
125.0
 20
299.0
 30
0.0
 40
5.0
 50
278.626927
 51
81.373073
  0
LINE
  8
61
  5
4C6B
 10
125.75
 20
303.94343
 30
0.0
 11
125.75
 21
309.0
 31
0.0
  0
LINE
  8
61
  5
4C6C
 10
124.25
 20
309.0
 30
0.0
 11
124.25
 21
303.94343
 31
0.0
  0
ARC
  8
61
  5
4C6D
 10
125.0
 20
299.0
 30
0.0
 40
5.0
 50
98.626927
 51
261.373073
  0
LINE
  8
61
  5
4C6E
 10
125.75
 20
289.0
 30
0.0
 11
124.25
 21
289.0
 31
0.0
  0
LINE
  8
61
  5
4C6F
 10
125.75
 20
294.05657
 30
0.0
 11
125.75
 21
289.0
 31
0.0
  0
LINE
  8
61
  5
4C70
 10
124.25
 20
289.0
 30
0.0
 11
124.25
 21
294.05657
 31
0.0
  0
CIRCLE
  8
61
  5
4C71
 10
125.0
 20
299.0
 30
0.0
 40
2.1
  0
CIRCLE
  8
61
  5
4C72
 10
125.0
 20
299.0
 30
0.0
 40
2.4
  0
LINE
  8
61
  5
4C73
 10
125.75
 20
309.0
 30
0.0
 11
124.25
 21
309.0
 31
0.0
  0
ARC
  8
61
  5
4C75
 10
385.0
 20
199.0
 30
0.0
 40
5.0
 50
278.626927
 51
81.373073
  0
LINE
  8
61
  5
4C77
 10
385.75
 20
203.94343
 30
0.0
 11
385.75
 21
209.0
 31
0.0
  0
LINE
  8
61
  5
4C78
 10
384.25
 20
209.0
 30
0.0
 11
384.25
 21
203.94343
 31
0.0
  0
ARC
  8
61
  5
4C79
 10
385.0
 20
199.0
 30
0.0
 40
5.0
 50
98.626927
 51
261.373073
  0
LINE
  8
61
  5
4C7A
 10
385.75
 20
189.0
 30
0.0
 11
384.25
 21
189.0
 31
0.0
  0
LINE
  8
61
  5
4C7B
 10
385.75
 20
194.05657
 30
0.0
 11
385.75
 21
189.0
 31
0.0
  0
LINE
  8
61
  5
4C7C
 10
384.25
 20
189.0
 30
0.0
 11
384.25
 21
194.05657
 31
0.0
  0
CIRCLE
  8
61
  5
4C7D
 10
385.0
 20
199.0
 30
0.0
 40
2.1
  0
CIRCLE
  8
61
  5
4C7E
 10
385.0
 20
199.0
 30
0.0
 40
2.4
  0
LINE
  8
61
  5
4C7F
 10
385.75
 20
209.0
 30
0.0
 11
384.25
 21
209.0
 31
0.0
  0
ARC
  8
61
  5
4C8D
 10
385.0
 20
249.0
 30
0.0
 40
5.0
 50
278.626927
 51
81.373073
  0
LINE
  8
61
  5
4C8F
 10
385.75
 20
253.94343
 30
0.0
 11
385.75
 21
259.0
 31
0.0
  0
LINE
  8
61
  5
4C90
 10
384.25
 20
259.0
 30
0.0
 11
384.25
 21
253.94343
 31
0.0
  0
ARC
  8
61
  5
4C91
 10
385.0
 20
249.0
 30
0.0
 40
5.0
 50
98.626927
 51
261.373073
  0
LINE
  8
61
  5
4C92
 10
385.75
 20
239.0
 30
0.0
 11
384.25
 21
239.0
 31
0.0
  0
LINE
  8
61
  5
4C93
 10
385.75
 20
244.05657
 30
0.0
 11
385.75
 21
239.0
 31
0.0
  0
LINE
  8
61
  5
4C94
 10
384.25
 20
239.0
 30
0.0
 11
384.25
 21
244.05657
 31
0.0
  0
CIRCLE
  8
61
  5
4C95
 10
385.0
 20
249.0
 30
0.0
 40
2.1
  0
CIRCLE
  8
61
  5
4C96
 10
385.0
 20
249.0
 30
0.0
 40
2.4
  0
LINE
  8
61
  5
4C97
 10
385.75
 20
259.0
 30
0.0
 11
384.25
 21
259.0
 31
0.0
  0
ARC
  8
61
  5
4CA5
 10
385.0
 20
299.0
 30
0.0
 40
5.0
 50
278.626927
 51
81.373073
  0
LINE
  8
61
  5
4CA7
 10
385.75
 20
303.94343
 30
0.0
 11
385.75
 21
309.0
 31
0.0
  0
LINE
  8
61
  5
4CA8
 10
384.25
 20
309.0
 30
0.0
 11
384.25
 21
303.94343
 31
0.0
  0
ARC
  8
61
  5
4CA9
 10
385.0
 20
299.0
 30
0.0
 40
5.0
 50
98.626927
 51
261.373073
  0
LINE
  8
61
  5
4CAA
 10
385.75
 20
289.0
 30
0.0
 11
384.25
 21
289.0
 31
0.0
  0
LINE
  8
61
  5
4CAB
 10
385.75
 20
294.05657
 30
0.0
 11
385.75
 21
289.0
 31
0.0
  0
LINE
  8
61
  5
4CAC
 10
384.25
 20
289.0
 30
0.0
 11
384.25
 21
294.05657
 31
0.0
  0
CIRCLE
  8
61
  5
4CAD
 10
385.0
 20
299.0
 30
0.0
 40
2.1
  0
CIRCLE
  8
61
  5
4CAE
 10
385.0
 20
299.0
 30
0.0
 40
2.4
  0
LINE
  8
61
  5
4CAF
 10
385.75
 20
309.0
 30
0.0
 11
384.25
 21
309.0
 31
0.0
  0
ARC
  8
61
  5
4CB1
 10
155.0
 20
169.0
 30
0.0
 40
5.0
 50
188.626927
 51
351.373073
  0
LINE
  8
61
  5
4CB3
 10
159.94343
 20
168.25
 30
0.0
 11
165.0
 21
168.25
 31
0.0
  0
LINE
  8
61
  5
4CB4
 10
165.0
 20
169.75
 30
0.0
 11
159.94343
 21
169.75
 31
0.0
  0
ARC
  8
61
  5
4CB5
 10
155.0
 20
169.0
 30
0.0
 40
5.0
 50
8.626927
 51
171.373073
  0
LINE
  8
61
  5
4CB6
 10
145.0
 20
168.25
 30
0.0
 11
145.0
 21
169.75
 31
0.0
  0
LINE
  8
61
  5
4CB7
 10
150.05657
 20
168.25
 30
0.0
 11
145.0
 21
168.25
 31
0.0
  0
LINE
  8
61
  5
4CB8
 10
145.0
 20
169.75
 30
0.0
 11
150.05657
 21
169.75
 31
0.0
  0
CIRCLE
  8
61
  5
4CB9
 10
155.0
 20
169.0
 30
0.0
 40
2.1
  0
CIRCLE
  8
61
  5
4CBA
 10
155.0
 20
169.0
 30
0.0
 40
2.4
  0
LINE
  8
61
  5
4CBB
 10
165.0
 20
168.25
 30
0.0
 11
165.0
 21
169.75
 31
0.0
  0
LINE
  8
61
  5
4CBC
 10
159.94343
 20
328.25
 30
0.0
 11
165.0
 21
328.25
 31
0.0
  0
LINE
  8
61
  5
4CBD
 10
165.0
 20
329.75
 30
0.0
 11
159.94343
 21
329.75
 31
0.0
  0
ARC
  8
61
  5
4CBF
 10
155.0
 20
329.0
 30
0.0
 40
5.0
 50
8.626927
 51
171.373073
  0
CIRCLE
  8
61
  5
4CC0
 10
155.0
 20
329.0
 30
0.0
 40
2.1
  0
CIRCLE
  8
61
  5
4CC1
 10
155.0
 20
329.0
 30
0.0
 40
2.4
  0
ARC
  8
61
  5
4CC3
 10
155.0
 20
329.0
 30
0.0
 40
5.0
 50
188.626927
 51
351.373073
  0
LINE
  8
61
  5
4CC4
 10
145.0
 20
328.25
 30
0.0
 11
145.0
 21
329.75
 31
0.0
  0
LINE
  8
61
  5
4CC5
 10
150.05657
 20
328.25
 30
0.0
 11
145.0
 21
328.25
 31
0.0
  0
LINE
  8
61
  5
4CC6
 10
145.0
 20
329.75
 30
0.0
 11
150.05657
 21
329.75
 31
0.0
  0
LINE
  8
61
  5
4CC7
 10
165.0
 20
328.25
 30
0.0
 11
165.0
 21
329.75
 31
0.0
  0
LINE
  8
61
  5
4CE0
 10
209.94343
 20
168.25
 30
0.0
 11
215.0
 21
168.25
 31
0.0
  0
LINE
  8
61
  5
4CE1
 10
215.0
 20
169.75
 30
0.0
 11
209.94343
 21
169.75
 31
0.0
  0
ARC
  8
61
  5
4CE3
 10
205.0
 20
169.0
 30
0.0
 40
5.0
 50
8.626927
 51
171.373073
  0
CIRCLE
  8
61
  5
4CE4
 10
205.0
 20
169.0
 30
0.0
 40
2.1
  0
CIRCLE
  8
61
  5
4CE5
 10
205.0
 20
169.0
 30
0.0
 40
2.4
  0
ARC
  8
61
  5
4CE7
 10
205.0
 20
169.0
 30
0.0
 40
5.0
 50
188.626927
 51
351.373073
  0
LINE
  8
61
  5
4CE8
 10
195.0
 20
168.25
 30
0.0
 11
195.0
 21
169.75
 31
0.0
  0
LINE
  8
61
  5
4CE9
 10
200.05657
 20
168.25
 30
0.0
 11
195.0
 21
168.25
 31
0.0
  0
LINE
  8
61
  5
4CEA
 10
195.0
 20
169.75
 30
0.0
 11
200.05657
 21
169.75
 31
0.0
  0
LINE
  8
61
  5
4CEB
 10
215.0
 20
168.25
 30
0.0
 11
215.0
 21
169.75
 31
0.0
  0
LINE
  8
61
  5
4CEC
 10
209.94343
 20
328.25
 30
0.0
 11
215.0
 21
328.25
 31
0.0
  0
LINE
  8
61
  5
4CED
 10
215.0
 20
329.75
 30
0.0
 11
209.94343
 21
329.75
 31
0.0
  0
ARC
  8
61
  5
4CEF
 10
205.0
 20
329.0
 30
0.0
 40
5.0
 50
8.626927
 51
171.373073
  0
CIRCLE
  8
61
  5
4CF0
 10
205.0
 20
329.0
 30
0.0
 40
2.1
  0
CIRCLE
  8
61
  5
4CF1
 10
205.0
 20
329.0
 30
0.0
 40
2.4
  0
ARC
  8
61
  5
4CF3
 10
205.0
 20
329.0
 30
0.0
 40
5.0
 50
188.626927
 51
351.373073
  0
LINE
  8
61
  5
4CF4
 10
195.0
 20
328.25
 30
0.0
 11
195.0
 21
329.75
 31
0.0
  0
LINE
  8
61
  5
4CF5
 10
200.05657
 20
328.25
 30
0.0
 11
195.0
 21
328.25
 31
0.0
  0
LINE
  8
61
  5
4CF6
 10
195.0
 20
329.75
 30
0.0
 11
200.05657
 21
329.75
 31
0.0
  0
LINE
  8
61
  5
4CF7
 10
215.0
 20
328.25
 30
0.0
 11
215.0
 21
329.75
 31
0.0
  0
LINE
  8
61
  5
4CF8
 10
259.94343
 20
168.25
 30
0.0
 11
265.0
 21
168.25
 31
0.0
  0
LINE
  8
61
  5
4CF9
 10
265.0
 20
169.75
 30
0.0
 11
259.94343
 21
169.75
 31
0.0
  0
ARC
  8
61
  5
4CFB
 10
255.0
 20
169.0
 30
0.0
 40
5.0
 50
8.626927
 51
171.373073
  0
CIRCLE
  8
61
  5
4CFC
 10
255.0
 20
169.0
 30
0.0
 40
2.1
  0
CIRCLE
  8
61
  5
4CFD
 10
255.0
 20
169.0
 30
0.0
 40
2.4
  0
ARC
  8
61
  5
4CFF
 10
255.0
 20
169.0
 30
0.0
 40
5.0
 50
188.626927
 51
351.373073
  0
LINE
  8
61
  5
4D00
 10
245.0
 20
168.25
 30
0.0
 11
245.0
 21
169.75
 31
0.0
  0
LINE
  8
61
  5
4D01
 10
250.05657
 20
168.25
 30
0.0
 11
245.0
 21
168.25
 31
0.0
  0
LINE
  8
61
  5
4D02
 10
245.0
 20
169.75
 30
0.0
 11
250.05657
 21
169.75
 31
0.0
  0
LINE
  8
61
  5
4D03
 10
265.0
 20
168.25
 30
0.0
 11
265.0
 21
169.75
 31
0.0
  0
LINE
  8
61
  5
4D04
 10
259.94343
 20
328.25
 30
0.0
 11
265.0
 21
328.25
 31
0.0
  0
LINE
  8
61
  5
4D05
 10
265.0
 20
329.75
 30
0.0
 11
259.94343
 21
329.75
 31
0.0
  0
ARC
  8
61
  5
4D07
 10
255.0
 20
329.0
 30
0.0
 40
5.0
 50
8.626927
 51
171.373073
  0
CIRCLE
  8
61
  5
4D08
 10
255.0
 20
329.0
 30
0.0
 40
2.1
  0
CIRCLE
  8
61
  5
4D09
 10
255.0
 20
329.0
 30
0.0
 40
2.4
  0
ARC
  8
61
  5
4D0B
 10
255.0
 20
329.0
 30
0.0
 40
5.0
 50
188.626927
 51
351.373073
  0
LINE
  8
61
  5
4D0C
 10
245.0
 20
328.25
 30
0.0
 11
245.0
 21
329.75
 31
0.0
  0
LINE
  8
61
  5
4D0D
 10
250.05657
 20
328.25
 30
0.0
 11
245.0
 21
328.25
 31
0.0
  0
LINE
  8
61
  5
4D0E
 10
245.0
 20
329.75
 30
0.0
 11
250.05657
 21
329.75
 31
0.0
  0
LINE
  8
61
  5
4D0F
 10
265.0
 20
328.25
 30
0.0
 11
265.0
 21
329.75
 31
0.0
  0
LINE
  8
61
  5
4D10
 10
309.94343
 20
168.25
 30
0.0
 11
315.0
 21
168.25
 31
0.0
  0
LINE
  8
61
  5
4D11
 10
315.0
 20
169.75
 30
0.0
 11
309.94343
 21
169.75
 31
0.0
  0
ARC
  8
61
  5
4D13
 10
305.0
 20
169.0
 30
0.0
 40
5.0
 50
8.626927
 51
171.373073
  0
CIRCLE
  8
61
  5
4D14
 10
305.0
 20
169.0
 30
0.0
 40
2.1
  0
CIRCLE
  8
61
  5
4D15
 10
305.0
 20
169.0
 30
0.0
 40
2.4
  0
ARC
  8
61
  5
4D17
 10
305.0
 20
169.0
 30
0.0
 40
5.0
 50
188.626927
 51
351.373073
  0
LINE
  8
61
  5
4D18
 10
295.0
 20
168.25
 30
0.0
 11
295.0
 21
169.75
 31
0.0
  0
LINE
  8
61
  5
4D19
 10
300.05657
 20
168.25
 30
0.0
 11
295.0
 21
168.25
 31
0.0
  0
LINE
  8
61
  5
4D1A
 10
295.0
 20
169.75
 30
0.0
 11
300.05657
 21
169.75
 31
0.0
  0
LINE
  8
61
  5
4D1B
 10
315.0
 20
168.25
 30
0.0
 11
315.0
 21
169.75
 31
0.0
  0
LINE
  8
61
  5
4D1C
 10
309.94343
 20
328.25
 30
0.0
 11
315.0
 21
328.25
 31
0.0
  0
LINE
  8
61
  5
4D1D
 10
315.0
 20
329.75
 30
0.0
 11
309.94343
 21
329.75
 31
0.0
  0
ARC
  8
61
  5
4D1F
 10
305.0
 20
329.0
 30
0.0
 40
5.0
 50
8.626927
 51
171.373073
  0
CIRCLE
  8
61
  5
4D20
 10
305.0
 20
329.0
 30
0.0
 40
2.1
  0
CIRCLE
  8
61
  5
4D21
 10
305.0
 20
329.0
 30
0.0
 40
2.4
  0
ARC
  8
61
  5
4D23
 10
305.0
 20
329.0
 30
0.0
 40
5.0
 50
188.626927
 51
351.373073
  0
LINE
  8
61
  5
4D24
 10
295.0
 20
328.25
 30
0.0
 11
295.0
 21
329.75
 31
0.0
  0
LINE
  8
61
  5
4D25
 10
300.05657
 20
328.25
 30
0.0
 11
295.0
 21
328.25
 31
0.0
  0
LINE
  8
61
  5
4D26
 10
295.0
 20
329.75
 30
0.0
 11
300.05657
 21
329.75
 31
0.0
  0
LINE
  8
61
  5
4D27
 10
315.0
 20
328.25
 30
0.0
 11
315.0
 21
329.75
 31
0.0
  0
LINE
  8
61
  5
4D40
 10
359.94343
 20
168.25
 30
0.0
 11
365.0
 21
168.25
 31
0.0
  0
LINE
  8
61
  5
4D41
 10
365.0
 20
169.75
 30
0.0
 11
359.94343
 21
169.75
 31
0.0
  0
ARC
  8
61
  5
4D43
 10
355.0
 20
169.0
 30
0.0
 40
5.0
 50
8.626927
 51
171.373073
  0
CIRCLE
  8
61
  5
4D44
 10
355.0
 20
169.0
 30
0.0
 40
2.1
  0
CIRCLE
  8
61
  5
4D45
 10
355.0
 20
169.0
 30
0.0
 40
2.4
  0
ARC
  8
61
  5
4D47
 10
355.0
 20
169.0
 30
0.0
 40
5.0
 50
188.626927
 51
351.373073
  0
LINE
  8
61
  5
4D48
 10
345.0
 20
168.25
 30
0.0
 11
345.0
 21
169.75
 31
0.0
  0
LINE
  8
61
  5
4D49
 10
350.05657
 20
168.25
 30
0.0
 11
345.0
 21
168.25
 31
0.0
  0
LINE
  8
61
  5
4D4A
 10
345.0
 20
169.75
 30
0.0
 11
350.05657
 21
169.75
 31
0.0
  0
LINE
  8
61
  5
4D4B
 10
365.0
 20
168.25
 30
0.0
 11
365.0
 21
169.75
 31
0.0
  0
LINE
  8
61
  5
4D4C
 10
359.94343
 20
328.25
 30
0.0
 11
365.0
 21
328.25
 31
0.0
  0
LINE
  8
61
  5
4D4D
 10
365.0
 20
329.75
 30
0.0
 11
359.94343
 21
329.75
 31
0.0
  0
ARC
  8
61
  5
4D4F
 10
355.0
 20
329.0
 30
0.0
 40
5.0
 50
8.626927
 51
171.373073
  0
CIRCLE
  8
61
  5
4D50
 10
355.0
 20
329.0
 30
0.0
 40
2.1
  0
CIRCLE
  8
61
  5
4D51
 10
355.0
 20
329.0
 30
0.0
 40
2.4
  0
ARC
  8
61
  5
4D53
 10
355.0
 20
329.0
 30
0.0
 40
5.0
 50
188.626927
 51
351.373073
  0
LINE
  8
61
  5
4D54
 10
345.0
 20
328.25
 30
0.0
 11
345.0
 21
329.75
 31
0.0
  0
LINE
  8
61
  5
4D55
 10
350.05657
 20
328.25
 30
0.0
 11
345.0
 21
328.25
 31
0.0
  0
LINE
  8
61
  5
4D56
 10
345.0
 20
329.75
 30
0.0
 11
350.05657
 21
329.75
 31
0.0
  0
LINE
  8
61
  5
4D57
 10
365.0
 20
328.25
 30
0.0
 11
365.0
 21
329.75
 31
0.0
  0
LINE
  8
61
  5
4D5B
 10
209.0
 20
166.0
 30
0.0
 11
209.0
 21
157.0
 31
0.0
  0
LINE
  8
61
  5
4D5C
 10
201.0
 20
166.0
 30
0.0
 11
201.0
 21
157.0
 31
0.0
  0
LINE
  8
63
  6
DASHDOT
  5
4D61
 10
255.0
 20
249.0
 30
0.0
 11
255.0
 21
341.0
 31
0.0
  0
LINE
  8
61
  5
4D66
 10
201.0
 20
279.0
 30
0.0
 11
201.0
 21
326.0
 31
0.0
  0
LINE
  8
61
  5
4D67
 10
209.0
 20
279.0
 30
0.0
 11
209.0
 21
326.0
 31
0.0
  0
LINE
  8
61
  5
4D6A
 10
175.0
 20
265.0
 30
0.0
 11
175.0
 21
279.0
 31
0.0
  0
LINE
  8
61
  5
4D6B
 10
201.0
 20
279.0
 30
0.0
 11
175.0
 21
279.0
 31
0.0
  0
LINE
  8
61
  5
4D6C
 10
251.0
 20
279.0
 30
0.0
 11
209.0
 21
279.0
 31
0.0
  0
LINE
  8
61
  5
4D6E
 10
185.0
 20
255.0
 30
0.0
 11
175.0
 21
265.0
 31
0.0
  0
LINE
  8
61
  5
4D6F
 10
185.0
 20
249.0
 30
0.0
 11
185.0
 21
255.0
 31
0.0
  0
LINE
  8
61
  5
4D72
 10
201.0
 20
332.0
 30
0.0
 11
201.0
 21
341.0
 31
0.0
  0
LINE
  8
61
  5
4D75
 10
209.0
 20
332.0
 30
0.0
 11
209.0
 21
341.0
 31
0.0
  0
LINE
  8
61
  5
4D7B
 10
309.0
 20
219.0
 30
0.0
 11
309.0
 21
172.0
 31
0.0
  0
LINE
  8
61
  5
4D7C
 10
301.0
 20
219.0
 30
0.0
 11
301.0
 21
172.0
 31
0.0
  0
LINE
  8
61
  5
4D7F
 10
335.0
 20
233.0
 30
0.0
 11
335.0
 21
219.0
 31
0.0
  0
LINE
  8
61
  5
4D80
 10
309.0
 20
219.0
 30
0.0
 11
335.0
 21
219.0
 31
0.0
  0
LINE
  8
61
  5
4D81
 10
259.0
 20
219.0
 30
0.0
 11
301.0
 21
219.0
 31
0.0
  0
LINE
  8
63
  6
DASHDOT
  5
4D85
 10
412.0
 20
249.0
 30
0.0
 11
255.0
 21
249.0
 31
0.0
  0
LINE
  8
61
  5
4D87
 10
335.0
 20
265.0
 30
0.0
 11
335.0
 21
279.0
 31
0.0
  0
LINE
  8
61
  5
4D89
 10
325.0
 20
249.0
 30
0.0
 11
325.0
 21
255.0
 31
0.0
  0
LINE
  8
61
  5
4D8A
 10
325.0
 20
243.0
 30
0.0
 11
335.0
 21
233.0
 31
0.0
  0
LINE
  8
61
  5
4D8B
 10
325.0
 20
249.0
 30
0.0
 11
325.0
 21
243.0
 31
0.0
  0
LINE
  8
61
  5
4D8C
 10
325.0
 20
255.0
 30
0.0
 11
335.0
 21
265.0
 31
0.0
  0
LINE
  8
61
  5
4D8E
 10
309.0
 20
279.0
 30
0.0
 11
309.0
 21
326.0
 31
0.0
  0
LINE
  8
61
  5
4D90
 10
309.0
 20
279.0
 30
0.0
 11
335.0
 21
279.0
 31
0.0
  0
LINE
  8
61
  5
4D92
 10
301.0
 20
279.0
 30
0.0
 11
301.0
 21
326.0
 31
0.0
  0
LINE
  8
61
  5
4D93
 10
259.0
 20
279.0
 30
0.0
 11
301.0
 21
279.0
 31
0.0
  0
LINE
  8
61
  5
4D95
 10
301.0
 20
166.0
 30
0.0
 11
301.0
 21
157.0
 31
0.0
  0
LINE
  8
61
  5
4D98
 10
309.0
 20
166.0
 30
0.0
 11
309.0
 21
157.0
 31
0.0
  0
LINE
  8
61
  5
4D9E
 10
301.0
 20
332.0
 30
0.0
 11
301.0
 21
341.0
 31
0.0
  0
LINE
  8
61
  5
4DA0
 10
309.0
 20
332.0
 30
0.0
 11
309.0
 21
341.0
 31
0.0
  0
LINE
  8
51
  5
4DAB
 10
-315.151358
 20
279.0
 30
0.0
 11
-357.151358
 21
279.0
 31
0.0
  0
LINE
  8
53
  6
DASHDOT
  5
4DAC
 10
-311.151358
 20
249.0
 30
0.0
 11
-466.151358
 21
249.0
 31
0.0
  0
LINE
  8
51
  5
4DAF
 10
-311.151358
 20
349.0
 30
0.0
 11
-458.651358
 21
349.0
 31
0.0
  0
LINE
  8
51
  5
4DB0
 10
-365.151358
 20
343.0
 30
0.0
 11
-365.151358
 21
331.371181
 31
0.0
  0
LINE
  8
51
  5
4DB1
 10
-357.151358
 20
279.0
 30
0.0
 11
-357.151358
 21
326.628819
 31
0.0
  0
LINE
  8
51
  5
4DB7
 10
-461.151358
 20
346.5
 30
0.0
 11
-461.151358
 21
248.0
 31
0.0
  0
ARC
  8
51
  5
4DC0
 10
-458.651358
 20
346.5
 30
0.0
 40
2.5
 50
90.0
 51
180.0
  0
LINE
  8
51
  5
4E12
 10
-365.151358
 20
279.0
 30
0.0
 11
-391.151358
 21
279.0
 31
0.0
  0
LINE
  8
51
  5
4E13
 10
-391.151358
 20
253.0
 30
0.0
 11
-391.151358
 21
279.0
 31
0.0
  0
LINE
  8
51
  5
4E1C
 10
-265.151358
 20
279.0
 30
0.0
 11
-265.151358
 21
326.628819
 31
0.0
  0
LINE
  8
51
  5
4E1D
 10
-257.151358
 20
343.0
 30
0.0
 11
-257.151358
 21
331.371181
 31
0.0
  0
LINE
  8
51
  5
4E21
 10
-161.151358
 20
346.5
 30
0.0
 11
-161.151358
 21
248.0
 31
0.0
  0
LINE
  8
51
  5
4E24
 10
-311.151358
 20
349.0
 30
0.0
 11
-163.651358
 21
349.0
 31
0.0
  0
ARC
  8
51
  5
4E61
 10
-163.651358
 20
346.5
 30
0.0
 40
2.5
 50
0.0
 51
90.0
  0
LINE
  8
51
  5
4E6B
 10
-257.151358
 20
279.0
 30
0.0
 11
-231.151358
 21
279.0
 31
0.0
  0
LINE
  8
51
  5
4E6C
 10
-307.151358
 20
279.0
 30
0.0
 11
-265.151358
 21
279.0
 31
0.0
  0
LINE
  8
51
  5
4E74
 10
-231.151358
 20
253.0
 30
0.0
 11
-231.151358
 21
279.0
 31
0.0
  0
LINE
  8
53
  6
DASHDOT
  5
4E95
 10
-311.151358
 20
249.0
 30
0.0
 11
-156.151358
 21
249.0
 31
0.0
  0
LINE
  8
51
  5
4F43
 10
-357.151358
 20
343.0
 30
0.0
 11
-365.151358
 21
343.0
 31
0.0
  0
LINE
  8
51
  5
4F44
 10
-265.151358
 20
343.0
 30
0.0
 11
-257.151358
 21
343.0
 31
0.0
  0
CIRCLE
  8
51
  5
4F4C
 10
-441.151358
 20
299.0
 30
0.0
 40
3.5
  0
CIRCLE
  8
51
  5
4F4D
 10
-211.151358
 20
329.0
 30
0.0
 40
3.5
  0
CIRCLE
  8
51
  5
4F4E
 10
-441.151358
 20
299.0
 30
0.0
 40
4.65
  0
CIRCLE
  8
51
  5
4F4F
 10
-211.151358
 20
329.0
 30
0.0
 40
4.65
  0
CIRCLE
  8
51
  5
4F56
 10
-181.151358
 20
299.0
 30
0.0
 40
4.65
  0
CIRCLE
  8
51
  5
4F57
 10
-181.151358
 20
299.0
 30
0.0
 40
3.5
  0
ARC
  8
51
  5
4F6A
 10
-441.151358
 20
249.0
 30
0.0
 40
4.65
 50
0.0
 51
180.0
  0
ARC
  8
51
  5
4F6B
 10
-441.151358
 20
249.0
 30
0.0
 40
3.5
 50
0.0
 51
180.0
  0
ARC
  8
51
  5
4F6E
 10
-181.151358
 20
249.0
 30
0.0
 40
4.65
 50
0.0
 51
180.0
  0
ARC
  8
51
  5
4F6F
 10
-181.151358
 20
249.0
 30
0.0
 40
3.5
 50
0.0
 51
180.0
  0
CIRCLE
  8
51
  5
4F86
 10
-261.151358
 20
329.0
 30
0.0
 40
3.5
  0
CIRCLE
  8
51
  5
4F88
 10
-261.151358
 20
329.0
 30
0.0
 40
4.65
  0
CIRCLE
  8
51
  5
4F8A
 10
-311.151358
 20
329.0
 30
0.0
 40
3.5
  0
CIRCLE
  8
51
  5
4F8C
 10
-311.151358
 20
329.0
 30
0.0
 40
4.65
  0
CIRCLE
  8
51
  5
4F8E
 10
-361.151358
 20
329.0
 30
0.0
 40
3.5
  0
CIRCLE
  8
51
  5
4F90
 10
-361.151358
 20
329.0
 30
0.0
 40
4.65
  0
CIRCLE
  8
51
  5
4F92
 10
-411.151358
 20
329.0
 30
0.0
 40
3.5
  0
CIRCLE
  8
51
  5
4F94
 10
-411.151358
 20
329.0
 30
0.0
 40
4.65
  0
LINE
  8
51
  5
4F99
 10
-257.151358
 20
326.628819
 30
0.0
 11
-257.151358
 21
279.0
 31
0.0
  0
LINE
  8
51
  5
4F9A
 10
-265.151358
 20
331.371181
 30
0.0
 11
-265.151358
 21
343.0
 31
0.0
  0
LINE
  8
51
  5
4F9B
 10
-357.151358
 20
331.371181
 30
0.0
 11
-357.151358
 21
343.0
 31
0.0
  0
LINE
  8
51
  5
4F9C
 10
-365.151358
 20
326.628819
 30
0.0
 11
-365.151358
 21
279.0
 31
0.0
  0
LINE
  8
51
  5
4F9D
 10
-315.151358
 20
279.0
 30
0.0
 11
-315.151358
 21
326.628819
 31
0.0
  0
LINE
  8
51
  5
4F9E
 10
-307.151358
 20
326.628819
 30
0.0
 11
-307.151358
 21
279.0
 31
0.0
  0
LINE
  8
51
  5
4F9F
 10
-307.151358
 20
343.0
 30
0.0
 11
-307.151358
 21
331.371181
 31
0.0
  0
LINE
  8
51
  5
4FA0
 10
-315.151358
 20
331.371181
 30
0.0
 11
-315.151358
 21
343.0
 31
0.0
  0
LINE
  8
51
  5
4FA1
 10
-315.151358
 20
343.0
 30
0.0
 11
-307.151358
 21
343.0
 31
0.0
  0
LINE
  8
51
  5
4FA3
 10
-434.151358
 20
341.0
 30
0.0
 11
-434.151358
 21
329.615224
 31
0.0
  0
LINE
  8
51
  5
4FA4
 10
-453.151358
 20
322.0
 30
0.0
 11
-441.766582
 21
322.0
 31
0.0
  0
LINE
  8
51
  5
4FA7
 10
-434.151358
 20
329.615224
 30
0.0
 11
-441.766582
 21
322.0
 31
0.0
  0
LINE
  8
51
  5
4FA8
 10
-431.651358
 20
341.0
 30
0.0
 11
-431.651358
 21
328.57969
 31
0.0
  0
LINE
  8
51
  5
4FA9
 10
-431.651358
 20
328.57969
 30
0.0
 11
-440.731048
 21
319.5
 31
0.0
  0
LINE
  8
51
  5
4FAA
 10
-453.151358
 20
319.5
 30
0.0
 11
-440.731048
 21
319.5
 31
0.0
  0
LINE
  8
51
  5
4FAB
 10
-434.151358
 20
341.0
 30
0.0
 11
-431.651358
 21
341.0
 31
0.0
  0
LINE
  8
51
  5
4FAC
 10
-453.151358
 20
322.0
 30
0.0
 11
-453.151358
 21
319.5
 31
0.0
  0
CIRCLE
  8
51
  5
4FAD
 10
-447.151358
 20
335.0
 30
0.0
 40
5.45
  0
CIRCLE
  8
51
  5
4FAF
 10
-447.151358
 20
335.0
 30
0.0
 40
3.45
  0
LINE
  8
53
  6
DASHDOT
  5
4FB0
 10
-311.151358
 20
355.0
 30
0.0
 11
-311.151358
 21
248.0
 31
0.0
  0
CIRCLE
  8
51
  5
4FB1
 10
-175.151358
 20
335.0
 30
0.0
 40
3.45
  0
CIRCLE
  8
51
  5
4FB2
 10
-175.151358
 20
335.0
 30
0.0
 40
5.45
  0
LINE
  8
51
  5
4FB3
 10
-190.651358
 20
341.0
 30
0.0
 11
-190.651358
 21
328.57969
 31
0.0
  0
LINE
  8
51
  5
4FB4
 10
-188.151358
 20
341.0
 30
0.0
 11
-188.151358
 21
329.615224
 31
0.0
  0
LINE
  8
51
  5
4FB6
 10
-188.151358
 20
341.0
 30
0.0
 11
-190.651358
 21
341.0
 31
0.0
  0
LINE
  8
51
  5
4FB7
 10
-169.151358
 20
319.5
 30
0.0
 11
-181.571668
 21
319.5
 31
0.0
  0
LINE
  8
51
  5
4FB8
 10
-169.151358
 20
322.0
 30
0.0
 11
-180.536135
 21
322.0
 31
0.0
  0
LINE
  8
51
  5
4FB9
 10
-169.151358
 20
322.0
 30
0.0
 11
-169.151358
 21
319.5
 31
0.0
  0
LINE
  8
51
  5
4FBA
 10
-190.651358
 20
328.57969
 30
0.0
 11
-181.571668
 21
319.5
 31
0.0
  0
LINE
  8
51
  5
4FBB
 10
-188.151358
 20
329.615224
 30
0.0
 11
-180.536135
 21
322.0
 31
0.0
  0
LINE
  8
31
  5
4FBD
 10
433.0
 20
349.0
 30
0.0
 11
433.0
 21
249.0
 31
0.0
  0
LINE
  8
31
  5
4FBE
 10
433.0
 20
349.0
 30
0.0
 11
563.0
 21
349.0
 31
0.0
  0
LINE
  8
31
  5
4FBF
 10
563.0
 20
349.0
 30
0.0
 11
563.0
 21
249.0
 31
0.0
  0
LINE
  8
31
  5
4FC0
 10
560.5
 20
345.0
 30
0.0
 11
560.5
 21
249.0
 31
0.0
  0
LINE
  8
31
  5
4FC1
 10
435.5
 20
345.0
 30
0.0
 11
435.5
 21
249.0
 31
0.0
  0
LINE
  8
31
  5
4FC2
 10
437.5
 20
347.0
 30
0.0
 11
558.5
 21
347.0
 31
0.0
  0
ARC
  8
31
  5
4FC3
 10
437.5
 20
345.0
 30
0.0
 40
2.0
 50
90.0
 51
180.0
  0
ARC
  8
31
  5
4FC4
 10
558.5
 20
345.0
 30
0.0
 40
2.0
 50
0.0
 51
90.0
  0
LINE
  8
31
  5
50B4
 10
566.0
 20
343.196152
 30
0.0
 11
566.0
 21
249.0
 31
0.0
  0
LINE
  8
31
  5
50B5
 10
563.0
 20
344.0
 30
0.0
 11
566.0
 21
343.196152
 31
0.0
  0
LINE
  8
31
  5
50B6
 10
433.0
 20
341.0
 30
0.0
 11
431.0
 21
341.0
 31
0.0
  0
LINE
  8
31
  5
50B7
 10
431.0
 20
341.0
 30
0.0
 11
431.0
 21
319.4
 31
0.0
  0
LINE
  8
31
  5
50B8
 10
431.0
 20
319.4
 30
0.0
 11
433.0
 21
319.4
 31
0.0
  0
LINE
  8
31
  5
50B9
 10
431.0
 20
321.9
 30
0.0
 11
433.0
 21
321.9
 31
0.0
  0
LINE
  8
31
  5
50BA
 10
431.0
 20
330.4
 30
0.0
 11
433.0
 21
330.4
 31
0.0
  0
LINE
  8
31
  5
50BC
 10
431.0
 20
299.0
 30
0.0
 11
431.0
 21
295.5
 31
0.0
  0
LINE
  8
31
  5
50BD
 10
431.0
 20
295.5
 30
0.0
 11
433.0
 21
294.345299
 31
0.0
  0
LINE
  8
31
  5
50BE
 10
431.0
 20
299.0
 30
0.0
 11
431.0
 21
302.5
 31
0.0
  0
LINE
  8
31
  5
50BF
 10
431.0
 20
302.5
 30
0.0
 11
433.0
 21
303.654701
 31
0.0
  0
LINE
  8
31
  5
50CA
 10
431.0
 20
249.0
 30
0.0
 11
431.0
 21
252.5
 31
0.0
  0
LINE
  8
31
  5
50CB
 10
431.0
 20
252.5
 30
0.0
 11
433.0
 21
253.654701
 31
0.0
  0
LINE
  8
31
  5
50CC
 10
431.0
 20
245.5
 30
0.0
 11
433.0
 21
244.345299
 31
0.0
  0
LINE
  8
31
  5
50CD
 10
431.0
 20
249.0
 30
0.0
 11
431.0
 21
245.5
 31
0.0
  0
LINE
  8
31
  5
50D9
 10
431.0
 20
199.0
 30
0.0
 11
431.0
 21
202.5
 31
0.0
  0
LINE
  8
31
  5
50DA
 10
431.0
 20
202.5
 30
0.0
 11
433.0
 21
203.654701
 31
0.0
  0
LINE
  8
31
  5
50DB
 10
431.0
 20
195.5
 30
0.0
 11
433.0
 21
194.345299
 31
0.0
  0
LINE
  8
31
  5
50DC
 10
431.0
 20
199.0
 30
0.0
 11
431.0
 21
195.5
 31
0.0
  0
LINE
  8
33
  6
DASHDOT
  5
50DE
 10
570.0
 20
249.0
 30
0.0
 11
426.0
 21
249.0
 31
0.0
  0
LINE
  8
31
  5
50DF
 10
566.0
 20
154.803848
 30
0.0
 11
566.0
 21
249.0
 31
0.0
  0
LINE
  8
31
  5
50E0
 10
560.5
 20
153.0
 30
0.0
 11
560.5
 21
249.0
 31
0.0
  0
LINE
  8
31
  5
50E1
 10
435.5
 20
153.0
 30
0.0
 11
435.5
 21
249.0
 31
0.0
  0
LINE
  8
31
  5
50E2
 10
563.0
 20
149.0
 30
0.0
 11
563.0
 21
249.0
 31
0.0
  0
LINE
  8
31
  5
50E3
 10
433.0
 20
149.0
 30
0.0
 11
433.0
 21
249.0
 31
0.0
  0
LINE
  8
31
  5
50E5
 10
437.5
 20
151.0
 30
0.0
 11
558.5
 21
151.0
 31
0.0
  0
LINE
  8
31
  5
50E6
 10
433.0
 20
149.0
 30
0.0
 11
563.0
 21
149.0
 31
0.0
  0
LINE
  8
31
  5
50E7
 10
431.0
 20
157.0
 30
0.0
 11
431.0
 21
178.6
 31
0.0
  0
LINE
  8
31
  5
50E8
 10
433.0
 20
157.0
 30
0.0
 11
431.0
 21
157.0
 31
0.0
  0
ARC
  8
31
  5
50E9
 10
437.5
 20
153.0
 30
0.0
 40
2.0
 50
180.0
 51
270.0
  0
LINE
  8
31
  5
50EA
 10
431.0
 20
167.6
 30
0.0
 11
433.0
 21
167.6
 31
0.0
  0
LINE
  8
31
  5
50EB
 10
431.0
 20
176.1
 30
0.0
 11
433.0
 21
176.1
 31
0.0
  0
LINE
  8
31
  5
50EC
 10
431.0
 20
178.6
 30
0.0
 11
433.0
 21
178.6
 31
0.0
  0
LINE
  8
31
  5
50ED
 10
563.0
 20
154.0
 30
0.0
 11
566.0
 21
154.803848
 31
0.0
  0
ARC
  8
31
  5
50EE
 10
558.5
 20
153.0
 30
0.0
 40
2.0
 50
270.0
 51
0.0
  0
LINE
  8
51
  5
5168
 10
-391.151358
 20
253.0
 30
0.0
 11
-438.780177
 21
253.0
 31
0.0
  0
LINE
  8
51
  5
5169
 10
-443.522539
 20
253.0
 30
0.0
 11
-455.151358
 21
253.0
 31
0.0
  0
LINE
  8
51
  5
516A
 10
-455.151358
 20
253.0
 30
0.0
 11
-455.151358
 21
249.0
 31
0.0
  0
LINE
  8
51
  5
516B
 10
-231.151358
 20
253.0
 30
0.0
 11
-183.522539
 21
253.0
 31
0.0
  0
LINE
  8
51
  5
516C
 10
-178.780177
 20
253.0
 30
0.0
 11
-167.151358
 21
253.0
 31
0.0
  0
LINE
  8
51
  5
516D
 10
-167.151358
 20
253.0
 30
0.0
 11
-167.151358
 21
249.0
 31
0.0
  0
LINE
  8
34
  5
5180
 10
442.5
 20
289.0
 30
0.0
 11
436.0
 21
288.886542
 31
0.0
  0
LINE
  8
34
  5
5181
 10
442.5
 20
304.0
 30
0.0
 11
436.491274
 21
304.104883
 31
0.0
  0
LINE
  8
34
  5
5182
 10
442.5
 20
309.0
 30
0.0
 11
436.0
 21
309.113458
 31
0.0
  0
LINE
  8
34
  5
5187
 10
442.5
 20
309.0
 30
0.0
 11
442.5
 21
304.0
 31
0.0
  0
LINE
  8
34
  5
5188
 10
442.5
 20
289.0
 30
0.0
 11
442.5
 21
294.0
 31
0.0
  0
ARC
  8
61
  5
68B6
 10
396.0
 20
172.5
 30
0.0
 40
1.0
 50
270.0
 51
0.0
  0
ARC
  8
62
  5
68B7
 10
396.0
 20
168.0
 30
0.0
 40
1.0
 50
0.0
 51
90.0
  0
ARC
  8
62
  5
68B8
 10
386.0
 20
158.0
 30
0.0
 40
1.0
 50
180.0
 51
270.0
  0
ARC
  8
61
  5
68B9
 10
381.5
 20
158.0
 30
0.0
 40
1.0
 50
270.0
 51
0.0
  0
ARC
  8
61
  5
6A50
 10
114.0
 20
172.5
 30
0.0
 40
1.0
 50
180.0
 51
270.0
  0
ARC
  8
62
  5
6A51
 10
114.0
 20
168.0
 30
0.0
 40
1.0
 50
90.0
 51
180.0
  0
ARC
  8
62
  5
6A52
 10
124.0
 20
158.0
 30
0.0
 40
1.0
 50
270.0
 51
0.0
  0
ARC
  8
61
  5
6A53
 10
128.5
 20
158.0
 30
0.0
 40
1.0
 50
180.0
 51
270.0
  0
ARC
  8
61
  5
6C4D
 10
114.0
 20
325.5
 30
0.0
 40
1.0
 50
90.0
 51
180.0
  0
ARC
  8
62
  5
6C4E
 10
114.0
 20
330.0
 30
0.0
 40
1.0
 50
180.0
 51
270.0
  0
ARC
  8
61
  5
6C4F
 10
128.5
 20
340.0
 30
0.0
 40
1.0
 50
90.0
 51
180.0
  0
ARC
  8
62
  5
6C50
 10
124.0
 20
340.0
 30
0.0
 40
1.0
 50
0.0
 51
90.0
  0
ARC
  8
61
  5
740B
 10
381.5
 20
340.0
 30
0.0
 40
1.0
 50
0.0
 51
90.0
  0
ARC
  8
62
  5
740C
 10
386.0
 20
340.0
 30
0.0
 40
1.0
 50
90.0
 51
180.0
  0
ARC
  8
62
  5
740D
 10
396.0
 20
330.0
 30
0.0
 40
1.0
 50
270.0
 51
0.0
  0
ARC
  8
61
  5
740E
 10
396.0
 20
325.5
 30
0.0
 40
1.0
 50
0.0
 51
90.0
  0
LINE
  8
62
  5
7762
 10
385.0
 20
159.0
 30
0.0
 11
385.0
 21
158.0
 31
0.0
  0
LINE
  8
61
  5
7763
 10
382.5
 20
159.0
 30
0.0
 11
382.5
 21
158.0
 31
0.0
  0
LINE
  8
61
  5
7765
 10
395.0
 20
171.5
 30
0.0
 11
396.0
 21
171.5
 31
0.0
  0
LINE
  8
61
  5
7766
 10
395.0
 20
169.0
 30
0.0
 11
396.0
 21
169.0
 31
0.0
  0
LINE
  8
61
  5
7873
 10
255.0
 20
157.0
 30
0.0
 11
254.0
 21
157.0
 31
0.0
  0
LINE
  8
61
  5
7874
 10
255.0
 20
154.0
 30
0.0
 11
254.0
 21
154.0
 31
0.0
  0
LINE
  8
61
  5
7878
 10
255.0
 20
344.0
 30
0.0
 11
254.0
 21
344.0
 31
0.0
  0
LINE
  8
63
  6
DASHDOT
  5
79B9
 10
95.956406
 20
249.0
 30
0.0
 11
270.956406
 21
249.0
 31
0.0
  0
LINE
  8
34
  5
8279
 10
442.5
 20
294.0
 30
0.0
 11
436.491274
 21
293.895117
 31
0.0
  0
LINE
  8
34
  5
827A
 10
442.5
 20
296.6
 30
0.0
 11
442.5
 21
299.0
 31
0.0
  0
LINE
  8
34
  5
827B
 10
442.5
 20
294.0
 30
0.0
 11
442.5
 21
296.6
 31
0.0
  0
LINE
  8
34
  5
827C
 10
442.5
 20
301.4
 30
0.0
 11
442.5
 21
299.0
 31
0.0
  0
LINE
  8
34
  5
827D
 10
442.5
 20
304.0
 30
0.0
 11
442.5
 21
301.4
 31
0.0
  0
INSERT
  8
AME_FRZ
  5
C0B5
  2
AME_NIL
 10
0.0
 20
0.0
 30
0.0
  0
INSERT
  8
AME_FRZ
  5
C0B6
  2
AME_SOL
 10
0.0
 20
0.0
 30
0.0
1001
AME_SOL
1000
R2.1
1000
AME2
1000
sq cm
1070
     3
1070
     0
1070
     3
1000
wire
1040
45.0
1000
U
1040
1.0
1000
cm
1000
gm
1000
MILD_STEEL
1070
    25
1000
CSG
1070
     1
1070
     3
1070
     3
1070
     3
1070
     0
1000
cu cm
1070
     1
1070
     0
1005
C0B5
  0
LINE
  8
61
  5
D307
 10
251.0
 20
166.0
 30
0.0
 11
251.0
 21
157.0
 31
0.0
  0
LINE
  8
61
  5
D308
 10
251.0
 20
219.0
 30
0.0
 11
251.0
 21
172.0
 31
0.0
  0
LINE
  8
61
  5
D309
 10
259.0
 20
219.0
 30
0.0
 11
259.0
 21
172.0
 31
0.0
  0
LINE
  8
61
  5
D30A
 10
259.0
 20
166.0
 30
0.0
 11
259.0
 21
157.0
 31
0.0
  0
LINE
  8
61
  5
D30B
 10
251.0
 20
279.0
 30
0.0
 11
251.0
 21
326.0
 31
0.0
  0
LINE
  8
61
  5
D30C
 10
251.0
 20
332.0
 30
0.0
 11
251.0
 21
341.0
 31
0.0
  0
LINE
  8
61
  5
D30D
 10
259.0
 20
332.0
 30
0.0
 11
259.0
 21
341.0
 31
0.0
  0
LINE
  8
61
  5
D30E
 10
259.0
 20
279.0
 30
0.0
 11
259.0
 21
326.0
 31
0.0
  0
ARC
  8
61
  5
D99E
 10
402.5
 20
346.5
 30
0.0
 40
2.5
 50
75.0
 51
90.0
  0
ARC
  8
61
  5
D99F
 10
402.5
 20
346.5
 30
0.0
 40
2.5
 50
15.0
 51
75.0
  0
LINE
  8
51
  5
102B5
 10
-257.151358
 20
219.0
 30
0.0
 11
-231.151358
 21
219.0
 31
0.0
  0
LINE
  8
51
  5
102B6
 10
-311.151358
 20
149.0
 30
0.0
 11
-163.651358
 21
149.0
 31
0.0
  0
LINE
  8
51
  5
102B7
 10
-443.522539
 20
245.0
 30
0.0
 11
-455.151358
 21
245.0
 31
0.0
  0
ARC
  8
51
  5
102B8
 10
-441.151358
 20
249.0
 30
0.0
 40
4.65
 50
180.0
 51
0.0
  0
CIRCLE
  8
51
  5
102B9
 10
-441.151358
 20
199.0
 30
0.0
 40
4.65
  0
LINE
  8
51
  5
102BB
 10
-453.151358
 20
176.0
 30
0.0
 11
-441.766582
 21
176.0
 31
0.0
  0
LINE
  8
51
  5
102BC
 10
-453.151358
 20
178.5
 30
0.0
 11
-440.731048
 21
178.5
 31
0.0
  0
CIRCLE
  8
51
  5
102BE
 10
-447.151358
 20
163.0
 30
0.0
 40
5.45
  0
CIRCLE
  8
51
  5
102BF
 10
-447.151358
 20
163.0
 30
0.0
 40
3.45
  0
LINE
  8
51
  5
102C0
 10
-311.151358
 20
149.0
 30
0.0
 11
-458.651358
 21
149.0
 31
0.0
  0
LINE
  8
51
  5
102C1
 10
-461.151358
 20
151.5
 30
0.0
 11
-461.151358
 21
250.0
 31
0.0
  0
ARC
  8
51
  5
102C3
 10
-458.651358
 20
151.5
 30
0.0
 40
2.5
 50
180.0
 51
270.0
  0
LINE
  8
51
  5
102C4
 10
-453.151358
 20
176.0
 30
0.0
 11
-453.151358
 21
178.5
 31
0.0
  0
LINE
  8
51
  5
102C5
 10
-455.151358
 20
245.0
 30
0.0
 11
-455.151358
 21
249.0
 31
0.0
  0
LINE
  8
51
  5
102C6
 10
-265.151358
 20
219.0
 30
0.0
 11
-265.151358
 21
171.371181
 31
0.0
  0
LINE
  8
51
  5
102C7
 10
-257.151358
 20
171.371181
 30
0.0
 11
-257.151358
 21
219.0
 31
0.0
  0
LINE
  8
51
  5
102C8
 10
-357.151358
 20
219.0
 30
0.0
 11
-357.151358
 21
171.371181
 31
0.0
  0
LINE
  8
51
  5
102C9
 10
-365.151358
 20
171.371181
 30
0.0
 11
-365.151358
 21
219.0
 31
0.0
  0
LINE
  8
51
  5
102CA
 10
-315.151358
 20
219.0
 30
0.0
 11
-315.151358
 21
171.371181
 31
0.0
  0
LINE
  8
51
  5
102CB
 10
-307.151358
 20
171.371181
 30
0.0
 11
-307.151358
 21
219.0
 31
0.0
  0
LINE
  8
53
  6
DASHDOT
  5
102CC
 10
-311.151358
 20
143.0
 30
0.0
 11
-311.151358
 21
250.0
 31
0.0
  0
LINE
  8
51
  5
102CE
 10
-434.151358
 20
168.384776
 30
0.0
 11
-441.766582
 21
176.0
 31
0.0
  0
LINE
  8
51
  5
102CF
 10
-431.651358
 20
169.42031
 30
0.0
 11
-440.731048
 21
178.5
 31
0.0
  0
CIRCLE
  8
51
  5
102D0
 10
-411.151358
 20
169.0
 30
0.0
 40
4.65
  0
LINE
  8
51
  5
102D1
 10
-434.151358
 20
157.0
 30
0.0
 11
-434.151358
 21
168.384776
 31
0.0
  0
LINE
  8
51
  5
102D2
 10
-431.651358
 20
157.0
 30
0.0
 11
-431.651358
 21
169.42031
 31
0.0
  0
LINE
  8
51
  5
102D3
 10
-434.151358
 20
157.0
 30
0.0
 11
-431.651358
 21
157.0
 31
0.0
  0
CIRCLE
  8
51
  5
102D4
 10
-411.151358
 20
169.0
 30
0.0
 40
3.5
  0
CIRCLE
  8
51
  5
102D6
 10
-441.151358
 20
199.0
 30
0.0
 40
3.5
  0
CIRCLE
  8
51
  5
102D9
 10
-361.151358
 20
169.0
 30
0.0
 40
4.65
  0
LINE
  8
51
  5
102DA
 10
-365.151358
 20
155.0
 30
0.0
 11
-365.151358
 21
166.628819
 31
0.0
  0
LINE
  8
51
  5
102DB
 10
-357.151358
 20
166.628819
 30
0.0
 11
-357.151358
 21
155.0
 31
0.0
  0
LINE
  8
51
  5
102DC
 10
-357.151358
 20
155.0
 30
0.0
 11
-365.151358
 21
155.0
 31
0.0
  0
CIRCLE
  8
51
  5
102DD
 10
-361.151358
 20
169.0
 30
0.0
 40
3.5
  0
CIRCLE
  8
51
  5
102E0
 10
-311.151358
 20
169.0
 30
0.0
 40
4.65
  0
LINE
  8
51
  5
102E1
 10
-307.151358
 20
155.0
 30
0.0
 11
-307.151358
 21
166.628819
 31
0.0
  0
LINE
  8
51
  5
102E2
 10
-315.151358
 20
166.628819
 30
0.0
 11
-315.151358
 21
155.0
 31
0.0
  0
LINE
  8
51
  5
102E3
 10
-315.151358
 20
155.0
 30
0.0
 11
-307.151358
 21
155.0
 31
0.0
  0
CIRCLE
  8
51
  5
102E5
 10
-311.151358
 20
169.0
 30
0.0
 40
3.5
  0
CIRCLE
  8
51
  5
102E7
 10
-261.151358
 20
169.0
 30
0.0
 40
4.65
  0
LINE
  8
51
  5
102E8
 10
-257.151358
 20
155.0
 30
0.0
 11
-257.151358
 21
166.628819
 31
0.0
  0
LINE
  8
51
  5
102E9
 10
-265.151358
 20
166.628819
 30
0.0
 11
-265.151358
 21
155.0
 31
0.0
  0
LINE
  8
51
  5
102EA
 10
-265.151358
 20
155.0
 30
0.0
 11
-257.151358
 21
155.0
 31
0.0
  0
CIRCLE
  8
51
  5
102EC
 10
-261.151358
 20
169.0
 30
0.0
 40
3.5
  0
LINE
  8
51
  5
102ED
 10
-315.151358
 20
219.0
 30
0.0
 11
-357.151358
 21
219.0
 31
0.0
  0
LINE
  8
51
  5
102EE
 10
-391.151358
 20
245.0
 30
0.0
 11
-438.780177
 21
245.0
 31
0.0
  0
ARC
  8
51
  5
102EF
 10
-441.151358
 20
249.0
 30
0.0
 40
3.5
 50
180.0
 51
0.0
  0
LINE
  8
51
  5
102F1
 10
-391.151358
 20
245.0
 30
0.0
 11
-391.151358
 21
219.0
 31
0.0
  0
LINE
  8
51
  5
102F2
 10
-365.151358
 20
219.0
 30
0.0
 11
-391.151358
 21
219.0
 31
0.0
  0
LINE
  8
51
  5
102F3
 10
-307.151358
 20
219.0
 30
0.0
 11
-265.151358
 21
219.0
 31
0.0
  0
LINE
  8
51
  5
102F4
 10
-161.151358
 20
151.5
 30
0.0
 11
-161.151358
 21
250.0
 31
0.0
  0
CIRCLE
  8
51
  5
102F6
 10
-211.151358
 20
169.0
 30
0.0
 40
4.65
  0
CIRCLE
  8
51
  5
102F7
 10
-211.151358
 20
169.0
 30
0.0
 40
3.5
  0
LINE
  8
51
  5
102F9
 10
-190.651358
 20
169.42031
 30
0.0
 11
-181.571668
 21
178.5
 31
0.0
  0
LINE
  8
51
  5
102FA
 10
-188.151358
 20
168.384776
 30
0.0
 11
-180.536135
 21
176.0
 31
0.0
  0
LINE
  8
51
  5
102FC
 10
-190.651358
 20
157.0
 30
0.0
 11
-190.651358
 21
169.42031
 31
0.0
  0
LINE
  8
51
  5
102FD
 10
-188.151358
 20
157.0
 30
0.0
 11
-188.151358
 21
168.384776
 31
0.0
  0
LINE
  8
51
  5
102FE
 10
-188.151358
 20
157.0
 30
0.0
 11
-190.651358
 21
157.0
 31
0.0
  0
ARC
  8
51
  5
10300
 10
-163.651358
 20
151.5
 30
0.0
 40
2.5
 50
270.0
 51
0.0
  0
CIRCLE
  8
51
  5
10301
 10
-175.151358
 20
163.0
 30
0.0
 40
5.45
  0
CIRCLE
  8
51
  5
10302
 10
-175.151358
 20
163.0
 30
0.0
 40
3.45
  0
CIRCLE
  8
51
  5
10303
 10
-181.151358
 20
199.0
 30
0.0
 40
4.65
  0
CIRCLE
  8
51
  5
10304
 10
-181.151358
 20
199.0
 30
0.0
 40
3.5
  0
LINE
  8
51
  5
10306
 10
-169.151358
 20
178.5
 30
0.0
 11
-181.571668
 21
178.5
 31
0.0
  0
LINE
  8
51
  5
10307
 10
-169.151358
 20
176.0
 30
0.0
 11
-180.536135
 21
176.0
 31
0.0
  0
LINE
  8
51
  5
10308
 10
-169.151358
 20
176.0
 30
0.0
 11
-169.151358
 21
178.5
 31
0.0
  0
LINE
  8
51
  5
1030A
 10
-231.151358
 20
245.0
 30
0.0
 11
-183.522539
 21
245.0
 31
0.0
  0
LINE
  8
51
  5
1030B
 10
-231.151358
 20
245.0
 30
0.0
 11
-231.151358
 21
219.0
 31
0.0
  0
ARC
  8
51
  5
1030C
 10
-181.151358
 20
249.0
 30
0.0
 40
3.5
 50
180.0
 51
0.0
  0
ARC
  8
51
  5
1030D
 10
-181.151358
 20
249.0
 30
0.0
 40
4.65
 50
180.0
 51
0.0
  0
LINE
  8
51
  5
1030E
 10
-178.780177
 20
245.0
 30
0.0
 11
-167.151358
 21
245.0
 31
0.0
  0
LINE
  8
51
  5
10310
 10
-167.151358
 20
245.0
 30
0.0
 11
-167.151358
 21
249.0
 31
0.0
  0
ARC
  8
34
  5
10323
 10
436.5
 20
304.604807
 30
0.0
 40
0.5
 50
180.0
 51
269.0
  0
ARC
  8
34
  5
10324
 10
436.5
 20
293.395193
 30
0.0
 40
0.5
 50
91.0
 51
180.0
  0
LINE
  8
63
  6
DASHDOT
  5
10510
 10
255.0
 20
143.709095
 30
0.0
 11
255.0
 21
244.0
 31
0.0
  0
LINE
  8
34
  5
1D4DD
 10
436.0
 20
172.5
 30
0.0
 11
436.0
 21
249.0
 31
0.0
  0
ARC
  8
34
  5
1D4DE
 10
437.0
 20
172.5
 30
0.0
 40
1.0
 50
180.0
 51
270.0
  0
LINE
  8
34
  5
1D4EF
 10
436.0
 20
325.5
 30
0.0
 11
436.0
 21
249.0
 31
0.0
  0
ARC
  8
34
  5
1D4F4
 10
437.0
 20
325.5
 30
0.0
 40
1.0
 50
90.0
 51
180.0
  0
ARC
  8
62
  5
1D6B9
 10
394.8
 20
338.8
 30
0.0
 40
5.0
 50
0.0
 51
90.0
  0
ARC
  8
62
  5
1D6BA
 10
394.8
 20
159.2
 30
0.0
 40
5.0
 50
270.0
 51
0.0
  0
TEXT
  8
L20
  5
1D6BB
 10
-404.34252
 20
395.429221
 30
0.0
 40
12.946666
  1
FIBOX EKI 23-0 200x300x130 BASE
  0
LINE
  8
24
  5
1D6BD
 10
365.0
 20
408.5
 30
0.0
 11
365.113458
 21
402.0
 31
0.0
  0
LINE
  8
24
  5
1D6BE
 10
360.0
 20
408.5
 30
0.0
 11
360.104883
 21
402.491274
 31
0.0
  0
LINE
  8
24
  5
1D6BF
 10
350.0
 20
408.5
 30
0.0
 11
349.895117
 21
402.491274
 31
0.0
  0
LINE
  8
24
  5
1D6C0
 10
345.0
 20
408.5
 30
0.0
 11
344.886542
 21
402.0
 31
0.0
  0
LINE
  8
21
  5
1D6C3
 10
403.0
 20
403.5
 30
0.0
 11
403.0
 21
524.5
 31
0.0
  0
LINE
  8
21
  5
1D6C4
 10
405.0
 20
399.0
 30
0.0
 11
405.0
 21
529.0
 31
0.0
  0
LINE
  8
23
  6
DASHDOT
  5
1D6C5
 10
255.0
 20
536.0
 30
0.0
 11
255.0
 21
392.0
 31
0.0
  0
LINE
  8
21
  5
1D6C6
 10
105.0
 20
399.0
 30
0.0
 11
105.0
 21
529.0
 31
0.0
  0
LINE
  8
21
  5
1D6C7
 10
107.0
 20
403.5
 30
0.0
 11
107.0
 21
524.5
 31
0.0
  0
LINE
  8
21
  5
1D6CC
 10
401.0
 20
401.5
 30
0.0
 11
255.0
 21
401.5
 31
0.0
  0
LINE
  8
21
  5
1D6CD
 10
405.0
 20
399.0
 30
0.0
 11
255.0
 21
399.0
 31
0.0
  0
LINE
  8
24
  5
1D6CE
 10
381.5
 20
402.0
 30
0.0
 11
255.0
 21
402.0
 31
0.0
  0
LINE
  8
21
  5
1D6CF
 10
105.0
 20
399.0
 30
0.0
 11
255.0
 21
399.0
 31
0.0
  0
LINE
  8
21
  5
1D6D0
 10
109.0
 20
401.5
 30
0.0
 11
255.0
 21
401.5
 31
0.0
  0
ARC
  8
21
  5
1D6D3
 10
109.0
 20
403.5
 30
0.0
 40
2.0
 50
180.0
 51
270.0
  0
LINE
  8
24
  5
1D6D6
 10
128.5
 20
402.0
 30
0.0
 11
255.0
 21
402.0
 31
0.0
  0
LINE
  8
21
  5
1D6D7
 10
155.0
 20
397.0
 30
0.0
 11
158.5
 21
397.0
 31
0.0
  0
LINE
  8
21
  5
1D6D8
 10
113.0
 20
397.0
 30
0.0
 11
134.6
 21
397.0
 31
0.0
  0
LINE
  8
21
  5
1D6D9
 10
113.0
 20
399.0
 30
0.0
 11
113.0
 21
397.0
 31
0.0
  0
ARC
  8
24
  5
1D6DA
 10
128.5
 20
403.0
 30
0.0
 40
1.0
 50
180.0
 51
270.0
  0
LINE
  8
21
  5
1D6DB
 10
123.6
 20
397.0
 30
0.0
 11
123.6
 21
399.0
 31
0.0
  0
LINE
  8
21
  5
1D6DC
 10
132.1
 20
397.0
 30
0.0
 11
132.1
 21
399.0
 31
0.0
  0
LINE
  8
21
  5
1D6DD
 10
134.6
 20
397.0
 30
0.0
 11
134.6
 21
399.0
 31
0.0
  0
LINE
  8
21
  5
1D6DE
 10
155.0
 20
397.0
 30
0.0
 11
151.5
 21
397.0
 31
0.0
  0
LINE
  8
21
  5
1D6DF
 10
151.5
 20
397.0
 30
0.0
 11
150.345299
 21
399.0
 31
0.0
  0
LINE
  8
21
  5
1D6E0
 10
158.5
 20
397.0
 30
0.0
 11
159.654701
 21
399.0
 31
0.0
  0
LINE
  8
21
  5
1D6E1
 10
205.0
 20
397.0
 30
0.0
 11
201.5
 21
397.0
 31
0.0
  0
LINE
  8
21
  5
1D6E2
 10
201.5
 20
397.0
 30
0.0
 11
200.345299
 21
399.0
 31
0.0
  0
LINE
  8
21
  5
1D6E3
 10
208.5
 20
397.0
 30
0.0
 11
209.654701
 21
399.0
 31
0.0
  0
LINE
  8
21
  5
1D6E4
 10
205.0
 20
397.0
 30
0.0
 11
208.5
 21
397.0
 31
0.0
  0
LINE
  8
21
  5
1D6E5
 10
255.0
 20
397.0
 30
0.0
 11
251.5
 21
397.0
 31
0.0
  0
LINE
  8
21
  5
1D6E6
 10
251.5
 20
397.0
 30
0.0
 11
250.345299
 21
399.0
 31
0.0
  0
LINE
  8
21
  5
1D6E7
 10
255.0
 20
397.0
 30
0.0
 11
258.5
 21
397.0
 31
0.0
  0
LINE
  8
21
  5
1D6E8
 10
258.5
 20
397.0
 30
0.0
 11
259.654701
 21
399.0
 31
0.0
  0
LINE
  8
21
  5
1D6E9
 10
397.0
 20
397.0
 30
0.0
 11
375.4
 21
397.0
 31
0.0
  0
LINE
  8
21
  5
1D6EA
 10
305.0
 20
397.0
 30
0.0
 11
301.5
 21
397.0
 31
0.0
  0
LINE
  8
21
  5
1D6EB
 10
301.5
 20
397.0
 30
0.0
 11
300.345299
 21
399.0
 31
0.0
  0
LINE
  8
21
  5
1D6EC
 10
308.5
 20
397.0
 30
0.0
 11
309.654701
 21
399.0
 31
0.0
  0
LINE
  8
21
  5
1D6ED
 10
305.0
 20
397.0
 30
0.0
 11
308.5
 21
397.0
 31
0.0
  0
LINE
  8
21
  5
1D6EE
 10
355.0
 20
397.0
 30
0.0
 11
351.5
 21
397.0
 31
0.0
  0
ARC
  8
24
  5
1D6EF
 10
349.395193
 20
402.5
 30
0.0
 40
0.5
 50
270.0
 51
359.0
  0
LINE
  8
21
  5
1D6F0
 10
351.5
 20
397.0
 30
0.0
 11
350.345299
 21
399.0
 31
0.0
  0
ARC
  8
24
  5
1D6F1
 10
360.604807
 20
402.5
 30
0.0
 40
0.5
 50
181.0
 51
270.0
  0
LINE
  8
21
  5
1D6F2
 10
355.0
 20
397.0
 30
0.0
 11
358.5
 21
397.0
 31
0.0
  0
LINE
  8
21
  5
1D6F3
 10
358.5
 20
397.0
 30
0.0
 11
359.654701
 21
399.0
 31
0.0
  0
LINE
  8
21
  5
1D6F4
 10
375.4
 20
397.0
 30
0.0
 11
375.4
 21
399.0
 31
0.0
  0
ARC
  8
24
  5
1D6F5
 10
381.5
 20
403.0
 30
0.0
 40
1.0
 50
270.0
 51
0.0
  0
LINE
  8
21
  5
1D6F6
 10
377.9
 20
397.0
 30
0.0
 11
377.9
 21
399.0
 31
0.0
  0
LINE
  8
21
  5
1D6F7
 10
386.4
 20
397.0
 30
0.0
 11
386.4
 21
399.0
 31
0.0
  0
LINE
  8
21
  5
1D6F8
 10
397.0
 20
399.0
 30
0.0
 11
397.0
 21
397.0
 31
0.0
  0
ARC
  8
21
  5
1D6F9
 10
401.0
 20
403.5
 30
0.0
 40
2.0
 50
270.0
 51
0.0
  0
LINE
  8
21
  5
1D6FE
 10
399.196152
 20
532.0
 30
0.0
 11
255.0
 21
532.0
 31
0.0
  0
LINE
  8
21
  5
1D6FF
 10
401.0
 20
526.5
 30
0.0
 11
255.0
 21
526.5
 31
0.0
  0
LINE
  8
21
  5
1D700
 10
405.0
 20
529.0
 30
0.0
 11
255.0
 21
529.0
 31
0.0
  0
LINE
  8
21
  5
1D701
 10
105.0
 20
529.0
 30
0.0
 11
255.0
 21
529.0
 31
0.0
  0
LINE
  8
21
  5
1D702
 10
109.0
 20
526.5
 30
0.0
 11
255.0
 21
526.5
 31
0.0
  0
LINE
  8
21
  5
1D703
 10
110.803848
 20
532.0
 30
0.0
 11
255.0
 21
532.0
 31
0.0
  0
ARC
  8
21
  5
1D704
 10
109.0
 20
524.5
 30
0.0
 40
2.0
 50
90.0
 51
180.0
  0
LINE
  8
21
  5
1D706
 10
110.0
 20
529.0
 30
0.0
 11
110.803848
 21
532.0
 31
0.0
  0
LINE
  8
24
  5
1D719
 10
352.6
 20
408.5
 30
0.0
 11
355.0
 21
408.5
 31
0.0
  0
LINE
  8
24
  5
1D71A
 10
345.0
 20
408.5
 30
0.0
 11
350.0
 21
408.5
 31
0.0
  0
LINE
  8
24
  5
1D71B
 10
350.0
 20
408.5
 30
0.0
 11
352.6
 21
408.5
 31
0.0
  0
LINE
  8
24
  5
1D71C
 10
365.0
 20
408.5
 30
0.0
 11
360.0
 21
408.5
 31
0.0
  0
LINE
  8
24
  5
1D71D
 10
360.0
 20
408.5
 30
0.0
 11
357.4
 21
408.5
 31
0.0
  0
LINE
  8
24
  5
1D71E
 10
357.4
 20
408.5
 30
0.0
 11
355.0
 21
408.5
 31
0.0
  0
ARC
  8
21
  5
1D72F
 10
401.0
 20
524.5
 30
0.0
 40
2.0
 50
0.0
 51
90.0
  0
LINE
  8
21
  5
1D731
 10
400.0
 20
529.0
 30
0.0
 11
399.196152
 21
532.0
 31
0.0
  0
LINE
  8
34
  5
1D7A1
 10
437.0
 20
171.5
 30
0.0
 11
566.0
 21
171.5
 31
0.0
  0
LINE
  8
34
  5
1D7A3
 10
437.0
 20
326.5
 30
0.0
 11
566.0
 21
326.5
 31
0.0
  0
LINE
  8
24
  5
1D7A4
 10
127.5
 20
403.0
 30
0.0
 11
127.5
 21
532.0
 31
0.0
  0
LINE
  8
24
  5
1D7A5
 10
382.5
 20
403.0
 30
0.0
 11
382.5
 21
532.0
 31
0.0
  0
LINE
  8
13
  6
DASHDOT
  5
1D7A6
 10
255.0
 20
-38.0
 30
0.0
 11
255.0
 21
106.0
 31
0.0
  0
LINE
  8
11
  5
1D7A7
 10
107.0
 20
94.5
 30
0.0
 11
107.0
 21
-26.5
 31
0.0
  0
LINE
  8
11
  5
1D7A8
 10
105.0
 20
99.0
 30
0.0
 11
105.0
 21
-31.0
 31
0.0
  0
LINE
  8
14
  5
1D7A9
 10
127.5
 20
95.0
 30
0.0
 11
127.5
 21
-34.0
 31
0.0
  0
LINE
  8
11
  5
1D7AA
 10
405.0
 20
99.0
 30
0.0
 11
405.0
 21
-31.0
 31
0.0
  0
LINE
  8
11
  5
1D7AB
 10
403.0
 20
94.5
 30
0.0
 11
403.0
 21
-26.5
 31
0.0
  0
LINE
  8
14
  5
1D7AC
 10
382.5
 20
95.0
 30
0.0
 11
382.5
 21
-34.0
 31
0.0
  0
LINE
  8
11
  5
1D7AD
 10
113.0
 20
101.0
 30
0.0
 11
134.6
 21
101.0
 31
0.0
  0
LINE
  8
11
  5
1D7AE
 10
109.0
 20
96.5
 30
0.0
 11
255.0
 21
96.5
 31
0.0
  0
LINE
  8
11
  5
1D7AF
 10
105.0
 20
99.0
 30
0.0
 11
255.0
 21
99.0
 31
0.0
  0
LINE
  8
14
  5
1D7B0
 10
128.5
 20
96.0
 30
0.0
 11
255.0
 21
96.0
 31
0.0
  0
LINE
  8
14
  5
1D7B1
 10
381.5
 20
96.0
 30
0.0
 11
255.0
 21
96.0
 31
0.0
  0
LINE
  8
11
  5
1D7B2
 10
405.0
 20
99.0
 30
0.0
 11
255.0
 21
99.0
 31
0.0
  0
LINE
  8
11
  5
1D7B3
 10
401.0
 20
96.5
 30
0.0
 11
255.0
 21
96.5
 31
0.0
  0
LINE
  8
11
  5
1D7B4
 10
397.0
 20
101.0
 30
0.0
 11
375.4
 21
101.0
 31
0.0
  0
ARC
  8
11
  5
1D7B5
 10
401.0
 20
94.5
 30
0.0
 40
2.0
 50
0.0
 51
90.0
  0
LINE
  8
11
  5
1D7B6
 10
397.0
 20
99.0
 30
0.0
 11
397.0
 21
101.0
 31
0.0
  0
LINE
  8
11
  5
1D7B7
 10
377.9
 20
101.0
 30
0.0
 11
377.9
 21
99.0
 31
0.0
  0
LINE
  8
11
  5
1D7B8
 10
386.4
 20
101.0
 30
0.0
 11
386.4
 21
99.0
 31
0.0
  0
ARC
  8
14
  5
1D7B9
 10
381.5
 20
95.0
 30
0.0
 40
1.0
 50
0.0
 51
90.0
  0
LINE
  8
11
  5
1D7BA
 10
355.0
 20
101.0
 30
0.0
 11
358.5
 21
101.0
 31
0.0
  0
LINE
  8
11
  5
1D7BB
 10
375.4
 20
101.0
 30
0.0
 11
375.4
 21
99.0
 31
0.0
  0
LINE
  8
11
  5
1D7BC
 10
358.5
 20
101.0
 30
0.0
 11
359.654701
 21
99.0
 31
0.0
  0
LINE
  8
11
  5
1D7BD
 10
351.5
 20
101.0
 30
0.0
 11
350.345299
 21
99.0
 31
0.0
  0
LINE
  8
11
  5
1D7BE
 10
355.0
 20
101.0
 30
0.0
 11
351.5
 21
101.0
 31
0.0
  0
LINE
  8
11
  5
1D7BF
 10
305.0
 20
101.0
 30
0.0
 11
308.5
 21
101.0
 31
0.0
  0
LINE
  8
11
  5
1D7C0
 10
308.5
 20
101.0
 30
0.0
 11
309.654701
 21
99.0
 31
0.0
  0
LINE
  8
11
  5
1D7C1
 10
305.0
 20
101.0
 30
0.0
 11
301.5
 21
101.0
 31
0.0
  0
LINE
  8
11
  5
1D7C2
 10
301.5
 20
101.0
 30
0.0
 11
300.345299
 21
99.0
 31
0.0
  0
LINE
  8
11
  5
1D7C3
 10
255.0
 20
101.0
 30
0.0
 11
258.5
 21
101.0
 31
0.0
  0
LINE
  8
11
  5
1D7C4
 10
258.5
 20
101.0
 30
0.0
 11
259.654701
 21
99.0
 31
0.0
  0
LINE
  8
11
  5
1D7C5
 10
255.0
 20
101.0
 30
0.0
 11
251.5
 21
101.0
 31
0.0
  0
LINE
  8
11
  5
1D7C6
 10
251.5
 20
101.0
 30
0.0
 11
250.345299
 21
99.0
 31
0.0
  0
LINE
  8
11
  5
1D7C7
 10
205.0
 20
101.0
 30
0.0
 11
208.5
 21
101.0
 31
0.0
  0
LINE
  8
11
  5
1D7C8
 10
208.5
 20
101.0
 30
0.0
 11
209.654701
 21
99.0
 31
0.0
  0
LINE
  8
11
  5
1D7C9
 10
201.5
 20
101.0
 30
0.0
 11
200.345299
 21
99.0
 31
0.0
  0
LINE
  8
11
  5
1D7CA
 10
205.0
 20
101.0
 30
0.0
 11
201.5
 21
101.0
 31
0.0
  0
LINE
  8
14
  5
1D7CB
 10
152.6
 20
89.5
 30
0.0
 11
155.0
 21
89.5
 31
0.0
  0
LINE
  8
11
  5
1D7CC
 10
155.0
 20
101.0
 30
0.0
 11
151.5
 21
101.0
 31
0.0
  0
LINE
  8
14
  5
1D7CD
 10
160.0
 20
89.5
 30
0.0
 11
160.104883
 21
95.508726
 31
0.0
  0
LINE
  8
14
  5
1D7CE
 10
165.0
 20
89.5
 30
0.0
 11
165.113458
 21
96.0
 31
0.0
  0
ARC
  8
14
  5
1D7CF
 10
160.604807
 20
95.5
 30
0.0
 40
0.5
 50
90.0
 51
179.0
  0
LINE
  8
11
  5
1D7D0
 10
158.5
 20
101.0
 30
0.0
 11
159.654701
 21
99.0
 31
0.0
  0
LINE
  8
11
  5
1D7D1
 10
155.0
 20
101.0
 30
0.0
 11
158.5
 21
101.0
 31
0.0
  0
LINE
  8
14
  5
1D7D2
 10
165.0
 20
89.5
 30
0.0
 11
160.0
 21
89.5
 31
0.0
  0
LINE
  8
14
  5
1D7D3
 10
157.4
 20
89.5
 30
0.0
 11
155.0
 21
89.5
 31
0.0
  0
LINE
  8
14
  5
1D7D4
 10
160.0
 20
89.5
 30
0.0
 11
157.4
 21
89.5
 31
0.0
  0
LINE
  8
14
  5
1D7D5
 10
145.0
 20
89.5
 30
0.0
 11
144.886542
 21
96.0
 31
0.0
  0
LINE
  8
14
  5
1D7D6
 10
150.0
 20
89.5
 30
0.0
 11
149.895117
 21
95.508726
 31
0.0
  0
ARC
  8
14
  5
1D7D7
 10
149.395193
 20
95.5
 30
0.0
 40
0.5
 50
1.0
 51
90.0
  0
LINE
  8
11
  5
1D7D8
 10
151.5
 20
101.0
 30
0.0
 11
150.345299
 21
99.0
 31
0.0
  0
LINE
  8
11
  5
1D7D9
 10
134.6
 20
101.0
 30
0.0
 11
134.6
 21
99.0
 31
0.0
  0
LINE
  8
14
  5
1D7DA
 10
145.0
 20
89.5
 30
0.0
 11
150.0
 21
89.5
 31
0.0
  0
LINE
  8
14
  5
1D7DB
 10
150.0
 20
89.5
 30
0.0
 11
152.6
 21
89.5
 31
0.0
  0
ARC
  8
14
  5
1D7DC
 10
128.5
 20
95.0
 30
0.0
 40
1.0
 50
90.0
 51
180.0
  0
LINE
  8
11
  5
1D7DD
 10
132.1
 20
101.0
 30
0.0
 11
132.1
 21
99.0
 31
0.0
  0
LINE
  8
11
  5
1D7DE
 10
123.6
 20
101.0
 30
0.0
 11
123.6
 21
99.0
 31
0.0
  0
LINE
  8
11
  5
1D7DF
 10
113.0
 20
99.0
 30
0.0
 11
113.0
 21
101.0
 31
0.0
  0
ARC
  8
11
  5
1D7E0
 10
109.0
 20
94.5
 30
0.0
 40
2.0
 50
90.0
 51
180.0
  0
LINE
  8
11
  5
1D7E1
 10
110.803848
 20
-34.0
 30
0.0
 11
255.0
 21
-34.0
 31
0.0
  0
LINE
  8
11
  5
1D7E2
 10
109.0
 20
-28.5
 30
0.0
 11
255.0
 21
-28.5
 31
0.0
  0
LINE
  8
11
  5
1D7E3
 10
105.0
 20
-31.0
 30
0.0
 11
255.0
 21
-31.0
 31
0.0
  0
LINE
  8
11
  5
1D7E4
 10
405.0
 20
-31.0
 30
0.0
 11
255.0
 21
-31.0
 31
0.0
  0
LINE
  8
11
  5
1D7E5
 10
401.0
 20
-28.5
 30
0.0
 11
255.0
 21
-28.5
 31
0.0
  0
LINE
  8
11
  5
1D7E6
 10
399.196152
 20
-34.0
 30
0.0
 11
255.0
 21
-34.0
 31
0.0
  0
LINE
  8
11
  5
1D7E7
 10
400.0
 20
-31.0
 30
0.0
 11
399.196152
 21
-34.0
 31
0.0
  0
ARC
  8
11
  5
1D7E8
 10
401.0
 20
-26.5
 30
0.0
 40
2.0
 50
270.0
 51
0.0
  0
LINE
  8
11
  5
1D7E9
 10
110.0
 20
-31.0
 30
0.0
 11
110.803848
 21
-34.0
 31
0.0
  0
ARC
  8
11
  5
1D7EA
 10
109.0
 20
-26.5
 30
0.0
 40
2.0
 50
180.0
 51
270.0
  0
LINE
  8
41
  5
1D7EB
 10
-56.0
 20
343.196152
 30
0.0
 11
-56.0
 21
249.0
 31
0.0
  0
LINE
  8
41
  5
1D7EC
 10
-50.5
 20
345.0
 30
0.0
 11
-50.5
 21
249.0
 31
0.0
  0
LINE
  8
41
  5
1D7ED
 10
-53.0
 20
349.0
 30
0.0
 11
-53.0
 21
249.0
 31
0.0
  0
LINE
  8
41
  5
1D7EE
 10
79.0
 20
341.0
 30
0.0
 11
79.0
 21
319.4
 31
0.0
  0
LINE
  8
41
  5
1D7EF
 10
74.5
 20
345.0
 30
0.0
 11
74.5
 21
249.0
 31
0.0
  0
LINE
  8
41
  5
1D7F0
 10
77.0
 20
349.0
 30
0.0
 11
77.0
 21
249.0
 31
0.0
  0
LINE
  8
41
  5
1D7F1
 10
72.5
 20
347.0
 30
0.0
 11
-48.5
 21
347.0
 31
0.0
  0
LINE
  8
41
  5
1D7F2
 10
77.0
 20
349.0
 30
0.0
 11
-53.0
 21
349.0
 31
0.0
  0
ARC
  8
41
  5
1D7F3
 10
72.5
 20
345.0
 30
0.0
 40
2.0
 50
0.0
 51
90.0
  0
LINE
  8
41
  5
1D7F4
 10
77.0
 20
341.0
 30
0.0
 11
79.0
 21
341.0
 31
0.0
  0
LINE
  8
41
  5
1D7F5
 10
-53.0
 20
344.0
 30
0.0
 11
-56.0
 21
343.196152
 31
0.0
  0
ARC
  8
41
  5
1D7F6
 10
-48.5
 20
345.0
 30
0.0
 40
2.0
 50
90.0
 51
180.0
  0
LINE
  8
41
  5
1D7F7
 10
72.5
 20
151.0
 30
0.0
 11
-48.5
 21
151.0
 31
0.0
  0
LINE
  8
44
  5
1D7F8
 10
73.0
 20
171.5
 30
0.0
 11
-56.0
 21
171.5
 31
0.0
  0
LINE
  8
41
  5
1D7F9
 10
77.0
 20
149.0
 30
0.0
 11
-53.0
 21
149.0
 31
0.0
  0
LINE
  8
44
  5
1D7FA
 10
73.0
 20
326.5
 30
0.0
 11
-56.0
 21
326.5
 31
0.0
  0
LINE
  8
43
  6
DASHDOT
  5
1D7FB
 10
-60.0
 20
249.0
 30
0.0
 11
84.0
 21
249.0
 31
0.0
  0
LINE
  8
44
  5
1D7FC
 10
67.5
 20
209.0
 30
0.0
 11
67.5
 21
204.0
 31
0.0
  0
LINE
  8
41
  5
1D7FD
 10
74.5
 20
153.0
 30
0.0
 11
74.5
 21
249.0
 31
0.0
  0
LINE
  8
44
  5
1D7FE
 10
74.0
 20
172.5
 30
0.0
 11
74.0
 21
249.0
 31
0.0
  0
LINE
  8
41
  5
1D7FF
 10
77.0
 20
149.0
 30
0.0
 11
77.0
 21
249.0
 31
0.0
  0
LINE
  8
44
  5
1D800
 10
74.0
 20
325.5
 30
0.0
 11
74.0
 21
249.0
 31
0.0
  0
ARC
  8
44
  5
1D801
 10
73.0
 20
325.5
 30
0.0
 40
1.0
 50
0.0
 51
90.0
  0
LINE
  8
41
  5
1D802
 10
79.0
 20
330.4
 30
0.0
 11
77.0
 21
330.4
 31
0.0
  0
LINE
  8
41
  5
1D803
 10
79.0
 20
321.9
 30
0.0
 11
77.0
 21
321.9
 31
0.0
  0
LINE
  8
41
  5
1D804
 10
79.0
 20
319.4
 30
0.0
 11
77.0
 21
319.4
 31
0.0
  0
LINE
  8
41
  5
1D805
 10
79.0
 20
302.5
 30
0.0
 11
77.0
 21
303.654701
 31
0.0
  0
LINE
  8
41
  5
1D806
 10
79.0
 20
299.0
 30
0.0
 11
79.0
 21
295.5
 31
0.0
  0
LINE
  8
41
  5
1D807
 10
79.0
 20
295.5
 30
0.0
 11
77.0
 21
294.345299
 31
0.0
  0
LINE
  8
41
  5
1D808
 10
79.0
 20
299.0
 30
0.0
 11
79.0
 21
302.5
 31
0.0
  0
LINE
  8
41
  5
1D809
 10
79.0
 20
249.0
 30
0.0
 11
79.0
 21
245.5
 31
0.0
  0
LINE
  8
41
  5
1D80A
 10
79.0
 20
245.5
 30
0.0
 11
77.0
 21
244.345299
 31
0.0
  0
LINE
  8
41
  5
1D80B
 10
79.0
 20
252.5
 30
0.0
 11
77.0
 21
253.654701
 31
0.0
  0
LINE
  8
41
  5
1D80C
 10
79.0
 20
249.0
 30
0.0
 11
79.0
 21
252.5
 31
0.0
  0
LINE
  8
44
  5
1D80D
 10
67.5
 20
209.0
 30
0.0
 11
74.0
 21
209.113458
 31
0.0
  0
LINE
  8
41
  5
1D80E
 10
79.0
 20
157.0
 30
0.0
 11
79.0
 21
178.6
 31
0.0
  0
LINE
  8
44
  5
1D80F
 10
67.5
 20
189.0
 30
0.0
 11
74.0
 21
188.886542
 31
0.0
  0
ARC
  8
44
  5
1D810
 10
73.5
 20
204.604807
 30
0.0
 40
0.5
 50
271.0
 51
0.0
  0
ARC
  8
44
  5
1D811
 10
73.5
 20
193.395193
 30
0.0
 40
0.5
 50
0.0
 51
89.0
  0
LINE
  8
41
  5
1D812
 10
79.0
 20
199.0
 30
0.0
 11
79.0
 21
202.5
 31
0.0
  0
LINE
  8
41
  5
1D813
 10
79.0
 20
202.5
 30
0.0
 11
77.0
 21
203.654701
 31
0.0
  0
LINE
  8
41
  5
1D814
 10
79.0
 20
195.5
 30
0.0
 11
77.0
 21
194.345299
 31
0.0
  0
LINE
  8
41
  5
1D815
 10
79.0
 20
199.0
 30
0.0
 11
79.0
 21
195.5
 31
0.0
  0
LINE
  8
41
  5
1D816
 10
79.0
 20
178.6
 30
0.0
 11
77.0
 21
178.6
 31
0.0
  0
LINE
  8
41
  5
1D817
 10
79.0
 20
176.1
 30
0.0
 11
77.0
 21
176.1
 31
0.0
  0
LINE
  8
44
  5
1D818
 10
67.5
 20
189.0
 30
0.0
 11
67.5
 21
194.0
 31
0.0
  0
LINE
  8
44
  5
1D819
 10
67.5
 20
201.4
 30
0.0
 11
67.5
 21
199.0
 31
0.0
  0
LINE
  8
44
  5
1D81A
 10
67.5
 20
204.0
 30
0.0
 11
67.5
 21
201.4
 31
0.0
  0
LINE
  8
44
  5
1D81B
 10
67.5
 20
194.0
 30
0.0
 11
67.5
 21
196.6
 31
0.0
  0
LINE
  8
44
  5
1D81C
 10
67.5
 20
196.6
 30
0.0
 11
67.5
 21
199.0
 31
0.0
  0
LINE
  8
44
  5
1D81D
 10
67.5
 20
204.0
 30
0.0
 11
73.508726
 21
204.104883
 31
0.0
  0
LINE
  8
44
  5
1D81E
 10
67.5
 20
194.0
 30
0.0
 11
73.508726
 21
193.895117
 31
0.0
  0
ARC
  8
41
  5
1D81F
 10
72.5
 20
153.0
 30
0.0
 40
2.0
 50
270.0
 51
0.0
  0
ARC
  8
44
  5
1D820
 10
73.0
 20
172.5
 30
0.0
 40
1.0
 50
270.0
 51
0.0
  0
LINE
  8
41
  5
1D821
 10
79.0
 20
167.6
 30
0.0
 11
77.0
 21
167.6
 31
0.0
  0
LINE
  8
41
  5
1D822
 10
77.0
 20
157.0
 30
0.0
 11
79.0
 21
157.0
 31
0.0
  0
LINE
  8
41
  5
1D823
 10
-50.5
 20
153.0
 30
0.0
 11
-50.5
 21
249.0
 31
0.0
  0
LINE
  8
41
  5
1D824
 10
-56.0
 20
154.803848
 30
0.0
 11
-56.0
 21
249.0
 31
0.0
  0
LINE
  8
41
  5
1D825
 10
-53.0
 20
149.0
 30
0.0
 11
-53.0
 21
249.0
 31
0.0
  0
LINE
  8
41
  5
1D826
 10
-53.0
 20
154.0
 30
0.0
 11
-56.0
 21
154.803848
 31
0.0
  0
ARC
  8
41
  5
1D827
 10
-48.5
 20
153.0
 30
0.0
 40
2.0
 50
180.0
 51
270.0
  0
ENDBLK
  8
0
  5
1D82F
  0
ENDSEC
  0
SECTION
  2
ENTITIES
  0
VIEWPORT
  8
0
  5
1
 67
     1
 68
     1
 10
210.0
 20
152.094241
 30
0.0
 40
420.0
 41
304.188482
 69
     1
1001
ACAD
1000
MVIEW
1002
{
1070
    16
1010
0.0
1020
0.0
1030
0.0
1010
0.0
1020
0.0
1030
1.0
1040
0.0
1040
304.188482
1040
210.0
1040
152.094241
1040
50.0
1040
0.0
1040
0.0
1070
     0
1070
   100
1070
     1
1070
     1
1070
     1
1070
     0
1070
     0
1070
     0
1040
0.0
1040
0.0
1040
0.0
1040
1.0
1040
1.0
1040
0.0
1040
0.0
1070
     0
1002
{
1002
}
1002
}
  0
INSERT
  8
L1
  5
1D830
  2
EKI230B
 10
0.0
 20
0.0
 30
0.0
  0
ENDSEC
  0
EOF
