  0
SECTION
  2
HEADER
  9
$ACADVER
  1
AC1009
  9
$INSBASE
 10
0.0
 20
0.0
 30
0.0
  9
$EXTMIN
 10
-379.683805
 20
194.30381
 30
0.0
  9
$EXTMAX
 10
458.628428
 20
611.69619
 30
0.0
  9
$LIMMIN
 10
0.0
 20
0.0
  9
$LIMMAX
 10
420.0
 20
297.0
  9
$ORTHOMODE
 70
     0
  9
$REGENMODE
 70
     1
  9
$FILLMODE
 70
     1
  9
$QTEXTMODE
 70
     0
  9
$MIRRTEXT
 70
     1
  9
$DRAGMODE
 70
     2
  9
$LTSCALE
 40
7.0
  9
$OSMODE
 70
     0
  9
$ATTMODE
 70
     1
  9
$TEXTSIZE
 40
3.5
  9
$TRACEWID
 40
0.05
  9
$TEXTSTYLE
  7
STANDARD
  9
$CLAYER
  8
L1
  9
$CELTYPE
  6
BYLAYER
  9
$CECOLOR
 62
   256
  9
$DIMSCALE
 40
1.0
  9
$DIMASZ
 40
3.5
  9
$DIMEXO
 40
0.0
  9
$DIMDLI
 40
10.0
  9
$DIMRND
 40
0.0
  9
$DIMDLE
 40
0.0
  9
$DIMEXE
 40
2.0
  9
$DIMTP
 40
0.0
  9
$DIMTM
 40
0.0
  9
$DIMTXT
 40
3.5
  9
$DIMCEN
 40
2.5
  9
$DIMTSZ
 40
0.0
  9
$DIMTOL
 70
     0
  9
$DIMLIM
 70
     0
  9
$DIMTIH
 70
     0
  9
$DIMTOH
 70
     0
  9
$DIMSE1
 70
     0
  9
$DIMSE2
 70
     0
  9
$DIMTAD
 70
     1
  9
$DIMZIN
 70
     8
  9
$DIMBLK
  1

  9
$DIMASO
 70
     1
  9
$DIMSHO
 70
     1
  9
$DIMPOST
  1

  9
$DIMAPOST
  1

  9
$DIMALT
 70
     0
  9
$DIMALTD
 70
     2
  9
$DIMALTF
 40
25.4
  9
$DIMLFAC
 40
1.0
  9
$DIMTOFL
 70
     1
  9
$DIMTVP
 40
0.0
  9
$DIMTIX
 70
     0
  9
$DIMSOXD
 70
     0
  9
$DIMSAH
 70
     0
  9
$DIMBLK1
  1

  9
$DIMBLK2
  1

  9
$DIMSTYLE
  2
*UNNAMED
  9
$DIMCLRD
 70
   256
  9
$DIMCLRE
 70
   256
  9
$DIMCLRT
 70
     3
  9
$DIMTFAC
 40
1.0
  9
$DIMGAP
 40
2.0
  9
$LUNITS
 70
     2
  9
$LUPREC
 70
     2
  9
$SKETCHINC
 40
1.0
  9
$FILLETRAD
 40
0.0
  9
$AUNITS
 70
     0
  9
$AUPREC
 70
     2
  9
$MENU
  1
CAESAR
  9
$ELEVATION
 40
0.0
  9
$PELEVATION
 40
0.0
  9
$THICKNESS
 40
0.0
  9
$LIMCHECK
 70
     0
  9
$BLIPMODE
 70
     1
  9
$CHAMFERA
 40
5.0
  9
$CHAMFERB
 40
5.0
  9
$SKPOLY
 70
     0
  9
$TDCREATE
 40
2449682.493984143
  9
$TDUPDATE
 40
2449682.493984143
  9
$TDINDWG
 40
0.0000000000
  9
$TDUSRTIMER
 40
0.0000000000
  9
$USRTIMER
 70
     1
  9
$ANGBASE
 50
0.0
  9
$ANGDIR
 70
     0
  9
$PDMODE
 70
     0
  9
$PDSIZE
 40
0.0
  9
$PLINEWID
 40
0.0
  9
$COORDS
 70
     2
  9
$SPLFRAME
 70
     0
  9
$SPLINETYPE
 70
     6
  9
$SPLINESEGS
 70
     8
  9
$ATTDIA
 70
     0
  9
$ATTREQ
 70
     1
  9
$HANDLING
 70
     1
  9
$HANDSEED
  5
2307E
  9
$SURFTAB1
 70
     6
  9
$SURFTAB2
 70
     6
  9
$SURFTYPE
 70
     6
  9
$SURFU
 70
     6
  9
$SURFV
 70
     6
  9
$UCSNAME
  2

  9
$UCSORG
 10
0.0
 20
0.0
 30
0.0
  9
$UCSXDIR
 10
1.0
 20
0.0
 30
0.0
  9
$UCSYDIR
 10
0.0
 20
1.0
 30
0.0
  9
$PUCSNAME
  2

  9
$PUCSORG
 10
0.0
 20
0.0
 30
0.0
  9
$PUCSXDIR
 10
1.0
 20
0.0
 30
0.0
  9
$PUCSYDIR
 10
0.0
 20
1.0
 30
0.0
  9
$USERI1
 70
     0
  9
$USERI2
 70
     0
  9
$USERI3
 70
     0
  9
$USERI4
 70
     0
  9
$USERI5
 70
     0
  9
$USERR1
 40
1.0
  9
$USERR2
 40
0.0
  9
$USERR3
 40
3.5
  9
$USERR4
 40
0.0
  9
$USERR5
 40
0.0
  9
$WORLDVIEW
 70
     1
  9
$SHADEDGE
 70
     3
  9
$SHADEDIF
 70
    70
  9
$TILEMODE
 70
     1
  9
$MAXACTVP
 70
    16
  9
$PINSBASE
 10
0.0
 20
0.0
 30
0.0
  9
$PLIMCHECK
 70
     0
  9
$PEXTMIN
 10
1.000000E+20
 20
1.000000E+20
 30
1.000000E+20
  9
$PEXTMAX
 10
-1.000000E+20
 20
-1.000000E+20
 30
-1.000000E+20
  9
$PLIMMIN
 10
0.0
 20
0.0
  9
$PLIMMAX
 10
420.0
 20
297.0
  9
$UNITMODE
 70
     0
  9
$VISRETAIN
 70
     0
  9
$PLINEGEN
 70
     0
  9
$PSLTSCALE
 70
     0
  9
$TREEDEPTH
 70
  3020
  9
$DWGCODEPAGE
  3
dos850
  0
ENDSEC
  0
SECTION
  2
TABLES
  0
TABLE
  2
VPORT
 70
     2
  0
VPORT
  2
*ACTIVE
 70
     0
 10
0.0
 20
0.0
 11
1.0
 21
1.0
 12
287.564723
 22
225.231556
 13
0.0
 23
0.0
 14
1.0
 24
1.0
 15
10.0
 25
10.0
 16
0.0
 26
0.0
 36
1.0
 17
0.0
 27
0.0
 37
0.0
 40
456.463112
 41
1.273114
 42
50.0
 43
0.0
 44
0.0
 50
0.0
 51
0.0
 71
     0
 72
  1000
 73
     1
 74
     1
 75
     1
 76
     0
 77
     0
 78
     0
  0
ENDTAB
  0
TABLE
  2
LTYPE
 70
    10
  0
LTYPE
  2
CONTINUOUS
 70
    64
  3
Solid line
 72
    65
 73
     0
 40
0.0
  0
LTYPE
  2
BORDER
 70
     0
  3
__ __ . __ __ . __ __ . __ __ . __ __ . __ __ .
 72
    65
 73
     6
 40
1.75
 49
0.5
 49
-0.25
 49
0.5
 49
-0.25
 49
0.0
 49
-0.25
  0
LTYPE
  2
CENTER
 70
    64
  3
____ _ ____ _ ____ _ ____ _ ____ _ ____ _ ____ 
 72
    65
 73
     4
 40
2.0
 49
1.25
 49
-0.25
 49
0.25
 49
-0.25
  0
LTYPE
  2
DASHDOT
 70
     0
  3
__ . __ . __ . __ . __ . __ . __ . __ . __ . __
 72
    65
 73
     4
 40
1.0
 49
0.5
 49
-0.25
 49
0.0
 49
-0.25
  0
LTYPE
  2
DASHED
 70
    64
  3
__ __ __ __ __ __ __ __ __ __ __ __ __ __ __ __
 72
    65
 73
     2
 40
0.75
 49
0.5
 49
-0.25
  0
LTYPE
  2
DIVIDE
 70
     0
  3
____ . . ____ . . ____ . . ____ . . ____ . . __
 72
    65
 73
     6
 40
1.25
 49
0.5
 49
-0.25
 49
0.0
 49
-0.25
 49
0.0
 49
-0.25
  0
LTYPE
  2
DOT
 70
     0
  3
. . . . . . . . . . . . . . . . . . . . . . . .
 72
    65
 73
     2
 40
0.25
 49
0.0
 49
-0.25
  0
LTYPE
  2
HIDDEN
 70
    64
  3
__ __ __ __ __ __ __ __ __ __ __ __ __ __ __ __
 72
    65
 73
     2
 40
0.375
 49
0.25
 49
-0.125
  0
LTYPE
  2
PHANTOM
 70
    64
  3
______  __  __  ______  __  __  ______  __  __ 
 72
    65
 73
     6
 40
2.5
 49
1.25
 49
-0.25
 49
0.25
 49
-0.25
 49
0.25
 49
-0.25
  0
LTYPE
  2
DOTX2
 70
    64
  3
.  .  .  .  .  .  .  .  .  .  .  .  .  .  .  . 
 72
    65
 73
     2
 40
0.5
 49
0.0
 49
-0.5
  0
ENDTAB
  0
TABLE
  2
LAYER
 70
    92
  0
LAYER
  2
0
 70
    64
 62
     7
  6
CONTINUOUS
  0
LAYER
  2
L1
 70
     0
 62
     3
  6
CONTINUOUS
  0
LAYER
  2
L2
 70
     0
 62
     1
  6
CONTINUOUS
  0
LAYER
  2
L3
 70
     0
 62
     7
  6
DASHED
  0
LAYER
  2
L4
 70
     0
 62
     1
  6
DASHED
  0
LAYER
  2
L5
 70
     0
 62
     6
  6
CENTER
  0
LAYER
  2
L6
 70
     0
 62
     1
  6
CENTER
  0
LAYER
  2
L7
 70
     0
 62
     1
  6
PHANTOM
  0
LAYER
  2
VPORT
 70
     0
 62
     7
  6
CONTINUOUS
  0
LAYER
  2
L8
 70
     0
 62
     1
  6
CONTINUOUS
  0
LAYER
  2
L20
 70
     0
 62
     3
  6
CONTINUOUS
  0
LAYER
  2
L21
 70
     0
 62
     1
  6
CONTINUOUS
  0
LAYER
  2
L22
 70
     0
 62
     1
  6
CONTINUOUS
  0
LAYER
  2
L23
 70
     0
 62
     1
  6
CONTINUOUS
  0
LAYER
  2
L30
 70
     0
 62
     3
  6
CONTINUOUS
  0
LAYER
  2
L31
 70
     0
 62
     1
  6
CONTINUOUS
  0
LAYER
  2
L32
 70
     0
 62
     3
  6
CONTINUOUS
  0
LAYER
  2
L33
 70
     0
 62
     1
  6
CONTINUOUS
  0
LAYER
  2
L34
 70
     0
 62
     3
  6
CONTINUOUS
  0
LAYER
  2
L35
 70
     0
 62
     1
  6
CONTINUOUS
  0
LAYER
  2
L40
 70
     0
 62
     7
  6
CONTINUOUS
  0
LAYER
  2
L41
 70
     0
 62
     1
  6
CONTINUOUS
  0
LAYER
  2
L42
 70
     0
 62
     1
  6
CONTINUOUS
  0
LAYER
  2
L43
 70
     0
 62
     7
  6
CONTINUOUS
  0
LAYER
  2
L44
 70
     0
 62
     1
  6
CONTINUOUS
  0
LAYER
  2
L45
 70
     0
 62
     1
  6
CONTINUOUS
  0
LAYER
  2
L46
 70
     0
 62
     3
  6
CONTINUOUS
  0
LAYER
  2
L50
 70
     0
 62
     7
  6
CONTINUOUS
  0
LAYER
  2
L51
 70
     0
 62
     1
  6
CONTINUOUS
  0
LAYER
  2
L52
 70
     0
 62
     7
  6
CONTINUOUS
  0
LAYER
  2
L53
 70
     0
 62
     1
  6
CONTINUOUS
  0
LAYER
  2
L54
 70
     0
 62
     3
  6
CONTINUOUS
  0
LAYER
  2
L55
 70
     0
 62
     3
  6
CONTINUOUS
  0
LAYER
  2
L56
 70
     0
 62
     3
  6
CONTINUOUS
  0
LAYER
  2
L57
 70
     0
 62
     1
  6
CONTINUOUS
  0
LAYER
  2
L9
 70
     0
 62
     7
  6
HIDDEN
  0
LAYER
  2
L15
 70
     0
 62
     2
  6
CONTINUOUS
  0
LAYER
  2
L16
 70
     0
 62
     5
  6
DOTX2
  0
LAYER
  2
L24
 70
     0
 62
     1
  6
CONTINUOUS
  0
LAYER
  2
A1
 70
     0
 62
     7
  6
CONTINUOUS
  0
LAYER
  2
RA1
 70
     0
 62
     1
  6
CONTINUOUS
  0
LAYER
  2
TITEL
 70
     0
 62
     7
  6
CONTINUOUS
  0
LAYER
  2
DEFPOINTS
 70
     0
 62
     7
  6
CONTINUOUS
  0
LAYER
  2
CAM-A1
 70
     0
 62
     7
  6
CONTINUOUS
  0
LAYER
  2
CAM-A2
 70
     0
 62
     1
  6
CONTINUOUS
  0
LAYER
  2
CAM-A3
 70
     0
 62
     1
  6
DASHED
  0
LAYER
  2
CAM-B1
 70
     0
 62
     7
  6
CONTINUOUS
  0
LAYER
  2
CAM-B2
 70
     0
 62
     1
  6
CONTINUOUS
  0
LAYER
  2
CAM-B3
 70
     0
 62
     1
  6
DASHED
  0
LAYER
  2
CAM-C1
 70
     0
 62
     7
  6
CONTINUOUS
  0
LAYER
  2
CAM-C2
 70
     0
 62
     1
  6
CONTINUOUS
  0
LAYER
  2
CAM-C3
 70
     0
 62
     1
  6
DASHED
  0
LAYER
  2
CAM-D1
 70
     0
 62
     7
  6
CONTINUOUS
  0
LAYER
  2
CAM-D2
 70
     0
 62
     1
  6
CONTINUOUS
  0
LAYER
  2
CAM-D3
 70
     0
 62
     1
  6
DASHED
  0
LAYER
  2
CAM-E1
 70
     0
 62
     7
  6
CONTINUOUS
  0
LAYER
  2
CAM-E2
 70
     0
 62
     1
  6
CONTINUOUS
  0
LAYER
  2
CAM-E3
 70
     0
 62
     1
  6
DASHED
  0
LAYER
  2
CAM-F1
 70
     0
 62
     7
  6
CONTINUOUS
  0
LAYER
  2
CAM-F2
 70
     0
 62
     1
  6
CONTINUOUS
  0
LAYER
  2
CAM-F3
 70
     0
 62
     1
  6
DASHED
  0
LAYER
  2
1
 70
     0
 62
     7
  6
CONTINUOUS
  0
LAYER
  2
11
 70
    64
 62
     7
  6
CONTINUOUS
  0
LAYER
  2
12
 70
     0
 62
     1
  6
CONTINUOUS
  0
LAYER
  2
13
 70
    64
 62
     1
  6
CENTER
  0
LAYER
  2
14
 70
    64
 62
     1
  6
DASHED
  0
LAYER
  2
15
 70
     0
 62
     2
  6
DASHED
  0
LAYER
  2
21
 70
    64
 62
     7
  6
CONTINUOUS
  0
LAYER
  2
22
 70
     0
 62
     1
  6
CONTINUOUS
  0
LAYER
  2
23
 70
    64
 62
     1
  6
CENTER
  0
LAYER
  2
24
 70
    64
 62
     1
  6
DASHED
  0
LAYER
  2
25
 70
     0
 62
     2
  6
DASHED
  0
LAYER
  2
31
 70
    64
 62
     7
  6
CONTINUOUS
  0
LAYER
  2
32
 70
     0
 62
     1
  6
CONTINUOUS
  0
LAYER
  2
33
 70
    64
 62
     1
  6
CENTER
  0
LAYER
  2
34
 70
    64
 62
     1
  6
DASHED
  0
LAYER
  2
35
 70
     0
 62
     2
  6
DASHED
  0
LAYER
  2
41
 70
    64
 62
     7
  6
CONTINUOUS
  0
LAYER
  2
42
 70
     0
 62
     1
  6
CONTINUOUS
  0
LAYER
  2
43
 70
    64
 62
     1
  6
CENTER
  0
LAYER
  2
44
 70
    64
 62
     1
  6
DASHED
  0
LAYER
  2
45
 70
     0
 62
     2
  6
DASHED
  0
LAYER
  2
51
 70
    64
 62
     7
  6
CONTINUOUS
  0
LAYER
  2
52
 70
    64
 62
     1
  6
CONTINUOUS
  0
LAYER
  2
53
 70
    64
 62
     1
  6
CENTER
  0
LAYER
  2
54
 70
     0
 62
     1
  6
DASHED
  0
LAYER
  2
55
 70
     0
 62
     2
  6
DASHED
  0
LAYER
  2
61
 70
    64
 62
     7
  6
CONTINUOUS
  0
LAYER
  2
62
 70
     0
 62
     1
  6
CONTINUOUS
  0
LAYER
  2
63
 70
    64
 62
     1
  6
CENTER
  0
LAYER
  2
64
 70
     0
 62
     1
  6
DASHED
  0
LAYER
  2
65
 70
     0
 62
     2
  6
DASHED
  0
ENDTAB
  0
TABLE
  2
STYLE
 70
     4
  0
STYLE
  2
STANDARD
 70
     0
 40
0.0
 41
1.0
 50
0.0
 71
     0
 42
3.5
  3
CAEISO
  4

  0
STYLE
  2
SIMPLEX
 70
    64
 40
0.0
 41
1.0
 50
0.0
 71
     0
 42
20.0
  3
SIMPLEX.SHX
  4

  0
STYLE
  2
COMPLEX
 70
    64
 40
5.0
 41
1.0
 50
0.0
 71
     0
 42
5.0
  3
COMPLEX
  4

  0
STYLE
  2
CAEISO
 70
     0
 40
0.0
 41
1.0
 50
0.0
 71
     0
 42
1.0
  3
CAEISO
  4

  0
ENDTAB
  0
TABLE
  2
VIEW
 70
     0
  0
ENDTAB
  0
TABLE
  2
UCS
 70
     0
  0
ENDTAB
  0
TABLE
  2
APPID
 70
     1
  0
APPID
  2
ACAD
 70
    64
  0
ENDTAB
  0
TABLE
  2
DIMSTYLE
 70
     6
  0
DIMSTYLE
  2
ACADUS
 70
     0
  3

  4

  5

  6

  7

 40
1.0
 41
0.18
 42
0.0625
 43
0.38
 44
0.18
 45
0.0
 46
0.0
 47
0.0
 48
0.0
140
0.18
141
0.09
142
0.0
143
25.4
144
1.0
145
0.0
146
1.0
147
0.09
 71
     0
 72
     0
 73
     1
 74
     1
 75
     0
 76
     0
 77
     0
 78
     0
170
     0
171
     2
172
     0
173
     0
174
     0
175
     0
176
     0
177
     0
178
     0
  0
DIMSTYLE
  2
NORDIC
 70
     0
  3

  4

  5

  6

  7

 40
1.0
 41
3.5
 42
1.0
 43
10.0
 44
2.0
 45
0.0
 46
0.0
 47
0.0
 48
0.0
140
3.5
141
2.5
142
0.0
143
25.4
144
1.0
145
0.0
146
1.0
147
2.0
 71
     0
 72
     0
 73
     0
 74
     0
 75
     0
 76
     0
 77
     1
 78
     8
170
     0
171
     2
172
     1
173
     0
174
     0
175
     0
176
     0
177
     0
178
     0
  0
DIMSTYLE
  2
RADIAL
 70
     0
  3

  4

  5

  6

  7

 40
1.0
 41
3.5
 42
1.0
 43
10.0
 44
2.0
 45
0.0
 46
0.0
 47
0.0
 48
0.0
140
3.5
141
2.5
142
0.0
143
25.4
144
1.0
145
0.0
146
1.0
147
2.0
 71
     0
 72
     0
 73
     0
 74
     1
 75
     0
 76
     0
 77
     1
 78
     8
170
     0
171
     2
172
     0
173
     0
174
     0
175
     0
176
     0
177
     0
178
     0
  0
DIMSTYLE
  2
NORTOL
 70
     0
  3

  4

  5

  6

  7

 40
1.0
 41
3.5
 42
1.0
 43
10.0
 44
2.0
 45
0.0
 46
0.0
 47
0.2
 48
0.1
140
3.5
141
2.5
142
0.0
143
25.4
144
1.0
145
0.7
146
0.71
147
2.0
 71
     1
 72
     0
 73
     0
 74
     0
 75
     0
 76
     0
 77
     0
 78
     8
170
     0
171
     2
172
     1
173
     0
174
     0
175
     0
176
     0
177
     0
178
     0
  0
DIMSTYLE
  2
RADTOL
 70
     0
  3

  4

  5

  6

  7

 40
1.0
 41
3.5
 42
1.0
 43
10.0
 44
2.0
 45
0.0
 46
0.0
 47
0.2
 48
0.1
140
3.5
141
2.5
142
0.0
143
25.4
144
1.0
145
0.7
146
0.7
147
2.0
 71
     1
 72
     0
 73
     0
 74
     1
 75
     0
 76
     0
 77
     0
 78
     8
170
     0
171
     2
172
     0
173
     0
174
     0
175
     0
176
     0
177
     0
178
     0
  0
DIMSTYLE
  2
HANSU
 70
     0
  3

  4

  5

  6

  7

 40
1.0
 41
3.5
 42
0.0
 43
10.0
 44
2.0
 45
0.0
 46
0.0
 47
0.0
 48
0.0
140
3.5
141
2.5
142
0.0
143
25.4
144
0.8
145
0.0
146
1.0
147
2.0
 71
     0
 72
     0
 73
     0
 74
     0
 75
     0
 76
     0
 77
     1
 78
     8
170
     0
171
     2
172
     1
173
     0
174
     0
175
     0
176
   256
177
   256
178
     3
  0
ENDTAB
  0
ENDSEC
  0
SECTION
  2
BLOCKS
  0
BLOCK
  8
0
  5
2329
  2
AME_NIL
 70
     0
 10
0.0
 20
0.0
 30
0.0
  1
AME_NIL
  3
AME_NIL
  0
ENDBLK
  8
0
  5
232A
  0
BLOCK
  8
0
  5
232C
  2
AME_SOL
 70
     0
 10
0.0
 20
0.0
 30
0.0
  1
AME_SOL
  3
AME_SOL
  0
ENDBLK
  8
0
  5
232D
  0
BLOCK
  8
0
  5
233F
  2
SOLAXES
 70
     0
 10
0.0
 20
0.0
 30
0.0
  1
SOLAXES
  3
SOLAXES
  0
LINE
  8
0
 62
     0
  5
2340
 10
0.0
 20
0.0
 30
0.0
 11
63.851158
 21
0.0
 31
0.0
  0
LINE
  8
0
 62
     0
  5
2341
 10
0.0
 20
0.0
 30
0.0
 11
0.0
 21
63.851158
 31
0.0
  0
LINE
  8
0
 62
     0
  5
2342
 10
0.0
 20
0.0
 30
0.0
 11
0.0
 21
0.0
 31
63.851158
  0
CIRCLE
  8
0
 62
     0
  5
2343
 10
0.0
 20
0.0
 30
57.466042
 40
3.192558
210
1.0
220
0.0
230
0.0
  0
LINE
  8
0
 62
     0
  5
2344
 10
57.466042
 20
3.192558
 30
0.0
 11
63.851158
 21
0.0
 31
0.0
  0
LINE
  8
0
 62
     0
  5
2345
 10
57.466042
 20
0.0
 30
3.192558
 11
63.851158
 21
0.0
 31
0.0
  0
LINE
  8
0
 62
     0
  5
2346
 10
57.466042
 20
-3.192558
 30
0.0
 11
63.851158
 21
0.0
 31
0.0
  0
LINE
  8
0
 62
     0
  5
2347
 10
57.466042
 20
0.0
 30
-3.192558
 11
63.851158
 21
0.0
 31
0.0
  0
CIRCLE
  8
0
 62
     0
  5
2348
 10
0.0
 20
0.0
 30
57.466042
 40
3.192558
210
0.0
220
1.0
230
0.0
  0
LINE
  8
0
 62
     0
  5
2349
 10
3.192558
 20
57.466042
 30
0.0
 11
0.0
 21
63.851158
 31
0.0
  0
LINE
  8
0
 62
     0
  5
234A
 10
0.0
 20
57.466042
 30
3.192558
 11
0.0
 21
63.851158
 31
0.0
  0
LINE
  8
0
 62
     0
  5
234B
 10
-3.192558
 20
57.466042
 30
0.0
 11
0.0
 21
63.851158
 31
0.0
  0
LINE
  8
0
 62
     0
  5
234C
 10
0.0
 20
57.466042
 30
-3.192558
 11
0.0
 21
63.851158
 31
0.0
  0
CIRCLE
  8
0
 62
     0
  5
234D
 10
0.0
 20
0.0
 30
51.080927
 40
3.192558
210
0.0
220
1.0
230
0.0
  0
LINE
  8
0
 62
     0
  5
234E
 10
3.192558
 20
51.080927
 30
0.0
 11
0.0
 21
57.466042
 31
0.0
  0
LINE
  8
0
 62
     0
  5
234F
 10
0.0
 20
51.080927
 30
3.192558
 11
0.0
 21
57.466042
 31
0.0
  0
LINE
  8
0
 62
     0
  5
2350
 10
-3.192558
 20
51.080927
 30
0.0
 11
0.0
 21
57.466042
 31
0.0
  0
LINE
  8
0
 62
     0
  5
2351
 10
0.0
 20
51.080927
 30
-3.192558
 11
0.0
 21
57.466042
 31
0.0
  0
CIRCLE
  8
0
 62
     0
  5
2352
 10
0.0
 20
0.0
 30
57.466042
 40
3.192558
  0
LINE
  8
0
 62
     0
  5
2353
 10
3.192558
 20
0.0
 30
57.466042
 11
0.0
 21
0.0
 31
63.851158
  0
LINE
  8
0
 62
     0
  5
2354
 10
0.0
 20
3.192558
 30
57.466042
 11
0.0
 21
0.0
 31
63.851158
  0
LINE
  8
0
 62
     0
  5
2355
 10
-3.192558
 20
0.0
 30
57.466042
 11
0.0
 21
0.0
 31
63.851158
  0
LINE
  8
0
 62
     0
  5
2356
 10
0.0
 20
-3.192558
 30
57.466042
 11
0.0
 21
0.0
 31
63.851158
  0
CIRCLE
  8
0
 62
     0
  5
2357
 10
0.0
 20
0.0
 30
51.080927
 40
3.192558
  0
LINE
  8
0
 62
     0
  5
2358
 10
3.192558
 20
0.0
 30
51.080927
 11
0.0
 21
0.0
 31
57.466042
  0
LINE
  8
0
 62
     0
  5
2359
 10
0.0
 20
3.192558
 30
51.080927
 11
0.0
 21
0.0
 31
57.466042
  0
LINE
  8
0
 62
     0
  5
235A
 10
-3.192558
 20
0.0
 30
51.080927
 11
0.0
 21
0.0
 31
57.466042
  0
LINE
  8
0
 62
     0
  5
235B
 10
0.0
 20
-3.192558
 30
51.080927
 11
0.0
 21
0.0
 31
57.466042
  0
CIRCLE
  8
0
 62
     0
  5
235C
 10
0.0
 20
0.0
 30
44.695811
 40
3.192558
  0
LINE
  8
0
 62
     0
  5
235D
 10
3.192558
 20
0.0
 30
44.695811
 11
0.0
 21
0.0
 31
51.080927
  0
LINE
  8
0
 62
     0
  5
235E
 10
0.0
 20
3.192558
 30
44.695811
 11
0.0
 21
0.0
 31
51.080927
  0
LINE
  8
0
 62
     0
  5
235F
 10
-3.192558
 20
0.0
 30
44.695811
 11
0.0
 21
0.0
 31
51.080927
  0
LINE
  8
0
 62
     0
  5
2360
 10
0.0
 20
-3.192558
 30
44.695811
 11
0.0
 21
0.0
 31
51.080927
  0
ENDBLK
  8
0
  5
2361
  0
BLOCK
  8
0
  5
2460
  2
AME_MAT
 70
     0
 10
0.0
 20
0.0
 30
0.0
  1
AME_MAT
  3
AME_MAT
  0
ENDBLK
  8
0
  5
2461
  0
BLOCK
  8
0
  5
2465
  2
EKI2304C
 70
    64
 10
0.0
 20
0.0
 30
0.0
  3
EKI2304C
  0
LINE
  8
61
  5
5119
 10
60.0
 20
502.0
 30
0.0
 11
207.0
 21
502.0
 31
0.0
  0
ARC
  8
61
  5
511B
 10
76.0
 20
484.0
 30
0.0
 40
16.2
 50
23.146795
 51
240.407558
  0
CIRCLE
  8
61
  5
511C
 10
76.0
 20
484.0
 30
0.0
 40
13.0
  0
LINE
  8
61
  5
511E
 10
58.0
 20
500.0
 30
0.0
 11
58.0
 21
403.0
 31
0.0
  0
LINE
  8
61
  5
511F
 10
66.0
 20
470.316433
 30
0.0
 11
66.0
 21
403.0
 31
0.0
  0
LINE
  8
61
  5
5121
 10
84.0
 20
489.87868
 30
0.0
 11
85.359757
 21
491.238436
 31
0.0
  0
LINE
  8
61
  5
5122
 10
81.87868
 20
492.0
 30
0.0
 11
84.0
 21
489.87868
 31
0.0
  0
ARC
  8
61
  5
5123
 10
70.0
 20
490.0
 30
0.0
 40
2.0
 50
90.0
 51
180.0
  0
ARC
  8
61
  5
5124
 10
60.0
 20
500.0
 30
0.0
 40
2.0
 50
90.0
 51
180.0
  0
LINE
  8
61
  5
5125
 10
81.87868
 20
492.0
 30
0.0
 11
70.0
 21
492.0
 31
0.0
  0
ARC
  8
61
  5
5126
 10
82.531329
 20
494.066863
 30
0.0
 40
1.0
 50
315.0
 51
57.024699
  0
LINE
  8
61
  5
5127
 10
81.87868
 20
492.0
 30
0.0
 11
83.238436
 21
493.359757
 31
0.0
  0
ARC
  8
61
  5
5128
 10
86.066863
 20
490.531329
 30
0.0
 40
1.0
 50
32.975301
 51
135.0
  0
ARC
  8
61
  5
5129
 10
76.0
 20
484.0
 30
0.0
 40
8.0
 50
270.0
 51
0.0
  0
LINE
  8
61
  5
512A
 10
70.0
 20
476.0
 30
0.0
 11
76.0
 21
476.0
 31
0.0
  0
CIRCLE
  8
61
  5
512B
 10
76.0
 20
484.0
 30
0.0
 40
6.0
  0
CIRCLE
  8
61
  5
512C
 10
76.0
 20
484.0
 30
0.0
 40
4.25
  0
LINE
  8
61
  5
512D
 10
68.0
 20
490.0
 30
0.0
 11
68.0
 21
478.0
 31
0.0
  0
ARC
  8
61
  5
512E
 10
70.0
 20
478.0
 30
0.0
 40
2.0
 50
180.0
 51
270.0
  0
LINE
  8
61
  5
512F
 10
84.0
 20
489.87868
 30
0.0
 11
84.0
 21
484.0
 31
0.0
  0
ARC
  8
61
  5
5131
 10
64.0
 20
470.316433
 30
0.0
 40
2.0
 50
0.0
 51
48.750393
  0
LINE
  8
61
  5
5133
 10
89.683567
 20
494.0
 30
0.0
 11
207.0
 21
494.0
 31
0.0
  0
ARC
  8
61
  5
5134
 10
89.683567
 20
496.0
 30
0.0
 40
2.0
 50
221.249607
 51
270.0
  0
LINE
  8
61
  5
514E
 10
324.316433
 20
494.0
 30
0.0
 11
207.0
 21
494.0
 31
0.0
  0
LINE
  8
61
  5
514F
 10
354.0
 20
502.0
 30
0.0
 11
207.0
 21
502.0
 31
0.0
  0
LINE
  8
61
  5
5152
 10
348.0
 20
470.316433
 30
0.0
 11
348.0
 21
403.0
 31
0.0
  0
LINE
  8
61
  5
5153
 10
356.0
 20
500.0
 30
0.0
 11
356.0
 21
403.0
 31
0.0
  0
ARC
  8
61
  5
5155
 10
324.316433
 20
496.0
 30
0.0
 40
2.0
 50
270.0
 51
318.750393
  0
CIRCLE
  8
61
  5
5156
 10
338.0
 20
484.0
 30
0.0
 40
13.0
  0
ARC
  8
61
  5
5157
 10
338.0
 20
484.0
 30
0.0
 40
16.2
 50
299.592442
 51
156.853205
  0
ARC
  8
61
  5
5158
 10
338.0
 20
484.0
 30
0.0
 40
8.0
 50
180.0
 51
270.0
  0
CIRCLE
  8
61
  5
5159
 10
338.0
 20
484.0
 30
0.0
 40
6.0
  0
LINE
  8
61
  5
515A
 10
346.0
 20
490.0
 30
0.0
 11
346.0
 21
478.12132
 31
0.0
  0
ARC
  8
61
  5
515B
 10
354.0
 20
500.0
 30
0.0
 40
2.0
 50
0.0
 51
90.0
  0
LINE
  8
61
  5
515C
 10
332.0
 20
492.0
 30
0.0
 11
344.0
 21
492.0
 31
0.0
  0
CIRCLE
  8
61
  5
515D
 10
338.0
 20
484.0
 30
0.0
 40
4.25
  0
ARC
  8
61
  5
515E
 10
344.0
 20
490.0
 30
0.0
 40
2.0
 50
0.0
 51
90.0
  0
LINE
  8
61
  5
515F
 10
330.0
 20
490.0
 30
0.0
 11
330.0
 21
484.0
 31
0.0
  0
LINE
  8
61
  5
5160
 10
343.87868
 20
476.0
 30
0.0
 11
345.238436
 21
474.640243
 31
0.0
  0
LINE
  8
61
  5
5161
 10
346.0
 20
478.12132
 30
0.0
 11
343.87868
 21
476.0
 31
0.0
  0
ARC
  8
61
  5
5162
 10
348.066863
 20
477.468671
 30
0.0
 40
1.0
 50
225.0
 51
327.024699
  0
LINE
  8
61
  5
5163
 10
346.0
 20
478.12132
 30
0.0
 11
347.359757
 21
476.761564
 31
0.0
  0
ARC
  8
61
  5
5164
 10
344.531329
 20
473.933137
 30
0.0
 40
1.0
 50
302.975301
 51
45.0
  0
ARC
  8
61
  5
5165
 10
350.0
 20
470.316433
 30
0.0
 40
2.0
 50
131.249607
 51
180.0
  0
LINE
  8
61
  5
5167
 10
343.87868
 20
476.0
 30
0.0
 11
338.0
 21
476.0
 31
0.0
  0
LINE
  8
61
  5
5168
 10
89.683567
 20
312.0
 30
0.0
 11
207.0
 21
312.0
 31
0.0
  0
LINE
  8
61
  5
5169
 10
60.0
 20
304.0
 30
0.0
 11
207.0
 21
304.0
 31
0.0
  0
LINE
  8
61
  5
516B
 10
66.0
 20
335.683567
 30
0.0
 11
66.0
 21
403.0
 31
0.0
  0
LINE
  8
61
  5
516C
 10
58.0
 20
306.0
 30
0.0
 11
58.0
 21
403.0
 31
0.0
  0
ARC
  8
61
  5
516E
 10
89.683567
 20
310.0
 30
0.0
 40
2.0
 50
90.0
 51
138.750393
  0
CIRCLE
  8
61
  5
516F
 10
76.0
 20
322.0
 30
0.0
 40
13.0
  0
ARC
  8
61
  5
5170
 10
76.0
 20
322.0
 30
0.0
 40
16.2
 50
119.592442
 51
336.853205
  0
ARC
  8
61
  5
5171
 10
76.0
 20
322.0
 30
0.0
 40
8.0
 50
0.0
 51
90.0
  0
CIRCLE
  8
61
  5
5172
 10
76.0
 20
322.0
 30
0.0
 40
6.0
  0
LINE
  8
61
  5
5173
 10
68.0
 20
316.0
 30
0.0
 11
68.0
 21
327.87868
 31
0.0
  0
ARC
  8
61
  5
5174
 10
60.0
 20
306.0
 30
0.0
 40
2.0
 50
180.0
 51
270.0
  0
LINE
  8
61
  5
5175
 10
82.0
 20
314.0
 30
0.0
 11
70.0
 21
314.0
 31
0.0
  0
CIRCLE
  8
61
  5
5176
 10
76.0
 20
322.0
 30
0.0
 40
4.25
  0
ARC
  8
61
  5
5177
 10
70.0
 20
316.0
 30
0.0
 40
2.0
 50
180.0
 51
270.0
  0
LINE
  8
61
  5
5178
 10
84.0
 20
316.0
 30
0.0
 11
84.0
 21
322.0
 31
0.0
  0
LINE
  8
61
  5
5179
 10
70.12132
 20
330.0
 30
0.0
 11
68.761564
 21
331.359757
 31
0.0
  0
LINE
  8
61
  5
517A
 10
68.0
 20
327.87868
 30
0.0
 11
70.12132
 21
330.0
 31
0.0
  0
ARC
  8
61
  5
517B
 10
65.933137
 20
328.531329
 30
0.0
 40
1.0
 50
45.0
 51
147.024699
  0
LINE
  8
61
  5
517C
 10
68.0
 20
327.87868
 30
0.0
 11
66.640243
 21
329.238436
 31
0.0
  0
ARC
  8
61
  5
517D
 10
69.468671
 20
332.066863
 30
0.0
 40
1.0
 50
122.975301
 51
225.0
  0
ARC
  8
61
  5
517E
 10
64.0
 20
335.683567
 30
0.0
 40
2.0
 50
311.249607
 51
0.0
  0
LINE
  8
61
  5
5180
 10
70.12132
 20
330.0
 30
0.0
 11
76.0
 21
330.0
 31
0.0
  0
LINE
  8
61
  5
5182
 10
356.0
 20
306.0
 30
0.0
 11
356.0
 21
403.0
 31
0.0
  0
LINE
  8
61
  5
5183
 10
348.0
 20
335.683567
 30
0.0
 11
348.0
 21
403.0
 31
0.0
  0
LINE
  8
61
  5
5186
 10
354.0
 20
304.0
 30
0.0
 11
207.0
 21
304.0
 31
0.0
  0
LINE
  8
61
  5
5187
 10
324.316433
 20
312.0
 30
0.0
 11
207.0
 21
312.0
 31
0.0
  0
LINE
  8
61
  5
5188
 10
346.0
 20
316.0
 30
0.0
 11
346.0
 21
328.0
 31
0.0
  0
CIRCLE
  8
61
  5
5189
 10
338.0
 20
322.0
 30
0.0
 40
6.0
  0
ARC
  8
61
  5
518A
 10
338.0
 20
322.0
 30
0.0
 40
8.0
 50
90.0
 51
180.0
  0
ARC
  8
61
  5
518B
 10
338.0
 20
322.0
 30
0.0
 40
16.2
 50
203.146795
 51
60.407558
  0
CIRCLE
  8
61
  5
518C
 10
338.0
 20
322.0
 30
0.0
 40
13.0
  0
ARC
  8
61
  5
518D
 10
344.0
 20
316.0
 30
0.0
 40
2.0
 50
270.0
 51
0.0
  0
LINE
  8
61
  5
518E
 10
332.12132
 20
314.0
 30
0.0
 11
344.0
 21
314.0
 31
0.0
  0
LINE
  8
61
  5
518F
 10
330.0
 20
316.12132
 30
0.0
 11
330.0
 21
322.0
 31
0.0
  0
ARC
  8
61
  5
5190
 10
327.933137
 20
315.468671
 30
0.0
 40
1.0
 50
212.975301
 51
315.0
  0
LINE
  8
61
  5
5191
 10
332.12132
 20
314.0
 30
0.0
 11
330.761564
 21
312.640243
 31
0.0
  0
ARC
  8
61
  5
5192
 10
331.468671
 20
311.933137
 30
0.0
 40
1.0
 50
135.0
 51
237.024699
  0
LINE
  8
61
  5
5193
 10
332.12132
 20
314.0
 30
0.0
 11
330.0
 21
316.12132
 31
0.0
  0
LINE
  8
61
  5
5194
 10
330.0
 20
316.12132
 30
0.0
 11
328.640243
 21
314.761564
 31
0.0
  0
ARC
  8
61
  5
5195
 10
324.316433
 20
310.0
 30
0.0
 40
2.0
 50
41.249607
 51
90.0
  0
CIRCLE
  8
61
  5
5196
 10
338.0
 20
322.0
 30
0.0
 40
4.25
  0
ARC
  8
61
  5
5197
 10
354.0
 20
306.0
 30
0.0
 40
2.0
 50
270.0
 51
0.0
  0
ARC
  8
61
  5
5198
 10
344.0
 20
328.0
 30
0.0
 40
2.0
 50
0.0
 51
90.0
  0
LINE
  8
61
  5
5199
 10
344.0
 20
330.0
 30
0.0
 11
338.0
 21
330.0
 31
0.0
  0
ARC
  8
61
  5
519A
 10
350.0
 20
335.683567
 30
0.0
 40
2.0
 50
180.0
 51
228.750393
  0
LINE
  8
63
  6
DASHDOT
  5
706A
 10
207.0
 20
506.206948
 30
0.0
 11
207.0
 21
368.599099
 31
0.0
  0
LINE
  8
63
  6
DASHDOT
  5
C32F
 10
207.0
 20
301.565131
 30
0.0
 11
207.0
 21
457.529275
 31
0.0
  0
ARC
  8
61
  5
F1E2
 10
332.0
 20
490.0
 30
0.0
 40
2.0
 50
90.0
 51
180.0
  0
ARC
  8
61
  5
F1E3
 10
82.0
 20
316.0
 30
0.0
 40
2.0
 50
270.0
 51
0.0
  0
LINE
  8
14
  5
12F77
 10
91.707287
 20
203.118561
 30
0.0
 11
91.250796
 21
229.270918
 31
0.0
  0
LINE
  8
14
  5
12F7D
 10
89.2511
 20
231.236014
 30
0.0
 11
86.2
 21
231.236014
 31
0.0
  0
LINE
  8
14
  5
12F7F
 10
83.7
 20
237.736014
 30
0.0
 11
82.5
 21
237.736014
 31
0.0
  0
LINE
  8
14
  5
12F8E
 10
82.5
 20
237.736014
 30
0.0
 11
82.5
 21
241.736014
 31
0.0
  0
ARC
  8
14
  5
12F97
 10
89.2511
 20
229.236014
 30
0.0
 40
2.0
 50
1.0
 51
90.0
  0
LINE
  8
14
  5
12F98
 10
86.2
 20
231.236014
 30
0.0
 11
86.2
 21
235.236014
 31
0.0
  0
ARC
  8
14
  5
12F99
 10
83.7
 20
235.236014
 30
0.0
 40
2.5
 50
0.0
 51
90.0
  0
LINE
  8
14
  5
12F9B
 10
92.707134
 20
202.136014
 30
0.0
 11
207.0
 21
202.136014
 31
0.0
  0
LINE
  8
11
  5
12FA4
 10
344.23654
 20
199.736014
 30
0.0
 11
207.0
 21
199.736014
 31
0.0
  0
LINE
  8
11
  5
12FA6
 10
332.5
 20
241.736014
 30
0.0
 11
207.0
 21
241.736014
 31
0.0
  0
ARC
  8
11
  5
12FA8
 10
353.731642
 20
231.086161
 30
0.0
 40
2.0
 50
285.0
 51
358.0
  0
LINE
  8
11
  5
12FA9
 10
356.0
 20
238.736014
 30
0.0
 11
354.0
 21
238.736014
 31
0.0
  0
LINE
  8
11
  5
12FAA
 10
356.0
 20
238.736014
 30
0.0
 11
355.730424
 21
231.016362
 31
0.0
  0
LINE
  8
11
  5
12FAE
 10
353.5
 20
199.736014
 30
0.0
 11
354.01239
 21
229.090834
 31
0.0
  0
ARC
  8
11
  5
12FB0
 10
334.22262
 20
241.88558
 30
0.0
 40
2.74508
 50
231.131872
 51
254.841374
  0
LINE
  8
11
  5
12FB2
 10
331.5
 20
241.736014
 30
0.0
 11
331.5
 21
242.236014
 31
0.0
  0
ARC
  8
11
  5
12FB3
 10
343.009101
 20
246.161803
 30
0.0
 40
6.943763
 50
214.427934
 51
237.884432
  0
ARC
  8
11
  5
12FB5
 10
335.924701
 20
244.387208
 30
0.0
 40
5.326917
 50
284.757543
 51
312.157904
  0
ARC
  8
11
  5
12FB6
 10
336.47262
 20
241.88558
 30
0.0
 40
2.74508
 50
172.665679
 51
254.841374
  0
LINE
  8
11
  5
12FB7
 10
348.0
 20
241.736014
 30
0.0
 11
348.104762
 21
238.736014
 31
0.0
  0
LINE
  8
11
  5
12FB8
 10
344.175445
 20
242.236014
 30
0.0
 11
340.797934
 21
242.236014
 31
0.0
  0
LINE
  8
11
  5
12FB9
 10
344.175445
 20
242.236014
 30
0.0
 11
344.5
 21
241.736014
 31
0.0
  0
LINE
  8
11
  5
12FBA
 10
346.0
 20
241.736014
 30
0.0
 11
339.5
 21
241.736014
 31
0.0
  0
LINE
  8
11
  5
12FBB
 10
348.0
 20
241.736014
 30
0.0
 11
346.0
 21
241.736014
 31
0.0
  0
LINE
  8
11
  5
12FBD
 10
331.5
 20
242.236014
 30
0.0
 11
337.281622
 21
242.236014
 31
0.0
  0
LINE
  8
11
  5
12FBF
 10
354.0
 20
238.736014
 30
0.0
 11
207.0
 21
238.736014
 31
0.0
  0
LINE
  8
11
  5
12FC2
 10
354.01239
 20
229.090834
 30
0.0
 11
354.24928
 21
229.154309
 31
0.0
  0
LINE
  8
11
  5
12FC5
 10
333.504803
 20
239.236014
 30
0.0
 11
337.281622
 21
239.236014
 31
0.0
  0
LINE
  8
11
  5
12FCB
 10
353.5
 20
199.736014
 30
0.0
 11
343.489282
 21
199.736014
 31
0.0
  0
LINE
  8
11
  5
12FCD
 10
332.5
 20
238.736014
 30
0.0
 11
332.5
 21
241.736014
 31
0.0
  0
LINE
  8
11
  5
12FCE
 10
339.5
 20
238.736014
 30
0.0
 11
339.5
 21
241.736014
 31
0.0
  0
ARC
  8
11
  5
12FCF
 10
335.924701
 20
244.387208
 30
0.0
 40
5.326917
 50
330.152197
 51
336.181866
  0
LINE
  8
53
  6
DASHDOT
  5
1313B
 10
-223.402619
 20
508.0
 30
0.0
 11
-223.402619
 21
403.0
 31
0.0
  0
LINE
  8
51
  5
1313D
 10
-362.402619
 20
478.5
 30
0.0
 11
-362.402619
 21
403.0
 31
0.0
  0
LINE
  8
52
  5
1313E
 10
-370.402619
 20
499.5
 30
0.0
 11
-370.402619
 21
403.0
 31
0.0
  0
LINE
  8
52
  5
1313F
 10
-364.402619
 20
491.5
 30
0.0
 11
-364.402619
 21
403.0
 31
0.0
  0
LINE
  8
51
  5
13140
 10
-372.402619
 20
499.5
 30
0.0
 11
-372.402619
 21
403.0
 31
0.0
  0
LINE
  8
52
  5
13145
 10
-369.902619
 20
500.0
 30
0.0
 11
-223.402619
 21
500.0
 31
0.0
  0
LINE
  8
51
  5
13146
 10
-223.402619
 20
492.0
 30
0.0
 11
-348.902619
 21
492.0
 31
0.0
  0
LINE
  8
52
  5
13147
 10
-223.402619
 20
494.0
 30
0.0
 11
-361.902619
 21
494.0
 31
0.0
  0
ARC
  8
51
  5
13148
 10
-354.402619
 20
484.0
 30
0.0
 40
15.7
 50
239.365864
 51
30.634136
  0
LINE
  8
51
  5
13149
 10
-369.902619
 20
502.0
 30
0.0
 11
-223.402619
 21
502.0
 31
0.0
  0
LINE
  8
51
  5
1314C
 10
-352.776215
 20
487.926488
 30
0.0
 11
-351.915177
 21
490.005217
 31
0.0
  0
LINE
  8
51
  5
1314D
 10
-356.029024
 20
487.926488
 30
0.0
 11
-356.890062
 21
490.005217
 31
0.0
  0
LINE
  8
51
  5
1314E
 10
-344.202619
 20
484.0
 30
0.0
 11
-344.202619
 21
491.0
 31
0.0
  0
LINE
  8
51
  5
1314F
 10
-362.402619
 20
491.5
 30
0.0
 11
-362.402619
 21
485.5
 31
0.0
  0
CIRCLE
  8
51
  5
13150
 10
-354.402619
 20
484.0
 30
0.0
 40
6.5
  0
LINE
  8
51
  5
13151
 10
-355.902619
 20
492.0
 30
0.0
 11
-361.902619
 21
492.0
 31
0.0
  0
ARC
  8
51
  5
13152
 10
-369.902619
 20
499.5
 30
0.0
 40
2.5
 50
90.0
 51
180.0
  0
ARC
  8
52
  5
13153
 10
-369.902619
 20
499.5
 30
0.0
 40
0.5
 50
90.0
 51
180.0
  0
ARC
  8
52
  5
13154
 10
-361.902619
 20
491.5
 30
0.0
 40
2.5
 50
90.0
 51
180.0
  0
ARC
  8
51
  5
13155
 10
-361.902619
 20
491.5
 30
0.0
 40
0.5
 50
90.0
 51
180.0
  0
LINE
  8
51
  5
13156
 10
-355.902619
 20
494.0
 30
0.0
 11
-355.902619
 21
492.0
 31
0.0
  0
LINE
  8
51
  5
13157
 10
-348.902619
 20
494.0
 30
0.0
 11
-348.902619
 21
492.0
 31
0.0
  0
ARC
  8
51
  5
13158
 10
-343.202619
 20
491.0
 30
0.0
 40
1.0
 50
90.0
 51
180.0
  0
LINE
  8
51
  5
13159
 10
-354.402619
 20
473.8
 30
0.0
 11
-361.402619
 21
473.8
 31
0.0
  0
LINE
  8
51
  5
1315A
 10
-364.402619
 20
485.5
 30
0.0
 11
-362.402619
 21
485.5
 31
0.0
  0
LINE
  8
51
  5
1315B
 10
-364.402619
 20
478.5
 30
0.0
 11
-362.402619
 21
478.5
 31
0.0
  0
ARC
  8
51
  5
1315C
 10
-361.402619
 20
472.8
 30
0.0
 40
1.0
 50
90.0
 51
180.0
  0
ARC
  8
51
  5
1315D
 10
-354.402619
 20
484.0
 30
0.0
 40
10.2
 50
270.0
 51
0.0
  0
LINE
  8
51
  5
1315E
 10
-350.476131
 20
485.626405
 30
0.0
 11
-348.397402
 21
486.487442
 31
0.0
  0
LINE
  8
51
  5
1315F
 10
-350.476131
 20
482.373595
 30
0.0
 11
-348.397402
 21
481.512558
 31
0.0
  0
CIRCLE
  8
51
  5
13160
 10
-354.402619
 20
484.0
 30
0.0
 40
4.25
  0
LINE
  8
51
  5
13161
 10
-358.329107
 20
485.626405
 30
0.0
 11
-360.407836
 21
486.487442
 31
0.0
  0
LINE
  8
51
  5
13162
 10
-358.329107
 20
482.373595
 30
0.0
 11
-360.407836
 21
481.512558
 31
0.0
  0
LINE
  8
51
  5
13163
 10
-356.029024
 20
480.073512
 30
0.0
 11
-356.890062
 21
477.994783
 31
0.0
  0
LINE
  8
51
  5
13164
 10
-352.776215
 20
480.073512
 30
0.0
 11
-351.915177
 21
477.994783
 31
0.0
  0
LINE
  8
53
  6
DASHDOT
  5
13166
 10
-379.683805
 20
403.0
 30
0.0
 11
-69.402619
 21
403.0
 31
0.0
  0
LINE
  8
51
  5
13168
 10
-76.902619
 20
502.0
 30
0.0
 11
-223.402619
 21
502.0
 31
0.0
  0
LINE
  8
52
  5
13169
 10
-223.402619
 20
494.0
 30
0.0
 11
-84.902619
 21
494.0
 31
0.0
  0
LINE
  8
51
  5
1316A
 10
-223.402619
 20
492.0
 30
0.0
 11
-97.902619
 21
492.0
 31
0.0
  0
LINE
  8
52
  5
1316B
 10
-76.902619
 20
500.0
 30
0.0
 11
-223.402619
 21
500.0
 31
0.0
  0
LINE
  8
51
  5
1316E
 10
-84.402619
 20
478.5
 30
0.0
 11
-84.402619
 21
403.0
 31
0.0
  0
LINE
  8
52
  5
1316F
 10
-76.402619
 20
499.5
 30
0.0
 11
-76.402619
 21
403.0
 31
0.0
  0
LINE
  8
52
  5
13170
 10
-82.402619
 20
491.5
 30
0.0
 11
-82.402619
 21
403.0
 31
0.0
  0
LINE
  8
51
  5
13171
 10
-74.402619
 20
499.5
 30
0.0
 11
-74.402619
 21
403.0
 31
0.0
  0
ARC
  8
51
  5
13173
 10
-76.902619
 20
499.5
 30
0.0
 40
2.5
 50
0.0
 51
90.0
  0
LINE
  8
51
  5
13175
 10
-102.602619
 20
484.0
 30
0.0
 11
-102.602619
 21
491.0
 31
0.0
  0
LINE
  8
51
  5
13176
 10
-94.029024
 20
487.926488
 30
0.0
 11
-94.890062
 21
490.005217
 31
0.0
  0
LINE
  8
51
  5
13177
 10
-90.776215
 20
487.926488
 30
0.0
 11
-89.915177
 21
490.005217
 31
0.0
  0
LINE
  8
51
  5
13178
 10
-84.402619
 20
491.5
 30
0.0
 11
-84.402619
 21
485.5
 31
0.0
  0
ARC
  8
51
  5
1317A
 10
-92.402619
 20
484.0
 30
0.0
 40
15.7
 50
149.365864
 51
300.634136
  0
CIRCLE
  8
51
  5
1317C
 10
-92.402619
 20
484.0
 30
0.0
 40
6.5
  0
LINE
  8
51
  5
1317D
 10
-90.902619
 20
492.0
 30
0.0
 11
-84.902619
 21
492.0
 31
0.0
  0
ARC
  8
52
  5
1317E
 10
-76.902619
 20
499.5
 30
0.0
 40
0.5
 50
0.0
 51
90.0
  0
ARC
  8
51
  5
1317F
 10
-84.902619
 20
491.5
 30
0.0
 40
0.5
 50
0.0
 51
90.0
  0
ARC
  8
52
  5
13180
 10
-84.902619
 20
491.5
 30
0.0
 40
2.5
 50
0.0
 51
90.0
  0
LINE
  8
51
  5
13181
 10
-97.902619
 20
494.0
 30
0.0
 11
-97.902619
 21
492.0
 31
0.0
  0
LINE
  8
51
  5
13182
 10
-90.902619
 20
494.0
 30
0.0
 11
-90.902619
 21
492.0
 31
0.0
  0
ARC
  8
51
  5
13183
 10
-103.602619
 20
491.0
 30
0.0
 40
1.0
 50
0.0
 51
90.0
  0
ARC
  8
51
  5
13184
 10
-92.402619
 20
484.0
 30
0.0
 40
10.2
 50
180.0
 51
270.0
  0
LINE
  8
51
  5
13185
 10
-92.402619
 20
473.8
 30
0.0
 11
-85.402619
 21
473.8
 31
0.0
  0
LINE
  8
51
  5
13186
 10
-88.476131
 20
482.373595
 30
0.0
 11
-86.397402
 21
481.512558
 31
0.0
  0
LINE
  8
51
  5
13187
 10
-88.476131
 20
485.626405
 30
0.0
 11
-86.397402
 21
486.487442
 31
0.0
  0
LINE
  8
51
  5
13188
 10
-82.402619
 20
485.5
 30
0.0
 11
-84.402619
 21
485.5
 31
0.0
  0
ARC
  8
51
  5
13189
 10
-85.402619
 20
472.8
 30
0.0
 40
1.0
 50
0.0
 51
90.0
  0
LINE
  8
51
  5
1318A
 10
-82.402619
 20
478.5
 30
0.0
 11
-84.402619
 21
478.5
 31
0.0
  0
CIRCLE
  8
51
  5
1318B
 10
-92.402619
 20
484.0
 30
0.0
 40
4.25
  0
LINE
  8
51
  5
1318C
 10
-96.329107
 20
482.373595
 30
0.0
 11
-98.407836
 21
481.512558
 31
0.0
  0
LINE
  8
51
  5
1318D
 10
-96.329107
 20
485.626405
 30
0.0
 11
-98.407836
 21
486.487442
 31
0.0
  0
LINE
  8
51
  5
1318E
 10
-90.776215
 20
480.073512
 30
0.0
 11
-89.915177
 21
477.994783
 31
0.0
  0
LINE
  8
51
  5
1318F
 10
-94.029024
 20
480.073512
 30
0.0
 11
-94.890062
 21
477.994783
 31
0.0
  0
LINE
  8
63
  6
DASHDOT
  5
16143
 10
48.945552
 20
403.0
 30
0.0
 11
366.12915
 21
403.0
 31
0.0
  0
LINE
  8
52
  5
161DF
 10
-369.902619
 20
306.0
 30
0.0
 11
-223.402619
 21
306.0
 31
0.0
  0
LINE
  8
51
  5
161E0
 10
-223.402619
 20
314.0
 30
0.0
 11
-348.902619
 21
314.0
 31
0.0
  0
LINE
  8
52
  5
161E1
 10
-223.402619
 20
312.0
 30
0.0
 11
-361.902619
 21
312.0
 31
0.0
  0
LINE
  8
51
  5
161E2
 10
-369.902619
 20
304.0
 30
0.0
 11
-223.402619
 21
304.0
 31
0.0
  0
LINE
  8
51
  5
161E7
 10
-372.402619
 20
306.5
 30
0.0
 11
-372.402619
 21
403.0
 31
0.0
  0
LINE
  8
52
  5
161E8
 10
-364.402619
 20
314.5
 30
0.0
 11
-364.402619
 21
403.0
 31
0.0
  0
LINE
  8
52
  5
161E9
 10
-370.402619
 20
306.5
 30
0.0
 11
-370.402619
 21
403.0
 31
0.0
  0
LINE
  8
51
  5
161EA
 10
-362.402619
 20
327.5
 30
0.0
 11
-362.402619
 21
403.0
 31
0.0
  0
ARC
  8
51
  5
161EB
 10
-354.402619
 20
322.0
 30
0.0
 40
10.2
 50
0.0
 51
90.0
  0
ARC
  8
51
  5
161ED
 10
-354.402619
 20
322.0
 30
0.0
 40
15.7
 50
329.365864
 51
120.634136
  0
ARC
  8
51
  5
161F0
 10
-369.902619
 20
306.5
 30
0.0
 40
2.5
 50
180.0
 51
270.0
  0
LINE
  8
51
  5
161F1
 10
-352.776215
 20
318.073512
 30
0.0
 11
-351.915177
 21
315.994783
 31
0.0
  0
LINE
  8
51
  5
161F2
 10
-356.029024
 20
318.073512
 30
0.0
 11
-356.890062
 21
315.994783
 31
0.0
  0
LINE
  8
51
  5
161F3
 10
-362.402619
 20
314.5
 30
0.0
 11
-362.402619
 21
320.5
 31
0.0
  0
CIRCLE
  8
51
  5
161F4
 10
-354.402619
 20
322.0
 30
0.0
 40
6.5
  0
CIRCLE
  8
51
  5
161F5
 10
-354.402619
 20
322.0
 30
0.0
 40
4.25
  0
LINE
  8
51
  5
161F6
 10
-355.902619
 20
314.0
 30
0.0
 11
-361.902619
 21
314.0
 31
0.0
  0
ARC
  8
52
  5
161F7
 10
-369.902619
 20
306.5
 30
0.0
 40
0.5
 50
180.0
 51
270.0
  0
ARC
  8
52
  5
161F8
 10
-361.902619
 20
314.5
 30
0.0
 40
2.5
 50
180.0
 51
270.0
  0
ARC
  8
51
  5
161F9
 10
-361.902619
 20
314.5
 30
0.0
 40
0.5
 50
180.0
 51
270.0
  0
LINE
  8
51
  5
161FA
 10
-355.902619
 20
312.0
 30
0.0
 11
-355.902619
 21
314.0
 31
0.0
  0
LINE
  8
51
  5
161FB
 10
-348.902619
 20
312.0
 30
0.0
 11
-348.902619
 21
314.0
 31
0.0
  0
LINE
  8
51
  5
161FC
 10
-354.402619
 20
332.2
 30
0.0
 11
-361.402619
 21
332.2
 31
0.0
  0
LINE
  8
51
  5
161FD
 10
-358.329107
 20
320.373595
 30
0.0
 11
-360.407836
 21
319.512558
 31
0.0
  0
LINE
  8
51
  5
161FE
 10
-358.329107
 20
323.626405
 30
0.0
 11
-360.407836
 21
324.487442
 31
0.0
  0
LINE
  8
51
  5
161FF
 10
-364.402619
 20
320.5
 30
0.0
 11
-362.402619
 21
320.5
 31
0.0
  0
LINE
  8
51
  5
16200
 10
-364.402619
 20
327.5
 30
0.0
 11
-362.402619
 21
327.5
 31
0.0
  0
ARC
  8
51
  5
16201
 10
-361.402619
 20
333.2
 30
0.0
 40
1.0
 50
180.0
 51
270.0
  0
LINE
  8
51
  5
16202
 10
-356.029024
 20
325.926488
 30
0.0
 11
-356.890062
 21
328.005217
 31
0.0
  0
LINE
  8
51
  5
16203
 10
-352.776215
 20
325.926488
 30
0.0
 11
-351.915177
 21
328.005217
 31
0.0
  0
LINE
  8
51
  5
16204
 10
-350.476131
 20
320.373595
 30
0.0
 11
-348.397402
 21
319.512558
 31
0.0
  0
LINE
  8
51
  5
16205
 10
-350.476131
 20
323.626405
 30
0.0
 11
-348.397402
 21
324.487442
 31
0.0
  0
LINE
  8
51
  5
16206
 10
-344.202619
 20
322.0
 30
0.0
 11
-344.202619
 21
315.0
 31
0.0
  0
ARC
  8
51
  5
16208
 10
-343.202619
 20
315.0
 30
0.0
 40
1.0
 50
180.0
 51
270.0
  0
LINE
  8
53
  6
DASHDOT
  5
16209
 10
-223.402619
 20
298.0
 30
0.0
 11
-223.402619
 21
403.0
 31
0.0
  0
LINE
  8
51
  5
1620C
 10
-74.402619
 20
306.5
 30
0.0
 11
-74.402619
 21
403.0
 31
0.0
  0
LINE
  8
52
  5
1620D
 10
-82.402619
 20
314.5
 30
0.0
 11
-82.402619
 21
403.0
 31
0.0
  0
LINE
  8
52
  5
1620E
 10
-76.402619
 20
306.5
 30
0.0
 11
-76.402619
 21
403.0
 31
0.0
  0
LINE
  8
51
  5
1620F
 10
-84.402619
 20
327.5
 30
0.0
 11
-84.402619
 21
403.0
 31
0.0
  0
LINE
  8
51
  5
16211
 10
-76.902619
 20
304.0
 30
0.0
 11
-223.402619
 21
304.0
 31
0.0
  0
LINE
  8
52
  5
16212
 10
-223.402619
 20
312.0
 30
0.0
 11
-84.902619
 21
312.0
 31
0.0
  0
LINE
  8
51
  5
16213
 10
-223.402619
 20
314.0
 30
0.0
 11
-97.902619
 21
314.0
 31
0.0
  0
LINE
  8
52
  5
16214
 10
-76.902619
 20
306.0
 30
0.0
 11
-223.402619
 21
306.0
 31
0.0
  0
ARC
  8
51
  5
1621A
 10
-92.402619
 20
322.0
 30
0.0
 40
10.2
 50
90.0
 51
180.0
  0
ARC
  8
51
  5
1621C
 10
-92.402619
 20
322.0
 30
0.0
 40
15.7
 50
59.365864
 51
210.634136
  0
LINE
  8
51
  5
1621F
 10
-82.402619
 20
320.5
 30
0.0
 11
-84.402619
 21
320.5
 31
0.0
  0
LINE
  8
51
  5
16220
 10
-82.402619
 20
327.5
 30
0.0
 11
-84.402619
 21
327.5
 31
0.0
  0
ARC
  8
52
  5
16221
 10
-84.902619
 20
314.5
 30
0.0
 40
2.5
 50
270.0
 51
0.0
  0
LINE
  8
51
  5
16222
 10
-94.029024
 20
318.073512
 30
0.0
 11
-94.890062
 21
315.994783
 31
0.0
  0
LINE
  8
51
  5
16223
 10
-90.776215
 20
318.073512
 30
0.0
 11
-89.915177
 21
315.994783
 31
0.0
  0
LINE
  8
51
  5
16224
 10
-102.602619
 20
322.0
 30
0.0
 11
-102.602619
 21
315.0
 31
0.0
  0
LINE
  8
51
  5
16225
 10
-84.402619
 20
314.5
 30
0.0
 11
-84.402619
 21
320.5
 31
0.0
  0
CIRCLE
  8
51
  5
16226
 10
-92.402619
 20
322.0
 30
0.0
 40
6.5
  0
CIRCLE
  8
51
  5
16227
 10
-92.402619
 20
322.0
 30
0.0
 40
4.25
  0
LINE
  8
51
  5
16228
 10
-97.902619
 20
312.0
 30
0.0
 11
-97.902619
 21
314.0
 31
0.0
  0
ARC
  8
51
  5
16229
 10
-103.602619
 20
315.0
 30
0.0
 40
1.0
 50
270.0
 51
0.0
  0
LINE
  8
51
  5
1622A
 10
-90.902619
 20
314.0
 30
0.0
 11
-84.902619
 21
314.0
 31
0.0
  0
ARC
  8
51
  5
1622B
 10
-84.902619
 20
314.5
 30
0.0
 40
0.5
 50
270.0
 51
0.0
  0
LINE
  8
51
  5
1622C
 10
-90.902619
 20
312.0
 30
0.0
 11
-90.902619
 21
314.0
 31
0.0
  0
LINE
  8
51
  5
1622D
 10
-96.329107
 20
323.626405
 30
0.0
 11
-98.407836
 21
324.487442
 31
0.0
  0
LINE
  8
51
  5
1622E
 10
-96.329107
 20
320.373595
 30
0.0
 11
-98.407836
 21
319.512558
 31
0.0
  0
LINE
  8
51
  5
1622F
 10
-90.776215
 20
325.926488
 30
0.0
 11
-89.915177
 21
328.005217
 31
0.0
  0
LINE
  8
51
  5
16230
 10
-94.029024
 20
325.926488
 30
0.0
 11
-94.890062
 21
328.005217
 31
0.0
  0
LINE
  8
51
  5
16231
 10
-88.476131
 20
323.626405
 30
0.0
 11
-86.397402
 21
324.487442
 31
0.0
  0
LINE
  8
51
  5
16232
 10
-88.476131
 20
320.373595
 30
0.0
 11
-86.397402
 21
319.512558
 31
0.0
  0
LINE
  8
51
  5
16233
 10
-92.402619
 20
332.2
 30
0.0
 11
-85.402619
 21
332.2
 31
0.0
  0
ARC
  8
51
  5
16234
 10
-85.402619
 20
333.2
 30
0.0
 40
1.0
 50
270.0
 51
0.0
  0
ARC
  8
51
  5
16235
 10
-76.902619
 20
306.5
 30
0.0
 40
2.5
 50
270.0
 51
0.0
  0
ARC
  8
52
  5
16236
 10
-76.902619
 20
306.5
 30
0.0
 40
0.5
 50
270.0
 51
0.0
  0
ARC
  8
14
  5
16C18
 10
92.707134
 20
203.136014
 30
0.0
 40
1.0
 50
181.0
 51
270.0
  0
LINE
  8
14
  5
22EEA
 10
331.5
 20
237.736014
 30
0.0
 11
331.5
 21
241.736014
 31
0.0
  0
LINE
  8
13
  6
DASHDOT
  5
22EEB
 10
207.0
 20
194.30381
 30
0.0
 11
207.0
 21
246.457562
 31
0.0
  0
LINE
  8
11
  5
22EEC
 10
74.5
 20
238.736014
 30
0.0
 11
74.5
 21
241.736014
 31
0.0
  0
LINE
  8
11
  5
22EED
 10
81.5
 20
238.736014
 30
0.0
 11
81.5
 21
241.736014
 31
0.0
  0
LINE
  8
11
  5
22EEE
 10
66.0
 20
241.736014
 30
0.0
 11
65.895238
 21
238.736014
 31
0.0
  0
ARC
  8
11
  5
22EEF
 10
77.52738
 20
241.88558
 30
0.0
 40
2.74508
 50
285.158626
 51
7.334321
  0
ARC
  8
11
  5
22EF0
 10
78.075299
 20
244.387208
 30
0.0
 40
5.326917
 50
227.842096
 51
255.242457
  0
ARC
  8
11
  5
22EF1
 10
79.77738
 20
241.88558
 30
0.0
 40
2.74508
 50
285.158626
 51
308.868128
  0
LINE
  8
11
  5
22EF2
 10
81.5
 20
241.736014
 30
0.0
 11
207.0
 21
241.736014
 31
0.0
  0
LINE
  8
11
  5
22EF3
 10
66.0
 20
241.736014
 30
0.0
 11
68.0
 21
241.736014
 31
0.0
  0
LINE
  8
11
  5
22EF4
 10
82.5
 20
242.236014
 30
0.0
 11
76.718378
 21
242.236014
 31
0.0
  0
LINE
  8
11
  5
22EF5
 10
82.5
 20
241.736014
 30
0.0
 11
82.5
 21
242.236014
 31
0.0
  0
ARC
  8
11
  5
22EF6
 10
78.075299
 20
244.387208
 30
0.0
 40
5.326917
 50
203.818134
 51
209.847803
  0
LINE
  8
11
  5
22EF7
 10
68.0
 20
241.736014
 30
0.0
 11
74.5
 21
241.736014
 31
0.0
  0
LINE
  8
11
  5
22EF8
 10
69.824555
 20
242.236014
 30
0.0
 11
69.5
 21
241.736014
 31
0.0
  0
LINE
  8
11
  5
22EF9
 10
69.824555
 20
242.236014
 30
0.0
 11
73.202066
 21
242.236014
 31
0.0
  0
ARC
  8
11
  5
22EFA
 10
70.990899
 20
246.161803
 30
0.0
 40
6.943763
 50
302.115568
 51
325.572066
  0
LINE
  8
14
  5
22EFB
 10
321.292866
 20
202.136014
 30
0.0
 11
207.0
 21
202.136014
 31
0.0
  0
LINE
  8
14
  5
22EFC
 10
322.292713
 20
203.118561
 30
0.0
 11
322.749204
 21
229.270918
 31
0.0
  0
ARC
  8
14
  5
22EFD
 10
330.3
 20
235.236014
 30
0.0
 40
2.5
 50
90.0
 51
180.0
  0
LINE
  8
14
  5
22EFE
 10
330.3
 20
237.736014
 30
0.0
 11
331.5
 21
237.736014
 31
0.0
  0
LINE
  8
14
  5
22EFF
 10
327.8
 20
231.236014
 30
0.0
 11
327.8
 21
235.236014
 31
0.0
  0
ARC
  8
14
  5
22F00
 10
324.7489
 20
229.236014
 30
0.0
 40
2.0
 50
90.0
 51
179.0
  0
LINE
  8
14
  5
22F01
 10
324.7489
 20
231.236014
 30
0.0
 11
327.8
 21
231.236014
 31
0.0
  0
ARC
  8
14
  5
22F02
 10
321.292866
 20
203.136014
 30
0.0
 40
1.0
 50
270.0
 51
359.0
  0
LINE
  8
11
  5
22F03
 10
60.0
 20
238.736014
 30
0.0
 11
207.0
 21
238.736014
 31
0.0
  0
LINE
  8
11
  5
22F04
 10
69.76346
 20
199.736014
 30
0.0
 11
207.0
 21
199.736014
 31
0.0
  0
LINE
  8
11
  5
22F07
 10
60.5
 20
199.736014
 30
0.0
 11
70.510718
 21
199.736014
 31
0.0
  0
LINE
  8
11
  5
22F08
 10
80.495197
 20
239.236014
 30
0.0
 11
76.718378
 21
239.236014
 31
0.0
  0
LINE
  8
11
  5
22F09
 10
60.5
 20
199.736014
 30
0.0
 11
59.98761
 21
229.090834
 31
0.0
  0
LINE
  8
11
  5
22F0A
 10
58.0
 20
238.736014
 30
0.0
 11
58.269576
 21
231.016362
 31
0.0
  0
LINE
  8
11
  5
22F0B
 10
58.0
 20
238.736014
 30
0.0
 11
60.0
 21
238.736014
 31
0.0
  0
LINE
  8
11
  5
22F0C
 10
59.98761
 20
229.090834
 30
0.0
 11
59.75072
 21
229.154309
 31
0.0
  0
ARC
  8
11
  5
22F0D
 10
60.268358
 20
231.086161
 30
0.0
 40
2.0
 50
182.0
 51
255.0
  0
ARC
  8
31
  5
22F0E
 10
402.853646
 20
325.77738
 30
0.0
 40
2.74508
 50
15.158626
 51
38.868128
  0
ARC
  8
31
  5
22F0F
 10
400.352018
 20
324.075299
 30
0.0
 40
5.326917
 50
317.842096
 51
345.242457
  0
ARC
  8
31
  5
22F10
 10
402.853646
 20
323.52738
 30
0.0
 40
2.74508
 50
15.158626
 51
97.334321
  0
LINE
  8
31
  5
22F11
 10
403.003212
 20
312.0
 30
0.0
 11
406.003212
 21
311.895238
 31
0.0
  0
LINE
  8
31
  5
22F12
 10
406.003212
 20
327.5
 30
0.0
 11
403.003212
 21
327.5
 31
0.0
  0
LINE
  8
31
  5
22F13
 10
406.003212
 20
320.5
 30
0.0
 11
403.003212
 21
320.5
 31
0.0
  0
LINE
  8
34
  5
22F15
 10
407.003212
 20
477.5
 30
0.0
 11
403.003212
 21
477.5
 31
0.0
  0
LINE
  8
34
  5
22F16
 10
407.003212
 20
328.5
 30
0.0
 11
403.003212
 21
328.5
 31
0.0
  0
LINE
  8
33
  6
DASHDOT
  5
22F17
 10
458.628428
 20
403.0
 30
0.0
 11
398.281664
 21
403.0
 31
0.0
  0
LINE
  8
31
  5
22F18
 10
406.003212
 20
485.5
 30
0.0
 11
403.003212
 21
485.5
 31
0.0
  0
LINE
  8
31
  5
22F19
 10
406.003212
 20
478.5
 30
0.0
 11
403.003212
 21
478.5
 31
0.0
  0
LINE
  8
31
  5
22F1A
 10
403.003212
 20
494.0
 30
0.0
 11
406.003212
 21
494.104762
 31
0.0
  0
ARC
  8
31
  5
22F1B
 10
402.853646
 20
482.47262
 30
0.0
 40
2.74508
 50
262.665679
 51
344.841374
  0
ARC
  8
31
  5
22F1C
 10
400.352018
 20
481.924701
 30
0.0
 40
5.326917
 50
14.757543
 51
42.157904
  0
ARC
  8
31
  5
22F1D
 10
402.853646
 20
480.22262
 30
0.0
 40
2.74508
 50
321.131872
 51
344.841374
  0
LINE
  8
31
  5
22F1E
 10
403.003212
 20
327.5
 30
0.0
 11
403.003212
 21
403.0
 31
0.0
  0
LINE
  8
31
  5
22F1F
 10
402.503212
 20
315.824555
 30
0.0
 11
402.503212
 21
319.202066
 31
0.0
  0
LINE
  8
31
  5
22F20
 10
403.003212
 20
314.0
 30
0.0
 11
403.003212
 21
320.5
 31
0.0
  0
LINE
  8
31
  5
22F21
 10
402.503212
 20
315.824555
 30
0.0
 11
403.003212
 21
315.5
 31
0.0
  0
LINE
  8
31
  5
22F22
 10
403.003212
 20
312.0
 30
0.0
 11
403.003212
 21
314.0
 31
0.0
  0
ARC
  8
31
  5
22F23
 10
398.577423
 20
316.990899
 30
0.0
 40
6.943763
 50
32.115568
 51
55.572066
  0
ARC
  8
31
  5
22F24
 10
400.352018
 20
324.075299
 30
0.0
 40
5.326917
 50
293.818134
 51
299.847803
  0
LINE
  8
31
  5
22F25
 10
403.003212
 20
328.5
 30
0.0
 11
402.503212
 21
328.5
 31
0.0
  0
LINE
  8
31
  5
22F26
 10
402.503212
 20
328.5
 30
0.0
 11
402.503212
 21
322.718378
 31
0.0
  0
LINE
  8
31
  5
22F27
 10
403.003212
 20
478.5
 30
0.0
 11
403.003212
 21
403.0
 31
0.0
  0
LINE
  8
31
  5
22F28
 10
403.003212
 20
494.0
 30
0.0
 11
403.003212
 21
492.0
 31
0.0
  0
LINE
  8
31
  5
22F29
 10
402.503212
 20
477.5
 30
0.0
 11
402.503212
 21
483.281622
 31
0.0
  0
LINE
  8
31
  5
22F2A
 10
403.003212
 20
477.5
 30
0.0
 11
402.503212
 21
477.5
 31
0.0
  0
ARC
  8
31
  5
22F2B
 10
400.352018
 20
481.924701
 30
0.0
 40
5.326917
 50
60.152197
 51
66.181866
  0
LINE
  8
31
  5
22F2C
 10
403.003212
 20
492.0
 30
0.0
 11
403.003212
 21
485.5
 31
0.0
  0
LINE
  8
31
  5
22F2D
 10
402.503212
 20
490.175445
 30
0.0
 11
403.003212
 21
490.5
 31
0.0
  0
LINE
  8
31
  5
22F2E
 10
402.503212
 20
490.175445
 30
0.0
 11
402.503212
 21
486.797934
 31
0.0
  0
ARC
  8
31
  5
22F2F
 10
398.577423
 20
489.009101
 30
0.0
 40
6.943763
 50
304.427934
 51
327.884432
  0
LINE
  8
31
  5
22F30
 10
445.003212
 20
315.76346
 30
0.0
 11
445.003212
 21
403.0
 31
0.0
  0
LINE
  8
31
  5
22F31
 10
406.003212
 20
306.0
 30
0.0
 11
406.003212
 21
403.0
 31
0.0
  0
LINE
  8
34
  5
22F32
 10
442.603212
 20
338.707134
 30
0.0
 11
442.603212
 21
403.0
 31
0.0
  0
LINE
  8
31
  5
22F33
 10
445.003212
 20
306.5
 30
0.0
 11
445.003212
 21
316.510718
 31
0.0
  0
LINE
  8
31
  5
22F34
 10
445.003212
 20
306.5
 30
0.0
 11
415.648391
 21
305.98761
 31
0.0
  0
LINE
  8
31
  5
22F35
 10
406.003212
 20
304.0
 30
0.0
 11
413.722864
 21
304.269576
 31
0.0
  0
LINE
  8
31
  5
22F36
 10
406.003212
 20
304.0
 30
0.0
 11
406.003212
 21
306.0
 31
0.0
  0
ARC
  8
31
  5
22F37
 10
413.653065
 20
306.268358
 30
0.0
 40
2.0
 50
272.0
 51
345.0
  0
LINE
  8
31
  5
22F38
 10
415.648391
 20
305.98761
 30
0.0
 11
415.584917
 21
305.75072
 31
0.0
  0
LINE
  8
34
  5
22F39
 10
441.620665
 20
337.707287
 30
0.0
 11
415.468308
 21
337.250796
 31
0.0
  0
ARC
  8
34
  5
22F3A
 10
409.503212
 20
329.7
 30
0.0
 40
2.5
 50
90.0
 51
180.0
  0
LINE
  8
31
  5
22F3B
 10
405.503212
 20
326.495197
 30
0.0
 11
405.503212
 21
322.718378
 31
0.0
  0
LINE
  8
34
  5
22F3C
 10
407.003212
 20
329.7
 30
0.0
 11
407.003212
 21
328.5
 31
0.0
  0
LINE
  8
34
  5
22F3D
 10
413.503212
 20
332.2
 30
0.0
 11
409.503212
 21
332.2
 31
0.0
  0
ARC
  8
34
  5
22F3E
 10
415.503212
 20
335.2511
 30
0.0
 40
2.0
 50
91.0
 51
180.0
  0
LINE
  8
34
  5
22F3F
 10
413.503212
 20
335.2511
 30
0.0
 11
413.503212
 21
332.2
 31
0.0
  0
ARC
  8
34
  5
22F40
 10
441.603212
 20
338.707134
 30
0.0
 40
1.0
 50
271.0
 51
0.0
  0
LINE
  8
34
  5
22F41
 10
442.603212
 20
467.292866
 30
0.0
 11
442.603212
 21
403.0
 31
0.0
  0
LINE
  8
31
  5
22F42
 10
406.003212
 20
500.0
 30
0.0
 11
406.003212
 21
403.0
 31
0.0
  0
LINE
  8
31
  5
22F43
 10
445.003212
 20
490.23654
 30
0.0
 11
445.003212
 21
403.0
 31
0.0
  0
LINE
  8
31
  5
22F48
 10
445.003212
 20
499.5
 30
0.0
 11
445.003212
 21
489.489282
 31
0.0
  0
LINE
  8
34
  5
22F49
 10
441.620665
 20
468.292713
 30
0.0
 11
415.468308
 21
468.749204
 31
0.0
  0
ARC
  8
34
  5
22F4A
 10
415.503212
 20
470.7489
 30
0.0
 40
2.0
 50
180.0
 51
269.0
  0
LINE
  8
31
  5
22F4B
 10
405.503212
 20
479.504803
 30
0.0
 11
405.503212
 21
483.281622
 31
0.0
  0
LINE
  8
34
  5
22F4C
 10
413.503212
 20
473.8
 30
0.0
 11
409.503212
 21
473.8
 31
0.0
  0
LINE
  8
34
  5
22F4D
 10
407.003212
 20
476.3
 30
0.0
 11
407.003212
 21
477.5
 31
0.0
  0
ARC
  8
34
  5
22F4E
 10
409.503212
 20
476.3
 30
0.0
 40
2.5
 50
180.0
 51
270.0
  0
LINE
  8
34
  5
22F4F
 10
413.503212
 20
470.7489
 30
0.0
 11
413.503212
 21
473.8
 31
0.0
  0
ARC
  8
34
  5
22F50
 10
441.603212
 20
467.292866
 30
0.0
 40
1.0
 50
0.0
 51
89.0
  0
LINE
  8
31
  5
22F51
 10
445.003212
 20
499.5
 30
0.0
 11
415.648391
 21
500.01239
 31
0.0
  0
LINE
  8
31
  5
22F52
 10
406.003212
 20
502.0
 30
0.0
 11
413.722864
 21
501.730424
 31
0.0
  0
LINE
  8
31
  5
22F53
 10
406.003212
 20
502.0
 30
0.0
 11
406.003212
 21
500.0
 31
0.0
  0
LINE
  8
31
  5
22F54
 10
415.648391
 20
500.01239
 30
0.0
 11
415.584917
 21
500.24928
 31
0.0
  0
ARC
  8
31
  5
22F55
 10
413.653065
 20
499.731642
 30
0.0
 40
2.0
 50
15.0
 51
88.0
  0
TEXT
  8
L20
  5
22FE6
 10
-299.031938
 20
542.115021
 30
0.0
 40
11.9
  1
FIBOX EKI 200x300x40 Cover
  0
LINE
  8
31
  5
22FE7
 10
415.648391
 20
500.01239
 30
0.0
 11
415.648391
 21
305.98761
 31
0.0
  0
LINE
  8
31
  5
22FE8
 10
413.722864
 20
304.269576
 30
0.0
 11
413.722864
 21
501.730424
 31
0.0
  0
LINE
  8
11
  5
22FE9
 10
355.730424
 20
231.016362
 30
0.0
 11
58.269576
 21
231.016362
 31
0.0
  0
LINE
  8
11
  5
22FEA
 10
59.75072
 20
229.154309
 30
0.0
 11
354.01239
 21
229.090834
 31
0.0
  0
LINE
  8
41
  5
22FEB
 10
10.996788
 20
327.5
 30
0.0
 11
10.996788
 21
403.0
 31
0.0
  0
LINE
  8
44
  5
22FEC
 10
-28.603212
 20
338.707134
 30
0.0
 11
-28.603212
 21
403.0
 31
0.0
  0
LINE
  8
41
  5
22FED
 10
7.996788
 20
306.0
 30
0.0
 11
7.996788
 21
403.0
 31
0.0
  0
LINE
  8
41
  5
22FEE
 10
-31.003212
 20
315.76346
 30
0.0
 11
-31.003212
 21
403.0
 31
0.0
  0
LINE
  8
41
  5
22FEF
 10
-1.648391
 20
305.98761
 30
0.0
 11
-1.648391
 21
500.01239
 31
0.0
  0
LINE
  8
41
  5
22FF0
 10
0.277136
 20
501.730424
 30
0.0
 11
0.277136
 21
304.269576
 31
0.0
  0
LINE
  8
43
  6
DASHDOT
  5
22FF1
 10
-44.628428
 20
403.0
 30
0.0
 11
15.718336
 21
403.0
 31
0.0
  0
LINE
  8
44
  5
22FF2
 10
-27.620665
 20
468.292713
 30
0.0
 11
-1.468308
 21
468.749204
 31
0.0
  0
LINE
  8
41
  5
22FF3
 10
-31.003212
 20
499.5
 30
0.0
 11
-1.648391
 21
500.01239
 31
0.0
  0
LINE
  8
41
  5
22FF4
 10
10.996788
 20
478.5
 30
0.0
 11
10.996788
 21
403.0
 31
0.0
  0
LINE
  8
41
  5
22FF5
 10
7.996788
 20
500.0
 30
0.0
 11
7.996788
 21
403.0
 31
0.0
  0
ARC
  8
44
  5
22FF6
 10
-1.503212
 20
470.7489
 30
0.0
 40
2.0
 50
271.0
 51
0.0
  0
ARC
  8
44
  5
22FF7
 10
4.496788
 20
476.3
 30
0.0
 40
2.5
 50
270.0
 51
0.0
  0
LINE
  8
44
  5
22FF8
 10
6.996788
 20
477.5
 30
0.0
 11
10.996788
 21
477.5
 31
0.0
  0
LINE
  8
41
  5
22FF9
 10
7.996788
 20
502.0
 30
0.0
 11
0.277136
 21
501.730424
 31
0.0
  0
LINE
  8
41
  5
22FFA
 10
11.496788
 20
490.175445
 30
0.0
 11
11.496788
 21
486.797934
 31
0.0
  0
LINE
  8
41
  5
22FFB
 10
10.996788
 20
492.0
 30
0.0
 11
10.996788
 21
485.5
 31
0.0
  0
LINE
  8
41
  5
22FFC
 10
7.996788
 20
502.0
 30
0.0
 11
7.996788
 21
500.0
 31
0.0
  0
LINE
  8
41
  5
22FFD
 10
11.496788
 20
490.175445
 30
0.0
 11
10.996788
 21
490.5
 31
0.0
  0
LINE
  8
41
  5
22FFE
 10
10.996788
 20
494.0
 30
0.0
 11
10.996788
 21
492.0
 31
0.0
  0
LINE
  8
41
  5
22FFF
 10
10.996788
 20
494.0
 30
0.0
 11
7.996788
 21
494.104762
 31
0.0
  0
LINE
  8
41
  5
23000
 10
8.496788
 20
479.504803
 30
0.0
 11
8.496788
 21
483.281622
 31
0.0
  0
LINE
  8
41
  5
23001
 10
10.996788
 20
477.5
 30
0.0
 11
11.496788
 21
477.5
 31
0.0
  0
LINE
  8
41
  5
23002
 10
11.496788
 20
477.5
 30
0.0
 11
11.496788
 21
483.281622
 31
0.0
  0
ARC
  8
41
  5
23003
 10
11.146354
 20
480.22262
 30
0.0
 40
2.74508
 50
195.158626
 51
218.868128
  0
ARC
  8
41
  5
23004
 10
13.647982
 20
481.924701
 30
0.0
 40
5.326917
 50
113.818134
 51
119.847803
  0
ARC
  8
41
  5
23005
 10
13.647982
 20
481.924701
 30
0.0
 40
5.326917
 50
137.842096
 51
165.242457
  0
ARC
  8
41
  5
23006
 10
15.422577
 20
489.009101
 30
0.0
 40
6.943763
 50
212.115568
 51
235.572066
  0
ARC
  8
41
  5
23007
 10
11.146354
 20
482.47262
 30
0.0
 40
2.74508
 50
195.158626
 51
277.334321
  0
LINE
  8
41
  5
23008
 10
7.996788
 20
478.5
 30
0.0
 11
10.996788
 21
478.5
 31
0.0
  0
LINE
  8
41
  5
23009
 10
7.996788
 20
485.5
 30
0.0
 11
10.996788
 21
485.5
 31
0.0
  0
ARC
  8
41
  5
2300A
 10
0.346935
 20
499.731642
 30
0.0
 40
2.0
 50
92.0
 51
165.0
  0
LINE
  8
41
  5
2300B
 10
-1.648391
 20
500.01239
 30
0.0
 11
-1.584917
 21
500.24928
 31
0.0
  0
LINE
  8
44
  5
2300C
 10
0.496788
 20
470.7489
 30
0.0
 11
0.496788
 21
473.8
 31
0.0
  0
LINE
  8
44
  5
2300D
 10
6.996788
 20
476.3
 30
0.0
 11
6.996788
 21
477.5
 31
0.0
  0
LINE
  8
44
  5
2300E
 10
0.496788
 20
473.8
 30
0.0
 11
4.496788
 21
473.8
 31
0.0
  0
LINE
  8
44
  5
2300F
 10
-28.603212
 20
467.292866
 30
0.0
 11
-28.603212
 21
403.0
 31
0.0
  0
LINE
  8
41
  5
23010
 10
-31.003212
 20
490.23654
 30
0.0
 11
-31.003212
 21
403.0
 31
0.0
  0
LINE
  8
41
  5
23011
 10
-31.003212
 20
499.5
 30
0.0
 11
-31.003212
 21
489.489282
 31
0.0
  0
ARC
  8
44
  5
23012
 10
-27.603212
 20
467.292866
 30
0.0
 40
1.0
 50
91.0
 51
180.0
  0
LINE
  8
41
  5
23013
 10
-31.003212
 20
306.5
 30
0.0
 11
-1.648391
 21
305.98761
 31
0.0
  0
LINE
  8
44
  5
23014
 10
-27.620665
 20
337.707287
 30
0.0
 11
-1.468308
 21
337.250796
 31
0.0
  0
LINE
  8
44
  5
23015
 10
0.496788
 20
335.2511
 30
0.0
 11
0.496788
 21
332.2
 31
0.0
  0
ARC
  8
44
  5
23016
 10
-1.503212
 20
335.2511
 30
0.0
 40
2.0
 50
0.0
 51
89.0
  0
ARC
  8
44
  5
23017
 10
4.496788
 20
329.7
 30
0.0
 40
2.5
 50
0.0
 51
90.0
  0
LINE
  8
44
  5
23018
 10
6.996788
 20
328.5
 30
0.0
 11
10.996788
 21
328.5
 31
0.0
  0
LINE
  8
41
  5
23019
 10
7.996788
 20
304.0
 30
0.0
 11
0.277136
 21
304.269576
 31
0.0
  0
LINE
  8
41
  5
2301A
 10
11.496788
 20
315.824555
 30
0.0
 11
11.496788
 21
319.202066
 31
0.0
  0
LINE
  8
41
  5
2301B
 10
10.996788
 20
314.0
 30
0.0
 11
10.996788
 21
320.5
 31
0.0
  0
ARC
  8
41
  5
2301C
 10
13.647982
 20
324.075299
 30
0.0
 40
5.326917
 50
240.152197
 51
246.181866
  0
LINE
  8
41
  5
2301D
 10
8.496788
 20
326.495197
 30
0.0
 11
8.496788
 21
322.718378
 31
0.0
  0
LINE
  8
41
  5
2301E
 10
10.996788
 20
328.5
 30
0.0
 11
11.496788
 21
328.5
 31
0.0
  0
ARC
  8
41
  5
2301F
 10
15.422577
 20
316.990899
 30
0.0
 40
6.943763
 50
124.427934
 51
147.884432
  0
LINE
  8
41
  5
23020
 10
11.496788
 20
328.5
 30
0.0
 11
11.496788
 21
322.718378
 31
0.0
  0
ARC
  8
41
  5
23021
 10
11.146354
 20
325.77738
 30
0.0
 40
2.74508
 50
141.131872
 51
164.841374
  0
ARC
  8
41
  5
23022
 10
13.647982
 20
324.075299
 30
0.0
 40
5.326917
 50
194.757543
 51
222.157904
  0
LINE
  8
41
  5
23023
 10
7.996788
 20
327.5
 30
0.0
 11
10.996788
 21
327.5
 31
0.0
  0
LINE
  8
41
  5
23024
 10
7.996788
 20
320.5
 30
0.0
 11
10.996788
 21
320.5
 31
0.0
  0
ARC
  8
41
  5
23025
 10
11.146354
 20
323.52738
 30
0.0
 40
2.74508
 50
82.665679
 51
164.841374
  0
LINE
  8
41
  5
23026
 10
7.996788
 20
304.0
 30
0.0
 11
7.996788
 21
306.0
 31
0.0
  0
LINE
  8
41
  5
23027
 10
11.496788
 20
315.824555
 30
0.0
 11
10.996788
 21
315.5
 31
0.0
  0
LINE
  8
41
  5
23028
 10
10.996788
 20
312.0
 30
0.0
 11
10.996788
 21
314.0
 31
0.0
  0
LINE
  8
41
  5
23029
 10
10.996788
 20
312.0
 30
0.0
 11
7.996788
 21
311.895238
 31
0.0
  0
LINE
  8
44
  5
2302A
 10
6.996788
 20
329.7
 30
0.0
 11
6.996788
 21
328.5
 31
0.0
  0
LINE
  8
44
  5
2302B
 10
0.496788
 20
332.2
 30
0.0
 11
4.496788
 21
332.2
 31
0.0
  0
ARC
  8
41
  5
2302C
 10
0.346935
 20
306.268358
 30
0.0
 40
2.0
 50
195.0
 51
268.0
  0
LINE
  8
41
  5
2302D
 10
-1.648391
 20
305.98761
 30
0.0
 11
-1.584917
 21
305.75072
 31
0.0
  0
ARC
  8
44
  5
2302E
 10
-27.603212
 20
338.707134
 30
0.0
 40
1.0
 50
180.0
 51
269.0
  0
LINE
  8
41
  5
2302F
 10
-31.003212
 20
306.5
 30
0.0
 11
-31.003212
 21
316.510718
 31
0.0
  0
LINE
  8
24
  5
23030
 10
92.707134
 20
603.863986
 30
0.0
 11
207.0
 21
603.863986
 31
0.0
  0
LINE
  8
21
  5
23031
 10
69.76346
 20
606.263986
 30
0.0
 11
207.0
 21
606.263986
 31
0.0
  0
LINE
  8
21
  5
23032
 10
81.5
 20
564.263986
 30
0.0
 11
207.0
 21
564.263986
 31
0.0
  0
LINE
  8
21
  5
23033
 10
60.0
 20
567.263986
 30
0.0
 11
207.0
 21
567.263986
 31
0.0
  0
LINE
  8
21
  5
23034
 10
58.269576
 20
574.983638
 30
0.0
 11
355.730424
 21
574.983638
 31
0.0
  0
LINE
  8
21
  5
23035
 10
354.24928
 20
576.845691
 30
0.0
 11
59.98761
 21
576.909166
 31
0.0
  0
LINE
  8
24
  5
23036
 10
321.292866
 20
603.863986
 30
0.0
 11
207.0
 21
603.863986
 31
0.0
  0
LINE
  8
21
  5
23037
 10
332.5
 20
564.263986
 30
0.0
 11
207.0
 21
564.263986
 31
0.0
  0
LINE
  8
21
  5
23038
 10
354.0
 20
567.263986
 30
0.0
 11
207.0
 21
567.263986
 31
0.0
  0
LINE
  8
21
  5
23039
 10
344.23654
 20
606.263986
 30
0.0
 11
207.0
 21
606.263986
 31
0.0
  0
LINE
  8
24
  5
2303A
 10
327.8
 20
574.763986
 30
0.0
 11
327.8
 21
570.763986
 31
0.0
  0
LINE
  8
21
  5
2303B
 10
356.0
 20
567.263986
 30
0.0
 11
355.730424
 21
574.983638
 31
0.0
  0
LINE
  8
21
  5
2303C
 10
353.5
 20
606.263986
 30
0.0
 11
343.489282
 21
606.263986
 31
0.0
  0
LINE
  8
21
  5
2303D
 10
353.5
 20
606.263986
 30
0.0
 11
354.01239
 21
576.909166
 31
0.0
  0
ARC
  8
21
  5
2303E
 10
353.731642
 20
574.913839
 30
0.0
 40
2.0
 50
2.0
 51
75.0
  0
LINE
  8
21
  5
2303F
 10
354.01239
 20
576.909166
 30
0.0
 11
354.24928
 21
576.845691
 31
0.0
  0
LINE
  8
24
  5
23040
 10
322.292713
 20
602.881439
 30
0.0
 11
322.749204
 21
576.729082
 31
0.0
  0
ARC
  8
24
  5
23041
 10
321.292866
 20
602.863986
 30
0.0
 40
1.0
 50
1.0
 51
90.0
  0
ARC
  8
24
  5
23042
 10
324.7489
 20
576.763986
 30
0.0
 40
2.0
 50
181.0
 51
270.0
  0
LINE
  8
24
  5
23043
 10
324.7489
 20
574.763986
 30
0.0
 11
327.8
 21
574.763986
 31
0.0
  0
LINE
  8
21
  5
23044
 10
348.0
 20
564.263986
 30
0.0
 11
346.0
 21
564.263986
 31
0.0
  0
LINE
  8
21
  5
23045
 10
356.0
 20
567.263986
 30
0.0
 11
354.0
 21
567.263986
 31
0.0
  0
LINE
  8
21
  5
23046
 10
348.0
 20
564.263986
 30
0.0
 11
348.104762
 21
567.263986
 31
0.0
  0
LINE
  8
24
  5
23047
 10
330.3
 20
568.263986
 30
0.0
 11
331.5
 21
568.263986
 31
0.0
  0
ARC
  8
21
  5
23048
 10
335.924701
 20
561.612792
 30
0.0
 40
5.326917
 50
47.842096
 51
75.242457
  0
ARC
  8
21
  5
23049
 10
343.009101
 20
559.838197
 30
0.0
 40
6.943763
 50
122.115568
 51
145.572066
  0
LINE
  8
21
  5
2304A
 10
339.5
 20
567.263986
 30
0.0
 11
339.5
 21
564.263986
 31
0.0
  0
ARC
  8
21
  5
2304B
 10
335.924701
 20
561.612792
 30
0.0
 40
5.326917
 50
23.818134
 51
29.847803
  0
LINE
  8
21
  5
2304C
 10
344.175445
 20
563.763986
 30
0.0
 11
344.5
 21
564.263986
 31
0.0
  0
LINE
  8
21
  5
2304D
 10
346.0
 20
564.263986
 30
0.0
 11
339.5
 21
564.263986
 31
0.0
  0
LINE
  8
21
  5
2304E
 10
344.175445
 20
563.763986
 30
0.0
 11
340.797934
 21
563.763986
 31
0.0
  0
LINE
  8
21
  5
2304F
 10
332.5
 20
567.263986
 30
0.0
 11
332.5
 21
564.263986
 31
0.0
  0
ARC
  8
21
  5
23050
 10
336.47262
 20
564.11442
 30
0.0
 40
2.74508
 50
105.158626
 51
187.334321
  0
ARC
  8
21
  5
23051
 10
334.22262
 20
564.11442
 30
0.0
 40
2.74508
 50
105.158626
 51
128.868128
  0
LINE
  8
21
  5
23052
 10
331.5
 20
564.263986
 30
0.0
 11
331.5
 21
563.763986
 31
0.0
  0
LINE
  8
24
  5
23053
 10
331.5
 20
568.263986
 30
0.0
 11
331.5
 21
564.263986
 31
0.0
  0
LINE
  8
21
  5
23054
 10
331.5
 20
563.763986
 30
0.0
 11
337.281622
 21
563.763986
 31
0.0
  0
LINE
  8
21
  5
23055
 10
333.504803
 20
566.763986
 30
0.0
 11
337.281622
 21
566.763986
 31
0.0
  0
ARC
  8
24
  5
23056
 10
330.3
 20
570.763986
 30
0.0
 40
2.5
 50
180.0
 51
270.0
  0
LINE
  8
23
  6
DASHDOT
  5
23057
 10
207.0
 20
611.69619
 30
0.0
 11
207.0
 21
559.542438
 31
0.0
  0
LINE
  8
21
  5
23058
 10
58.0
 20
567.263986
 30
0.0
 11
58.269576
 21
574.983638
 31
0.0
  0
LINE
  8
24
  5
23059
 10
86.2
 20
574.763986
 30
0.0
 11
86.2
 21
570.763986
 31
0.0
  0
LINE
  8
24
  5
2305A
 10
89.2511
 20
574.763986
 30
0.0
 11
86.2
 21
574.763986
 31
0.0
  0
LINE
  8
24
  5
2305B
 10
91.707287
 20
602.881439
 30
0.0
 11
91.250796
 21
576.729082
 31
0.0
  0
ARC
  8
24
  5
2305C
 10
92.707134
 20
602.863986
 30
0.0
 40
1.0
 50
90.0
 51
179.0
  0
ARC
  8
24
  5
2305D
 10
89.2511
 20
576.763986
 30
0.0
 40
2.0
 50
270.0
 51
359.0
  0
LINE
  8
21
  5
2305E
 10
60.5
 20
606.263986
 30
0.0
 11
59.98761
 21
576.909166
 31
0.0
  0
LINE
  8
21
  5
2305F
 10
60.5
 20
606.263986
 30
0.0
 11
70.510718
 21
606.263986
 31
0.0
  0
ARC
  8
21
  5
23060
 10
60.268358
 20
574.913839
 30
0.0
 40
2.0
 50
105.0
 51
178.0
  0
LINE
  8
21
  5
23061
 10
59.98761
 20
576.909166
 30
0.0
 11
59.75072
 21
576.845691
 31
0.0
  0
LINE
  8
21
  5
23062
 10
69.824555
 20
563.763986
 30
0.0
 11
73.202066
 21
563.763986
 31
0.0
  0
LINE
  8
21
  5
23063
 10
68.0
 20
564.263986
 30
0.0
 11
74.5
 21
564.263986
 31
0.0
  0
ARC
  8
21
  5
23064
 10
77.52738
 20
564.11442
 30
0.0
 40
2.74508
 50
352.665679
 51
74.841374
  0
LINE
  8
21
  5
23065
 10
80.495197
 20
566.763986
 30
0.0
 11
76.718378
 21
566.763986
 31
0.0
  0
LINE
  8
21
  5
23066
 10
82.5
 20
563.763986
 30
0.0
 11
76.718378
 21
563.763986
 31
0.0
  0
ARC
  8
21
  5
23067
 10
79.77738
 20
564.11442
 30
0.0
 40
2.74508
 50
51.131872
 51
74.841374
  0
LINE
  8
21
  5
23068
 10
81.5
 20
567.263986
 30
0.0
 11
81.5
 21
564.263986
 31
0.0
  0
LINE
  8
24
  5
23069
 10
83.7
 20
568.263986
 30
0.0
 11
82.5
 21
568.263986
 31
0.0
  0
LINE
  8
21
  5
2306A
 10
82.5
 20
564.263986
 30
0.0
 11
82.5
 21
563.763986
 31
0.0
  0
LINE
  8
24
  5
2306B
 10
82.5
 20
568.263986
 30
0.0
 11
82.5
 21
564.263986
 31
0.0
  0
ARC
  8
24
  5
2306C
 10
83.7
 20
570.763986
 30
0.0
 40
2.5
 50
270.0
 51
0.0
  0
LINE
  8
21
  5
2306D
 10
74.5
 20
567.263986
 30
0.0
 11
74.5
 21
564.263986
 31
0.0
  0
ARC
  8
21
  5
2306E
 10
78.075299
 20
561.612792
 30
0.0
 40
5.326917
 50
150.152197
 51
156.181866
  0
ARC
  8
21
  5
2306F
 10
70.990899
 20
559.838197
 30
0.0
 40
6.943763
 50
34.427934
 51
57.884432
  0
ARC
  8
21
  5
23070
 10
78.075299
 20
561.612792
 30
0.0
 40
5.326917
 50
104.757543
 51
132.157904
  0
LINE
  8
21
  5
23071
 10
66.0
 20
564.263986
 30
0.0
 11
65.895238
 21
567.263986
 31
0.0
  0
LINE
  8
21
  5
23072
 10
66.0
 20
564.263986
 30
0.0
 11
68.0
 21
564.263986
 31
0.0
  0
LINE
  8
21
  5
23073
 10
69.824555
 20
563.763986
 30
0.0
 11
69.5
 21
564.263986
 31
0.0
  0
LINE
  8
21
  5
23074
 10
58.0
 20
567.263986
 30
0.0
 11
60.0
 21
567.263986
 31
0.0
  0
ENDBLK
  8
0
  5
2307C
  0
ENDSEC
  0
SECTION
  2
ENTITIES
  0
VIEWPORT
  8
0
  5
1
 67
     1
 68
     1
 10
210.0
 20
152.094241
 30
0.0
 40
420.0
 41
304.188482
 69
     1
1001
ACAD
1000
MVIEW
1002
{
1070
    16
1010
0.0
1020
0.0
1030
0.0
1010
0.0
1020
0.0
1030
1.0
1040
0.0
1040
304.188482
1040
210.0
1040
152.094241
1040
50.0
1040
0.0
1040
0.0
1070
     0
1070
   100
1070
     1
1070
     1
1070
     1
1070
     0
1070
     0
1070
     0
1040
0.0
1040
0.0
1040
0.0
1040
1.0
1040
1.0
1040
0.0
1040
0.0
1070
     0
1002
{
1002
}
1002
}
  0
INSERT
  8
L1
  5
2307D
  2
EKI2304C
 10
0.0
 20
0.0
 30
0.0
  0
ENDSEC
  0
EOF
