  0
SECTION
  2
HEADER
  9
$ACADVER
  1
AC1009
  9
$INSBASE
 10
0.0
 20
0.0
 30
0.0
  9
$EXTMIN
 10
-99.009217
 20
179.622183
 30
0.0
  9
$EXTMAX
 10
668.801664
 20
636.422203
 30
0.0
  9
$LIMMIN
 10
0.0
 20
0.0
  9
$LIMMAX
 10
420.0
 20
297.0
  9
$ORTHOMODE
 70
     0
  9
$REGENMODE
 70
     1
  9
$FILLMODE
 70
     1
  9
$QTEXTMODE
 70
     0
  9
$MIRRTEXT
 70
     1
  9
$DRAGMODE
 70
     2
  9
$LTSCALE
 40
7.0
  9
$OSMODE
 70
     0
  9
$ATTMODE
 70
     1
  9
$TEXTSIZE
 40
3.5
  9
$TRACEWID
 40
0.05
  9
$TEXTSTYLE
  7
STANDARD
  9
$CLAYER
  8
1
  9
$CELTYPE
  6
BYLAYER
  9
$CECOLOR
 62
   256
  9
$DIMSCALE
 40
1.0
  9
$DIMASZ
 40
3.5
  9
$DIMEXO
 40
0.0
  9
$DIMDLI
 40
10.0
  9
$DIMRND
 40
0.0
  9
$DIMDLE
 40
0.0
  9
$DIMEXE
 40
2.0
  9
$DIMTP
 40
0.0
  9
$DIMTM
 40
0.0
  9
$DIMTXT
 40
3.5
  9
$DIMCEN
 40
2.5
  9
$DIMTSZ
 40
0.0
  9
$DIMTOL
 70
     0
  9
$DIMLIM
 70
     0
  9
$DIMTIH
 70
     0
  9
$DIMTOH
 70
     0
  9
$DIMSE1
 70
     0
  9
$DIMSE2
 70
     0
  9
$DIMTAD
 70
     1
  9
$DIMZIN
 70
     8
  9
$DIMBLK
  1

  9
$DIMASO
 70
     1
  9
$DIMSHO
 70
     1
  9
$DIMPOST
  1

  9
$DIMAPOST
  1

  9
$DIMALT
 70
     0
  9
$DIMALTD
 70
     2
  9
$DIMALTF
 40
25.4
  9
$DIMLFAC
 40
1.0
  9
$DIMTOFL
 70
     1
  9
$DIMTVP
 40
0.0
  9
$DIMTIX
 70
     0
  9
$DIMSOXD
 70
     0
  9
$DIMSAH
 70
     0
  9
$DIMBLK1
  1

  9
$DIMBLK2
  1

  9
$DIMSTYLE
  2
ACADUS
  9
$DIMCLRD
 70
   256
  9
$DIMCLRE
 70
   256
  9
$DIMCLRT
 70
     3
  9
$DIMTFAC
 40
1.0
  9
$DIMGAP
 40
2.0
  9
$LUNITS
 70
     2
  9
$LUPREC
 70
     1
  9
$SKETCHINC
 40
1.0
  9
$FILLETRAD
 40
0.0
  9
$AUNITS
 70
     0
  9
$AUPREC
 70
     2
  9
$MENU
  1
CAESAR
  9
$ELEVATION
 40
0.0
  9
$PELEVATION
 40
0.0
  9
$THICKNESS
 40
0.0
  9
$LIMCHECK
 70
     0
  9
$BLIPMODE
 70
     1
  9
$CHAMFERA
 40
5.0
  9
$CHAMFERB
 40
5.0
  9
$SKPOLY
 70
     0
  9
$TDCREATE
 40
2449496.452648
  9
$TDUPDATE
 40
2449496.452648
  9
$TDINDWG
 40
0.0
  9
$TDUSRTIMER
 40
0.0
  9
$USRTIMER
 70
     1
  9
$ANGBASE
 50
0.0
  9
$ANGDIR
 70
     0
  9
$PDMODE
 70
     0
  9
$PDSIZE
 40
0.0
  9
$PLINEWID
 40
0.0
  9
$COORDS
 70
     2
  9
$SPLFRAME
 70
     0
  9
$SPLINETYPE
 70
     6
  9
$SPLINESEGS
 70
     8
  9
$ATTDIA
 70
     0
  9
$ATTREQ
 70
     1
  9
$HANDLING
 70
     1
  9
$HANDSEED
  5
57354
  9
$SURFTAB1
 70
     6
  9
$SURFTAB2
 70
     6
  9
$SURFTYPE
 70
     6
  9
$SURFU
 70
     6
  9
$SURFV
 70
     6
  9
$UCSNAME
  2

  9
$UCSORG
 10
0.0
 20
0.0
 30
0.0
  9
$UCSXDIR
 10
1.0
 20
0.0
 30
0.0
  9
$UCSYDIR
 10
0.0
 20
1.0
 30
0.0
  9
$PUCSNAME
  2

  9
$PUCSORG
 10
0.0
 20
0.0
 30
0.0
  9
$PUCSXDIR
 10
1.0
 20
0.0
 30
0.0
  9
$PUCSYDIR
 10
0.0
 20
1.0
 30
0.0
  9
$USERI1
 70
     0
  9
$USERI2
 70
     0
  9
$USERI3
 70
     0
  9
$USERI4
 70
     0
  9
$USERI5
 70
     0
  9
$USERR1
 40
1.0
  9
$USERR2
 40
0.0
  9
$USERR3
 40
3.5
  9
$USERR4
 40
0.0
  9
$USERR5
 40
0.0
  9
$WORLDVIEW
 70
     1
  9
$SHADEDGE
 70
     3
  9
$SHADEDIF
 70
    70
  9
$TILEMODE
 70
     1
  9
$MAXACTVP
 70
    16
  9
$PLIMCHECK
 70
     0
  9
$PEXTMIN
 10
1.000000E+020
 20
1.000000E+020
 30
1.000000E+020
  9
$PEXTMAX
 10
-1.000000E+020
 20
-1.000000E+020
 30
-1.000000E+020
  9
$PLIMMIN
 10
0.0
 20
0.0
  9
$PLIMMAX
 10
420.0
 20
297.0
  9
$UNITMODE
 70
     0
  9
$VISRETAIN
 70
     0
  9
$PLINEGEN
 70
     0
  9
$PSLTSCALE
 70
     0
  0
ENDSEC
  0
SECTION
  2
TABLES
  0
TABLE
  2
VPORT
 70
     3
  0
VPORT
  2
*ACTIVE
 70
     0
 10
0.0
 20
0.0
 11
1.0
 21
1.0
 12
388.545891
 22
481.170614
 13
0.0
 23
0.0
 14
1.0
 24
1.0
 15
10.0
 25
10.0
 16
0.0
 26
0.0
 36
1.0
 17
0.0
 27
0.0
 37
0.0
 40
603.09686
 41
1.616838
 42
50.0
 43
0.0
 44
0.0
 50
0.0
 51
0.0
 71
     0
 72
   100
 73
     1
 74
     1
 75
     0
 76
     0
 77
     0
 78
     0
  0
ENDTAB
  0
TABLE
  2
LTYPE
 70
    10
  0
LTYPE
  2
CONTINUOUS
 70
     0
  3
Solid line
 72
    65
 73
     0
 40
0.0
  0
LTYPE
  2
BORDER
 70
     0
  3
__ __ . __ __ . __ __ . __ __ . __ __ . __ __ .
 72
    65
 73
     6
 40
1.75
 49
0.5
 49
-0.25
 49
0.5
 49
-0.25
 49
0.0
 49
-0.25
  0
LTYPE
  2
CENTER
 70
     0
  3
____ _ ____ _ ____ _ ____ _ ____ _ ____ _ ____ 
 72
    65
 73
     4
 40
2.0
 49
1.25
 49
-0.25
 49
0.25
 49
-0.25
  0
LTYPE
  2
DASHDOT
 70
     0
  3
__ . __ . __ . __ . __ . __ . __ . __ . __ . __
 72
    65
 73
     4
 40
1.0
 49
0.5
 49
-0.25
 49
0.0
 49
-0.25
  0
LTYPE
  2
DASHED
 70
     0
  3
__ __ __ __ __ __ __ __ __ __ __ __ __ __ __ __
 72
    65
 73
     2
 40
0.75
 49
0.5
 49
-0.25
  0
LTYPE
  2
DIVIDE
 70
     0
  3
____ . . ____ . . ____ . . ____ . . ____ . . __
 72
    65
 73
     6
 40
1.25
 49
0.5
 49
-0.25
 49
0.0
 49
-0.25
 49
0.0
 49
-0.25
  0
LTYPE
  2
DOT
 70
     0
  3
. . . . . . . . . . . . . . . . . . . . . . . .
 72
    65
 73
     2
 40
0.25
 49
0.0
 49
-0.25
  0
LTYPE
  2
HIDDEN
 70
     0
  3
__ __ __ __ __ __ __ __ __ __ __ __ __ __ __ __
 72
    65
 73
     2
 40
0.375
 49
0.25
 49
-0.125
  0
LTYPE
  2
PHANTOM
 70
     0
  3
______  __  __  ______  __  __  ______  __  __ 
 72
    65
 73
     6
 40
2.5
 49
1.25
 49
-0.25
 49
0.25
 49
-0.25
 49
0.25
 49
-0.25
  0
LTYPE
  2
DOTX2
 70
     0
  3
.  .  .  .  .  .  .  .  .  .  .  .  .  .  .  . 
 72
    65
 73
     2
 40
0.5
 49
0.0
 49
-0.5
  0
ENDTAB
  0
TABLE
  2
LAYER
 70
    70
  0
LAYER
  2
0
 70
     0
 62
     7
  6
CONTINUOUS
  0
LAYER
  2
L1
 70
     0
 62
     7
  6
CONTINUOUS
  0
LAYER
  2
L2
 70
     0
 62
     1
  6
CONTINUOUS
  0
LAYER
  2
L3
 70
     0
 62
     7
  6
DASHED
  0
LAYER
  2
L4
 70
     0
 62
     1
  6
DASHED
  0
LAYER
  2
L5
 70
     0
 62
     7
  6
CENTER
  0
LAYER
  2
L6
 70
     0
 62
     1
  6
CENTER
  0
LAYER
  2
L7
 70
     0
 62
     1
  6
PHANTOM
  0
LAYER
  2
L8
 70
     0
 62
     1
  6
CONTINUOUS
  0
LAYER
  2
L20
 70
     0
 62
     3
  6
CONTINUOUS
  0
LAYER
  2
L22
 70
     0
 62
     1
  6
CONTINUOUS
  0
LAYER
  2
L23
 70
     0
 62
     1
  6
CONTINUOUS
  0
LAYER
  2
L32
 70
     0
 62
     3
  6
CONTINUOUS
  0
LAYER
  2
L33
 70
     0
 62
     1
  6
CONTINUOUS
  0
LAYER
  2
L40
 70
     0
 62
     7
  6
CONTINUOUS
  0
LAYER
  2
L41
 70
     0
 62
     1
  6
CONTINUOUS
  0
LAYER
  2
L43
 70
     0
 62
     7
  6
CONTINUOUS
  0
LAYER
  2
L44
 70
     0
 62
     1
  6
DASHED
  0
LAYER
  2
L45
 70
     0
 62
     1
  6
CONTINUOUS
  0
LAYER
  2
L46
 70
     0
 62
     3
  6
CONTINUOUS
  0
LAYER
  2
DEFPOINTS
 70
     0
 62
     7
  6
CONTINUOUS
  0
LAYER
  2
CAM-A1
 70
     0
 62
     7
  6
CONTINUOUS
  0
LAYER
  2
CAM-A2
 70
     0
 62
     1
  6
CONTINUOUS
  0
LAYER
  2
CAM-A3
 70
     0
 62
     1
  6
DASHED
  0
LAYER
  2
CAM-B1
 70
     0
 62
     7
  6
CONTINUOUS
  0
LAYER
  2
CAM-B2
 70
     0
 62
     1
  6
CONTINUOUS
  0
LAYER
  2
CAM-B3
 70
     0
 62
     1
  6
DASHED
  0
LAYER
  2
CAM-C1
 70
     0
 62
     7
  6
CONTINUOUS
  0
LAYER
  2
CAM-C2
 70
     0
 62
     1
  6
CONTINUOUS
  0
LAYER
  2
CAM-C3
 70
     0
 62
     1
  6
DASHED
  0
LAYER
  2
CAM-D1
 70
     0
 62
     7
  6
CONTINUOUS
  0
LAYER
  2
CAM-D2
 70
     0
 62
     1
  6
CONTINUOUS
  0
LAYER
  2
CAM-D3
 70
     0
 62
     1
  6
DASHED
  0
LAYER
  2
CAM-E1
 70
     0
 62
     7
  6
CONTINUOUS
  0
LAYER
  2
CAM-E2
 70
     0
 62
     1
  6
CONTINUOUS
  0
LAYER
  2
CAM-E3
 70
     0
 62
     1
  6
DASHED
  0
LAYER
  2
CAM-F1
 70
     0
 62
     7
  6
CONTINUOUS
  0
LAYER
  2
CAM-F2
 70
     0
 62
     1
  6
CONTINUOUS
  0
LAYER
  2
CAM-F3
 70
     0
 62
     1
  6
DASHED
  0
LAYER
  2
1
 70
     0
 62
     7
  6
CONTINUOUS
  0
LAYER
  2
11
 70
     0
 62
     7
  6
CONTINUOUS
  0
LAYER
  2
12
 70
     0
 62
     1
  6
CONTINUOUS
  0
LAYER
  2
13
 70
     0
 62
     1
  6
CENTER
  0
LAYER
  2
14
 70
     0
 62
     1
  6
DASHED
  0
LAYER
  2
15
 70
     0
 62
     2
  6
DASHED
  0
LAYER
  2
21
 70
     0
 62
     7
  6
CONTINUOUS
  0
LAYER
  2
22
 70
     0
 62
     1
  6
CONTINUOUS
  0
LAYER
  2
23
 70
     0
 62
     1
  6
CENTER
  0
LAYER
  2
24
 70
     0
 62
     1
  6
DASHED
  0
LAYER
  2
25
 70
     0
 62
     2
  6
DASHED
  0
LAYER
  2
31
 70
     0
 62
     7
  6
CONTINUOUS
  0
LAYER
  2
32
 70
     0
 62
     1
  6
CONTINUOUS
  0
LAYER
  2
33
 70
     0
 62
     1
  6
CENTER
  0
LAYER
  2
34
 70
     0
 62
     1
  6
DASHED
  0
LAYER
  2
35
 70
     0
 62
     2
  6
DASHED
  0
LAYER
  2
41
 70
     0
 62
     7
  6
CONTINUOUS
  0
LAYER
  2
42
 70
     0
 62
     1
  6
CONTINUOUS
  0
LAYER
  2
43
 70
     0
 62
     1
  6
CENTER
  0
LAYER
  2
44
 70
     0
 62
     1
  6
DASHED
  0
LAYER
  2
45
 70
     0
 62
     2
  6
DASHED
  0
LAYER
  2
51
 70
     0
 62
     7
  6
CONTINUOUS
  0
LAYER
  2
52
 70
     0
 62
     1
  6
CONTINUOUS
  0
LAYER
  2
53
 70
     0
 62
     1
  6
CENTER
  0
LAYER
  2
54
 70
     0
 62
     1
  6
DASHED
  0
LAYER
  2
55
 70
     0
 62
     2
  6
DASHED
  0
LAYER
  2
61
 70
     0
 62
     7
  6
CONTINUOUS
  0
LAYER
  2
62
 70
     0
 62
     1
  6
CONTINUOUS
  0
LAYER
  2
63
 70
     0
 62
     1
  6
CENTER
  0
LAYER
  2
64
 70
     0
 62
     1
  6
DASHED
  0
LAYER
  2
65
 70
     0
 62
     2
  6
DASHED
  0
ENDTAB
  0
TABLE
  2
STYLE
 70
     8
  0
STYLE
  2
STANDARD
 70
     0
 40
0.0
 41
1.0
 50
0.0
 71
     0
 42
3.5
  3
CAEISO
  4

  0
STYLE
  2
COMPLEX
 70
     0
 40
5.0
 41
1.0
 50
0.0
 71
     0
 42
5.0
  3
ROMANS.SHX
  4

  0
STYLE
  2
SIMPLEX
 70
     0
 40
2.5
 41
0.8
 50
0.0
 71
     0
 42
5.0
  3
SIMPLEX
  4

  0
STYLE
  2
CAEISO
 70
     0
 40
0.0
 41
1.0
 50
0.0
 71
     0
 42
1.0
  3
CAEISO
  4

  0
STYLE
  2
TXT
 70
     0
 40
0.0
 41
1.0
 50
0.0
 71
     0
 42
0.2
  3
TXT
  4

  0
STYLE
  2
USER
 70
     0
 40
0.0
 41
1.0
 50
0.0
 71
     0
 42
0.2
  3
KIRJAIN
  4

  0
STYLE
  2
ITALIC
 70
     0
 40
0.0
 41
1.0
 50
0.0
 71
     0
 42
0.2
  3
ITALIC
  4

  0
STYLE
  2
MONO
 70
     0
 40
0.0
 41
1.0
 50
0.0
 71
     0
 42
9.5
  3
MONOTXT
  4

  0
ENDTAB
  0
TABLE
  2
VIEW
 70
     0
  0
ENDTAB
  0
TABLE
  2
UCS
 70
     0
  0
ENDTAB
  0
TABLE
  2
APPID
 70
     1
  0
APPID
  2
ACAD
 70
     0
  0
ENDTAB
  0
TABLE
  2
DIMSTYLE
 70
     5
  0
DIMSTYLE
  2
ACADUS
 70
     0
  3

  4

  5

  6

  7

 40
1.0
 41
0.18
 42
0.0625
 43
0.38
 44
0.18
 45
0.0
 46
0.0
 47
0.0
 48
0.0
140
0.18
141
0.09
142
0.0
143
25.4
144
1.0
145
0.0
146
1.0
147
0.09
 71
     0
 72
     0
 73
     1
 74
     1
 75
     0
 76
     0
 77
     0
 78
     0
170
     0
171
     2
172
     0
173
     0
174
     0
175
     0
176
     0
177
     0
178
     0
  0
DIMSTYLE
  2
NORDIC
 70
     0
  3

  4

  5

  6

  7

 40
1.0
 41
3.5
 42
1.0
 43
10.0
 44
2.0
 45
0.0
 46
0.0
 47
0.0
 48
0.0
140
3.5
141
2.5
142
0.0
143
25.4
144
1.0
145
0.0
146
1.0
147
2.0
 71
     0
 72
     0
 73
     0
 74
     0
 75
     0
 76
     0
 77
     1
 78
     8
170
     0
171
     2
172
     1
173
     0
174
     0
175
     0
176
     0
177
     0
178
     0
  0
DIMSTYLE
  2
RADIAL
 70
     0
  3

  4

  5

  6

  7

 40
1.0
 41
3.5
 42
1.0
 43
10.0
 44
2.0
 45
0.0
 46
0.0
 47
0.0
 48
0.0
140
3.5
141
2.5
142
0.0
143
25.4
144
1.0
145
0.0
146
1.0
147
2.0
 71
     0
 72
     0
 73
     0
 74
     1
 75
     0
 76
     0
 77
     1
 78
     8
170
     0
171
     2
172
     0
173
     0
174
     0
175
     0
176
     0
177
     0
178
     0
  0
DIMSTYLE
  2
NORTOL
 70
     0
  3

  4

  5

  6

  7

 40
1.0
 41
3.5
 42
1.0
 43
10.0
 44
2.0
 45
0.0
 46
0.0
 47
0.2
 48
0.1
140
3.5
141
2.5
142
0.0
143
25.4
144
1.0
145
0.7
146
0.71
147
2.0
 71
     1
 72
     0
 73
     0
 74
     0
 75
     0
 76
     0
 77
     0
 78
     8
170
     0
171
     2
172
     1
173
     0
174
     0
175
     0
176
     0
177
     0
178
     0
  0
DIMSTYLE
  2
RADTOL
 70
     0
  3

  4

  5

  6

  7

 40
1.0
 41
3.5
 42
1.0
 43
10.0
 44
2.0
 45
0.0
 46
0.0
 47
0.2
 48
0.1
140
3.5
141
2.5
142
0.0
143
25.4
144
1.0
145
0.7
146
0.7
147
2.0
 71
     1
 72
     0
 73
     0
 74
     1
 75
     0
 76
     0
 77
     0
 78
     8
170
     0
171
     2
172
     0
173
     0
174
     0
175
     0
176
     0
177
     0
178
     0
  0
ENDTAB
  0
ENDSEC
  0
SECTION
  2
BLOCKS
  0
BLOCK
  8
0
  2
$MODEL_SPACE
 70
     0
 10
0.0
 20
0.0
 30
0.0
  3
$MODEL_SPACE
  1

  0
ENDBLK
  5
5734B
  8
0
  0
BLOCK
 67
     1
  8
0
  2
$PAPER_SPACE
 70
     0
 10
0.0
 20
0.0
 30
0.0
  3
$PAPER_SPACE
  1

  0
ENDBLK
  5
57349
 67
     1
  8
0
  0
BLOCK
  8
0
  2
GEOTOL
 70
     0
 10
0.0
 20
0.0
 30
0.0
  3
GEOTOL
  1

  0
ENDBLK
  5
4D21
  8
0
  0
ENDSEC
  0
SECTION
  2
ENTITIES
  0
TEXT
  5
2211B
  8
0
  6
CONTINUOUS
 10
330.035074
 20
372.358918
 30
0.0
 40
2.5
  1
  
 50
21.66214
  0
LINE
  5
22120
  8
61
 10
327.18973
 20
500.822193
 30
0.0
 11
491.189736
 21
500.822193
 31
0.0
  0
LINE
  5
22121
  8
61
 10
316.38973
 20
490.022193
 30
0.0
 11
316.38973
 21
326.022193
 31
0.0
  0
LINE
  5
22124
  8
61
 10
338.900299
 20
493.189647
 30
0.0
 11
477.240829
 21
493.189647
 31
0.0
  0
LINE
  5
22125
  8
61
 10
323.943377
 20
478.346758
 30
0.0
 11
323.943377
 21
337.697628
 31
0.0
  0
LINE
  5
2212C
  8
53
  6
DASHDOT
 10
4.44588
 20
490.022193
 30
0.0
 11
4.44588
 21
303.0
 31
0.0
  0
LINE
  5
2212D
  8
52
 10
-85.524104
 20
489.329842
 30
0.0
 11
-76.861768
 21
497.992177
 31
0.0
  0
ARC
  5
2212E
  8
52
 10
-77.55412
 20
490.022193
 30
0.0
 40
8.0
 50
7.645696
 51
85.035187
  0
ARC
  5
2212F
  8
52
 10
-77.55412
 20
490.022193
 30
0.0
 40
8.0
 50
184.964813
 51
262.354304
  0
LINE
  5
22130
  8
52
 10
-78.618495
 20
482.093315
 30
0.0
 11
-69.625242
 21
491.086568
 31
0.0
  0
LINE
  5
22131
  8
51
 10
-88.35412
 20
490.022193
 30
0.0
 11
-88.35412
 21
326.022199
 31
0.0
  0
LINE
  5
22132
  8
51
 10
-77.55412
 20
500.822193
 30
0.0
 11
4.44588
 21
500.822193
 31
0.0
  0
ARC
  5
22133
  8
51
 10
-77.55412
 20
490.022193
 30
0.0
 40
10.8
 50
23.289549
 51
246.710451
  0
ARC
  5
22134
  8
51
 10
-77.55412
 20
326.022193
 30
0.0
 40
10.8
 50
113.289549
 51
336.710451
  0
LINE
  5
22135
  8
52
 10
-76.861768
 20
318.052209
 30
0.0
 11
-85.524104
 21
326.714545
 31
0.0
  0
LINE
  5
22136
  8
52
 10
-69.625242
 20
324.957818
 30
0.0
 11
-78.618495
 21
333.951071
 31
0.0
  0
ARC
  5
22137
  8
52
 10
-77.55412
 20
326.022193
 30
0.0
 40
8.0
 50
97.645696
 51
175.035187
  0
ARC
  5
22138
  8
52
 10
-77.55412
 20
326.022193
 30
0.0
 40
8.0
 50
274.964813
 51
352.354304
  0
LINE
  5
22139
  8
51
 10
-60.25412
 20
492.822193
 30
0.0
 11
4.44588
 21
492.822193
 31
0.0
  0
LINE
  5
2213A
  8
51
 10
-80.35412
 20
472.722193
 30
0.0
 11
-80.35412
 21
343.322184
 31
0.0
  0
LINE
  5
2213B
  8
52
 10
-81.85412
 20
472.522193
 30
0.0
 11
-81.85412
 21
343.522193
 31
0.0
  0
LINE
  5
2213C
  8
52
 10
-60.05412
 20
494.322193
 30
0.0
 11
4.44588
 21
494.322193
 31
0.0
  0
LINE
  5
2213D
  8
52
 10
-86.25412
 20
472.522193
 30
0.0
 11
-86.25412
 21
343.322193
 31
0.0
  0
LINE
  5
2213E
  8
52
 10
-60.05412
 20
498.722193
 30
0.0
 11
4.44588
 21
498.722193
 31
0.0
  0
ARC
  5
2213F
  8
51
 10
-77.55412
 20
490.022193
 30
0.0
 40
14.5
 50
270.0
 51
0.0
  0
ARC
  5
22140
  8
52
 10
-77.55412
 20
490.022193
 30
0.0
 40
13.2
 50
270.0
 51
0.0
  0
ARC
  5
22141
  8
52
 10
-77.55412
 20
490.022193
 30
0.0
 40
8.8
 50
270.0
 51
0.0
  0
ARC
  5
22146
  8
51
 10
-77.55412
 20
472.722193
 30
0.0
 40
2.8
 50
90.0
 51
180.0
  0
ARC
  5
22147
  8
51
 10
-60.25412
 20
490.022193
 30
0.0
 40
2.8
 50
90.0
 51
180.0
  0
ARC
  5
22148
  8
52
 10
-60.05412
 20
490.022193
 30
0.0
 40
4.3
 50
90.0
 51
180.0
  0
ARC
  5
22149
  8
52
 10
-77.55412
 20
472.522193
 30
0.0
 40
4.3
 50
90.0
 51
180.0
  0
ARC
  5
2214A
  8
52
 10
-60.05412
 20
490.022193
 30
0.0
 40
8.7
 50
90.0
 51
180.0
  0
ARC
  5
2214B
  8
52
 10
-77.55412
 20
472.522193
 30
0.0
 40
8.7
 50
90.0
 51
180.0
  0
ARC
  5
2214C
  8
52
 10
-60.05412
 20
326.022193
 30
0.0
 40
8.7
 50
180.0
 51
270.0
  0
ARC
  5
2214D
  8
52
 10
-77.55412
 20
326.022193
 30
0.0
 40
8.8
 50
360.0
 51
90.0
  0
ARC
  5
2214E
  8
52
 10
-77.55412
 20
343.522193
 30
0.0
 40
8.7
 50
180.0
 51
270.0
  0
ARC
  5
2214F
  8
51
 10
-77.55412
 20
343.522193
 30
0.0
 40
4.3
 50
180.0
 51
270.0
  0
ARC
  5
22150
  8
51
 10
-77.55412
 20
326.022193
 30
0.0
 40
14.5
 50
360.0
 51
90.0
  0
ARC
  5
22151
  8
52
 10
-77.55412
 20
326.022193
 30
0.0
 40
13.2
 50
360.0
 51
90.0
  0
ARC
  5
22152
  8
52
 10
-60.05412
 20
326.022193
 30
0.0
 40
4.3
 50
180.0
 51
270.0
  0
ARC
  5
22153
  8
51
 10
-60.25412
 20
326.022193
 30
0.0
 40
2.8
 50
180.0
 51
270.0
  0
ARC
  5
22154
  8
52
 10
-77.55412
 20
343.322193
 30
0.0
 40
2.8
 50
180.0
 51
270.0
  0
LINE
  5
2217D
  8
63
  6
DASHDOT
 10
510.220036
 20
408.022193
 30
0.0
 11
305.860578
 21
408.022193
 31
0.0
  0
LINE
  5
22181
  8
61
 10
327.18973
 20
315.222193
 30
0.0
 11
491.18973
 21
315.222193
 31
0.0
  0
LINE
  5
22183
  8
61
 10
338.900299
 20
322.854739
 30
0.0
 11
479.479165
 21
322.854739
 31
0.0
  0
ARC
  5
2218F
  8
61
 10
479.479162
 20
495.189647
 30
0.0
 40
2.0
 50
270.0
 51
336.189853
  0
ARC
  5
22190
  8
61
 10
496.436083
 20
478.346758
 30
0.0
 40
2.0
 50
114.196752
 51
180.0
  0
ARC
  5
22191
  8
61
 10
492.436083
 20
476.077782
 30
0.0
 40
2.0
 50
0.0
 51
95.107531
  0
ARC
  5
22192
  8
61
 10
477.238492
 20
491.189647
 30
0.0
 40
2.0
 50
355.216575
 51
90.0
  0
LINE
  5
22193
  8
61
 10
494.436083
 20
478.346758
 30
0.0
 11
494.436083
 21
337.697628
 31
0.0
  0
LINE
  5
22195
  8
61
 10
492.254105
 20
482.093315
 30
0.0
 11
483.260852
 21
491.086568
 31
0.0
  0
LINE
  5
22196
  8
61
 10
499.159715
 20
489.329842
 30
0.0
 11
490.497379
 21
497.992177
 31
0.0
  0
LINE
  5
22197
  8
61
 10
501.98973
 20
490.022193
 30
0.0
 11
501.98973
 21
326.022193
 31
0.0
  0
ARC
  5
22198
  8
61
 10
491.18973
 20
490.022193
 30
0.0
 40
10.8
 50
294.196752
 51
156.189853
  0
ARC
  5
22199
  8
61
 10
491.18973
 20
490.022193
 30
0.0
 40
12.0
 50
175.216575
 51
275.107531
  0
LINE
  5
2219E
  8
61
 10
479.479162
 20
493.189647
 30
0.0
 11
477.702832
 21
493.189647
 31
0.0
  0
LINE
  5
2219F
  8
53
  6
DASHDOT
 10
104.496603
 20
408.022193
 30
0.0
 11
-99.009217
 21
408.022193
 31
0.0
  0
LINE
  5
221A0
  8
53
 10
4.44588
 20
490.022193
 30
0.0
 11
4.44588
 21
519.025826
 31
0.0
  0
LINE
  5
221A1
  8
53
 10
4.44588
 20
490.022193
 30
0.0
 11
4.44588
 21
519.025826
 31
0.0
  0
LINE
  5
221A6
  8
52
 10
94.415864
 20
326.714545
 30
0.0
 11
85.753528
 21
318.052209
 31
0.0
  0
ARC
  5
221A7
  8
52
 10
86.44588
 20
326.022193
 30
0.0
 40
8.0
 50
187.645696
 51
265.035187
  0
ARC
  5
221A8
  8
52
 10
86.44588
 20
326.022193
 30
0.0
 40
8.0
 50
4.964813
 51
82.354304
  0
LINE
  5
221A9
  8
52
 10
87.510255
 20
333.951071
 30
0.0
 11
78.517002
 21
324.957818
 31
0.0
  0
ARC
  5
221AA
  8
51
 10
86.44588
 20
326.022193
 30
0.0
 40
10.8
 50
203.289549
 51
66.710451
  0
ARC
  5
221AB
  8
51
 10
86.44588
 20
326.022193
 30
0.0
 40
14.5
 50
90.0
 51
180.0
  0
ARC
  5
221AC
  8
52
 10
86.44588
 20
326.022193
 30
0.0
 40
13.2
 50
90.0
 51
180.0
  0
ARC
  5
221AD
  8
52
 10
86.44588
 20
326.022193
 30
0.0
 40
8.8
 50
90.0
 51
180.0
  0
ARC
  5
221B2
  8
51
 10
86.44588
 20
343.322193
 30
0.0
 40
2.8
 50
270.0
 51
0.0
  0
ARC
  5
221B3
  8
51
 10
69.14588
 20
326.022193
 30
0.0
 40
2.8
 50
270.0
 51
0.0
  0
ARC
  5
221B4
  8
52
 10
68.94588
 20
326.022193
 30
0.0
 40
4.3
 50
270.0
 51
0.0
  0
ARC
  5
221B5
  8
52
 10
86.44588
 20
343.522193
 30
0.0
 40
4.3
 50
270.0
 51
0.0
  0
ARC
  5
221B6
  8
52
 10
68.94588
 20
326.022193
 30
0.0
 40
8.7
 50
270.0
 51
0.0
  0
ARC
  5
221B7
  8
52
 10
86.44588
 20
343.522193
 30
0.0
 40
8.7
 50
270.0
 51
0.0
  0
ARC
  5
221B8
  8
52
 10
86.44588
 20
472.522193
 30
0.0
 40
8.7
 50
360.0
 51
90.0
  0
ARC
  5
221B9
  8
52
 10
68.94588
 20
490.022193
 30
0.0
 40
8.7
 50
360.0
 51
90.0
  0
ARC
  5
221BA
  8
52
 10
86.44588
 20
472.522193
 30
0.0
 40
4.3
 50
0.0
 51
90.0
  0
ARC
  5
221BB
  8
52
 10
68.94588
 20
490.022193
 30
0.0
 40
4.3
 50
360.0
 51
90.0
  0
ARC
  5
221BC
  8
51
 10
69.14588
 20
490.022193
 30
0.0
 40
2.8
 50
360.0
 51
90.0
  0
ARC
  5
221BD
  8
51
 10
86.44588
 20
472.722193
 30
0.0
 40
2.8
 50
0.0
 51
90.0
  0
ARC
  5
221C2
  8
52
 10
86.44588
 20
490.022193
 30
0.0
 40
8.8
 50
180.0
 51
270.0
  0
ARC
  5
221C3
  8
52
 10
86.44588
 20
490.022193
 30
0.0
 40
13.2
 50
180.0
 51
270.0
  0
ARC
  5
221C4
  8
51
 10
86.44588
 20
490.022193
 30
0.0
 40
14.5
 50
180.0
 51
270.0
  0
LINE
  5
221C5
  8
52
 10
68.94588
 20
498.722193
 30
0.0
 11
4.44588
 21
498.722193
 31
0.0
  0
LINE
  5
221C6
  8
52
 10
95.14588
 20
472.522193
 30
0.0
 11
95.14588
 21
343.322193
 31
0.0
  0
LINE
  5
221C7
  8
52
 10
68.94588
 20
494.322193
 30
0.0
 11
4.44588
 21
494.322193
 31
0.0
  0
LINE
  5
221C8
  8
52
 10
90.74588
 20
472.522193
 30
0.0
 11
90.74588
 21
343.522193
 31
0.0
  0
LINE
  5
221C9
  8
51
 10
89.24588
 20
472.722193
 30
0.0
 11
89.24588
 21
343.322184
 31
0.0
  0
LINE
  5
221CA
  8
51
 10
69.14588
 20
492.822193
 30
0.0
 11
4.44588
 21
492.822193
 31
0.0
  0
ARC
  5
221CB
  8
51
 10
86.44588
 20
490.022193
 30
0.0
 40
10.8
 50
293.289549
 51
156.710451
  0
LINE
  5
221CC
  8
51
 10
86.44588
 20
500.822193
 30
0.0
 11
4.44588
 21
500.822193
 31
0.0
  0
LINE
  5
221CD
  8
51
 10
97.24588
 20
490.022193
 30
0.0
 11
97.24588
 21
326.022199
 31
0.0
  0
LINE
  5
221CE
  8
52
 10
87.510255
 20
482.093315
 30
0.0
 11
78.517002
 21
491.086568
 31
0.0
  0
ARC
  5
221CF
  8
52
 10
86.44588
 20
490.022193
 30
0.0
 40
8.0
 50
277.645696
 51
355.035187
  0
ARC
  5
221D0
  8
52
 10
86.44588
 20
490.022193
 30
0.0
 40
8.0
 50
94.964813
 51
172.354304
  0
LINE
  5
221D1
  8
52
 10
94.415864
 20
489.329842
 30
0.0
 11
85.753528
 21
497.992177
 31
0.0
  0
LINE
  5
221D6
  8
51
 10
-60.25412
 20
323.222193
 30
0.0
 11
4.44588
 21
323.222193
 31
0.0
  0
LINE
  5
221D7
  8
52
 10
-60.25412
 20
321.726847
 30
0.0
 11
69.14588
 21
321.726847
 31
0.0
  0
LINE
  5
221D8
  8
52
 10
-60.25412
 20
317.324492
 30
0.0
 11
69.14588
 21
317.324492
 31
0.0
  0
LINE
  5
221D9
  8
51
 10
-77.55412
 20
315.222193
 30
0.0
 11
86.44588
 21
315.222193
 31
0.0
  0
CIRCLE
  5
221DE
  8
61
 10
491.18973
 20
490.022193
 30
0.0
 40
8.0
  0
ARC
  5
221DF
  8
61
 10
491.18973
 20
490.022193
 30
0.0
 40
10.0
 50
187.519679
 51
262.493404
  0
LINE
  5
221E0
  8
61
 10
483.950454
 20
494.380562
 30
0.0
 11
481.589167
 21
490.290693
 31
0.0
  0
LINE
  5
221E1
  8
61
 10
495.48354
 20
482.74444
 30
0.0
 11
491.459928
 21
480.421406
 31
0.0
  0
ARC
  5
221E2
  8
61
 10
491.18973
 20
490.022193
 30
0.0
 40
8.45
 50
299.459771
 51
148.950175
  0
LINE
  5
221E3
  8
61
 10
484.335978
 20
494.148459
 30
0.0
 11
482.056604
 21
490.200468
 31
0.0
  0
LINE
  5
221E4
  8
61
 10
495.262225
 20
483.136255
 30
0.0
 11
491.369564
 21
480.888827
 31
0.0
  0
ARC
  5
221E5
  8
61
 10
491.18973
 20
490.022193
 30
0.0
 40
9.55
 50
188.743877
 51
261.268945
  0
ARC
  5
221E6
  8
61
 10
484.221667
 20
488.950468
 30
0.0
 40
2.5
 50
150.0
 51
188.743877
  0
ARC
  5
221E7
  8
61
 10
490.119564
 20
483.05389
 30
0.0
 40
2.5
 50
261.268945
 51
300.0
  0
ARC
  5
221E8
  8
61
 10
483.754231
 20
489.040693
 30
0.0
 40
2.5
 50
150.0
 51
187.519679
  0
ARC
  5
221E9
  8
61
 10
490.209928
 20
482.586469
 30
0.0
 40
2.5
 50
262.493404
 51
300.0
  0
ARC
  5
221EA
  8
61
 10
328.169533
 20
482.586469
 30
0.0
 40
2.5
 50
240.0
 51
277.506596
  0
ARC
  5
221EB
  8
61
 10
334.62523
 20
489.040693
 30
0.0
 40
2.5
 50
352.480321
 51
30.0
  0
ARC
  5
221EC
  8
61
 10
328.259896
 20
483.05389
 30
0.0
 40
2.5
 50
240.0
 51
278.731055
  0
ARC
  5
221ED
  8
61
 10
334.157794
 20
488.950468
 30
0.0
 40
2.5
 50
351.256123
 51
30.0
  0
ARC
  5
221EE
  8
61
 10
327.18973
 20
490.022193
 30
0.0
 40
9.55
 50
278.731055
 51
351.256123
  0
LINE
  5
221EF
  8
61
 10
323.117236
 20
483.136255
 30
0.0
 11
327.009896
 21
480.888827
 31
0.0
  0
LINE
  5
221F0
  8
61
 10
334.043483
 20
494.148459
 30
0.0
 11
336.322857
 21
490.200468
 31
0.0
  0
ARC
  5
221F1
  8
61
 10
327.18973
 20
490.022193
 30
0.0
 40
8.45
 50
31.049825
 51
240.540229
  0
LINE
  5
221F2
  8
61
 10
322.89592
 20
482.74444
 30
0.0
 11
326.919533
 21
480.421406
 31
0.0
  0
LINE
  5
221F3
  8
61
 10
334.429007
 20
494.380562
 30
0.0
 11
336.790294
 21
490.290693
 31
0.0
  0
ARC
  5
221F4
  8
61
 10
327.18973
 20
490.022193
 30
0.0
 40
10.0
 50
277.506596
 51
352.480321
  0
CIRCLE
  5
221F5
  8
61
 10
327.18973
 20
490.022193
 30
0.0
 40
8.0
  0
LINE
  5
221F6
  8
61
 10
338.900299
 20
493.189647
 30
0.0
 11
340.676628
 21
493.189647
 31
0.0
  0
ARC
  5
221F7
  8
61
 10
327.18973
 20
490.022193
 30
0.0
 40
12.0
 50
264.892469
 51
4.783425
  0
ARC
  5
221F8
  8
61
 10
327.18973
 20
490.022193
 30
0.0
 40
10.8
 50
23.810147
 51
245.803248
  0
LINE
  5
221F9
  8
61
 10
319.219746
 20
489.329842
 30
0.0
 11
327.882082
 21
497.992177
 31
0.0
  0
LINE
  5
221FA
  8
61
 10
326.125355
 20
482.093315
 30
0.0
 11
335.118608
 21
491.086568
 31
0.0
  0
ARC
  5
221FB
  8
61
 10
341.140969
 20
491.189647
 30
0.0
 40
2.0
 50
90.0
 51
184.783425
  0
ARC
  5
221FC
  8
61
 10
325.943377
 20
476.077782
 30
0.0
 40
2.0
 50
84.892469
 51
180.0
  0
ARC
  5
221FD
  8
61
 10
321.943377
 20
478.346758
 30
0.0
 40
2.0
 50
0.0
 51
65.803248
  0
ARC
  5
221FE
  8
61
 10
338.900299
 20
495.189647
 30
0.0
 40
2.0
 50
203.810147
 51
270.0
  0
ARC
  5
221FF
  8
61
 10
338.900299
 20
320.854739
 30
0.0
 40
2.0
 50
90.0
 51
156.189853
  0
ARC
  5
22200
  8
61
 10
321.943377
 20
337.697628
 30
0.0
 40
2.0
 50
294.196752
 51
0.0
  0
ARC
  5
22201
  8
61
 10
325.943377
 20
339.966604
 30
0.0
 40
2.0
 50
180.0
 51
275.107531
  0
ARC
  5
22202
  8
61
 10
341.140969
 20
324.854739
 30
0.0
 40
2.0
 50
175.216575
 51
270.0
  0
LINE
  5
22203
  8
61
 10
326.125355
 20
333.951071
 30
0.0
 11
335.118608
 21
324.957818
 31
0.0
  0
LINE
  5
22204
  8
61
 10
319.219746
 20
326.714545
 30
0.0
 11
327.882082
 21
318.052209
 31
0.0
  0
ARC
  5
22205
  8
61
 10
327.18973
 20
326.022193
 30
0.0
 40
10.8
 50
114.196752
 51
336.189853
  0
ARC
  5
22206
  8
61
 10
327.18973
 20
326.022193
 30
0.0
 40
12.0
 50
355.216575
 51
95.107531
  0
LINE
  5
22207
  8
61
 10
338.900299
 20
322.854739
 30
0.0
 11
340.676628
 21
322.854739
 31
0.0
  0
CIRCLE
  5
22208
  8
61
 10
327.18973
 20
326.022193
 30
0.0
 40
8.0
  0
ARC
  5
22209
  8
61
 10
327.18973
 20
326.022193
 30
0.0
 40
10.0
 50
7.519679
 51
82.493404
  0
LINE
  5
2220A
  8
61
 10
334.429007
 20
321.663824
 30
0.0
 11
336.790294
 21
325.753693
 31
0.0
  0
LINE
  5
2220B
  8
61
 10
322.89592
 20
333.299947
 30
0.0
 11
326.919533
 21
335.62298
 31
0.0
  0
ARC
  5
2220C
  8
61
 10
327.18973
 20
326.022193
 30
0.0
 40
8.45
 50
119.459771
 51
328.950175
  0
LINE
  5
2220D
  8
61
 10
334.043483
 20
321.895927
 30
0.0
 11
336.322857
 21
325.843918
 31
0.0
  0
LINE
  5
2220E
  8
61
 10
323.117236
 20
332.908131
 30
0.0
 11
327.009896
 21
335.15556
 31
0.0
  0
ARC
  5
2220F
  8
61
 10
327.18973
 20
326.022193
 30
0.0
 40
9.55
 50
8.743877
 51
81.268945
  0
ARC
  5
22210
  8
61
 10
334.157794
 20
327.093918
 30
0.0
 40
2.5
 50
330.0
 51
8.743877
  0
ARC
  5
22211
  8
61
 10
328.259896
 20
332.990496
 30
0.0
 40
2.5
 50
81.268945
 51
120.0
  0
ARC
  5
22212
  8
61
 10
334.62523
 20
327.003693
 30
0.0
 40
2.5
 50
330.0
 51
7.519679
  0
ARC
  5
22213
  8
61
 10
328.169533
 20
333.457917
 30
0.0
 40
2.5
 50
82.493404
 51
120.0
  0
ARC
  5
22214
  8
61
 10
490.209928
 20
333.457917
 30
0.0
 40
2.5
 50
60.0
 51
97.506596
  0
ARC
  5
22215
  8
61
 10
483.754231
 20
327.003693
 30
0.0
 40
2.5
 50
172.480321
 51
210.0
  0
ARC
  5
22216
  8
61
 10
490.119564
 20
332.990496
 30
0.0
 40
2.5
 50
60.0
 51
98.731055
  0
ARC
  5
22217
  8
61
 10
484.221667
 20
327.093918
 30
0.0
 40
2.5
 50
171.256123
 51
210.0
  0
ARC
  5
22218
  8
61
 10
491.18973
 20
326.022193
 30
0.0
 40
9.55
 50
98.731055
 51
171.256123
  0
LINE
  5
22219
  8
61
 10
495.262225
 20
332.908131
 30
0.0
 11
491.369564
 21
335.15556
 31
0.0
  0
LINE
  5
2221A
  8
61
 10
484.335978
 20
321.895927
 30
0.0
 11
482.056604
 21
325.843918
 31
0.0
  0
ARC
  5
2221B
  8
61
 10
491.18973
 20
326.022193
 30
0.0
 40
8.45
 50
211.049825
 51
60.540229
  0
LINE
  5
2221C
  8
61
 10
495.48354
 20
333.299947
 30
0.0
 11
491.459928
 21
335.62298
 31
0.0
  0
LINE
  5
2221D
  8
61
 10
483.950454
 20
321.663824
 30
0.0
 11
481.589167
 21
325.753693
 31
0.0
  0
ARC
  5
2221E
  8
61
 10
491.18973
 20
326.022193
 30
0.0
 40
10.0
 50
97.506596
 51
172.480321
  0
CIRCLE
  5
2221F
  8
61
 10
491.18973
 20
326.022193
 30
0.0
 40
8.0
  0
LINE
  5
22220
  8
61
 10
479.479162
 20
322.854739
 30
0.0
 11
477.702832
 21
322.854739
 31
0.0
  0
ARC
  5
22221
  8
61
 10
491.18973
 20
326.022193
 30
0.0
 40
12.0
 50
84.892469
 51
184.783425
  0
ARC
  5
22222
  8
61
 10
491.18973
 20
326.022193
 30
0.0
 40
10.8
 50
203.810147
 51
65.803248
  0
LINE
  5
22223
  8
61
 10
499.159715
 20
326.714545
 30
0.0
 11
490.497379
 21
318.052209
 31
0.0
  0
LINE
  5
22224
  8
61
 10
492.254105
 20
333.951071
 30
0.0
 11
483.260852
 21
324.957818
 31
0.0
  0
ARC
  5
22225
  8
61
 10
477.238492
 20
324.854739
 30
0.0
 40
2.0
 50
270.0
 51
4.783425
  0
ARC
  5
22226
  8
61
 10
492.436083
 20
339.966604
 30
0.0
 40
2.0
 50
264.892469
 51
0.0
  0
ARC
  5
22227
  8
61
 10
496.436083
 20
337.697628
 30
0.0
 40
2.0
 50
180.0
 51
245.803248
  0
ARC
  5
22228
  8
61
 10
479.479162
 20
320.854739
 30
0.0
 40
2.0
 50
23.810147
 51
90.0
  0
ARC
  5
22229
  8
51
 10
-22.918574
 20
-183.305084
 30
0.0
 40
507.032791
 50
95.059524
 51
95.059524
  0
LINE
  5
2222A
  8
51
 10
4.44588
 20
323.222193
 30
0.0
 11
69.14588
 21
323.222193
 31
0.0
  0
LINE
  5
22285
  8
63
  6
DASHDOT
 10
409.18973
 20
307.552411
 30
0.0
 11
409.18973
 21
515.250934
 31
0.0
  0
TEXT
  5
22303
  8
0
  6
CONTINUOUS
 10
351.035074
 20
974.358918
 30
0.0
 40
2.5
  1
  
 50
21.66214
  0
TEXT
  5
22376
  8
0
  6
CONTINUOUS
 10
595.035074
 20
986.358918
 30
0.0
 40
2.5
  1
  
 50
21.66214
  0
LINE
  5
225B2
  8
63
 10
409.18973
 20
403.022193
 30
0.0
 11
409.18973
 21
303.924645
 31
0.0
  0
TEXT
  5
225B9
  8
L20
 10
-16.635787
 20
555.790066
 30
0.0
 40
7.0
  1
FIBOX EK-H 80 COVER
  0
TEXT
  5
56D83
  8
0
  6
CONTINUOUS
 10
323.295817
 20
983.470837
 30
0.0
 40
2.5
  1
  
 50
21.66214
  0
LINE
  5
56DAF
  8
21
 10
337.922656
 20
627.80165
 30
0.0
 11
489.30626
 21
627.80165
 31
0.0
  0
LINE
  5
56DB0
  8
21
 10
337.922656
 20
547.504252
 30
0.0
 11
491.385163
 21
547.504252
 31
0.0
  0
LINE
  5
56DBB
  8
21
 10
326.994298
 20
554.004252
 30
0.0
 11
502.071705
 21
554.004252
 31
0.0
  0
LINE
  5
56DBC
  8
22
 10
479.224507
 20
557.049861
 30
0.0
 11
337.922656
 21
557.049861
 31
0.0
  0
LINE
  5
56DC0
  8
22
 10
337.922656
 20
621.822934
 30
0.0
 11
479.346471
 21
621.822934
 31
0.0
  0
ARC
  5
56E26
  8
21
 10
490.493102
 20
576.243024
 30
0.0
 40
22.256656
 50
239.582163
 51
267.702934
  0
LINE
  5
56E27
  8
21
 10
479.350649
 20
622.30165
 30
0.0
 11
479.224507
 21
557.049861
 31
0.0
  0
ARC
  5
56E28
  8
21
 10
473.371474
 20
621.80165
 30
0.0
 40
6.0
 50
5.0
 51
90.0
  0
LINE
  5
56E29
  8
21
 10
479.350649
 20
622.30165
 30
0.0
 11
479.348642
 21
622.324585
 31
0.0
  0
LINE
  5
56E2A
  8
21
 10
481.354397
 20
547.004252
 30
0.0
 11
481.354397
 21
547.504252
 31
0.0
  0
ARC
  5
56E2B
  8
21
 10
489.30626
 20
621.80165
 30
0.0
 40
6.0
 50
5.0
 51
90.0
  0
LINE
  5
56E2C
  8
21
 10
495.285435
 20
622.30165
 30
0.0
 11
495.283428
 21
622.324585
 31
0.0
  0
LINE
  5
56E2F
  8
21
 10
502.19389
 20
547.004252
 30
0.0
 11
501.766241
 21
622.30165
 31
0.0
  0
LINE
  5
56E30
  8
21
 10
501.766241
 20
622.30165
 30
0.0
 11
479.350649
 21
622.30165
 31
0.0
  0
LINE
  5
56E31
  8
21
 10
502.19389
 20
547.004252
 30
0.0
 11
481.354397
 21
547.004252
 31
0.0
  0
ARC
  5
56F3B
  8
21
 10
330.334672
 20
621.688451
 30
0.0
 40
6.16611
 50
97.51126
 51
174.078475
  0
LINE
  5
56F3C
  8
21
 10
337.922656
 20
627.80165
 30
0.0
 11
329.528632
 21
627.80165
 31
0.0
  0
LINE
  5
56F3D
  8
21
 10
316.193665
 20
547.504252
 30
0.0
 11
316.286635
 21
552.830491
 31
0.0
  0
LINE
  5
56F3E
  8
21
 10
326.994298
 20
547.504252
 30
0.0
 11
337.024432
 21
547.504252
 31
0.0
  0
LINE
  5
56F3F
  8
21
 10
316.286595
 20
552.828205
 30
0.0
 11
316.308299
 21
554.071587
 31
0.0
  0
LINE
  5
56F40
  8
21
 10
337.024432
 20
547.004252
 30
0.0
 11
337.024432
 21
547.504252
 31
0.0
  0
LINE
  5
56F41
  8
21
 10
337.918478
 20
622.30165
 30
0.0
 11
316.612587
 21
622.30165
 31
0.0
  0
LINE
  5
56F42
  8
21
 10
316.184938
 20
547.004252
 30
0.0
 11
316.193665
 21
547.504252
 31
0.0
  0
LINE
  5
56F43
  8
21
 10
337.024432
 20
547.004252
 30
0.0
 11
316.184938
 21
547.004252
 31
0.0
  0
LINE
  5
56F44
  8
21
 10
337.024432
 20
547.504252
 30
0.0
 11
337.922656
 21
547.504252
 31
0.0
  0
LINE
  5
56F45
  8
21
 10
316.308299
 20
554.071587
 30
0.0
 11
316.612587
 21
622.30165
 31
0.0
  0
LINE
  5
5708D
  8
21
 10
321.983692
 20
622.30165
 30
0.0
 11
321.985698
 21
622.324585
 31
0.0
  0
LINE
  5
5708E
  8
21
 10
335.91473
 20
547.004252
 30
0.0
 11
335.91473
 21
547.504252
 31
0.0
  0
LINE
  5
5708F
  8
21
 10
337.918478
 20
622.30165
 30
0.0
 11
337.920485
 21
622.324585
 31
0.0
  0
ARC
  5
57090
  8
21
 10
343.897653
 20
621.80165
 30
0.0
 40
6.0
 50
90.0
 51
175.0
  0
LINE
  5
57091
  8
21
 10
337.918478
 20
622.30165
 30
0.0
 11
338.04462
 21
557.049861
 31
0.0
  0
ARC
  5
57092
  8
21
 10
326.776024
 20
576.243024
 30
0.0
 40
22.256656
 50
272.297066
 51
300.417837
  0
INSERT
  5
57094
  8
L32
  2
GEOTOL
 10
462.289574
 20
709.889725
 30
0.0
  0
INSERT
  5
570EE
  8
L32
  2
GEOTOL
 10
-6.739258
 20
611.111918
 30
0.0
  0
LINE
  5
5721A
  8
24
 10
476.644129
 20
547.504252
 30
0.0
 11
476.644129
 21
621.504258
 31
0.0
  0
ARC
  5
5721B
  8
24
 10
473.644131
 20
621.507766
 30
0.0
 40
3.0
 50
359.932998
 51
92.773515
  0
LINE
  5
5721C
  8
24
 10
409.18973
 20
624.504252
 30
0.0
 11
473.789295
 21
624.504252
 31
0.0
  0
LINE
  5
5721D
  8
23
  6
DASHDOT
 10
409.18973
 20
540.0
 30
0.0
 11
409.18973
 21
636.422203
 31
0.0
  0
LINE
  5
5721E
  8
24
 10
409.18973
 20
624.504252
 30
0.0
 11
344.735332
 21
624.504252
 31
0.0
  0
LINE
  5
5721F
  8
24
 10
341.735332
 20
547.504252
 30
0.0
 11
341.735332
 21
621.504252
 31
0.0
  0
LINE
  5
57222
  8
14
 10
341.735332
 20
268.540134
 30
0.0
 11
341.735332
 21
194.540134
 31
0.0
  0
LINE
  5
57223
  8
14
 10
409.18973
 20
191.540134
 30
0.0
 11
344.735332
 21
191.540134
 31
0.0
  0
LINE
  5
57224
  8
14
 10
409.18973
 20
191.540134
 30
0.0
 11
473.789295
 21
191.540134
 31
0.0
  0
ARC
  5
57225
  8
14
 10
473.644131
 20
194.53662
 30
0.0
 40
3.0
 50
267.226485
 51
0.067002
  0
LINE
  5
57226
  8
14
 10
476.644129
 20
268.540134
 30
0.0
 11
476.644129
 21
194.540128
 31
0.0
  0
ARC
  5
57227
  8
11
 10
326.776024
 20
239.801362
 30
0.0
 40
22.256656
 50
59.582163
 51
87.702934
  0
LINE
  5
57228
  8
11
 10
337.918478
 20
193.742736
 30
0.0
 11
338.04462
 21
258.994525
 31
0.0
  0
ARC
  5
57229
  8
11
 10
343.897653
 20
194.242736
 30
0.0
 40
6.0
 50
185.0
 51
270.0
  0
LINE
  5
5722A
  8
11
 10
337.918478
 20
193.742736
 30
0.0
 11
337.920485
 21
193.719802
 31
0.0
  0
LINE
  5
5722B
  8
11
 10
335.91473
 20
269.040134
 30
0.0
 11
335.91473
 21
268.540134
 31
0.0
  0
LINE
  5
5722C
  8
11
 10
321.983692
 20
193.742736
 30
0.0
 11
321.985698
 21
193.719802
 31
0.0
  0
LINE
  5
5722D
  8
11
 10
316.308299
 20
261.972799
 30
0.0
 11
316.612587
 21
193.742736
 31
0.0
  0
LINE
  5
5722E
  8
11
 10
337.024432
 20
268.540134
 30
0.0
 11
337.922656
 21
268.540134
 31
0.0
  0
LINE
  5
5722F
  8
11
 10
337.024432
 20
269.040134
 30
0.0
 11
316.184938
 21
269.040134
 31
0.0
  0
LINE
  5
57230
  8
11
 10
316.184938
 20
269.040134
 30
0.0
 11
316.193665
 21
268.540134
 31
0.0
  0
LINE
  5
57231
  8
11
 10
337.918478
 20
193.742736
 30
0.0
 11
316.612587
 21
193.742736
 31
0.0
  0
LINE
  5
57232
  8
11
 10
337.024432
 20
269.040134
 30
0.0
 11
337.024432
 21
268.540134
 31
0.0
  0
LINE
  5
57233
  8
11
 10
316.286595
 20
263.216182
 30
0.0
 11
316.308299
 21
261.972799
 31
0.0
  0
LINE
  5
57234
  8
11
 10
326.994298
 20
268.540134
 30
0.0
 11
337.024432
 21
268.540134
 31
0.0
  0
LINE
  5
57235
  8
11
 10
316.193665
 20
268.540134
 30
0.0
 11
316.286635
 21
263.213895
 31
0.0
  0
LINE
  5
57236
  8
11
 10
337.922656
 20
188.242736
 30
0.0
 11
329.528632
 21
188.242736
 31
0.0
  0
ARC
  5
57237
  8
11
 10
330.334672
 20
194.355936
 30
0.0
 40
6.16611
 50
185.921525
 51
262.48874
  0
LINE
  5
57238
  8
11
 10
502.19389
 20
269.040134
 30
0.0
 11
481.354397
 21
269.040134
 31
0.0
  0
LINE
  5
57239
  8
11
 10
501.766241
 20
193.742736
 30
0.0
 11
479.350649
 21
193.742736
 31
0.0
  0
LINE
  5
5723A
  8
11
 10
502.19389
 20
269.040134
 30
0.0
 11
501.766241
 21
193.742736
 31
0.0
  0
LINE
  5
5723D
  8
11
 10
495.285435
 20
193.742736
 30
0.0
 11
495.283428
 21
193.719802
 31
0.0
  0
ARC
  5
5723E
  8
11
 10
489.30626
 20
194.242736
 30
0.0
 40
6.0
 50
270.0
 51
355.0
  0
LINE
  5
5723F
  8
11
 10
481.354397
 20
269.040134
 30
0.0
 11
481.354397
 21
268.540134
 31
0.0
  0
LINE
  5
57240
  8
11
 10
479.350649
 20
193.742736
 30
0.0
 11
479.348642
 21
193.719802
 31
0.0
  0
ARC
  5
57241
  8
11
 10
473.371474
 20
194.242736
 30
0.0
 40
6.0
 50
270.0
 51
355.0
  0
LINE
  5
57242
  8
11
 10
479.350649
 20
193.742736
 30
0.0
 11
479.224507
 21
258.994525
 31
0.0
  0
ARC
  5
57243
  8
11
 10
490.493102
 20
239.801362
 30
0.0
 40
22.256656
 50
92.297066
 51
120.417837
  0
LINE
  5
57244
  8
12
 10
337.922656
 20
194.221453
 30
0.0
 11
479.346471
 21
194.221453
 31
0.0
  0
LINE
  5
57245
  8
12
 10
479.224507
 20
258.994525
 30
0.0
 11
337.922656
 21
258.994525
 31
0.0
  0
LINE
  5
57246
  8
11
 10
326.994298
 20
262.040134
 30
0.0
 11
502.071705
 21
262.040134
 31
0.0
  0
LINE
  5
57247
  8
11
 10
337.922656
 20
268.540134
 30
0.0
 11
491.385163
 21
268.540134
 31
0.0
  0
LINE
  5
57248
  8
11
 10
337.922656
 20
188.242736
 30
0.0
 11
489.30626
 21
188.242736
 31
0.0
  0
LINE
  5
57249
  8
13
  6
DASHDOT
 10
409.18973
 20
276.044386
 30
0.0
 11
409.18973
 21
179.622183
 31
0.0
  0
LINE
  5
5724A
  8
43
  6
DASHDOT
 10
246.0
 20
408.022193
 30
0.0
 11
149.577797
 21
408.022193
 31
0.0
  0
LINE
  5
5724B
  8
41
 10
158.19835
 20
479.289268
 30
0.0
 11
158.19835
 21
327.905663
 31
0.0
  0
LINE
  5
5724C
  8
41
 10
238.495748
 20
479.289268
 30
0.0
 11
238.495748
 21
325.826761
 31
0.0
  0
LINE
  5
5724D
  8
41
 10
231.995748
 20
490.217626
 30
0.0
 11
231.995748
 21
315.140219
 31
0.0
  0
LINE
  5
5724E
  8
42
 10
228.950139
 20
337.987416
 30
0.0
 11
228.950139
 21
479.289268
 31
0.0
  0
LINE
  5
5724F
  8
42
 10
164.177066
 20
479.289268
 30
0.0
 11
164.177066
 21
337.865453
 31
0.0
  0
ARC
  5
57250
  8
41
 10
209.756976
 20
326.718821
 30
0.0
 40
22.256656
 50
2.297066
 51
30.417837
  0
LINE
  5
57251
  8
41
 10
163.69835
 20
337.861275
 30
0.0
 11
228.950139
 21
337.987416
 31
0.0
  0
ARC
  5
57252
  8
41
 10
164.19835
 20
343.84045
 30
0.0
 40
6.0
 50
180.0
 51
265.0
  0
LINE
  5
57253
  8
41
 10
163.69835
 20
337.861275
 30
0.0
 11
163.675415
 21
337.863281
 31
0.0
  0
LINE
  5
57254
  8
41
 10
238.995748
 20
335.857527
 30
0.0
 11
238.495748
 21
335.857527
 31
0.0
  0
ARC
  5
57255
  8
41
 10
164.19835
 20
327.905663
 30
0.0
 40
6.0
 50
180.0
 51
265.0
  0
LINE
  5
57256
  8
41
 10
163.69835
 20
321.926489
 30
0.0
 11
163.675415
 21
321.928495
 31
0.0
  0
LINE
  5
57259
  8
41
 10
238.995748
 20
315.018033
 30
0.0
 11
163.69835
 21
315.445682
 31
0.0
  0
LINE
  5
5725A
  8
41
 10
163.69835
 20
315.445682
 30
0.0
 11
163.69835
 21
337.861275
 31
0.0
  0
LINE
  5
5725B
  8
41
 10
238.995748
 20
315.018033
 30
0.0
 11
238.995748
 21
335.857527
 31
0.0
  0
ARC
  5
5725C
  8
41
 10
164.311549
 20
486.877251
 30
0.0
 40
6.16611
 50
95.921525
 51
172.48874
  0
LINE
  5
5725D
  8
41
 10
158.19835
 20
479.289268
 30
0.0
 11
158.19835
 21
487.683291
 31
0.0
  0
LINE
  5
5725E
  8
41
 10
238.495748
 20
501.018258
 30
0.0
 11
233.169509
 21
500.925288
 31
0.0
  0
LINE
  5
5725F
  8
41
 10
238.495748
 20
490.217626
 30
0.0
 11
238.495748
 21
480.187492
 31
0.0
  0
LINE
  5
57260
  8
41
 10
233.171795
 20
500.925328
 30
0.0
 11
231.928413
 21
500.903625
 31
0.0
  0
LINE
  5
57261
  8
41
 10
238.995748
 20
480.187492
 30
0.0
 11
238.495748
 21
480.187492
 31
0.0
  0
LINE
  5
57262
  8
41
 10
163.69835
 20
479.293445
 30
0.0
 11
163.69835
 21
500.599336
 31
0.0
  0
LINE
  5
57263
  8
41
 10
238.995748
 20
501.026986
 30
0.0
 11
238.495748
 21
501.018258
 31
0.0
  0
LINE
  5
57264
  8
41
 10
238.995748
 20
480.187492
 30
0.0
 11
238.995748
 21
501.026986
 31
0.0
  0
LINE
  5
57265
  8
41
 10
238.495748
 20
480.187492
 30
0.0
 11
238.495748
 21
479.289268
 31
0.0
  0
LINE
  5
57266
  8
41
 10
231.928413
 20
500.903625
 30
0.0
 11
163.69835
 21
500.599336
 31
0.0
  0
LINE
  5
57267
  8
41
 10
163.69835
 20
495.228232
 30
0.0
 11
163.675415
 21
495.226225
 31
0.0
  0
LINE
  5
57268
  8
41
 10
238.995748
 20
481.297194
 30
0.0
 11
238.495748
 21
481.297194
 31
0.0
  0
LINE
  5
57269
  8
41
 10
163.69835
 20
479.293445
 30
0.0
 11
163.675415
 21
479.291439
 31
0.0
  0
ARC
  5
5726A
  8
41
 10
164.19835
 20
473.314271
 30
0.0
 40
6.0
 50
95.0
 51
180.0
  0
LINE
  5
5726B
  8
41
 10
163.69835
 20
479.293445
 30
0.0
 11
228.950139
 21
479.167304
 31
0.0
  0
ARC
  5
5726C
  8
41
 10
209.756976
 20
490.435899
 30
0.0
 40
22.256656
 50
329.582163
 51
357.702934
  0
LINE
  5
5726D
  8
44
 10
238.495748
 20
340.567794
 30
0.0
 11
164.495742
 21
340.567794
 31
0.0
  0
ARC
  5
5726E
  8
44
 10
164.492234
 20
343.567792
 30
0.0
 40
3.0
 50
177.226485
 51
270.067002
  0
LINE
  5
5726F
  8
44
 10
161.495748
 20
408.022193
 30
0.0
 11
161.495748
 21
343.422628
 31
0.0
  0
LINE
  5
57270
  8
44
 10
161.495748
 20
408.022193
 30
0.0
 11
161.495748
 21
472.476592
 31
0.0
  0
LINE
  5
57271
  8
44
 10
238.495748
 20
475.476592
 30
0.0
 11
164.495748
 21
475.476592
 31
0.0
  0
LINE
  5
57274
  8
34
 10
579.883713
 20
475.476592
 30
0.0
 11
653.883713
 21
475.476592
 31
0.0
  0
LINE
  5
57275
  8
34
 10
656.883713
 20
408.022193
 30
0.0
 11
656.883713
 21
472.476592
 31
0.0
  0
LINE
  5
57276
  8
34
 10
656.883713
 20
408.022193
 30
0.0
 11
656.883713
 21
343.422628
 31
0.0
  0
ARC
  5
57277
  8
34
 10
653.887227
 20
343.567792
 30
0.0
 40
3.0
 50
269.932998
 51
2.773515
  0
LINE
  5
57278
  8
34
 10
579.883713
 20
340.567794
 30
0.0
 11
653.883719
 21
340.567794
 31
0.0
  0
ARC
  5
57279
  8
31
 10
608.622485
 20
490.435899
 30
0.0
 40
22.256656
 50
182.297066
 51
210.417837
  0
LINE
  5
5727A
  8
31
 10
654.681111
 20
479.293445
 30
0.0
 11
589.429322
 21
479.167304
 31
0.0
  0
ARC
  5
5727B
  8
31
 10
654.181111
 20
473.314271
 30
0.0
 40
6.0
 50
0.0
 51
85.0
  0
LINE
  5
5727C
  8
31
 10
654.681111
 20
479.293445
 30
0.0
 11
654.704045
 21
479.291439
 31
0.0
  0
LINE
  5
5727D
  8
31
 10
579.383713
 20
481.297194
 30
0.0
 11
579.883713
 21
481.297194
 31
0.0
  0
LINE
  5
5727E
  8
31
 10
654.681111
 20
495.228232
 30
0.0
 11
654.704045
 21
495.226225
 31
0.0
  0
LINE
  5
5727F
  8
31
 10
586.451048
 20
500.903625
 30
0.0
 11
654.681111
 21
500.599336
 31
0.0
  0
LINE
  5
57280
  8
31
 10
579.883713
 20
480.187492
 30
0.0
 11
579.883713
 21
479.289268
 31
0.0
  0
LINE
  5
57281
  8
31
 10
579.383713
 20
480.187492
 30
0.0
 11
579.383713
 21
501.026986
 31
0.0
  0
LINE
  5
57282
  8
31
 10
579.383713
 20
501.026986
 30
0.0
 11
579.883713
 21
501.018258
 31
0.0
  0
LINE
  5
57283
  8
31
 10
654.681111
 20
479.293445
 30
0.0
 11
654.681111
 21
500.599336
 31
0.0
  0
LINE
  5
57284
  8
31
 10
579.383713
 20
480.187492
 30
0.0
 11
579.883713
 21
480.187492
 31
0.0
  0
LINE
  5
57285
  8
31
 10
585.207665
 20
500.925328
 30
0.0
 11
586.451048
 21
500.903625
 31
0.0
  0
LINE
  5
57286
  8
31
 10
579.883713
 20
490.217626
 30
0.0
 11
579.883713
 21
480.187492
 31
0.0
  0
LINE
  5
57287
  8
31
 10
579.883713
 20
501.018258
 30
0.0
 11
585.209952
 21
500.925288
 31
0.0
  0
LINE
  5
57288
  8
31
 10
660.181111
 20
479.289268
 30
0.0
 11
660.181111
 21
487.683291
 31
0.0
  0
ARC
  5
57289
  8
31
 10
654.067911
 20
486.877251
 30
0.0
 40
6.16611
 50
7.51126
 51
84.078475
  0
LINE
  5
5728A
  8
31
 10
579.383713
 20
315.018033
 30
0.0
 11
579.383713
 21
335.857527
 31
0.0
  0
LINE
  5
5728B
  8
31
 10
654.681111
 20
315.445682
 30
0.0
 11
654.681111
 21
337.861275
 31
0.0
  0
LINE
  5
5728C
  8
31
 10
579.383713
 20
315.018033
 30
0.0
 11
654.681111
 21
315.445682
 31
0.0
  0
LINE
  5
5728F
  8
31
 10
654.681111
 20
321.926489
 30
0.0
 11
654.704045
 21
321.928495
 31
0.0
  0
ARC
  5
57290
  8
31
 10
654.181111
 20
327.905663
 30
0.0
 40
6.0
 50
275.0
 51
0.0
  0
LINE
  5
57291
  8
31
 10
579.383713
 20
335.857527
 30
0.0
 11
579.883713
 21
335.857527
 31
0.0
  0
LINE
  5
57292
  8
31
 10
654.681111
 20
337.861275
 30
0.0
 11
654.704045
 21
337.863281
 31
0.0
  0
ARC
  5
57293
  8
31
 10
654.181111
 20
343.84045
 30
0.0
 40
6.0
 50
275.0
 51
0.0
  0
LINE
  5
57294
  8
31
 10
654.681111
 20
337.861275
 30
0.0
 11
589.429322
 21
337.987416
 31
0.0
  0
ARC
  5
57295
  8
31
 10
608.622485
 20
326.718821
 30
0.0
 40
22.256656
 50
149.582163
 51
177.702934
  0
LINE
  5
57296
  8
32
 10
654.202394
 20
479.289268
 30
0.0
 11
654.202394
 21
337.865453
 31
0.0
  0
LINE
  5
57297
  8
32
 10
589.429322
 20
337.987416
 30
0.0
 11
589.429322
 21
479.289268
 31
0.0
  0
LINE
  5
57298
  8
31
 10
586.383713
 20
490.217626
 30
0.0
 11
586.383713
 21
315.140219
 31
0.0
  0
LINE
  5
57299
  8
31
 10
579.883713
 20
479.289268
 30
0.0
 11
579.883713
 21
325.826761
 31
0.0
  0
LINE
  5
5729A
  8
31
 10
660.181111
 20
479.289268
 30
0.0
 11
660.181111
 21
327.905663
 31
0.0
  0
LINE
  5
5729B
  8
33
  6
DASHDOT
 10
572.379461
 20
408.022193
 30
0.0
 11
668.801664
 21
408.022193
 31
0.0
  0
ARC
  5
572C4
  8
24
 10
344.735332
 20
621.504252
 30
0.0
 40
3.0
 50
90.0
 51
180.0
  0
ARC
  5
572C5
  8
44
 10
164.495748
 20
472.476592
 30
0.0
 40
3.0
 50
90.0
 51
180.0
  0
ARC
  5
572C6
  8
14
 10
344.735332
 20
194.540134
 30
0.0
 40
3.0
 50
180.0
 51
270.0
  0
ARC
  5
572C7
  8
34
 10
653.883713
 20
472.476592
 30
0.0
 40
3.0
 50
0.0
 51
90.0
  0
VIEWPORT
  5
1
 67
     1
  8
0
 10
210.0
 20
152.094241
 30
0.0
 40
420.0
 41
304.188482
 68
    -1
 69
     1
1001
ACAD
1000
MVIEW
1002
{
1070
    16
1010
0.0
1020
0.0
1030
0.0
1010
0.0
1020
0.0
1030
1.0
1040
0.0
1040
304.188482
1040
210.0
1040
152.094241
1040
50.0
1040
0.0
1040
0.0
1070
     0
1070
   100
1070
     1
1070
     1
1070
     1
1070
     0
1070
     0
1070
     0
1040
0.0
1040
0.0
1040
0.0
1040
1.0
1040
1.0
1040
0.0
1040
0.0
1070
     0
1002
{
1002
}
1002
}
  0
ENDSEC
  0
EOF
