  0
SECTION
  2
HEADER
  9
$ACADVER
  1
AC1009
  9
$INSBASE
 10
0.0
 20
0.0
 30
0.0
  9
$EXTMIN
 10
25.0
 20
-108.126378
 30
0.0
  9
$EXTMAX
 10
601.338302
 20
224.170764
 30
0.0
  9
$LIMMIN
 10
0.0
 20
0.0
  9
$LIMMAX
 10
420.0
 20
297.0
  9
$ORTHOMODE
 70
     1
  9
$REGENMODE
 70
     1
  9
$FILLMODE
 70
     1
  9
$QTEXTMODE
 70
     0
  9
$MIRRTEXT
 70
     1
  9
$DRAGMODE
 70
     2
  9
$LTSCALE
 40
7.0
  9
$OSMODE
 70
     0
  9
$ATTMODE
 70
     1
  9
$TEXTSIZE
 40
3.5
  9
$TRACEWID
 40
0.05
  9
$TEXTSTYLE
  7
STANDARD
  9
$CLAYER
  8
12
  9
$CELTYPE
  6
BYLAYER
  9
$CECOLOR
 62
   256
  9
$DIMSCALE
 40
1.0
  9
$DIMASZ
 40
3.5
  9
$DIMEXO
 40
0.0
  9
$DIMDLI
 40
10.0
  9
$DIMRND
 40
0.0
  9
$DIMDLE
 40
0.0
  9
$DIMEXE
 40
2.0
  9
$DIMTP
 40
0.0
  9
$DIMTM
 40
0.0
  9
$DIMTXT
 40
3.5
  9
$DIMCEN
 40
2.5
  9
$DIMTSZ
 40
0.0
  9
$DIMTOL
 70
     0
  9
$DIMLIM
 70
     0
  9
$DIMTIH
 70
     0
  9
$DIMTOH
 70
     0
  9
$DIMSE1
 70
     0
  9
$DIMSE2
 70
     0
  9
$DIMTAD
 70
     1
  9
$DIMZIN
 70
     8
  9
$DIMBLK
  1

  9
$DIMASO
 70
     1
  9
$DIMSHO
 70
     1
  9
$DIMPOST
  1

  9
$DIMAPOST
  1

  9
$DIMALT
 70
     0
  9
$DIMALTD
 70
     2
  9
$DIMALTF
 40
25.4
  9
$DIMLFAC
 40
1.0
  9
$DIMTOFL
 70
     1
  9
$DIMTVP
 40
0.0
  9
$DIMTIX
 70
     0
  9
$DIMSOXD
 70
     0
  9
$DIMSAH
 70
     0
  9
$DIMBLK1
  1

  9
$DIMBLK2
  1

  9
$DIMSTYLE
  2
ACADUS
  9
$DIMCLRD
 70
   256
  9
$DIMCLRE
 70
   256
  9
$DIMCLRT
 70
     3
  9
$DIMTFAC
 40
1.0
  9
$DIMGAP
 40
2.0
  9
$LUNITS
 70
     2
  9
$LUPREC
 70
     1
  9
$SKETCHINC
 40
1.0
  9
$FILLETRAD
 40
0.0
  9
$AUNITS
 70
     0
  9
$AUPREC
 70
     2
  9
$MENU
  1
CAESAR
  9
$ELEVATION
 40
0.0
  9
$PELEVATION
 40
0.0
  9
$THICKNESS
 40
0.0
  9
$LIMCHECK
 70
     0
  9
$BLIPMODE
 70
     1
  9
$CHAMFERA
 40
5.0
  9
$CHAMFERB
 40
5.0
  9
$SKPOLY
 70
     0
  9
$TDCREATE
 40
2449496.45011
  9
$TDUPDATE
 40
2449496.45011
  9
$TDINDWG
 40
0.0
  9
$TDUSRTIMER
 40
0.0
  9
$USRTIMER
 70
     1
  9
$ANGBASE
 50
0.0
  9
$ANGDIR
 70
     0
  9
$PDMODE
 70
     0
  9
$PDSIZE
 40
0.0
  9
$PLINEWID
 40
0.0
  9
$COORDS
 70
     2
  9
$SPLFRAME
 70
     0
  9
$SPLINETYPE
 70
     6
  9
$SPLINESEGS
 70
     8
  9
$ATTDIA
 70
     0
  9
$ATTREQ
 70
     1
  9
$HANDLING
 70
     1
  9
$HANDSEED
  5
75FE
  9
$SURFTAB1
 70
     6
  9
$SURFTAB2
 70
     6
  9
$SURFTYPE
 70
     6
  9
$SURFU
 70
     6
  9
$SURFV
 70
     6
  9
$UCSNAME
  2

  9
$UCSORG
 10
0.0
 20
0.0
 30
0.0
  9
$UCSXDIR
 10
1.0
 20
0.0
 30
0.0
  9
$UCSYDIR
 10
0.0
 20
1.0
 30
0.0
  9
$PUCSNAME
  2

  9
$PUCSORG
 10
0.0
 20
0.0
 30
0.0
  9
$PUCSXDIR
 10
1.0
 20
0.0
 30
0.0
  9
$PUCSYDIR
 10
0.0
 20
1.0
 30
0.0
  9
$USERI1
 70
     0
  9
$USERI2
 70
     0
  9
$USERI3
 70
     0
  9
$USERI4
 70
     0
  9
$USERI5
 70
     0
  9
$USERR1
 40
1.0
  9
$USERR2
 40
0.0
  9
$USERR3
 40
3.5
  9
$USERR4
 40
0.0
  9
$USERR5
 40
0.0
  9
$WORLDVIEW
 70
     1
  9
$SHADEDGE
 70
     3
  9
$SHADEDIF
 70
    70
  9
$TILEMODE
 70
     1
  9
$MAXACTVP
 70
    16
  9
$PLIMCHECK
 70
     0
  9
$PEXTMIN
 10
1.000000E+020
 20
1.000000E+020
 30
1.000000E+020
  9
$PEXTMAX
 10
-1.000000E+020
 20
-1.000000E+020
 30
-1.000000E+020
  9
$PLIMMIN
 10
0.0
 20
0.0
  9
$PLIMMAX
 10
420.0
 20
297.0
  9
$UNITMODE
 70
     0
  9
$VISRETAIN
 70
     0
  9
$PLINEGEN
 70
     0
  9
$PSLTSCALE
 70
     0
  0
ENDSEC
  0
SECTION
  2
TABLES
  0
TABLE
  2
VPORT
 70
     3
  0
VPORT
  2
*ACTIVE
 70
     0
 10
0.0
 20
0.0
 11
1.0
 21
1.0
 12
437.890227
 22
55.729929
 13
0.0
 23
0.0
 14
1.0
 24
1.0
 15
10.0
 25
10.0
 16
0.0
 26
0.0
 36
1.0
 17
0.0
 27
0.0
 37
0.0
 40
531.685465
 41
1.616838
 42
50.0
 43
0.0
 44
0.0
 50
0.0
 51
0.0
 71
     0
 72
   100
 73
     1
 74
     1
 75
     1
 76
     0
 77
     0
 78
     0
  0
ENDTAB
  0
TABLE
  2
LTYPE
 70
    10
  0
LTYPE
  2
CONTINUOUS
 70
     0
  3
Solid line
 72
    65
 73
     0
 40
0.0
  0
LTYPE
  2
BORDER
 70
     0
  3
__ __ . __ __ . __ __ . __ __ . __ __ . __ __ .
 72
    65
 73
     6
 40
1.75
 49
0.5
 49
-0.25
 49
0.5
 49
-0.25
 49
0.0
 49
-0.25
  0
LTYPE
  2
CENTER
 70
     0
  3
____ _ ____ _ ____ _ ____ _ ____ _ ____ _ ____ 
 72
    65
 73
     4
 40
2.0
 49
1.25
 49
-0.25
 49
0.25
 49
-0.25
  0
LTYPE
  2
DASHDOT
 70
     0
  3
__ . __ . __ . __ . __ . __ . __ . __ . __ . __
 72
    65
 73
     4
 40
1.0
 49
0.5
 49
-0.25
 49
0.0
 49
-0.25
  0
LTYPE
  2
DASHED
 70
     0
  3
__ __ __ __ __ __ __ __ __ __ __ __ __ __ __ __
 72
    65
 73
     2
 40
0.75
 49
0.5
 49
-0.25
  0
LTYPE
  2
DIVIDE
 70
     0
  3
____ . . ____ . . ____ . . ____ . . ____ . . __
 72
    65
 73
     6
 40
1.25
 49
0.5
 49
-0.25
 49
0.0
 49
-0.25
 49
0.0
 49
-0.25
  0
LTYPE
  2
DOT
 70
     0
  3
. . . . . . . . . . . . . . . . . . . . . . . .
 72
    65
 73
     2
 40
0.25
 49
0.0
 49
-0.25
  0
LTYPE
  2
HIDDEN
 70
     0
  3
__ __ __ __ __ __ __ __ __ __ __ __ __ __ __ __
 72
    65
 73
     2
 40
0.375
 49
0.25
 49
-0.125
  0
LTYPE
  2
PHANTOM
 70
     0
  3
______  __  __  ______  __  __  ______  __  __ 
 72
    65
 73
     6
 40
2.5
 49
1.25
 49
-0.25
 49
0.25
 49
-0.25
 49
0.25
 49
-0.25
  0
LTYPE
  2
DOTX2
 70
     0
  3
.  .  .  .  .  .  .  .  .  .  .  .  .  .  .  . 
 72
    65
 73
     2
 40
0.5
 49
0.0
 49
-0.5
  0
ENDTAB
  0
TABLE
  2
LAYER
 70
   120
  0
LAYER
  2
0
 70
     0
 62
     7
  6
CONTINUOUS
  0
LAYER
  2
L1
 70
     0
 62
     7
  6
CONTINUOUS
  0
LAYER
  2
L2
 70
     0
 62
     1
  6
CONTINUOUS
  0
LAYER
  2
L3
 70
     0
 62
     7
  6
DASHED
  0
LAYER
  2
L4
 70
     0
 62
     1
  6
DASHED
  0
LAYER
  2
L5
 70
     0
 62
     7
  6
CENTER
  0
LAYER
  2
L6
 70
     0
 62
     1
  6
CENTER
  0
LAYER
  2
L7
 70
     0
 62
     1
  6
PHANTOM
  0
LAYER
  2
VPORT
 70
     0
 62
     7
  6
CONTINUOUS
  0
LAYER
  2
L8
 70
     0
 62
     1
  6
CONTINUOUS
  0
LAYER
  2
L20
 70
     0
 62
     3
  6
CONTINUOUS
  0
LAYER
  2
L21
 70
     0
 62
     1
  6
CONTINUOUS
  0
LAYER
  2
L22
 70
     0
 62
     1
  6
CONTINUOUS
  0
LAYER
  2
L23
 70
     0
 62
     1
  6
CONTINUOUS
  0
LAYER
  2
L30
 70
     0
 62
     3
  6
CONTINUOUS
  0
LAYER
  2
L31
 70
     0
 62
     1
  6
CONTINUOUS
  0
LAYER
  2
L32
 70
     0
 62
     3
  6
CONTINUOUS
  0
LAYER
  2
L33
 70
     0
 62
     1
  6
CONTINUOUS
  0
LAYER
  2
L34
 70
     0
 62
     1
  6
DASHED
  0
LAYER
  2
L35
 70
     0
 62
     1
  6
CONTINUOUS
  0
LAYER
  2
L40
 70
     0
 62
     7
  6
CONTINUOUS
  0
LAYER
  2
L41
 70
     0
 62
     1
  6
CONTINUOUS
  0
LAYER
  2
L42
 70
     0
 62
     1
  6
CONTINUOUS
  0
LAYER
  2
L43
 70
     0
 62
     7
  6
CONTINUOUS
  0
LAYER
  2
L44
 70
     0
 62
     1
  6
DASHED
  0
LAYER
  2
L45
 70
     0
 62
     1
  6
CONTINUOUS
  0
LAYER
  2
L46
 70
     0
 62
     3
  6
CONTINUOUS
  0
LAYER
  2
L50
 70
     0
 62
     7
  6
CONTINUOUS
  0
LAYER
  2
L51
 70
     0
 62
     1
  6
CONTINUOUS
  0
LAYER
  2
L52
 70
     0
 62
     7
  6
CONTINUOUS
  0
LAYER
  2
L53
 70
     0
 62
     1
  6
CONTINUOUS
  0
LAYER
  2
L54
 70
     0
 62
     1
  6
DASHED
  0
LAYER
  2
L55
 70
     0
 62
     3
  6
CONTINUOUS
  0
LAYER
  2
L56
 70
     0
 62
     3
  6
CONTINUOUS
  0
LAYER
  2
L57
 70
     0
 62
     1
  6
CONTINUOUS
  0
LAYER
  2
L9
 70
     0
 62
     7
  6
HIDDEN
  0
LAYER
  2
L15
 70
     0
 62
     2
  6
CONTINUOUS
  0
LAYER
  2
L16
 70
     0
 62
     5
  6
DOTX2
  0
LAYER
  2
L24
 70
     0
 62
     1
  6
DASHED
  0
LAYER
  2
1
 70
     0
 62
     7
  6
CONTINUOUS
  0
LAYER
  2
2
 70
     0
 62
     7
  6
CONTINUOUS
  0
LAYER
  2
8
 70
     0
 62
     7
  6
CONTINUOUS
  0
LAYER
  2
11
 70
     0
 62
     7
  6
CONTINUOUS
  0
LAYER
  2
60
 70
     0
 62
     7
  6
CONTINUOUS
  0
LAYER
  2
63
 70
     0
 62
     1
  6
CENTER
  0
LAYER
  2
66
 70
     0
 62
     7
  6
CONTINUOUS
  0
LAYER
  2
69
 70
     0
 62
     7
  6
CONTINUOUS
  0
LAYER
  2
72
 70
     0
 62
     7
  6
CONTINUOUS
  0
LAYER
  2
75
 70
     0
 62
     7
  6
CONTINUOUS
  0
LAYER
  2
86
 70
     0
 62
     7
  6
CONTINUOUS
  0
LAYER
  2
89
 70
     0
 62
     7
  6
CONTINUOUS
  0
LAYER
  2
98
 70
     0
 62
     7
  6
CONTINUOUS
  0
LAYER
  2
DEFPOINTS
 70
     0
 62
     7
  6
CONTINUOUS
  0
LAYER
  2
MUOTOV
 70
     0
 62
     7
  6
CONTINUOUS
  0
LAYER
  2
KATKOV
 70
     0
 62
     1
  6
HIDDEN
  0
LAYER
  2
PIKATKOV
 70
     0
 62
     5
  6
DASHDOT
  0
LAYER
  2
MITAT
 70
     0
 62
     5
  6
CONTINUOUS
  0
LAYER
  2
LEIKV
 70
     0
 62
     5
  6
CONTINUOUS
  0
LAYER
  2
A1
 70
     0
 62
     7
  6
CONTINUOUS
  0
LAYER
  2
RA1
 70
     0
 62
     5
  6
CONTINUOUS
  0
LAYER
  2
TITEL
 70
     0
 62
     7
  6
CONTINUOUS
  0
LAYER
  2
TITEL1
 70
     0
 62
     5
  6
CONTINUOUS
  0
LAYER
  2
MUUTOS
 70
     0
 62
     7
  6
CONTINUOUS
  0
LAYER
  2
MUUTOS1
 70
     0
 62
     1
  6
CONTINUOUS
  0
LAYER
  2
MUUTOSTEXT
 70
     0
 62
     5
  6
CONTINUOUS
  0
LAYER
  2
MUUTOS2
 70
     0
 62
     5
  6
CONTINUOUS
  0
LAYER
  2
A2
 70
     0
 62
     7
  6
CONTINUOUS
  0
LAYER
  2
RA2
 70
     0
 62
     5
  6
CONTINUOUS
  0
LAYER
  2
RA4
 70
     0
 62
     1
  6
DASHED
  0
LAYER
  2
CAE-A1
 70
     0
 62
     7
  6
CONTINUOUS
  0
LAYER
  2
CAE-A3
 70
     0
 62
     7
  6
CONTINUOUS
  0
LAYER
  2
CAE-B3
 70
     0
 62
     7
  6
CONTINUOUS
  0
LAYER
  2
CAE-B1
 70
     0
 62
     7
  6
CONTINUOUS
  0
LAYER
  2
DS
 70
     0
 62
     7
  6
CONTINUOUS
  0
LAYER
  2
CAM-A1
 70
     0
 62
     7
  6
CONTINUOUS
  0
LAYER
  2
CAM-A2
 70
     0
 62
     1
  6
CONTINUOUS
  0
LAYER
  2
CAM-A3
 70
     0
 62
     1
  6
DASHED
  0
LAYER
  2
CAM-B1
 70
     0
 62
     7
  6
CONTINUOUS
  0
LAYER
  2
CAM-B2
 70
     0
 62
     1
  6
CONTINUOUS
  0
LAYER
  2
CAM-B3
 70
     0
 62
     1
  6
DASHED
  0
LAYER
  2
CAM-C1
 70
     0
 62
     7
  6
CONTINUOUS
  0
LAYER
  2
CAM-C2
 70
     0
 62
     1
  6
CONTINUOUS
  0
LAYER
  2
CAM-C3
 70
     0
 62
     1
  6
DASHED
  0
LAYER
  2
CAM-D1
 70
     0
 62
     7
  6
CONTINUOUS
  0
LAYER
  2
CAM-D2
 70
     0
 62
     1
  6
CONTINUOUS
  0
LAYER
  2
CAM-D3
 70
     0
 62
     1
  6
DASHED
  0
LAYER
  2
CAM-E1
 70
     0
 62
     7
  6
CONTINUOUS
  0
LAYER
  2
CAM-E2
 70
     0
 62
     1
  6
CONTINUOUS
  0
LAYER
  2
CAM-E3
 70
     0
 62
     1
  6
DASHED
  0
LAYER
  2
CAM-F1
 70
     0
 62
     7
  6
CONTINUOUS
  0
LAYER
  2
CAM-F2
 70
     0
 62
     1
  6
CONTINUOUS
  0
LAYER
  2
CAM-F3
 70
     0
 62
     1
  6
DASHED
  0
LAYER
  2
12
 70
     0
 62
     1
  6
CONTINUOUS
  0
LAYER
  2
13
 70
     0
 62
     1
  6
CENTER
  0
LAYER
  2
14
 70
     0
 62
     1
  6
DASHED
  0
LAYER
  2
15
 70
     0
 62
     2
  6
DASHED
  0
LAYER
  2
21
 70
     0
 62
     7
  6
CONTINUOUS
  0
LAYER
  2
22
 70
     0
 62
     1
  6
CONTINUOUS
  0
LAYER
  2
23
 70
     0
 62
     1
  6
CENTER
  0
LAYER
  2
24
 70
     0
 62
     1
  6
DASHED
  0
LAYER
  2
25
 70
     0
 62
     2
  6
DASHED
  0
LAYER
  2
31
 70
     0
 62
     7
  6
CONTINUOUS
  0
LAYER
  2
32
 70
     0
 62
     1
  6
CONTINUOUS
  0
LAYER
  2
33
 70
     0
 62
     1
  6
CENTER
  0
LAYER
  2
34
 70
     0
 62
     1
  6
DASHED
  0
LAYER
  2
35
 70
     0
 62
     2
  6
DASHED
  0
LAYER
  2
41
 70
     0
 62
     7
  6
CONTINUOUS
  0
LAYER
  2
42
 70
     0
 62
     1
  6
CONTINUOUS
  0
LAYER
  2
43
 70
     0
 62
     1
  6
CENTER
  0
LAYER
  2
44
 70
     0
 62
     1
  6
DASHED
  0
LAYER
  2
45
 70
     0
 62
     2
  6
DASHED
  0
LAYER
  2
51
 70
     0
 62
     7
  6
CONTINUOUS
  0
LAYER
  2
52
 70
     0
 62
     1
  6
CONTINUOUS
  0
LAYER
  2
53
 70
     0
 62
     1
  6
CENTER
  0
LAYER
  2
54
 70
     0
 62
     1
  6
DASHED
  0
LAYER
  2
55
 70
     0
 62
     2
  6
DASHED
  0
LAYER
  2
61
 70
     0
 62
     7
  6
CONTINUOUS
  0
LAYER
  2
62
 70
     0
 62
     1
  6
CONTINUOUS
  0
LAYER
  2
64
 70
     0
 62
     1
  6
DASHED
  0
LAYER
  2
65
 70
     0
 62
     2
  6
DASHED
  0
ENDTAB
  0
TABLE
  2
STYLE
 70
     7
  0
STYLE
  2
STANDARD
 70
     0
 40
0.0
 41
1.0
 50
0.0
 71
     0
 42
3.5
  3
CAEISO
  4

  0
STYLE
  2
COMPLEX
 70
     0
 40
5.0
 41
1.0
 50
0.0
 71
     0
 42
5.0
  3
ROMANS.SHX
  4

  0
STYLE
  2
SIMPLEX
 70
     0
 40
2.5
 41
0.8
 50
0.0
 71
     0
 42
5.0
  3
SIMPLEX
  4

  0
STYLE
  2
CAEISO
 70
     0
 40
0.0
 41
1.0
 50
0.0
 71
     0
 42
1.0
  3
CAEISO
  4

  0
STYLE
  2
TXT
 70
     0
 40
0.0
 41
1.0
 50
0.0
 71
     0
 42
0.2
  3
TXT
  4

  0
STYLE
  2
ITALIC
 70
     0
 40
0.0
 41
1.0
 50
0.0
 71
     0
 42
0.2
  3
ITALIC
  4

  0
STYLE
  2
MONO
 70
     0
 40
0.0
 41
1.0
 50
0.0
 71
     0
 42
9.5
  3
MONOTXT
  4

  0
ENDTAB
  0
TABLE
  2
VIEW
 70
     0
  0
ENDTAB
  0
TABLE
  2
UCS
 70
     0
  0
ENDTAB
  0
TABLE
  2
APPID
 70
     1
  0
APPID
  2
ACAD
 70
     0
  0
ENDTAB
  0
TABLE
  2
DIMSTYLE
 70
     5
  0
DIMSTYLE
  2
ACADUS
 70
     0
  3

  4

  5

  6

  7

 40
1.0
 41
0.18
 42
0.0625
 43
0.38
 44
0.18
 45
0.0
 46
0.0
 47
0.0
 48
0.0
140
0.18
141
0.09
142
0.0
143
25.4
144
1.0
145
0.0
146
1.0
147
0.09
 71
     0
 72
     0
 73
     1
 74
     1
 75
     0
 76
     0
 77
     0
 78
     0
170
     0
171
     2
172
     0
173
     0
174
     0
175
     0
176
     0
177
     0
178
     0
  0
DIMSTYLE
  2
NORDIC
 70
     0
  3

  4

  5

  6

  7

 40
1.0
 41
3.5
 42
1.0
 43
10.0
 44
2.0
 45
0.0
 46
0.0
 47
0.0
 48
0.0
140
3.5
141
2.5
142
0.0
143
25.4
144
1.0
145
0.0
146
1.0
147
2.0
 71
     0
 72
     0
 73
     0
 74
     0
 75
     0
 76
     0
 77
     1
 78
     8
170
     0
171
     2
172
     1
173
     0
174
     0
175
     0
176
     0
177
     0
178
     0
  0
DIMSTYLE
  2
RADIAL
 70
     0
  3

  4

  5

  6

  7

 40
1.0
 41
3.5
 42
1.0
 43
10.0
 44
2.0
 45
0.0
 46
0.0
 47
0.0
 48
0.0
140
3.5
141
2.5
142
0.0
143
25.4
144
1.0
145
0.0
146
1.0
147
2.0
 71
     0
 72
     0
 73
     0
 74
     1
 75
     0
 76
     0
 77
     1
 78
     8
170
     0
171
     2
172
     0
173
     0
174
     0
175
     0
176
     0
177
     0
178
     0
  0
DIMSTYLE
  2
NORTOL
 70
     0
  3

  4

  5

  6

  7

 40
1.0
 41
3.5
 42
1.0
 43
10.0
 44
2.0
 45
0.0
 46
0.0
 47
0.2
 48
0.1
140
3.5
141
2.5
142
0.0
143
25.4
144
1.0
145
0.7
146
0.71
147
2.0
 71
     1
 72
     0
 73
     0
 74
     0
 75
     0
 76
     0
 77
     0
 78
     8
170
     0
171
     2
172
     1
173
     0
174
     0
175
     0
176
     0
177
     0
178
     0
  0
DIMSTYLE
  2
RADTOL
 70
     0
  3

  4

  5

  6

  7

 40
1.0
 41
3.5
 42
1.0
 43
10.0
 44
2.0
 45
0.0
 46
0.0
 47
0.2
 48
0.1
140
3.5
141
2.5
142
0.0
143
25.4
144
1.0
145
0.7
146
0.7
147
2.0
 71
     1
 72
     0
 73
     0
 74
     1
 75
     0
 76
     0
 77
     0
 78
     8
170
     0
171
     2
172
     0
173
     0
174
     0
175
     0
176
     0
177
     0
178
     0
  0
ENDTAB
  0
ENDSEC
  0
SECTION
  2
BLOCKS
  0
BLOCK
  8
0
  2
$MODEL_SPACE
 70
     0
 10
0.0
 20
0.0
 30
0.0
  3
$MODEL_SPACE
  1

  0
ENDBLK
  5
75F5
  8
0
  0
BLOCK
 67
     1
  8
0
  2
$PAPER_SPACE
 70
     0
 10
0.0
 20
0.0
 30
0.0
  3
$PAPER_SPACE
  1

  0
ENDBLK
  5
75F3
 67
     1
  8
0
  0
BLOCK
  8
0
  2
GEOTOL
 70
     0
 10
0.0
 20
0.0
 30
0.0
  3
GEOTOL
  1

  0
ENDBLK
  5
28BB
  8
0
  0
ENDSEC
  0
SECTION
  2
ENTITIES
  0
TEXT
  5
3097
  8
0
  6
CONTINUOUS
 10
330.035074
 20
372.358918
 30
0.0
 40
2.5
  1
  
 50
21.66214
  0
LINE
  5
309C
  8
61
 10
353.18973
 20
150.822193
 30
0.0
 11
517.189736
 21
150.822193
 31
0.0
  0
LINE
  5
309D
  8
61
 10
342.38973
 20
140.022193
 30
0.0
 11
342.38973
 21
-23.977807
 31
0.0
  0
LINE
  5
30A0
  8
61
 10
364.900299
 20
143.189647
 30
0.0
 11
503.240829
 21
143.189647
 31
0.0
  0
LINE
  5
30A1
  8
61
 10
349.943377
 20
128.346758
 30
0.0
 11
349.943377
 21
-12.302372
 31
0.0
  0
LINE
  5
30A9
  8
52
 10
43.138232
 20
-31.947791
 30
0.0
 11
34.475896
 21
-23.285455
 31
0.0
  0
ARC
  5
30AA
  8
52
 10
42.44588
 20
-23.977807
 30
0.0
 40
8.0
 50
97.645696
 51
175.035187
  0
ARC
  5
30AB
  8
52
 10
42.44588
 20
-23.977807
 30
0.0
 40
8.0
 50
274.964813
 51
352.354304
  0
LINE
  5
30AC
  8
52
 10
50.374758
 20
-25.042182
 30
0.0
 11
41.381505
 21
-16.048929
 31
0.0
  0
LINE
  5
30AD
  8
51
 10
42.44588
 20
-34.777807
 30
0.0
 11
206.445875
 21
-34.777807
 31
0.0
  0
LINE
  5
30AE
  8
51
 10
31.64588
 20
-23.977807
 30
0.0
 11
31.64588
 21
58.022193
 31
0.0
  0
ARC
  5
30AF
  8
51
 10
42.44588
 20
-23.977807
 30
0.0
 40
10.8
 50
113.289549
 51
336.710451
  0
ARC
  5
30B0
  8
51
 10
206.44588
 20
-23.977807
 30
0.0
 40
10.8
 50
203.289549
 51
66.710451
  0
LINE
  5
30B1
  8
52
 10
214.415864
 20
-23.285455
 30
0.0
 11
205.753528
 21
-31.947791
 31
0.0
  0
LINE
  5
30B2
  8
52
 10
207.510255
 20
-16.048929
 30
0.0
 11
198.517002
 21
-25.042182
 31
0.0
  0
ARC
  5
30B3
  8
52
 10
206.44588
 20
-23.977807
 30
0.0
 40
8.0
 50
187.645696
 51
265.035187
  0
ARC
  5
30B4
  8
52
 10
206.44588
 20
-23.977807
 30
0.0
 40
8.0
 50
4.964813
 51
82.354304
  0
LINE
  5
30B5
  8
51
 10
39.64588
 20
-6.677807
 30
0.0
 11
39.64588
 21
58.022193
 31
0.0
  0
LINE
  5
30B6
  8
51
 10
59.74588
 20
-26.777807
 30
0.0
 11
189.145889
 21
-26.777807
 31
0.0
  0
LINE
  5
30B7
  8
52
 10
59.94588
 20
-28.277807
 30
0.0
 11
188.94588
 21
-28.277807
 31
0.0
  0
LINE
  5
30B8
  8
52
 10
38.14588
 20
-6.477807
 30
0.0
 11
38.14588
 21
58.022193
 31
0.0
  0
LINE
  5
30B9
  8
52
 10
59.94588
 20
-32.677807
 30
0.0
 11
189.14588
 21
-32.677807
 31
0.0
  0
LINE
  5
30BA
  8
52
 10
33.74588
 20
-6.477807
 30
0.0
 11
33.74588
 21
58.022193
 31
0.0
  0
ARC
  5
30BB
  8
51
 10
42.44588
 20
-23.977807
 30
0.0
 40
14.5
 50
360.0
 51
90.0
  0
ARC
  5
30BC
  8
52
 10
42.44588
 20
-23.977807
 30
0.0
 40
13.2
 50
360.0
 51
90.0
  0
ARC
  5
30BD
  8
52
 10
42.44588
 20
-23.977807
 30
0.0
 40
8.8
 50
360.0
 51
90.0
  0
ARC
  5
30C2
  8
51
 10
59.74588
 20
-23.977807
 30
0.0
 40
2.8
 50
180.0
 51
270.0
  0
ARC
  5
30C3
  8
51
 10
42.44588
 20
-6.677807
 30
0.0
 40
2.8
 50
180.0
 51
270.0
  0
ARC
  5
30C4
  8
52
 10
42.44588
 20
-6.477807
 30
0.0
 40
4.3
 50
180.0
 51
270.0
  0
ARC
  5
30C5
  8
52
 10
59.94588
 20
-23.977807
 30
0.0
 40
4.3
 50
180.0
 51
270.0
  0
ARC
  5
30C6
  8
52
 10
42.44588
 20
-6.477807
 30
0.0
 40
8.7
 50
180.0
 51
270.0
  0
ARC
  5
30C7
  8
52
 10
59.94588
 20
-23.977807
 30
0.0
 40
8.7
 50
180.0
 51
270.0
  0
ARC
  5
30C8
  8
52
 10
206.44588
 20
-6.477807
 30
0.0
 40
8.7
 50
270.0
 51
0.0
  0
ARC
  5
30C9
  8
52
 10
206.44588
 20
-23.977807
 30
0.0
 40
8.8
 50
90.0
 51
180.0
  0
ARC
  5
30CA
  8
52
 10
188.94588
 20
-23.977807
 30
0.0
 40
8.7
 50
270.0
 51
0.0
  0
ARC
  5
30CB
  8
52
 10
188.94588
 20
-23.977807
 30
0.0
 40
4.3
 50
270.0
 51
0.0
  0
ARC
  5
30CC
  8
51
 10
206.44588
 20
-23.977807
 30
0.0
 40
14.5
 50
90.0
 51
180.0
  0
ARC
  5
30CD
  8
52
 10
206.44588
 20
-23.977807
 30
0.0
 40
13.2
 50
90.0
 51
180.0
  0
ARC
  5
30CE
  8
52
 10
206.44588
 20
-6.477807
 30
0.0
 40
4.3
 50
270.0
 51
0.0
  0
ARC
  5
30CF
  8
51
 10
206.44588
 20
-6.677807
 30
0.0
 40
2.8
 50
270.0
 51
0.0
  0
ARC
  5
30D0
  8
51
 10
189.14588
 20
-23.977807
 30
0.0
 40
2.8
 50
270.0
 51
0.0
  0
LINE
  5
318D
  8
63
 10
536.220036
 20
58.022193
 30
0.0
 11
331.860578
 21
58.022193
 31
0.0
  0
LINE
  5
3191
  8
61
 10
353.18973
 20
-34.777807
 30
0.0
 11
517.18973
 21
-34.777807
 31
0.0
  0
LINE
  5
3193
  8
61
 10
364.900299
 20
-27.145261
 30
0.0
 11
505.479165
 21
-27.145261
 31
0.0
  0
ARC
  5
31A0
  8
61
 10
505.479162
 20
145.189647
 30
0.0
 40
2.0
 50
270.0
 51
336.189853
  0
ARC
  5
31A1
  8
61
 10
522.436083
 20
128.346758
 30
0.0
 40
2.0
 50
114.196752
 51
180.0
  0
ARC
  5
31A2
  8
61
 10
518.436083
 20
126.077782
 30
0.0
 40
2.0
 50
0.0
 51
95.107531
  0
ARC
  5
31A3
  8
61
 10
503.238492
 20
141.189647
 30
0.0
 40
2.0
 50
355.216575
 51
90.0
  0
LINE
  5
31A4
  8
61
 10
520.436083
 20
128.346758
 30
0.0
 11
520.436083
 21
-12.302372
 31
0.0
  0
LINE
  5
31A6
  8
61
 10
518.254105
 20
132.093315
 30
0.0
 11
509.260852
 21
141.086568
 31
0.0
  0
LINE
  5
31A7
  8
61
 10
525.159715
 20
139.329842
 30
0.0
 11
516.497379
 21
147.992177
 31
0.0
  0
LINE
  5
31A8
  8
61
 10
527.98973
 20
140.022193
 30
0.0
 11
527.98973
 21
-23.977807
 31
0.0
  0
ARC
  5
31A9
  8
61
 10
517.18973
 20
140.022193
 30
0.0
 40
10.8
 50
294.196752
 51
156.189853
  0
ARC
  5
31AA
  8
61
 10
517.18973
 20
140.022193
 30
0.0
 40
12.0
 50
175.216575
 51
275.107531
  0
LINE
  5
31AF
  8
61
 10
505.479162
 20
143.189647
 30
0.0
 11
503.702832
 21
143.189647
 31
0.0
  0
LINE
  5
31B0
  8
53
  6
DASHDOT
 10
124.44588
 20
158.072916
 30
0.0
 11
124.44588
 21
-45.432904
 31
0.0
  0
LINE
  5
31D1
  8
52
 10
205.753528
 20
147.992177
 30
0.0
 11
214.415864
 21
139.329842
 31
0.0
  0
ARC
  5
31D2
  8
52
 10
206.44588
 20
140.022193
 30
0.0
 40
8.0
 50
277.645696
 51
355.035187
  0
ARC
  5
31D3
  8
52
 10
206.44588
 20
140.022193
 30
0.0
 40
8.0
 50
94.964813
 51
172.354304
  0
LINE
  5
31D4
  8
52
 10
198.517002
 20
141.086568
 30
0.0
 11
207.510255
 21
132.093315
 31
0.0
  0
ARC
  5
31D5
  8
51
 10
206.44588
 20
140.022193
 30
0.0
 40
10.8
 50
293.289549
 51
156.710451
  0
ARC
  5
31D6
  8
51
 10
206.44588
 20
140.022193
 30
0.0
 40
14.5
 50
180.0
 51
270.0
  0
ARC
  5
31D7
  8
52
 10
206.44588
 20
140.022193
 30
0.0
 40
13.2
 50
180.0
 51
270.0
  0
ARC
  5
31D8
  8
52
 10
206.44588
 20
140.022193
 30
0.0
 40
8.8
 50
180.0
 51
270.0
  0
ARC
  5
31DD
  8
51
 10
189.14588
 20
140.022193
 30
0.0
 40
2.8
 50
360.0
 51
90.0
  0
ARC
  5
31DE
  8
51
 10
206.44588
 20
122.722193
 30
0.0
 40
2.8
 50
0.0
 51
90.0
  0
ARC
  5
31DF
  8
52
 10
206.44588
 20
122.522193
 30
0.0
 40
4.3
 50
0.0
 51
90.0
  0
ARC
  5
31E0
  8
52
 10
188.94588
 20
140.022193
 30
0.0
 40
4.3
 50
360.0
 51
90.0
  0
ARC
  5
31E1
  8
52
 10
206.44588
 20
122.522193
 30
0.0
 40
8.7
 50
0.0
 51
90.0
  0
ARC
  5
31E2
  8
52
 10
188.94588
 20
140.022193
 30
0.0
 40
8.7
 50
360.0
 51
90.0
  0
ARC
  5
31E3
  8
52
 10
59.94588
 20
140.022193
 30
0.0
 40
8.7
 50
90.0
 51
180.0
  0
ARC
  5
31E4
  8
52
 10
42.44588
 20
122.522193
 30
0.0
 40
8.7
 50
90.0
 51
180.0
  0
ARC
  5
31E5
  8
52
 10
59.94588
 20
140.022193
 30
0.0
 40
4.3
 50
90.0
 51
180.0
  0
ARC
  5
31E6
  8
52
 10
42.44588
 20
122.522193
 30
0.0
 40
4.3
 50
90.0
 51
180.0
  0
ARC
  5
31E7
  8
51
 10
42.44588
 20
122.722193
 30
0.0
 40
2.8
 50
90.0
 51
180.0
  0
ARC
  5
31E8
  8
51
 10
59.74588
 20
140.022193
 30
0.0
 40
2.8
 50
90.0
 51
180.0
  0
ARC
  5
31ED
  8
52
 10
42.44588
 20
140.022193
 30
0.0
 40
8.8
 50
270.0
 51
0.0
  0
ARC
  5
31EE
  8
52
 10
42.44588
 20
140.022193
 30
0.0
 40
13.2
 50
270.0
 51
0.0
  0
ARC
  5
31EF
  8
51
 10
42.44588
 20
140.022193
 30
0.0
 40
14.5
 50
270.0
 51
0.0
  0
LINE
  5
31F0
  8
52
 10
33.74588
 20
122.522193
 30
0.0
 11
33.74588
 21
58.022193
 31
0.0
  0
LINE
  5
31F1
  8
52
 10
59.94588
 20
148.722193
 30
0.0
 11
189.14588
 21
148.722193
 31
0.0
  0
LINE
  5
31F2
  8
52
 10
38.14588
 20
122.522193
 30
0.0
 11
38.14588
 21
58.022193
 31
0.0
  0
LINE
  5
31F3
  8
52
 10
59.94588
 20
144.322193
 30
0.0
 11
188.94588
 21
144.322193
 31
0.0
  0
LINE
  5
31F4
  8
51
 10
59.74588
 20
142.822193
 30
0.0
 11
189.145889
 21
142.822193
 31
0.0
  0
LINE
  5
31F5
  8
51
 10
39.64588
 20
122.722193
 30
0.0
 11
39.64588
 21
58.022193
 31
0.0
  0
ARC
  5
31F6
  8
51
 10
42.44588
 20
140.022193
 30
0.0
 40
10.8
 50
23.289549
 51
246.710451
  0
LINE
  5
31F7
  8
51
 10
31.64588
 20
140.022193
 30
0.0
 11
31.64588
 21
58.022193
 31
0.0
  0
LINE
  5
31F8
  8
51
 10
42.44588
 20
150.822193
 30
0.0
 11
206.445875
 21
150.822193
 31
0.0
  0
LINE
  5
31F9
  8
52
 10
50.374758
 20
141.086568
 30
0.0
 11
41.381505
 21
132.093315
 31
0.0
  0
ARC
  5
31FA
  8
52
 10
42.44588
 20
140.022193
 30
0.0
 40
8.0
 50
7.645696
 51
85.035187
  0
ARC
  5
31FB
  8
52
 10
42.44588
 20
140.022193
 30
0.0
 40
8.0
 50
184.964813
 51
262.354304
  0
LINE
  5
31FC
  8
52
 10
43.138232
 20
147.992177
 30
0.0
 11
34.475896
 21
139.329842
 31
0.0
  0
LINE
  5
3201
  8
51
 10
209.24588
 20
-6.677807
 30
0.0
 11
209.24588
 21
8.022193
 31
0.0
  0
LINE
  5
3202
  8
52
 10
210.741226
 20
-6.677807
 30
0.0
 11
210.741226
 21
122.722193
 31
0.0
  0
LINE
  5
3203
  8
52
 10
215.143581
 20
-6.677807
 30
0.0
 11
215.143581
 21
122.722193
 31
0.0
  0
LINE
  5
3204
  8
51
 10
217.24588
 20
-23.977807
 30
0.0
 11
217.24588
 21
140.022193
 31
0.0
  0
CIRCLE
  5
323E
  8
61
 10
517.18973
 20
140.022193
 30
0.0
 40
8.0
  0
ARC
  5
323F
  8
61
 10
517.18973
 20
140.022193
 30
0.0
 40
10.0
 50
187.519679
 51
262.493404
  0
LINE
  5
3240
  8
61
 10
509.950454
 20
144.380562
 30
0.0
 11
507.589167
 21
140.290693
 31
0.0
  0
LINE
  5
3241
  8
61
 10
521.48354
 20
132.74444
 30
0.0
 11
517.459928
 21
130.421406
 31
0.0
  0
ARC
  5
3242
  8
61
 10
517.18973
 20
140.022193
 30
0.0
 40
8.45
 50
299.459771
 51
148.950175
  0
LINE
  5
3243
  8
61
 10
510.335978
 20
144.148459
 30
0.0
 11
508.056604
 21
140.200468
 31
0.0
  0
LINE
  5
3244
  8
61
 10
521.262225
 20
133.136255
 30
0.0
 11
517.369564
 21
130.888827
 31
0.0
  0
ARC
  5
3245
  8
61
 10
517.18973
 20
140.022193
 30
0.0
 40
9.55
 50
188.743877
 51
261.268945
  0
ARC
  5
3246
  8
61
 10
510.221667
 20
138.950468
 30
0.0
 40
2.5
 50
150.0
 51
188.743877
  0
ARC
  5
3247
  8
61
 10
516.119564
 20
133.05389
 30
0.0
 40
2.5
 50
261.268945
 51
300.0
  0
ARC
  5
3248
  8
61
 10
509.754231
 20
139.040693
 30
0.0
 40
2.5
 50
150.0
 51
187.519679
  0
ARC
  5
3249
  8
61
 10
516.209928
 20
132.586469
 30
0.0
 40
2.5
 50
262.493404
 51
300.0
  0
ARC
  5
3263
  8
61
 10
354.169533
 20
132.586469
 30
0.0
 40
2.5
 50
240.0
 51
277.506596
  0
ARC
  5
3264
  8
61
 10
360.62523
 20
139.040693
 30
0.0
 40
2.5
 50
352.480321
 51
30.0
  0
ARC
  5
3265
  8
61
 10
354.259896
 20
133.05389
 30
0.0
 40
2.5
 50
240.0
 51
278.731055
  0
ARC
  5
3266
  8
61
 10
360.157794
 20
138.950468
 30
0.0
 40
2.5
 50
351.256123
 51
30.0
  0
ARC
  5
3267
  8
61
 10
353.18973
 20
140.022193
 30
0.0
 40
9.55
 50
278.731055
 51
351.256123
  0
LINE
  5
3268
  8
61
 10
349.117236
 20
133.136255
 30
0.0
 11
353.009896
 21
130.888827
 31
0.0
  0
LINE
  5
3269
  8
61
 10
360.043483
 20
144.148459
 30
0.0
 11
362.322857
 21
140.200468
 31
0.0
  0
ARC
  5
326A
  8
61
 10
353.18973
 20
140.022193
 30
0.0
 40
8.45
 50
31.049825
 51
240.540229
  0
LINE
  5
326B
  8
61
 10
348.89592
 20
132.74444
 30
0.0
 11
352.919533
 21
130.421406
 31
0.0
  0
LINE
  5
326C
  8
61
 10
360.429007
 20
144.380562
 30
0.0
 11
362.790294
 21
140.290693
 31
0.0
  0
ARC
  5
326D
  8
61
 10
353.18973
 20
140.022193
 30
0.0
 40
10.0
 50
277.506596
 51
352.480321
  0
CIRCLE
  5
326E
  8
61
 10
353.18973
 20
140.022193
 30
0.0
 40
8.0
  0
LINE
  5
326F
  8
61
 10
364.900299
 20
143.189647
 30
0.0
 11
366.676628
 21
143.189647
 31
0.0
  0
ARC
  5
3270
  8
61
 10
353.18973
 20
140.022193
 30
0.0
 40
12.0
 50
264.892469
 51
4.783425
  0
ARC
  5
3271
  8
61
 10
353.18973
 20
140.022193
 30
0.0
 40
10.8
 50
23.810147
 51
245.803248
  0
LINE
  5
3272
  8
61
 10
345.219746
 20
139.329842
 30
0.0
 11
353.882082
 21
147.992177
 31
0.0
  0
LINE
  5
3273
  8
61
 10
352.125355
 20
132.093315
 30
0.0
 11
361.118608
 21
141.086568
 31
0.0
  0
ARC
  5
3274
  8
61
 10
367.140969
 20
141.189647
 30
0.0
 40
2.0
 50
90.0
 51
184.783425
  0
ARC
  5
3275
  8
61
 10
351.943377
 20
126.077782
 30
0.0
 40
2.0
 50
84.892469
 51
180.0
  0
ARC
  5
3276
  8
61
 10
347.943377
 20
128.346758
 30
0.0
 40
2.0
 50
0.0
 51
65.803248
  0
ARC
  5
3277
  8
61
 10
364.900299
 20
145.189647
 30
0.0
 40
2.0
 50
203.810147
 51
270.0
  0
ARC
  5
3278
  8
61
 10
364.900299
 20
-29.145261
 30
0.0
 40
2.0
 50
90.0
 51
156.189853
  0
ARC
  5
3279
  8
61
 10
347.943377
 20
-12.302372
 30
0.0
 40
2.0
 50
294.196752
 51
0.0
  0
ARC
  5
327A
  8
61
 10
351.943377
 20
-10.033396
 30
0.0
 40
2.0
 50
180.0
 51
275.107531
  0
ARC
  5
327B
  8
61
 10
367.140969
 20
-25.145261
 30
0.0
 40
2.0
 50
175.216575
 51
270.0
  0
LINE
  5
327C
  8
61
 10
352.125355
 20
-16.048929
 30
0.0
 11
361.118608
 21
-25.042182
 31
0.0
  0
LINE
  5
327D
  8
61
 10
345.219746
 20
-23.285455
 30
0.0
 11
353.882082
 21
-31.947791
 31
0.0
  0
ARC
  5
327E
  8
61
 10
353.18973
 20
-23.977807
 30
0.0
 40
10.8
 50
114.196752
 51
336.189853
  0
ARC
  5
327F
  8
61
 10
353.18973
 20
-23.977807
 30
0.0
 40
12.0
 50
355.216575
 51
95.107531
  0
LINE
  5
3280
  8
61
 10
364.900299
 20
-27.145261
 30
0.0
 11
366.676628
 21
-27.145261
 31
0.0
  0
CIRCLE
  5
3281
  8
61
 10
353.18973
 20
-23.977807
 30
0.0
 40
8.0
  0
ARC
  5
3282
  8
61
 10
353.18973
 20
-23.977807
 30
0.0
 40
10.0
 50
7.519679
 51
82.493404
  0
LINE
  5
3283
  8
61
 10
360.429007
 20
-28.336176
 30
0.0
 11
362.790294
 21
-24.246307
 31
0.0
  0
LINE
  5
3284
  8
61
 10
348.89592
 20
-16.700053
 30
0.0
 11
352.919533
 21
-14.37702
 31
0.0
  0
ARC
  5
3285
  8
61
 10
353.18973
 20
-23.977807
 30
0.0
 40
8.45
 50
119.459771
 51
328.950175
  0
LINE
  5
3286
  8
61
 10
360.043483
 20
-28.104073
 30
0.0
 11
362.322857
 21
-24.156082
 31
0.0
  0
LINE
  5
3287
  8
61
 10
349.117236
 20
-17.091869
 30
0.0
 11
353.009896
 21
-14.84444
 31
0.0
  0
ARC
  5
3288
  8
61
 10
353.18973
 20
-23.977807
 30
0.0
 40
9.55
 50
8.743877
 51
81.268945
  0
ARC
  5
3289
  8
61
 10
360.157794
 20
-22.906082
 30
0.0
 40
2.5
 50
330.0
 51
8.743877
  0
ARC
  5
328A
  8
61
 10
354.259896
 20
-17.009504
 30
0.0
 40
2.5
 50
81.268945
 51
120.0
  0
ARC
  5
328B
  8
61
 10
360.62523
 20
-22.996307
 30
0.0
 40
2.5
 50
330.0
 51
7.519679
  0
ARC
  5
328C
  8
61
 10
354.169533
 20
-16.542083
 30
0.0
 40
2.5
 50
82.493404
 51
120.0
  0
ARC
  5
328D
  8
61
 10
516.209928
 20
-16.542083
 30
0.0
 40
2.5
 50
60.0
 51
97.506596
  0
ARC
  5
328E
  8
61
 10
509.754231
 20
-22.996307
 30
0.0
 40
2.5
 50
172.480321
 51
210.0
  0
ARC
  5
328F
  8
61
 10
516.119564
 20
-17.009504
 30
0.0
 40
2.5
 50
60.0
 51
98.731055
  0
ARC
  5
3290
  8
61
 10
510.221667
 20
-22.906082
 30
0.0
 40
2.5
 50
171.256123
 51
210.0
  0
ARC
  5
3291
  8
61
 10
517.18973
 20
-23.977807
 30
0.0
 40
9.55
 50
98.731055
 51
171.256123
  0
LINE
  5
3292
  8
61
 10
521.262225
 20
-17.091869
 30
0.0
 11
517.369564
 21
-14.84444
 31
0.0
  0
LINE
  5
3293
  8
61
 10
510.335978
 20
-28.104073
 30
0.0
 11
508.056604
 21
-24.156082
 31
0.0
  0
ARC
  5
3294
  8
61
 10
517.18973
 20
-23.977807
 30
0.0
 40
8.45
 50
211.049825
 51
60.540229
  0
LINE
  5
3295
  8
61
 10
521.48354
 20
-16.700053
 30
0.0
 11
517.459928
 21
-14.37702
 31
0.0
  0
LINE
  5
3296
  8
61
 10
509.950454
 20
-28.336176
 30
0.0
 11
507.589167
 21
-24.246307
 31
0.0
  0
ARC
  5
3297
  8
61
 10
517.18973
 20
-23.977807
 30
0.0
 40
10.0
 50
97.506596
 51
172.480321
  0
CIRCLE
  5
3298
  8
61
 10
517.18973
 20
-23.977807
 30
0.0
 40
8.0
  0
LINE
  5
3299
  8
61
 10
505.479162
 20
-27.145261
 30
0.0
 11
503.702832
 21
-27.145261
 31
0.0
  0
ARC
  5
329A
  8
61
 10
517.18973
 20
-23.977807
 30
0.0
 40
12.0
 50
84.892469
 51
184.783425
  0
ARC
  5
329B
  8
61
 10
517.18973
 20
-23.977807
 30
0.0
 40
10.8
 50
203.810147
 51
65.803248
  0
LINE
  5
329C
  8
61
 10
525.159715
 20
-23.285455
 30
0.0
 11
516.497379
 21
-31.947791
 31
0.0
  0
LINE
  5
329D
  8
61
 10
518.254105
 20
-16.048929
 30
0.0
 11
509.260852
 21
-25.042182
 31
0.0
  0
ARC
  5
329E
  8
61
 10
503.238492
 20
-25.145261
 30
0.0
 40
2.0
 50
270.0
 51
4.783425
  0
ARC
  5
329F
  8
61
 10
518.436083
 20
-10.033396
 30
0.0
 40
2.0
 50
264.892469
 51
0.0
  0
ARC
  5
32A0
  8
61
 10
522.436083
 20
-12.302372
 30
0.0
 40
2.0
 50
180.0
 51
245.803248
  0
ARC
  5
32A1
  8
61
 10
505.479162
 20
-29.145261
 30
0.0
 40
2.0
 50
23.810147
 51
90.0
  0
LINE
  5
32AC
  8
51
 10
208.74588
 20
33.022193
 30
0.0
 11
208.74588
 21
83.022193
 31
0.0
  0
ARC
  5
32AD
  8
51
 10
715.773158
 20
30.657739
 30
0.0
 40
507.032791
 50
179.732811
 51
182.558715
  0
ARC
  5
32AE
  8
51
 10
715.773158
 20
85.386648
 30
0.0
 40
507.032791
 50
177.441285
 51
180.267189
  0
ARC
  5
32AF
  8
51
 10
715.773158
 20
30.657739
 30
0.0
 40
507.032791
 50
185.059524
 51
185.059524
  0
LINE
  5
32B0
  8
51
 10
209.24588
 20
108.022193
 30
0.0
 11
209.24588
 21
122.722193
 31
0.0
  0
LINE
  5
3438
  8
63
  6
DASHDOT
 10
435.18973
 20
-42.447589
 30
0.0
 11
435.18973
 21
165.250934
 31
0.0
  0
INSERT
  5
35E0
  8
L32
  2
GEOTOL
 10
0.0
 20
0.0
 30
0.0
  0
LINE
  5
368E
  8
13
  6
DASHDOT
 10
435.18973
 20
-108.126378
 30
0.0
 11
435.18973
 21
-67.070716
 31
0.0
  0
LINE
  5
368F
  8
11
 10
342.381003
 20
-71.5
 30
0.0
 11
363.220496
 21
-71.5
 31
0.0
  0
LINE
  5
3690
  8
11
 10
342.808652
 20
-96.0
 30
0.0
 11
365.224244
 21
-96.0
 31
0.0
  0
LINE
  5
3691
  8
11
 10
342.381003
 20
-71.5
 30
0.0
 11
342.808652
 21
-96.0
 31
0.0
  0
LINE
  5
3694
  8
11
 10
349.289458
 20
-96.0
 30
0.0
 11
349.291465
 21
-96.022934
 31
0.0
  0
ARC
  5
3695
  8
11
 10
355.268633
 20
-95.5
 30
0.0
 40
6.0
 50
185.0
 51
270.0
  0
LINE
  5
3696
  8
11
 10
363.220496
 20
-71.5
 30
0.0
 11
363.220496
 21
-72.0
 31
0.0
  0
LINE
  5
3697
  8
11
 10
365.224244
 20
-96.0
 30
0.0
 11
365.226251
 21
-96.022934
 31
0.0
  0
ARC
  5
3698
  8
11
 10
371.203419
 20
-95.5
 30
0.0
 40
6.0
 50
185.0
 51
270.0
  0
LINE
  5
3699
  8
11
 10
365.224244
 20
-96.0
 30
0.0
 11
365.350386
 21
-81.545609
 31
0.0
  0
ARC
  5
369A
  8
11
 10
354.081791
 20
-100.738772
 30
0.0
 40
22.256656
 50
59.582163
 51
87.702934
  0
ARC
  5
369C
  8
11
 10
516.29767
 20
-100.738772
 30
0.0
 40
22.256656
 50
92.297066
 51
120.417837
  0
LINE
  5
369E
  8
11
 10
505.155216
 20
-96.0
 30
0.0
 11
505.029075
 21
-81.545609
 31
0.0
  0
LINE
  5
369F
  8
11
 10
517.18973
 20
-78.5
 30
0.0
 11
354.973851
 21
-78.5
 31
0.0
  0
ARC
  5
36A0
  8
11
 10
499.176041
 20
-95.5
 30
0.0
 40
6.0
 50
270.0
 51
355.0
  0
LINE
  5
36A1
  8
11
 10
505.155216
 20
-96.0
 30
0.0
 11
505.15321
 21
-96.022934
 31
0.0
  0
LINE
  5
36A2
  8
11
 10
507.158964
 20
-71.5
 30
0.0
 11
507.158964
 21
-72.0
 31
0.0
  0
ARC
  5
36A3
  8
11
 10
515.110828
 20
-95.5
 30
0.0
 40
6.0
 50
270.0
 51
355.0
  0
LINE
  5
36A4
  8
11
 10
521.090002
 20
-96.0
 30
0.0
 11
521.087996
 21
-96.022934
 31
0.0
  0
LINE
  5
36A7
  8
11
 10
527.998458
 20
-71.5
 30
0.0
 11
527.570809
 21
-96.0
 31
0.0
  0
LINE
  5
36A8
  8
11
 10
527.570809
 20
-96.0
 30
0.0
 11
505.155216
 21
-96.0
 31
0.0
  0
LINE
  5
36A9
  8
11
 10
527.98973
 20
-72.0
 30
0.0
 11
342.38973
 21
-72.0
 31
0.0
  0
LINE
  5
36AA
  8
11
 10
515.110835
 20
-101.5
 30
0.0
 11
355.268633
 21
-101.5
 31
0.0
  0
LINE
  5
36AB
  8
11
 10
527.998458
 20
-71.5
 30
0.0
 11
507.158964
 21
-71.5
 31
0.0
  0
LINE
  5
36CF
  8
12
 10
435.18973
 20
-95.950932
 30
0.0
 11
365.110263
 21
-95.950932
 31
0.0
  0
LINE
  5
36D1
  8
12
 10
435.18973
 20
-95.950932
 30
0.0
 11
505.269197
 21
-95.950932
 31
0.0
  0
TEXT
  5
370A
  8
L20
 10
52.0
 20
195.0
 30
0.0
 40
7.0
  1
FIBOX EK-H 30 COVER
  0
LINE
  5
370B
  8
53
  6
DASHDOT
 10
223.0
 20
58.920533
 30
0.0
 11
25.0
 21
58.920533
 31
0.0
  0
TEXT
  5
7039
  8
0
  6
CONTINUOUS
 10
299.035074
 20
706.358918
 30
0.0
 40
2.5
  1
  
 50
21.66214
  0
TEXT
  5
711E
  8
0
  6
CONTINUOUS
 10
299.76571
 20
1311.068835
 30
0.0
 40
2.5
  1
  
 50
21.66214
  0
LINE
  5
7199
  8
14
 10
435.18973
 20
-99.0
 30
0.0
 11
372.517406
 21
-99.0
 31
0.0
  0
LINE
  5
719A
  8
14
 10
368.812192
 20
-72.0
 30
0.0
 11
369.01754
 21
-95.530543
 31
0.0
  0
ARC
  5
719B
  8
14
 10
372.517406
 20
-95.5
 30
0.0
 40
3.5
 50
180.5
 51
270.0
  0
LINE
  5
719C
  8
14
 10
435.18973
 20
-99.0
 30
0.0
 11
497.862054
 21
-99.0
 31
0.0
  0
LINE
  5
719D
  8
14
 10
501.567269
 20
-72.0
 30
0.0
 11
501.361921
 21
-95.530543
 31
0.0
  0
ARC
  5
719E
  8
14
 10
497.862054
 20
-95.5
 30
0.0
 40
3.5
 50
270.0
 51
359.5
  0
LINE
  5
719F
  8
12
 10
365.350386
 20
-81.545609
 30
0.0
 11
505.029075
 21
-81.545609
 31
0.0
  0
LINE
  5
74E4
  8
41
 10
305.167537
 20
-34.777807
 30
0.0
 11
305.167537
 21
150.822193
 31
0.0
  0
LINE
  5
74E5
  8
41
 10
298.667537
 20
-23.977807
 30
0.0
 11
298.667537
 21
138.238072
 31
0.0
  0
LINE
  5
74E6
  8
41
 10
275.667537
 20
-21.898912
 30
0.0
 11
275.667537
 21
137.943291
 31
0.0
  0
LINE
  5
74E7
  8
44
 10
278.167537
 20
58.022193
 30
0.0
 11
278.167537
 21
-4.650131
 31
0.0
  0
LINE
  5
74E8
  8
42
 10
281.216605
 20
58.022193
 30
0.0
 11
281.216605
 21
-12.057274
 31
0.0
  0
LINE
  5
74E9
  8
42
 10
295.621928
 20
127.861537
 30
0.0
 11
295.621928
 21
-11.817151
 31
0.0
  0
LINE
  5
74EA
  8
41
 10
281.167537
 20
127.987679
 30
0.0
 11
295.621928
 21
127.861537
 31
0.0
  0
LINE
  5
74EB
  8
41
 10
305.667537
 20
150.830921
 30
0.0
 11
281.167537
 21
150.403272
 31
0.0
  0
LINE
  5
74EC
  8
43
  6
DASHDOT
 10
269.041159
 20
58.022193
 30
0.0
 11
310.096821
 21
58.022193
 31
0.0
  0
LINE
  5
74ED
  8
44
 10
305.167537
 20
124.399732
 30
0.0
 11
281.636994
 21
124.194384
 31
0.0
  0
LINE
  5
74EE
  8
44
 10
278.167537
 20
58.022193
 30
0.0
 11
278.167537
 21
120.694517
 31
0.0
  0
LINE
  5
74EF
  8
42
 10
281.216605
 20
58.022193
 30
0.0
 11
281.216605
 21
128.10166
 31
0.0
  0
LINE
  5
74F0
  8
41
 10
281.167537
 20
150.403272
 30
0.0
 11
281.167537
 21
127.987679
 31
0.0
  0
ARC
  5
74F1
  8
41
 10
281.667537
 20
137.943291
 30
0.0
 40
6.0
 50
95.0
 51
180.0
  0
LINE
  5
74F2
  8
41
 10
281.167537
 20
143.922465
 30
0.0
 11
281.144603
 21
143.920459
 31
0.0
  0
ARC
  5
74F3
  8
41
 10
281.667537
 20
122.008504
 30
0.0
 40
6.0
 50
95.0
 51
180.0
  0
LINE
  5
74F4
  8
41
 10
281.167537
 20
127.987679
 30
0.0
 11
281.144603
 21
127.985673
 31
0.0
  0
ARC
  5
74F5
  8
44
 10
281.667537
 20
120.694517
 30
0.0
 40
3.5
 50
90.5
 51
180.0
  0
LINE
  5
74F6
  8
41
 10
305.667537
 20
150.830921
 30
0.0
 11
305.667537
 21
129.991427
 31
0.0
  0
ARC
  5
74F7
  8
41
 10
276.428765
 20
139.130133
 30
0.0
 40
22.256656
 50
329.582163
 51
357.702934
  0
LINE
  5
74F8
  8
41
 10
305.667537
 20
129.991427
 30
0.0
 11
305.167537
 21
129.991427
 31
0.0
  0
LINE
  5
74F9
  8
41
 10
281.167537
 20
-11.943293
 30
0.0
 11
295.621928
 21
-11.817151
 31
0.0
  0
LINE
  5
74FA
  8
41
 10
305.667537
 20
-34.786534
 30
0.0
 11
281.167537
 21
-34.358885
 31
0.0
  0
LINE
  5
74FB
  8
44
 10
305.167537
 20
-8.355345
 30
0.0
 11
281.636994
 21
-8.149998
 31
0.0
  0
ARC
  5
74FC
  8
41
 10
281.667537
 20
-5.964118
 30
0.0
 40
6.0
 50
180.0
 51
265.0
  0
ARC
  5
74FD
  8
44
 10
281.667537
 20
-4.650131
 30
0.0
 40
3.5
 50
180.0
 51
269.5
  0
LINE
  5
74FE
  8
41
 10
281.167537
 20
-34.358885
 30
0.0
 11
281.167537
 21
-11.943293
 31
0.0
  0
LINE
  5
74FF
  8
41
 10
281.167537
 20
-11.943293
 30
0.0
 11
281.144603
 21
-11.941286
 31
0.0
  0
ARC
  5
7500
  8
41
 10
281.667537
 20
-21.898904
 30
0.0
 40
6.0
 50
180.0
 51
265.0
  0
LINE
  5
7501
  8
41
 10
281.167537
 20
-27.878079
 30
0.0
 11
281.144603
 21
-27.876072
 31
0.0
  0
LINE
  5
7502
  8
41
 10
305.667537
 20
-34.786534
 30
0.0
 11
305.667537
 21
-13.947041
 31
0.0
  0
ARC
  5
7503
  8
41
 10
276.428765
 20
-23.085746
 30
0.0
 40
22.256656
 50
2.297066
 51
30.417837
  0
LINE
  5
7504
  8
41
 10
305.667537
 20
-13.947041
 30
0.0
 11
305.167537
 21
-13.947041
 31
0.0
  0
LINE
  5
7505
  8
31
 10
565.211923
 20
150.822193
 30
0.0
 11
565.211923
 21
-34.777807
 31
0.0
  0
LINE
  5
7506
  8
31
 10
571.711923
 20
140.022193
 30
0.0
 11
571.711923
 21
-22.193686
 31
0.0
  0
LINE
  5
7507
  8
31
 10
594.711923
 20
137.943298
 30
0.0
 11
594.711923
 21
-21.898904
 31
0.0
  0
LINE
  5
7508
  8
34
 10
592.211923
 20
58.022193
 30
0.0
 11
592.211923
 21
120.694517
 31
0.0
  0
LINE
  5
7509
  8
32
 10
589.162856
 20
58.022193
 30
0.0
 11
589.162856
 21
128.10166
 31
0.0
  0
LINE
  5
750A
  8
32
 10
574.757532
 20
-11.817151
 30
0.0
 11
574.757532
 21
127.861537
 31
0.0
  0
LINE
  5
750B
  8
31
 10
589.211923
 20
-11.943293
 30
0.0
 11
574.757532
 21
-11.817151
 31
0.0
  0
LINE
  5
750C
  8
31
 10
564.711923
 20
-34.786534
 30
0.0
 11
589.211923
 21
-34.358885
 31
0.0
  0
LINE
  5
750D
  8
33
  6
DASHDOT
 10
601.338302
 20
58.022193
 30
0.0
 11
560.282639
 21
58.022193
 31
0.0
  0
LINE
  5
750E
  8
34
 10
565.211923
 20
-8.355345
 30
0.0
 11
588.742466
 21
-8.149998
 31
0.0
  0
LINE
  5
750F
  8
34
 10
592.211923
 20
58.022193
 30
0.0
 11
592.211923
 21
-4.650131
 31
0.0
  0
LINE
  5
7510
  8
32
 10
589.162856
 20
58.022193
 30
0.0
 11
589.162856
 21
-12.057274
 31
0.0
  0
LINE
  5
7511
  8
31
 10
589.211923
 20
-34.358885
 30
0.0
 11
589.211923
 21
-11.943293
 31
0.0
  0
ARC
  5
7512
  8
31
 10
588.711923
 20
-21.898904
 30
0.0
 40
6.0
 50
275.0
 51
0.0
  0
LINE
  5
7513
  8
31
 10
589.211923
 20
-27.878079
 30
0.0
 11
589.234858
 21
-27.876072
 31
0.0
  0
ARC
  5
7514
  8
31
 10
588.711923
 20
-5.964118
 30
0.0
 40
6.0
 50
275.0
 51
0.0
  0
LINE
  5
7515
  8
31
 10
589.211923
 20
-11.943293
 30
0.0
 11
589.234858
 21
-11.941286
 31
0.0
  0
ARC
  5
7516
  8
34
 10
588.711923
 20
-4.650131
 30
0.0
 40
3.5
 50
270.5
 51
0.0
  0
LINE
  5
7517
  8
31
 10
564.711923
 20
-34.786534
 30
0.0
 11
564.711923
 21
-13.947041
 31
0.0
  0
ARC
  5
7518
  8
31
 10
593.950696
 20
-23.085746
 30
0.0
 40
22.256656
 50
149.582163
 51
177.702934
  0
LINE
  5
7519
  8
31
 10
564.711923
 20
-13.947041
 30
0.0
 11
565.211923
 21
-13.947041
 31
0.0
  0
LINE
  5
751A
  8
31
 10
589.211923
 20
127.987679
 30
0.0
 11
574.757532
 21
127.861537
 31
0.0
  0
LINE
  5
751B
  8
31
 10
564.711923
 20
150.830921
 30
0.0
 11
589.211923
 21
150.403272
 31
0.0
  0
LINE
  5
751C
  8
34
 10
565.211923
 20
124.399732
 30
0.0
 11
588.742466
 21
124.194384
 31
0.0
  0
ARC
  5
751D
  8
31
 10
588.711923
 20
122.008504
 30
0.0
 40
6.0
 50
0.0
 51
85.0
  0
ARC
  5
751E
  8
34
 10
588.711923
 20
120.694517
 30
0.0
 40
3.5
 50
0.0
 51
89.5
  0
LINE
  5
751F
  8
31
 10
589.211923
 20
150.403272
 30
0.0
 11
589.211923
 21
127.987679
 31
0.0
  0
LINE
  5
7520
  8
31
 10
589.211923
 20
127.987679
 30
0.0
 11
589.234858
 21
127.985673
 31
0.0
  0
ARC
  5
7521
  8
31
 10
588.711923
 20
137.943291
 30
0.0
 40
6.0
 50
0.0
 51
85.0
  0
LINE
  5
7522
  8
31
 10
589.211923
 20
143.922465
 30
0.0
 11
589.234858
 21
143.920459
 31
0.0
  0
LINE
  5
7523
  8
31
 10
564.711923
 20
150.830921
 30
0.0
 11
564.711923
 21
129.991427
 31
0.0
  0
ARC
  5
7524
  8
31
 10
593.950696
 20
139.130133
 30
0.0
 40
22.256656
 50
182.297066
 51
210.417837
  0
LINE
  5
7525
  8
31
 10
564.711923
 20
129.991427
 30
0.0
 11
565.211923
 21
129.991427
 31
0.0
  0
LINE
  5
7526
  8
21
 10
342.38973
 20
188.044386
 30
0.0
 11
527.98973
 21
188.044386
 31
0.0
  0
LINE
  5
7527
  8
21
 10
353.18973
 20
194.544386
 30
0.0
 11
515.405609
 21
194.544386
 31
0.0
  0
LINE
  5
7528
  8
21
 10
355.268625
 20
217.544386
 30
0.0
 11
515.110828
 21
217.544386
 31
0.0
  0
LINE
  5
7529
  8
24
 10
435.18973
 20
215.044386
 30
0.0
 11
372.517406
 21
215.044386
 31
0.0
  0
LINE
  5
752A
  8
22
 10
435.18973
 20
211.995319
 30
0.0
 11
365.110263
 21
211.995319
 31
0.0
  0
LINE
  5
752B
  8
22
 10
505.029075
 20
197.589995
 30
0.0
 11
365.350386
 21
197.589995
 31
0.0
  0
LINE
  5
752C
  8
21
 10
505.155216
 20
212.044386
 30
0.0
 11
505.029075
 21
197.589995
 31
0.0
  0
LINE
  5
752D
  8
21
 10
527.998458
 20
187.544386
 30
0.0
 11
527.570809
 21
212.044386
 31
0.0
  0
LINE
  5
752E
  8
23
  6
DASHDOT
 10
435.18973
 20
224.170764
 30
0.0
 11
435.18973
 21
183.115102
 31
0.0
  0
LINE
  5
752F
  8
24
 10
501.567269
 20
188.044386
 30
0.0
 11
501.361921
 21
211.574929
 31
0.0
  0
LINE
  5
7530
  8
24
 10
435.18973
 20
215.044386
 30
0.0
 11
497.862054
 21
215.044386
 31
0.0
  0
LINE
  5
7531
  8
22
 10
435.18973
 20
211.995319
 30
0.0
 11
505.269197
 21
211.995319
 31
0.0
  0
LINE
  5
7532
  8
21
 10
527.570809
 20
212.044386
 30
0.0
 11
505.155216
 21
212.044386
 31
0.0
  0
ARC
  5
7533
  8
21
 10
515.110828
 20
211.544386
 30
0.0
 40
6.0
 50
5.0
 51
90.0
  0
LINE
  5
7534
  8
21
 10
521.090002
 20
212.044386
 30
0.0
 11
521.087996
 21
212.067321
 31
0.0
  0
ARC
  5
7535
  8
21
 10
499.176041
 20
211.544386
 30
0.0
 40
6.0
 50
5.0
 51
90.0
  0
LINE
  5
7536
  8
21
 10
505.155216
 20
212.044386
 30
0.0
 11
505.15321
 21
212.067321
 31
0.0
  0
ARC
  5
7537
  8
24
 10
497.862054
 20
211.544386
 30
0.0
 40
3.5
 50
0.5
 51
90.0
  0
LINE
  5
7538
  8
21
 10
527.998458
 20
187.544386
 30
0.0
 11
507.158964
 21
187.544386
 31
0.0
  0
ARC
  5
7539
  8
21
 10
516.29767
 20
216.783158
 30
0.0
 40
22.256656
 50
239.582163
 51
267.702934
  0
LINE
  5
753A
  8
21
 10
507.158964
 20
187.544386
 30
0.0
 11
507.158964
 21
188.044386
 31
0.0
  0
LINE
  5
753B
  8
21
 10
365.224244
 20
212.044386
 30
0.0
 11
365.350386
 21
197.589995
 31
0.0
  0
LINE
  5
753C
  8
21
 10
342.381003
 20
187.544386
 30
0.0
 11
342.808652
 21
212.044386
 31
0.0
  0
LINE
  5
753D
  8
24
 10
368.812192
 20
188.044386
 30
0.0
 11
369.01754
 21
211.574929
 31
0.0
  0
ARC
  5
753E
  8
21
 10
371.203419
 20
211.544386
 30
0.0
 40
6.0
 50
90.0
 51
175.0
  0
ARC
  5
753F
  8
24
 10
372.517406
 20
211.544386
 30
0.0
 40
3.5
 50
90.0
 51
179.5
  0
LINE
  5
7540
  8
21
 10
342.808652
 20
212.044386
 30
0.0
 11
365.224244
 21
212.044386
 31
0.0
  0
LINE
  5
7541
  8
21
 10
365.224244
 20
212.044386
 30
0.0
 11
365.226251
 21
212.067321
 31
0.0
  0
ARC
  5
7542
  8
21
 10
355.268633
 20
211.544386
 30
0.0
 40
6.0
 50
90.0
 51
175.0
  0
LINE
  5
7543
  8
21
 10
349.289458
 20
212.044386
 30
0.0
 11
349.291465
 21
212.067321
 31
0.0
  0
LINE
  5
7544
  8
21
 10
342.381003
 20
187.544386
 30
0.0
 11
363.220496
 21
187.544386
 31
0.0
  0
ARC
  5
7545
  8
21
 10
354.081791
 20
216.783158
 30
0.0
 40
22.256656
 50
272.297066
 51
300.417837
  0
LINE
  5
7546
  8
21
 10
363.220496
 20
187.544386
 30
0.0
 11
363.220496
 21
188.044386
 31
0.0
  0
VIEWPORT
  5
1
 67
     1
  8
0
 10
210.0
 20
152.094241
 30
0.0
 40
420.0
 41
304.188482
 68
    -1
 69
     1
1001
ACAD
1000
MVIEW
1002
{
1070
    16
1010
0.0
1020
0.0
1030
0.0
1010
0.0
1020
0.0
1030
1.0
1040
0.0
1040
304.188482
1040
210.0
1040
152.094241
1040
50.0
1040
0.0
1040
0.0
1070
     0
1070
   100
1070
     1
1070
     1
1070
     1
1070
     0
1070
     0
1070
     0
1040
0.0
1040
0.0
1040
0.0
1040
1.0
1040
1.0
1040
0.0
1040
0.0
1070
     0
1002
{
1002
}
1002
}
  0
ENDSEC
  0
EOF
