  0
SECTION
  2
HEADER
  9
$ACADVER
  1
AC1009
  9
$INSBASE
 10
0.0
 20
0.0
 30
0.0
  9
$EXTMIN
 10
-523.40640003472697
 20
-67.480749181441297
 30
-0.0000000349181948
  9
$EXTMAX
 10
794.79444124656084
 20
702.78252075208025
 30
0.0000000814935746
  9
$LIMMIN
 10
0.0
 20
0.0
  9
$LIMMAX
 10
840.0
 20
594.0
  9
$ORTHOMODE
 70
     1
  9
$REGENMODE
 70
     1
  9
$FILLMODE
 70
     1
  9
$QTEXTMODE
 70
     0
  9
$MIRRTEXT
 70
     1
  9
$DRAGMODE
 70
     2
  9
$LTSCALE
 40
14.0
  9
$OSMODE
 70
    37
  9
$ATTMODE
 70
     1
  9
$TEXTSIZE
 40
5.0
  9
$TRACEWID
 40
0.05
  9
$TEXTSTYLE
  7
STANDARD
  9
$CLAYER
  8
L22
  9
$CELTYPE
  6
BYLAYER
  9
$CECOLOR
 62
   256
  9
$DIMSCALE
 40
2.0
  9
$DIMASZ
 40
3.5
  9
$DIMEXO
 40
0.0
  9
$DIMDLI
 40
10.0
  9
$DIMRND
 40
0.0
  9
$DIMDLE
 40
0.0
  9
$DIMEXE
 40
2.0
  9
$DIMTP
 40
0.0
  9
$DIMTM
 40
0.0
  9
$DIMTXT
 40
3.5
  9
$DIMCEN
 40
2.5
  9
$DIMTSZ
 40
0.0
  9
$DIMTOL
 70
     0
  9
$DIMLIM
 70
     0
  9
$DIMTIH
 70
     0
  9
$DIMTOH
 70
     0
  9
$DIMSE1
 70
     0
  9
$DIMSE2
 70
     0
  9
$DIMTAD
 70
     1
  9
$DIMZIN
 70
     8
  9
$DIMBLK
  1

  9
$DIMASO
 70
     1
  9
$DIMSHO
 70
     1
  9
$DIMPOST
  1

  9
$DIMAPOST
  1

  9
$DIMALT
 70
     0
  9
$DIMALTD
 70
     2
  9
$DIMALTF
 40
25.399999999999999
  9
$DIMLFAC
 40
1.0
  9
$DIMTOFL
 70
     0
  9
$DIMTVP
 40
0.0
  9
$DIMTIX
 70
     0
  9
$DIMSOXD
 70
     0
  9
$DIMSAH
 70
     0
  9
$DIMBLK1
  1

  9
$DIMBLK2
  1

  9
$DIMSTYLE
  2
ACADUS
  9
$DIMCLRD
 70
   256
  9
$DIMCLRE
 70
   256
  9
$DIMCLRT
 70
     3
  9
$DIMTFAC
 40
1.0
  9
$DIMGAP
 40
2.0
  9
$LUNITS
 70
     2
  9
$LUPREC
 70
     1
  9
$SKETCHINC
 40
1.0
  9
$FILLETRAD
 40
1.0
  9
$AUNITS
 70
     0
  9
$AUPREC
 70
     2
  9
$MENU
  1
CAESAR
  9
$ELEVATION
 40
0.0
  9
$PELEVATION
 40
0.0
  9
$THICKNESS
 40
0.0
  9
$LIMCHECK
 70
     0
  9
$BLIPMODE
 70
     0
  9
$CHAMFERA
 40
5.0
  9
$CHAMFERB
 40
5.0
  9
$SKPOLY
 70
     0
  9
$TDCREATE
 40
2449041.483151041
  9
$TDUPDATE
 40
2453615.4410905899
  9
$TDINDWG
 40
1.0473240161999999
  9
$TDUSRTIMER
 40
1.0473240161999999
  9
$USRTIMER
 70
     1
  9
$ANGBASE
 50
0.0
  9
$ANGDIR
 70
     0
  9
$PDMODE
 70
     0
  9
$PDSIZE
 40
0.0
  9
$PLINEWID
 40
0.0
  9
$COORDS
 70
     2
  9
$SPLFRAME
 70
     0
  9
$SPLINETYPE
 70
     6
  9
$SPLINESEGS
 70
     8
  9
$ATTDIA
 70
     0
  9
$ATTREQ
 70
     1
  9
$HANDLING
 70
-16383
  9
$HANDSEED
  5
31516
  9
$SURFTAB1
 70
     6
  9
$SURFTAB2
 70
     6
  9
$SURFTYPE
 70
     6
  9
$SURFU
 70
     6
  9
$SURFV
 70
     6
  9
$UCSNAME
  2

  9
$UCSORG
 10
500.95751068788297
 20
753.49999999999989
 30
0.0
  9
$UCSXDIR
 10
1.0
 20
0.0
 30
0.0
  9
$UCSYDIR
 10
0.0
 20
1.0
 30
0.0
  9
$PUCSNAME
  2

  9
$PUCSORG
 10
0.0
 20
0.0
 30
0.0
  9
$PUCSXDIR
 10
1.0
 20
0.0
 30
0.0
  9
$PUCSYDIR
 10
0.0
 20
1.0
 30
0.0
  9
$USERI1
 70
   101
  9
$USERI2
 70
     0
  9
$USERI3
 70
     0
  9
$USERI4
 70
     0
  9
$USERI5
 70
     0
  9
$USERR1
 40
2.0
  9
$USERR2
 40
0.0
  9
$USERR3
 40
3.5
  9
$USERR4
 40
0.0
  9
$USERR5
 40
0.0
  9
$WORLDVIEW
 70
     1
  9
$SHADEDGE
 70
     3
  9
$SHADEDIF
 70
    70
  9
$TILEMODE
 70
     1
  9
$MAXACTVP
 70
    16
  9
$PLIMCHECK
 70
     0
  9
$PEXTMIN
 10
1.0000000000000000E+020
 20
1.0000000000000000E+020
 30
1.0000000000000000E+020
  9
$PEXTMAX
 10
-1.0000000000000000E+020
 20
-1.0000000000000000E+020
 30
-1.0000000000000000E+020
  9
$PLIMMIN
 10
0.0
 20
0.0
  9
$PLIMMAX
 10
420.0
 20
297.0
  9
$UNITMODE
 70
     0
  9
$VISRETAIN
 70
     0
  9
$PLINEGEN
 70
     0
  9
$PSLTSCALE
 70
     0
  0
ENDSEC
  0
SECTION
  2
TABLES
  0
TABLE
  2
VPORT
 70
     3
  0
VPORT
  2
*ACTIVE
 70
     0
 10
0.0
 20
0.0
 11
1.0
 21
1.0
 12
135.69402060591679
 22
317.65088578531947
 13
0.0
 23
0.0
 14
1.0
 24
1.0
 15
10.0
 25
10.0
 16
0.0
 26
0.0
 36
1.0
 17
0.0
 27
0.0
 37
0.0
 40
850.87703042867338
 41
1.5552208835341359
 42
50.0
 43
0.0
 44
0.0
 50
0.0
 51
0.0
 71
     0
 72
   100
 73
     1
 74
     0
 75
     0
 76
     0
 77
     0
 78
     1
  0
ENDTAB
  0
TABLE
  2
LTYPE
 70
     4
  0
LTYPE
  2
CONTINUOUS
 70
     0
  3
Solid line
 72
    65
 73
     0
 40
0.0
  0
LTYPE
  2
CENTER
 70
     0
  3
____ _ ____ _ ____ _ ____ _ ____ _ ____ _ ____ 
 72
    65
 73
     4
 40
2.0
 49
1.25
 49
-0.25
 49
0.25
 49
-0.25
  0
LTYPE
  2
DASHDOT
 70
     0
  3
__ . __ . __ . __ . __ . __ . __ . __ . __ . __
 72
    65
 73
     4
 40
1.0
 49
0.5
 49
-0.25
 49
0.0
 49
-0.25
  0
LTYPE
  2
DASHED
 70
     0
  3
__ __ __ __ __ __ __ __ __ __ __ __ __ __ __ __
 72
    65
 73
     2
 40
0.75
 49
0.5
 49
-0.25
  0
ENDTAB
  0
TABLE
  2
LAYER
 70
     8
  0
LAYER
  2
0
 70
     0
 62
     7
  6
CONTINUOUS
  0
LAYER
  2
L1
 70
     0
 62
     7
  6
CONTINUOUS
  0
LAYER
  2
L6
 70
     0
 62
     1
  6
CENTER
  0
LAYER
  2
L22
 70
     0
 62
     1
  6
CONTINUOUS
  0
LAYER
  2
L23
 70
     0
 62
     1
  6
CONTINUOUS
  0
LAYER
  2
L32
 70
     0
 62
     3
  6
CONTINUOUS
  0
LAYER
  2
ASHADE
 70
     4
 62
     7
  6
CONTINUOUS
  0
LAYER
  2
DEFPOINTS
 70
     0
 62
     7
  6
CONTINUOUS
  0
ENDTAB
  0
TABLE
  2
STYLE
 70
     1
  0
STYLE
  2
STANDARD
 70
     0
 40
0.0
 41
1.0
 50
0.0
 71
     0
 42
5.0
  3
CAEISO
  4

  0
ENDTAB
  0
TABLE
  2
VIEW
 70
     0
  0
ENDTAB
  0
TABLE
  2
UCS
 70
     0
  0
ENDTAB
  0
TABLE
  2
APPID
 70
    11
  0
APPID
  2
ACAD
 70
     0
  0
APPID
  2
MCAD_NO_VIS
 70
     0
  0
APPID
  2
ACAD_TEMP_GRAPHIC
 70
     0
  0
APPID
  2
AD_DRAW
 70
     0
  0
APPID
  2
DESIGNERASSEMBLIES
 70
     0
  0
APPID
  2
ASURF_PCURVE_APPNAME
 70
     0
  0
APPID
  2
AVE_RENDER
 70
     0
  0
APPID
  2
AVE_ENTITY_MATERIAL
 70
     0
  0
APPID
  2
AVE_FINISH
 70
     0
  0
APPID
  2
AVE_MATERIAL
 70
     0
  0
APPID
  2
AVE_GLOBAL
 70
     0
  0
ENDTAB
  0
TABLE
  2
DIMSTYLE
 70
     1
  0
DIMSTYLE
  2
ACADUS
 70
     0
  3

  4

  5

  6

  7

 40
1.0
 41
0.18
 42
0.0625
 43
0.38
 44
0.18
 45
0.0
 46
0.0
 47
0.0
 48
0.0
140
0.18
141
0.09
142
0.0
143
25.399999999999999
144
1.0
145
0.0
146
1.0
147
0.09
 71
     0
 72
     0
 73
     1
 74
     1
 75
     0
 76
     0
 77
     0
 78
     0
170
     0
171
     2
172
     0
173
     0
174
     0
175
     0
176
     0
177
     0
178
     0
  0
ENDTAB
  0
ENDSEC
  0
SECTION
  2
BLOCKS
  0
BLOCK
  8
0
  2
$MODEL_SPACE
 70
     0
 10
0.0
 20
0.0
 30
0.0
  3
$MODEL_SPACE
  1

  0
ENDBLK
  5
31454
  8
0
  0
BLOCK
 67
     1
  8
0
  2
$PAPER_SPACE
 70
     0
 10
0.0
 20
0.0
 30
0.0
  3
$PAPER_SPACE
  1

  0
ENDBLK
  5
31452
 67
     1
  8
0
  0
BLOCK
  8
0
  2
GEOTOL
 70
     0
 10
0.0
 20
0.0
 30
0.0
  3
GEOTOL
  1

  0
ENDBLK
  5
292B9
  8
0
  0
BLOCK
  8
0
  2
AVE_RENDER
 70
     0
 10
-500.95751068788297
 20
-753.49999999999989
 30
0.0
  3
AVE_RENDER
  1
AVE_RENDER
  0
ENDBLK
  5
2E258
  8
0
  0
BLOCK
  8
0
  2
AVE_GLOBAL
 70
     0
 10
-500.95751068788297
 20
-753.49999999999989
 30
0.0
  3
AVE_GLOBAL
  1
AVE_GLOBAL
  0
ENDBLK
  5
2E25B
  8
0
  0
ENDSEC
  0
SECTION
  2
ENTITIES
  0
CIRCLE
  5
1B5A8
  8
L1
 10
238.5
 20
600.23550833033369
 30
0.0
 40
9.5
  0
LINE
  5
1B5AA
  8
L6
 10
238.5
 20
611.23550833033357
 30
0.0
 11
238.5
 21
589.23550833033357
 31
0.0
  0
LINE
  5
1B5AB
  8
L6
 10
227.49999999999989
 20
600.23550833033369
 30
0.0
 11
249.5
 21
600.23550833033369
 31
0.0
  0
LINE
  5
1B5AC
  8
L6
 10
267.5
 20
600.23550833033369
 30
0.0
 11
289.49999999999989
 21
600.23550833033369
 31
0.0
  0
LINE
  5
1B5AD
  8
L6
 10
278.5
 20
611.23550833033357
 30
0.0
 11
278.5
 21
589.23550833033357
 31
0.0
  0
CIRCLE
  5
1B5AF
  8
L1
 10
278.5
 20
600.23550833033369
 30
0.0
 40
9.5
  0
CIRCLE
  5
1B7C0
  8
L1
 10
378.5
 20
448.74700502020738
 30
0.0
 40
10.5
  0
ARC
  5
1B7C1
  8
L1
 10
378.5
 20
445.74700502020738
 30
0.0
 40
5.0
 50
119.9999999999998
 51
60.000000000000099
  0
ARC
  5
1B7C2
  8
L1
 10
378.5
 20
452.74700502020738
 30
0.0
 40
2.5
 50
0.0
 51
180.0
  0
LINE
  5
1B7C3
  8
L1
 10
381.0
 20
452.74700502020738
 30
0.0
 11
381.0
 21
450.07713203912959
 31
0.0
  0
LINE
  5
1B7C4
  8
L1
 10
376.0
 20
452.74700502020738
 30
0.0
 11
376.0
 21
450.07713203912959
 31
0.0
  0
CIRCLE
  5
1B7CB
  8
L1
 10
378.5
 20
448.74700502020738
 30
0.0
 40
8.5
  0
LINE
  5
1CB44
  8
L1
 10
187.0
 20
699.23550833033369
 30
0.0
 11
570.0
 21
699.23550833033369
 31
0.0
  0
LINE
  5
1CB45
  8
L1
 10
570.0
 20
699.23550833033369
 30
0.0
 11
570.0
 21
677.23550833033357
 31
0.0
  0
LINE
  5
1CB46
  8
L1
 10
567.0
 20
674.23550833033369
 30
0.0
 11
560.0
 21
674.23550833033369
 31
0.0
  0
LINE
  5
1CB47
  8
L1
 10
560.0
 20
674.23550833033369
 30
0.0
 11
560.0
 21
699.23550833033369
 31
0.0
  0
LINE
  5
1CB48
  8
L1
 10
197.0
 20
674.23550833033369
 30
0.0
 11
197.0
 21
699.23550833033369
 31
0.0
  0
LINE
  5
1CB49
  8
L1
 10
190.0
 20
674.23550833033369
 30
0.0
 11
197.0
 21
674.23550833033369
 31
0.0
  0
LINE
  5
1CB4A
  8
L1
 10
187.0
 20
699.23550833033369
 30
0.0
 11
187.0
 21
677.23550833033357
 31
0.0
  0
LINE
  5
1CB4B
  8
L1
 10
199.93782217350889
 20
702.73550833033357
 30
0.0
 11
557.06217782649117
 21
702.73550833033357
 31
0.0
  0
LINE
  5
1CB4C
  8
L1
 10
560.0
 20
699.23550833033369
 30
0.0
 11
560.0
 21
575.23550833033369
 31
0.0
  0
LINE
  5
1CB4D
  8
L1
 10
560.0
 20
575.23550833033369
 30
0.0
 11
197.0
 21
575.23550833033369
 31
0.0
  0
LINE
  5
1CB4E
  8
L1
 10
197.0
 20
575.23550833033369
 30
0.0
 11
197.0
 21
699.23550833033369
 31
0.0
  0
LINE
  5
1CB4F
  8
L1
 10
560.0
 20
635.23550833033357
 30
0.0
 11
197.0
 21
635.23550833033357
 31
0.0
  0
LINE
  5
1CB51
  8
L1
 10
560.0
 20
632.23550833033357
 30
0.0
 11
197.0
 21
632.23550833033357
 31
0.0
  0
LINE
  5
1CB52
  8
L1
 10
542.56217782649094
 20
638.73550833033369
 30
0.0
 11
214.43782217350901
 21
638.73550833033357
 31
0.0
  0
LINE
  5
1CB53
  8
L1
 10
542.56217782649094
 20
638.73550833033369
 30
0.0
 11
543.49999999999977
 21
635.23550833033346
 31
0.0
  0
LINE
  5
1CB54
  8
L1
 10
214.43782217350901
 20
638.73550833033357
 30
0.0
 11
213.50000000000011
 21
635.23550833033346
 31
0.0
  0
LINE
  5
1CB55
  8
L1
 10
199.0
 20
699.23550833033369
 30
0.0
 11
199.93782217350889
 21
702.73550833033357
 31
0.0
  0
LINE
  5
1CB57
  8
L1
 10
558.0
 20
699.23550833033369
 30
0.0
 11
557.06217782649117
 21
702.73550833033357
 31
0.0
  0
ARC
  5
1CB58
  8
L1
 10
567.0
 20
677.23550833033357
 30
0.0
 40
3.0
 50
270.0
 51
0.0
  0
ARC
  5
1CB59
  8
L1
 10
190.0
 20
677.23550833033357
 30
0.0
 40
3.0
 50
180.0
 51
270.0
  0
CIRCLE
  5
1CB5A
  8
L1
 10
358.49999999999989
 20
600.23550833033369
 30
0.0
 40
9.5
  0
LINE
  5
1CB5C
  8
L6
 10
358.49999999999989
 20
611.23550833033357
 30
0.0
 11
358.49999999999989
 21
589.23550833033357
 31
0.0
  0
LINE
  5
1CB5D
  8
L6
 10
347.5
 20
600.23550833033369
 30
0.0
 11
369.5
 21
600.23550833033369
 31
0.0
  0
LINE
  5
1CB5E
  8
L6
 10
318.5
 20
611.23550833033357
 30
0.0
 11
318.5
 21
589.23550833033357
 31
0.0
  0
CIRCLE
  5
1CB60
  8
L1
 10
318.5
 20
600.23550833033369
 30
0.0
 40
9.5
  0
CIRCLE
  5
1CB61
  8
L1
 10
438.49999999999989
 20
600.23550833033369
 30
0.0
 40
9.5
  0
LINE
  5
1CB63
  8
L6
 10
438.49999999999989
 20
611.23550833033357
 30
0.0
 11
438.49999999999989
 21
589.23550833033357
 31
0.0
  0
LINE
  5
1CB64
  8
L6
 10
427.5
 20
600.23550833033369
 30
0.0
 11
449.5
 21
600.23550833033369
 31
0.0
  0
LINE
  5
1CB65
  8
L6
 10
398.49999999999989
 20
611.23550833033357
 30
0.0
 11
398.49999999999989
 21
589.23550833033357
 31
0.0
  0
CIRCLE
  5
1CB67
  8
L1
 10
398.49999999999989
 20
600.23550833033369
 30
0.0
 40
9.5
  0
CIRCLE
  5
1CB68
  8
L1
 10
518.5
 20
600.23550833033369
 30
0.0
 40
9.5
  0
LINE
  5
1CB6A
  8
L6
 10
518.5
 20
611.23550833033357
 30
0.0
 11
518.5
 21
589.23550833033357
 31
0.0
  0
LINE
  5
1CB6B
  8
L6
 10
507.5
 20
600.23550833033369
 30
0.0
 11
529.49999999999989
 21
600.23550833033369
 31
0.0
  0
LINE
  5
1CB6C
  8
L6
 10
478.5
 20
611.23550833033357
 30
0.0
 11
478.5
 21
589.23550833033357
 31
0.0
  0
CIRCLE
  5
1CB6E
  8
L1
 10
478.5
 20
600.23550833033369
 30
0.0
 40
9.5
  0
LINE
  5
1CB6F
  8
L6
 10
307.5
 20
600.23550833033369
 30
0.0
 11
329.49999999999989
 21
600.23550833033369
 31
0.0
  0
LINE
  5
1CB70
  8
L6
 10
387.5
 20
600.23550833033369
 30
0.0
 11
409.49999999999989
 21
600.23550833033369
 31
0.0
  0
LINE
  5
1CB71
  8
L6
 10
467.49999999999989
 20
600.23550833033369
 30
0.0
 11
489.5
 21
600.23550833033369
 31
0.0
  0
LINE
  5
1CB72
  8
L1
 10
554.0
 20
569.23550833033357
 30
0.0
 11
545.0
 21
569.23550833033357
 31
0.0
  0
LINE
  5
1CB74
  8
L1
 10
389.0
 20
569.23550833033357
 30
0.0
 11
389.0
 21
575.23550833033369
 31
0.0
  0
LINE
  5
1CB75
  8
L1
 10
368.0
 20
569.23550833033357
 30
0.0
 11
368.0
 21
575.23550833033369
 31
0.0
  0
LINE
  5
1CB77
  8
L1
 10
554.0
 20
569.23550833033357
 30
0.0
 11
554.0
 21
575.23550833033369
 31
0.0
  0
LINE
  5
1CB79
  8
L1
 10
203.0
 20
569.23550833033357
 30
0.0
 11
203.0
 21
575.23550833033369
 31
0.0
  0
LINE
  5
1CB7A
  8
L1
 10
212.0
 20
569.23550833033357
 30
0.0
 11
212.0
 21
575.23550833033369
 31
0.0
  0
LINE
  5
1CB7B
  8
L1
 10
389.0
 20
569.23550833033357
 30
0.0
 11
368.0
 21
569.23550833033357
 31
0.0
  0
LINE
  5
1CB7C
  8
L1
 10
212.0
 20
569.23550833033357
 30
0.0
 11
203.0
 21
569.23550833033357
 31
0.0
  0
LINE
  5
1D5F5
  8
L1
 10
201.5
 20
486.74700502020738
 30
0.0
 11
555.49999999999989
 21
486.7470050202075
 31
0.0
  0
LINE
  5
1D5F6
  8
L1
 10
197.0
 20
482.24700502020738
 30
0.0
 11
197.0
 21
468.74700502020738
 31
0.0
  0
LINE
  5
1D5F7
  8
L1
 10
201.5
 20
170.74700502020741
 30
0.0
 11
555.49999999999989
 21
170.74700502020741
 31
0.0
  0
LINE
  5
1D5F8
  8
L1
 10
560.0
 20
175.24700502020741
 30
0.0
 11
560.0
 21
271.74700502020738
 31
0.0
  0
LINE
  5
1D5F9
  8
L1
 10
201.5
 20
253.74700502020741
 30
0.0
 11
555.49999999999989
 21
253.74700502020741
 31
0.0
  0
ARC
  5
1D602
  8
L1
 10
555.49999999999989
 20
258.24700502020738
 30
0.0
 40
4.5
 50
270.0
 51
0.0
  0
ARC
  5
1D603
  8
L1
 10
201.5
 20
258.24700502020738
 30
0.0
 40
4.5
 50
180.0
 51
270.0
  0
ARC
  5
1D604
  8
L1
 10
201.5
 20
482.24700502020738
 30
0.0
 40
4.5
 50
90.000000000000014
 51
180.0
  0
ARC
  5
1D605
  8
L1
 10
555.49999999999989
 20
482.2470050202075
 30
0.0
 40
4.5
 50
0.0
 51
90.0
  0
ARC
  5
1D606
  8
L1
 10
201.5
 20
175.24700502020741
 30
0.0
 40
4.5
 50
180.0
 51
270.0
  0
ARC
  5
1D607
  8
L1
 10
555.49999999999989
 20
175.24700502020741
 30
0.0
 40
4.5
 50
270.0
 51
0.0
  0
LINE
  5
1D610
  8
L1
 10
201.5
 20
257.74700502020738
 30
0.0
 11
555.49999999999989
 21
257.74700502020738
 31
0.0
  0
LINE
  5
1D611
  8
L1
 10
201.0
 20
482.24700502020733
 30
0.0
 11
201.0
 21
258.24700502020738
 31
0.0
  0
LINE
  5
1D612
  8
L1
 10
201.5
 20
482.74700502020733
 30
0.0
 11
555.49999999999989
 21
482.7470050202075
 31
0.0
  0
LINE
  5
1D613
  8
L1
 10
556.0
 20
258.24700502020738
 30
0.0
 11
556.0
 21
482.2470050202075
 31
0.0
  0
ARC
  5
1D614
  8
L1
 10
201.5
 20
258.24700502020738
 30
0.0
 40
0.5
 50
180.0
 51
270.0
  0
ARC
  5
1D615
  8
L1
 10
201.5
 20
482.24700502020733
 30
0.0
 40
0.5
 50
90.000000000000014
 51
180.0
  0
ARC
  5
1D616
  8
L1
 10
555.49999999999989
 20
482.2470050202075
 30
0.0
 40
0.5
 50
0.0
 51
90.0
  0
ARC
  5
1D617
  8
L1
 10
555.49999999999989
 20
258.24700502020738
 30
0.0
 40
0.5
 50
270.0
 51
0.0
  0
LINE
  5
1D618
  8
L1
 10
215.0
 20
482.74700502020738
 30
0.0
 11
215.0
 21
257.74700502020738
 31
0.0
  0
LINE
  5
1D619
  8
L1
 10
200.99999999999989
 20
468.74700502020733
 30
0.0
 11
556.0
 21
468.7470050202075
 31
0.0
  0
LINE
  5
1D61A
  8
L1
 10
542.0
 20
257.74700502020738
 30
0.0
 11
542.0
 21
482.7470050202075
 31
0.0
  0
CIRCLE
  5
1D61B
  8
L1
 10
210.49999999999989
 20
473.24700502020733
 30
0.0
 40
4.5
  0
CIRCLE
  5
1D61C
  8
L1
 10
210.49999999999989
 20
473.24700502020733
 30
0.0
 40
2.149999999999999
  0
LINE
  5
1D61D
  8
L6
 10
204.49999999999989
 20
473.24700502020733
 30
0.0
 11
216.5
 21
473.24700502020733
 31
0.0
  0
LINE
  5
1D61E
  8
L6
 10
210.49999999999989
 20
467.24700502020738
 30
0.0
 11
210.49999999999989
 21
479.24700502020738
 31
0.0
  0
LINE
  5
1D61F
  8
L6
 10
210.49999999999989
 20
261.24700502020733
 30
0.0
 11
210.49999999999989
 21
273.24700502020733
 31
0.0
  0
LINE
  5
1D620
  8
L6
 10
204.49999999999989
 20
267.24700502020733
 30
0.0
 11
216.5
 21
267.24700502020733
 31
0.0
  0
CIRCLE
  5
1D621
  8
L1
 10
210.49999999999989
 20
267.24700502020733
 30
0.0
 40
2.149999999999999
  0
CIRCLE
  5
1D622
  8
L1
 10
210.49999999999989
 20
267.24700502020733
 30
0.0
 40
4.5
  0
LINE
  5
1D623
  8
L6
 10
546.49999999999989
 20
467.24700502020738
 30
0.0
 11
546.49999999999989
 21
479.24700502020738
 31
0.0
  0
LINE
  5
1D624
  8
L6
 10
540.5
 20
473.24700502020733
 30
0.0
 11
552.5
 21
473.24700502020733
 31
0.0
  0
CIRCLE
  5
1D625
  8
L1
 10
546.49999999999989
 20
473.24700502020733
 30
0.0
 40
2.149999999999999
  0
CIRCLE
  5
1D626
  8
L1
 10
546.49999999999989
 20
473.24700502020733
 30
0.0
 40
4.5
  0
LINE
  5
1D627
  8
L6
 10
546.49999999999989
 20
261.24700502020733
 30
0.0
 11
546.49999999999989
 21
273.24700502020733
 31
0.0
  0
LINE
  5
1D628
  8
L6
 10
540.5
 20
267.24700502020733
 30
0.0
 11
552.5
 21
267.24700502020733
 31
0.0
  0
CIRCLE
  5
1D629
  8
L1
 10
546.49999999999989
 20
267.24700502020733
 30
0.0
 40
2.149999999999999
  0
CIRCLE
  5
1D62A
  8
L1
 10
546.49999999999989
 20
267.24700502020733
 30
0.0
 40
4.5
  0
LINE
  5
1D62B
  8
L1
 10
200.99999999999989
 20
271.74700502020738
 30
0.0
 11
215.0
 21
271.74700502020738
 31
0.0
  0
CIRCLE
  5
1D62C
  8
L1
 10
268.75
 20
213.24700502020741
 30
0.0
 40
4.5
  0
CIRCLE
  5
1D62D
  8
L1
 10
268.75
 20
213.24700502020741
 30
0.0
 40
2.399999999999999
  0
CIRCLE
  5
1D62E
  8
L1
 10
268.75
 20
213.24700502020741
 30
0.0
 40
2.1000000000000001
  0
LINE
  5
1D62F
  8
L6
 10
262.74999999999989
 20
213.24700502020741
 30
0.0
 11
274.75
 21
213.24700502020741
 31
0.0
  0
LINE
  5
1D630
  8
L6
 10
268.75
 20
207.24700502020741
 30
0.0
 11
268.75
 21
219.24700502020741
 31
0.0
  0
LINE
  5
1D631
  8
L6
 10
308.74999999999989
 20
207.24700502020741
 30
0.0
 11
308.74999999999989
 21
219.24700502020741
 31
0.0
  0
LINE
  5
1D632
  8
L6
 10
302.74999999999989
 20
213.24700502020741
 30
0.0
 11
314.74999999999989
 21
213.24700502020741
 31
0.0
  0
CIRCLE
  5
1D633
  8
L1
 10
308.74999999999989
 20
213.24700502020741
 30
0.0
 40
2.1000000000000001
  0
CIRCLE
  5
1D634
  8
L1
 10
308.74999999999989
 20
213.24700502020741
 30
0.0
 40
2.399999999999999
  0
CIRCLE
  5
1D635
  8
L1
 10
308.74999999999989
 20
213.24700502020741
 30
0.0
 40
4.5
  0
LINE
  5
1D636
  8
L6
 10
358.74999999999989
 20
207.24700502020741
 30
0.0
 11
358.74999999999989
 21
219.24700502020741
 31
0.0
  0
LINE
  5
1D637
  8
L6
 10
352.74999999999989
 20
213.24700502020741
 30
0.0
 11
364.74999999999989
 21
213.24700502020741
 31
0.0
  0
CIRCLE
  5
1D638
  8
L1
 10
358.74999999999989
 20
213.24700502020741
 30
0.0
 40
2.1000000000000001
  0
CIRCLE
  5
1D639
  8
L1
 10
358.74999999999989
 20
213.24700502020741
 30
0.0
 40
2.399999999999999
  0
CIRCLE
  5
1D63A
  8
L1
 10
358.74999999999989
 20
213.24700502020741
 30
0.0
 40
4.5
  0
LINE
  5
1D63B
  8
L6
 10
398.75
 20
207.24700502020741
 30
0.0
 11
398.75
 21
219.24700502020741
 31
0.0
  0
LINE
  5
1D63C
  8
L6
 10
392.75
 20
213.24700502020741
 30
0.0
 11
404.75
 21
213.24700502020741
 31
0.0
  0
CIRCLE
  5
1D63D
  8
L1
 10
398.75
 20
213.24700502020741
 30
0.0
 40
2.1000000000000001
  0
CIRCLE
  5
1D63E
  8
L1
 10
398.75
 20
213.24700502020741
 30
0.0
 40
2.399999999999999
  0
CIRCLE
  5
1D63F
  8
L1
 10
398.75
 20
213.24700502020741
 30
0.0
 40
4.5
  0
LINE
  5
1D640
  8
L6
 10
448.74999999999989
 20
207.24700502020741
 30
0.0
 11
448.74999999999989
 21
219.24700502020741
 31
0.0
  0
LINE
  5
1D641
  8
L6
 10
442.75
 20
213.24700502020741
 30
0.0
 11
454.75
 21
213.24700502020741
 31
0.0
  0
CIRCLE
  5
1D642
  8
L1
 10
448.74999999999989
 20
213.24700502020741
 30
0.0
 40
2.1000000000000001
  0
CIRCLE
  5
1D643
  8
L1
 10
448.74999999999989
 20
213.24700502020741
 30
0.0
 40
2.399999999999999
  0
CIRCLE
  5
1D644
  8
L1
 10
448.74999999999989
 20
213.24700502020741
 30
0.0
 40
4.5
  0
LINE
  5
1D645
  8
L6
 10
488.75
 20
207.24700502020741
 30
0.0
 11
488.75
 21
219.24700502020741
 31
0.0
  0
LINE
  5
1D646
  8
L6
 10
482.74999999999989
 20
213.24700502020741
 30
0.0
 11
494.74999999999989
 21
213.24700502020741
 31
0.0
  0
CIRCLE
  5
1D647
  8
L1
 10
488.75
 20
213.24700502020741
 30
0.0
 40
2.1000000000000001
  0
CIRCLE
  5
1D648
  8
L1
 10
488.75
 20
213.24700502020741
 30
0.0
 40
2.399999999999999
  0
CIRCLE
  5
1D649
  8
L1
 10
488.75
 20
213.24700502020741
 30
0.0
 40
4.5
  0
LINE
  5
1D64A
  8
L1
 10
216.05000000000001
 20
179.74700502020741
 30
0.0
 11
541.45000000000005
 21
179.7470050202075
 31
0.0
  0
LINE
  5
1D64B
  8
L1
 10
216.05000000000001
 20
246.74700502020741
 30
0.0
 11
541.45000000000005
 21
246.74700502020741
 31
0.0
  0
LINE
  5
1D64E
  8
L1
 10
541.75
 20
180.04700502020751
 30
0.0
 11
541.75
 21
246.4470050202074
 31
0.0
  0
LINE
  5
1D650
  8
L1
 10
215.75
 20
180.04700502020739
 30
0.0
 11
215.75
 21
246.4470050202074
 31
0.0
  0
ARC
  5
1D651
  8
L1
 10
216.05000000000001
 20
180.04700502020739
 30
0.0
 40
0.3
 50
180.0
 51
270.0
  0
ARC
  5
1D652
  8
L1
 10
216.05000000000001
 20
246.4470050202074
 30
0.0
 40
0.3
 50
90.0
 51
180.0
  0
ARC
  5
1D659
  8
L1
 10
541.45000000000005
 20
180.04700502020751
 30
0.0
 40
0.3
 50
270.0
 51
0.0
  0
ARC
  5
1D65A
  8
L1
 10
541.45000000000005
 20
246.4470050202074
 30
0.0
 40
0.3
 50
0.0
 51
90.0
  0
LINE
  5
1D65B
  8
L1
 10
541.75
 20
190.74700502020741
 30
0.0
 11
490.74999999999989
 21
190.74700502020741
 31
0.0
  0
ARC
  5
1D65C
  8
L1
 10
278.75
 20
195.74700502020741
 30
0.0
 40
13.0
 50
202.61986494804
 51
337.38013505195988
  0
ARC
  5
1D65D
  8
L1
 10
318.75
 20
195.74700502020741
 30
0.0
 40
13.0
 50
202.61986494804
 51
337.38013505195988
  0
ARC
  5
1D65E
  8
L1
 10
438.75
 20
195.74700502020741
 30
0.0
 40
13.0
 50
202.61986494804
 51
337.38013505195988
  0
ARC
  5
1D65F
  8
L1
 10
478.75
 20
195.74700502020741
 30
0.0
 40
13.0
 50
202.61986494804
 51
337.38013505195988
  0
LINE
  5
1D660
  8
L1
 10
266.74999999999989
 20
190.74700502020741
 30
0.0
 11
215.75
 21
190.74700502020741
 31
0.0
  0
LINE
  5
1D661
  8
L1
 10
306.74999999999989
 20
190.74700502020741
 30
0.0
 11
290.75
 21
190.74700502020741
 31
0.0
  0
LINE
  5
1D662
  8
L1
 10
426.75
 20
190.74700502020741
 30
0.0
 11
330.75
 21
190.74700502020741
 31
0.0
  0
LINE
  5
1D663
  8
L1
 10
466.75
 20
190.74700502020741
 30
0.0
 11
450.75
 21
190.74700502020741
 31
0.0
  0
LINE
  5
1D664
  8
L1
 10
215.75
 20
243.7470050202073
 30
0.0
 11
541.75
 21
243.7470050202075
 31
0.0
  0
LINE
  5
1D665
  8
L1
 10
215.75
 20
231.7470050202073
 30
0.0
 11
541.75
 21
231.7470050202075
 31
0.0
  0
CIRCLE
  5
1D666
  8
L1
 10
308.49999999999989
 20
473.24700502020733
 30
0.0
 40
2.0
  0
LINE
  5
1D667
  8
L6
 10
302.49999999999989
 20
473.24700502020733
 30
0.0
 11
314.5
 21
473.24700502020733
 31
0.0
  0
LINE
  5
1D668
  8
L6
 10
308.49999999999989
 20
467.24700502020738
 30
0.0
 11
308.49999999999989
 21
479.24700502020738
 31
0.0
  0
LINE
  5
1D669
  8
L6
 10
308.49999999999989
 20
232.24700502020741
 30
0.0
 11
308.49999999999989
 21
244.2470050202073
 31
0.0
  0
LINE
  5
1D66A
  8
L6
 10
302.49999999999989
 20
238.2470050202073
 30
0.0
 11
314.5
 21
238.2470050202073
 31
0.0
  0
CIRCLE
  5
1D66B
  8
L1
 10
308.49999999999989
 20
238.2470050202073
 30
0.0
 40
2.0
  0
LINE
  5
1D66C
  8
L6
 10
448.5
 20
467.24700502020738
 30
0.0
 11
448.5
 21
479.24700502020738
 31
0.0
  0
LINE
  5
1D66D
  8
L6
 10
442.49999999999989
 20
473.24700502020733
 30
0.0
 11
454.49999999999989
 21
473.24700502020733
 31
0.0
  0
CIRCLE
  5
1D66E
  8
L1
 10
448.5
 20
473.24700502020733
 30
0.0
 40
2.0
  0
LINE
  5
1D66F
  8
L6
 10
448.5
 20
232.24700502020741
 30
0.0
 11
448.5
 21
244.2470050202073
 31
0.0
  0
LINE
  5
1D670
  8
L6
 10
442.49999999999989
 20
238.2470050202073
 30
0.0
 11
454.49999999999989
 21
238.2470050202073
 31
0.0
  0
CIRCLE
  5
1D671
  8
L1
 10
448.5
 20
238.2470050202073
 30
0.0
 40
2.0
  0
LINE
  5
1D672
  8
L6
 10
210.49999999999989
 20
409.24700502020738
 30
0.0
 11
210.49999999999989
 21
421.24700502020738
 31
0.0
  0
LINE
  5
1D673
  8
L6
 10
204.49999999999989
 20
415.24700502020733
 30
0.0
 11
216.5
 21
415.24700502020733
 31
0.0
  0
CIRCLE
  5
1D674
  8
L1
 10
210.49999999999989
 20
415.24700502020733
 30
0.0
 40
2.0
  0
CIRCLE
  5
1D675
  8
L1
 10
210.49999999999989
 20
325.24700502020733
 30
0.0
 40
2.0
  0
LINE
  5
1D676
  8
L6
 10
204.49999999999989
 20
325.24700502020733
 30
0.0
 11
216.5
 21
325.24700502020733
 31
0.0
  0
LINE
  5
1D677
  8
L6
 10
210.49999999999989
 20
319.24700502020733
 30
0.0
 11
210.49999999999989
 21
331.24700502020733
 31
0.0
  0
CIRCLE
  5
1D678
  8
L1
 10
546.49999999999989
 20
415.24700502020733
 30
0.0
 40
2.0
  0
LINE
  5
1D679
  8
L6
 10
540.5
 20
415.24700502020733
 30
0.0
 11
552.5
 21
415.24700502020733
 31
0.0
  0
LINE
  5
1D67A
  8
L6
 10
546.49999999999989
 20
409.24700502020738
 30
0.0
 11
546.49999999999989
 21
421.24700502020738
 31
0.0
  0
CIRCLE
  5
1D67B
  8
L1
 10
546.49999999999989
 20
325.24700502020733
 30
0.0
 40
2.0
  0
LINE
  5
1D67C
  8
L6
 10
540.5
 20
325.24700502020733
 30
0.0
 11
552.5
 21
325.24700502020733
 31
0.0
  0
LINE
  5
1D67D
  8
L6
 10
546.49999999999989
 20
319.24700502020733
 30
0.0
 11
546.49999999999989
 21
331.24700502020733
 31
0.0
  0
ARC
  5
1D681
  8
L1
 10
549.75
 20
185.74700502020741
 30
0.0
 40
2.5
 50
180.0
 51
0.0
  0
ARC
  5
1D682
  8
L1
 10
549.75
 20
197.74700502020741
 30
0.0
 40
2.5
 50
0.0
 51
180.0
  0
LINE
  5
1D683
  8
L1
 10
552.24999999999989
 20
185.74700502020741
 30
0.0
 11
552.24999999999989
 21
197.74700502020741
 31
0.0
  0
LINE
  5
1D684
  8
L1
 10
547.25
 20
197.74700502020741
 30
0.0
 11
547.25
 21
185.74700502020741
 31
0.0
  0
LINE
  5
1D685
  8
L6
 10
543.75
 20
197.74700502020741
 30
0.0
 11
555.25
 21
197.74700502020741
 31
0.0
  0
LINE
  5
1D686
  8
L6
 10
549.75
 20
191.74700502020741
 30
0.0
 11
549.75
 21
203.74700502020741
 31
0.0
  0
LINE
  5
1D687
  8
L6
 10
543.75
 20
185.74700502020741
 30
0.0
 11
555.25
 21
185.74700502020741
 31
0.0
  0
LINE
  5
1D688
  8
L6
 10
549.75
 20
179.74700502020741
 30
0.0
 11
549.75
 21
191.74700502020741
 31
0.0
  0
LINE
  5
1D689
  8
L6
 10
207.75
 20
179.74700502020741
 30
0.0
 11
207.75
 21
191.74700502020741
 31
0.0
  0
LINE
  5
1D68A
  8
L6
 10
207.75
 20
191.74700502020741
 30
0.0
 11
207.75
 21
203.74700502020741
 31
0.0
  0
LINE
  5
1D68B
  8
L1
 10
205.25
 20
197.74700502020741
 30
0.0
 11
205.25
 21
185.74700502020741
 31
0.0
  0
LINE
  5
1D68C
  8
L1
 10
210.25
 20
185.74700502020741
 30
0.0
 11
210.25
 21
197.74700502020741
 31
0.0
  0
ARC
  5
1D68D
  8
L1
 10
207.75
 20
197.74700502020741
 30
0.0
 40
2.5
 50
0.0
 51
180.0
  0
ARC
  5
1D68E
  8
L1
 10
207.75
 20
185.74700502020741
 30
0.0
 40
2.5
 50
180.0
 51
0.0
  0
LINE
  5
1D68F
  8
L6
 10
201.75
 20
185.74700502020741
 30
0.0
 11
213.75
 21
185.74700502020741
 31
0.0
  0
LINE
  5
1D690
  8
L6
 10
201.75
 20
197.74700502020741
 30
0.0
 11
213.75
 21
197.74700502020741
 31
0.0
  0
LINE
  5
1D691
  8
L6
 10
549.75
 20
207.24700502020741
 30
0.0
 11
549.75
 21
219.24700502020741
 31
0.0
  0
LINE
  5
1D692
  8
L6
 10
543.75
 20
213.24700502020741
 30
0.0
 11
555.25
 21
213.24700502020741
 31
0.0
  0
CIRCLE
  5
1D693
  8
L1
 10
549.75
 20
213.24700502020741
 30
0.0
 40
2.0
  0
CIRCLE
  5
1D694
  8
L1
 10
207.75
 20
213.24700502020741
 30
0.0
 40
2.0
  0
LINE
  5
1D695
  8
L6
 10
201.75
 20
213.24700502020741
 30
0.0
 11
213.75
 21
213.24700502020741
 31
0.0
  0
LINE
  5
1D696
  8
L6
 10
207.75
 20
207.24700502020741
 30
0.0
 11
207.75
 21
219.24700502020741
 31
0.0
  0
LINE
  5
1D697
  8
L1
 10
544.74999999999989
 20
179.7470050202075
 30
0.0
 11
557.24999999999989
 21
179.7470050202075
 31
0.0
  0
LINE
  5
1D698
  8
L1
 10
557.24999999999989
 20
179.7470050202075
 30
0.0
 11
557.24999999999989
 21
203.74700502020741
 31
0.0
  0
LINE
  5
1D699
  8
L1
 10
557.24999999999989
 20
203.74700502020741
 30
0.0
 11
544.74999999999989
 21
203.74700502020741
 31
0.0
  0
LINE
  5
1D69A
  8
L1
 10
544.74999999999989
 20
203.74700502020741
 30
0.0
 11
544.74999999999989
 21
179.7470050202075
 31
0.0
  0
LINE
  5
1D69B
  8
L1
 10
200.5499999999999
 20
203.74700502020741
 30
0.0
 11
212.4499999999999
 21
203.74700502020741
 31
0.0
  0
LINE
  5
1D69C
  8
L1
 10
212.74999999999989
 20
203.4470050202074
 30
0.0
 11
212.74999999999989
 21
180.04700502020751
 31
0.0
  0
LINE
  5
1D69D
  8
L1
 10
200.24999999999989
 20
180.04700502020751
 30
0.0
 11
200.24999999999989
 21
203.4470050202074
 31
0.0
  0
LINE
  5
1D69E
  8
L1
 10
212.4499999999999
 20
179.7470050202075
 30
0.0
 11
200.55000000000001
 21
179.7470050202075
 31
0.0
  0
LINE
  5
1D6A1
  8
L6
 10
308.74999999999989
 20
364.24700502020733
 30
0.0
 11
308.74999999999989
 21
376.24700502020738
 31
0.0
  0
LINE
  5
1D6A2
  8
L6
 10
302.74999999999989
 20
370.24700502020733
 30
0.0
 11
314.74999999999989
 21
370.24700502020733
 31
0.0
  0
CIRCLE
  5
1D6A3
  8
L1
 10
308.74999999999989
 20
370.24700502020733
 30
0.0
 40
2.149999999999999
  0
CIRCLE
  5
1D6A4
  8
L1
 10
308.74999999999989
 20
370.24700502020733
 30
0.0
 40
4.5
  0
LINE
  5
1D6A5
  8
L6
 10
448.74999999999989
 20
364.24700502020733
 30
0.0
 11
448.74999999999989
 21
376.24700502020738
 31
0.0
  0
LINE
  5
1D6A6
  8
L6
 10
442.75
 20
370.24700502020733
 30
0.0
 11
454.75
 21
370.24700502020733
 31
0.0
  0
CIRCLE
  5
1D6A7
  8
L1
 10
448.74999999999989
 20
370.24700502020733
 30
0.0
 40
2.149999999999999
  0
CIRCLE
  5
1D6A8
  8
L1
 10
448.74999999999989
 20
370.24700502020733
 30
0.0
 40
4.5
  0
LINE
  5
1D6A9
  8
L1
 10
263.75
 20
371.1470050202073
 30
0.0
 11
304.3409184629902
 21
371.1470050202073
 31
0.0
  0
LINE
  5
1D6AA
  8
L1
 10
307.85000000000002
 20
415.24700502020733
 30
0.0
 11
307.85000000000002
 21
374.65608655721712
 31
0.0
  0
LINE
  5
1D6AB
  8
L1
 10
309.64999999999998
 20
415.24700502020733
 30
0.0
 11
309.64999999999998
 21
374.65608655721712
 31
0.0
  0
LINE
  5
1D6AC
  8
L1
 10
447.85000000000002
 20
415.24700502020733
 30
0.0
 11
447.85000000000002
 21
374.65608655721712
 31
0.0
  0
LINE
  5
1D6AD
  8
L1
 10
449.64999999999998
 20
415.24700502020733
 30
0.0
 11
449.64999999999998
 21
374.65608655721712
 31
0.0
  0
LINE
  5
1D6AE
  8
L1
 10
263.75
 20
369.34700502020729
 30
0.0
 11
304.3409184629902
 21
369.3470050202074
 31
0.0
  0
LINE
  5
1D6AF
  8
L1
 10
307.85000000000002
 20
415.24700502020733
 30
0.0
 11
309.64999999999998
 21
415.24700502020733
 31
0.0
  0
LINE
  5
1D6B0
  8
L1
 10
307.85000000000002
 20
325.24700502020733
 30
0.0
 11
309.64999999999998
 21
325.24700502020733
 31
0.0
  0
LINE
  5
1D6B1
  8
L1
 10
447.85000000000002
 20
415.24700502020733
 30
0.0
 11
449.64999999999998
 21
415.24700502020733
 31
0.0
  0
LINE
  5
1D6B2
  8
L1
 10
447.85000000000002
 20
325.24700502020733
 30
0.0
 11
449.64999999999998
 21
325.24700502020733
 31
0.0
  0
LINE
  5
1D6B3
  8
L1
 10
263.75
 20
369.34700502020729
 30
0.0
 11
263.75
 21
371.1470050202073
 31
0.0
  0
LINE
  5
1D6B4
  8
L1
 10
493.75
 20
369.34700502020729
 30
0.0
 11
493.75
 21
371.1470050202073
 31
0.0
  0
LINE
  5
1D6B5
  8
L1
 10
309.64999999999998
 20
365.83792348319759
 30
0.0
 11
309.64999999999998
 21
325.24700502020733
 31
0.0
  0
LINE
  5
1D6B6
  8
L1
 10
307.85000000000002
 20
365.83792348319759
 30
0.0
 11
307.85000000000002
 21
325.24700502020733
 31
0.0
  0
LINE
  5
1D6B7
  8
L1
 10
313.15908153700968
 20
371.1470050202073
 30
0.0
 11
444.3409184629902
 21
371.1470050202073
 31
0.0
  0
LINE
  5
1D6B9
  8
L1
 10
313.15908153700963
 20
369.34700502020729
 30
0.0
 11
444.3409184629902
 21
369.34700502020729
 31
0.0
  0
LINE
  5
1D6BA
  8
L1
 10
449.64999999999998
 20
365.83792348319759
 30
0.0
 11
449.64999999999998
 21
325.24700502020733
 31
0.0
  0
LINE
  5
1D6BB
  8
L1
 10
453.15908153700968
 20
371.1470050202073
 30
0.0
 11
493.75
 21
371.1470050202073
 31
0.0
  0
LINE
  5
1D6BC
  8
L1
 10
447.84999999999991
 20
365.83792348319759
 30
0.0
 11
447.85000000000002
 21
325.24700502020733
 31
0.0
  0
LINE
  5
1D6BD
  8
L1
 10
453.15908153700968
 20
369.34700502020729
 30
0.0
 11
493.75
 21
369.34700502020729
 31
0.0
  0
LINE
  5
1D6BE
  8
L1
 10
197.0
 20
468.74700502020738
 30
0.0
 11
189.0
 21
468.74700502020738
 31
0.0
  0
LINE
  5
1D6BF
  8
L1
 10
187.0
 20
466.74700502020738
 30
0.0
 11
187.0
 21
440.74700502020738
 31
0.0
  0
LINE
  5
1D6C0
  8
L1
 10
189.0
 20
438.74700502020738
 30
0.0
 11
197.0
 21
438.74700502020738
 31
0.0
  0
LINE
  5
1D6C1
  8
L1
 10
197.0
 20
465.74700502020738
 30
0.0
 11
187.0
 21
465.74700502020738
 31
0.0
  0
LINE
  5
1D6C2
  8
L1
 10
187.0
 20
441.74700502020738
 30
0.0
 11
197.0
 21
441.74700502020738
 31
0.0
  0
LINE
  5
1D6C3
  8
L1
 10
189.49999999999989
 20
465.74700502020738
 30
0.0
 11
189.49999999999989
 21
441.74700502020738
 31
0.0
  0
ARC
  5
1D6C4
  8
L1
 10
189.0
 20
466.74700502020738
 30
0.0
 40
2.0
 50
90.0
 51
180.0
  0
ARC
  5
1D6C5
  8
L1
 10
189.0
 20
440.74700502020738
 30
0.0
 40
2.0
 50
180.0
 51
270.0
  0
LINE
  5
1D6C6
  8
L1
 10
197.0
 20
465.74700502020738
 30
0.0
 11
197.0
 21
441.74700502020738
 31
0.0
  0
LINE
  5
1D6C7
  8
L1
 10
197.0
 20
438.74700502020738
 30
0.0
 11
197.0
 21
301.74700502020738
 31
0.0
  0
ARC
  5
1D6C8
  8
L1
 10
189.0
 20
273.74700502020738
 30
0.0
 40
2.0
 50
180.0
 51
270.0
  0
ARC
  5
1D6C9
  8
L1
 10
189.0
 20
299.74700502020738
 30
0.0
 40
2.0
 50
90.0
 51
180.0
  0
LINE
  5
1D6CA
  8
L1
 10
189.49999999999989
 20
298.74700502020738
 30
0.0
 11
189.49999999999989
 21
274.74700502020738
 31
0.0
  0
LINE
  5
1D6CB
  8
L1
 10
187.0
 20
274.74700502020738
 30
0.0
 11
197.0
 21
274.74700502020738
 31
0.0
  0
LINE
  5
1D6CC
  8
L1
 10
197.0
 20
298.74700502020738
 30
0.0
 11
187.0
 21
298.74700502020738
 31
0.0
  0
LINE
  5
1D6CD
  8
L1
 10
189.0
 20
271.74700502020738
 30
0.0
 11
197.0
 21
271.74700502020738
 31
0.0
  0
LINE
  5
1D6CE
  8
L1
 10
187.0
 20
299.74700502020738
 30
0.0
 11
187.0
 21
273.74700502020738
 31
0.0
  0
LINE
  5
1D6CF
  8
L1
 10
197.0
 20
301.74700502020738
 30
0.0
 11
189.0
 21
301.74700502020738
 31
0.0
  0
LINE
  5
1D6D0
  8
L1
 10
560.0
 20
301.74700502020738
 30
0.0
 11
568.0
 21
301.74700502020738
 31
0.0
  0
LINE
  5
1D6D1
  8
L1
 10
570.0
 20
299.74700502020738
 30
0.0
 11
570.0
 21
273.74700502020738
 31
0.0
  0
LINE
  5
1D6D2
  8
L1
 10
568.0
 20
271.74700502020738
 30
0.0
 11
560.0
 21
271.74700502020738
 31
0.0
  0
LINE
  5
1D6D3
  8
L1
 10
560.0
 20
298.74700502020738
 30
0.0
 11
570.0
 21
298.74700502020738
 31
0.0
  0
LINE
  5
1D6D4
  8
L1
 10
570.0
 20
274.74700502020738
 30
0.0
 11
560.0
 21
274.74700502020738
 31
0.0
  0
LINE
  5
1D6D5
  8
L1
 10
567.49999999999989
 20
298.74700502020738
 30
0.0
 11
567.49999999999989
 21
274.74700502020738
 31
0.0
  0
ARC
  5
1D6D6
  8
L1
 10
568.0
 20
299.74700502020738
 30
0.0
 40
2.0
 50
0.0
 51
90.0
  0
ARC
  5
1D6D7
  8
L1
 10
568.0
 20
273.74700502020738
 30
0.0
 40
2.0
 50
270.0
 51
0.0
  0
ARC
  5
1D6D8
  8
L1
 10
568.0
 20
440.74700502020738
 30
0.0
 40
2.0
 50
270.0
 51
0.0
  0
ARC
  5
1D6D9
  8
L1
 10
568.0
 20
466.74700502020738
 30
0.0
 40
2.0
 50
0.0
 51
90.0
  0
LINE
  5
1D6DA
  8
L1
 10
567.49999999999989
 20
465.74700502020738
 30
0.0
 11
567.49999999999989
 21
441.74700502020738
 31
0.0
  0
LINE
  5
1D6DB
  8
L1
 10
570.0
 20
441.74700502020738
 30
0.0
 11
560.0
 21
441.74700502020738
 31
0.0
  0
LINE
  5
1D6DC
  8
L1
 10
560.0
 20
465.74700502020738
 30
0.0
 11
570.0
 21
465.74700502020738
 31
0.0
  0
LINE
  5
1D6DD
  8
L1
 10
568.0
 20
438.74700502020738
 30
0.0
 11
560.0
 21
438.74700502020738
 31
0.0
  0
LINE
  5
1D6DE
  8
L1
 10
570.0
 20
466.74700502020738
 30
0.0
 11
570.0
 21
440.74700502020738
 31
0.0
  0
LINE
  5
1D6DF
  8
L1
 10
560.0
 20
468.74700502020738
 30
0.0
 11
568.0
 21
468.74700502020738
 31
0.0
  0
LINE
  5
1D6E0
  8
L1
 10
560.0
 20
468.74700502020738
 30
0.0
 11
560.0
 21
482.2470050202075
 31
0.0
  0
LINE
  5
1D6E1
  8
L1
 10
560.0
 20
441.74700502020738
 30
0.0
 11
560.0
 21
465.74700502020738
 31
0.0
  0
LINE
  5
1D6E2
  8
L1
 10
560.0
 20
274.74700502020738
 30
0.0
 11
560.0
 21
298.74700502020738
 31
0.0
  0
LINE
  5
1D6E3
  8
L1
 10
560.0
 20
301.74700502020738
 30
0.0
 11
560.0
 21
438.74700502020738
 31
0.0
  0
LINE
  5
1D6E4
  8
L1
 10
197.0
 20
298.74700502020738
 30
0.0
 11
197.0
 21
274.74700502020738
 31
0.0
  0
LINE
  5
1D6E5
  8
L1
 10
197.0
 20
271.74700502020738
 30
0.0
 11
197.0
 21
175.24700502020741
 31
0.0
  0
LINE
  5
1FE8F
  8
L1
 10
-512.90898090703195
 20
271.74700502020738
 30
0.0
 11
-512.90898090703195
 21
175.24700502020741
 31
0.0
  0
LINE
  5
1FE90
  8
L1
 10
-512.90898090703195
 20
298.74700502020738
 30
0.0
 11
-512.90898090703195
 21
274.74700502020738
 31
0.0
  0
LINE
  5
1FE91
  8
L1
 10
-151.90898090703189
 20
301.74700502020738
 30
0.0
 11
-151.90898090703189
 21
438.74700502020738
 31
0.0
  0
LINE
  5
1FE92
  8
L1
 10
-151.90898090703189
 20
274.74700502020738
 30
0.0
 11
-151.90898090703189
 21
298.74700502020738
 31
0.0
  0
LINE
  5
1FE93
  8
L1
 10
-151.90898090703189
 20
441.74700502020738
 30
0.0
 11
-151.90898090703189
 21
465.74700502020738
 31
0.0
  0
LINE
  5
1FE94
  8
L1
 10
-151.90898090703189
 20
468.74700502020738
 30
0.0
 11
-151.90898090703189
 21
482.2470050202075
 31
0.0
  0
LINE
  5
1FE95
  8
L1
 10
-151.90898090703189
 20
468.74700502020738
 30
0.0
 11
-143.90898090703189
 21
468.74700502020738
 31
0.0
  0
LINE
  5
1FE96
  8
L1
 10
-141.90898090703189
 20
466.74700502020738
 30
0.0
 11
-141.90898090703189
 21
440.74700502020738
 31
0.0
  0
LINE
  5
1FE97
  8
L1
 10
-143.90898090703189
 20
438.74700502020738
 30
0.0
 11
-151.90898090703189
 21
438.74700502020738
 31
0.0
  0
LINE
  5
1FE98
  8
L1
 10
-151.90898090703189
 20
465.74700502020738
 30
0.0
 11
-141.90898090703189
 21
465.74700502020738
 31
0.0
  0
LINE
  5
1FE99
  8
L1
 10
-141.90898090703189
 20
441.74700502020738
 30
0.0
 11
-151.90898090703189
 21
441.74700502020738
 31
0.0
  0
LINE
  5
1FE9A
  8
L1
 10
-144.40898090703189
 20
465.74700502020738
 30
0.0
 11
-144.40898090703189
 21
441.74700502020738
 31
0.0
  0
ARC
  5
1FE9B
  8
L1
 10
-143.90898090703189
 20
466.74700502020738
 30
0.0
 40
2.0
 50
0.0
 51
90.0
  0
ARC
  5
1FE9C
  8
L1
 10
-143.90898090703189
 20
440.74700502020738
 30
0.0
 40
2.0
 50
270.0
 51
0.0
  0
ARC
  5
1FE9D
  8
L1
 10
-143.90898090703189
 20
273.74700502020738
 30
0.0
 40
2.0
 50
270.0
 51
0.0
  0
ARC
  5
1FE9E
  8
L1
 10
-143.90898090703189
 20
299.74700502020738
 30
0.0
 40
2.0
 50
0.0
 51
90.0
  0
LINE
  5
1FE9F
  8
L1
 10
-144.40898090703189
 20
298.74700502020738
 30
0.0
 11
-144.40898090703189
 21
274.74700502020738
 31
0.0
  0
LINE
  5
1FEA0
  8
L1
 10
-141.90898090703189
 20
274.74700502020738
 30
0.0
 11
-151.90898090703189
 21
274.74700502020738
 31
0.0
  0
LINE
  5
1FEA1
  8
L1
 10
-151.90898090703189
 20
298.74700502020738
 30
0.0
 11
-141.90898090703189
 21
298.74700502020738
 31
0.0
  0
LINE
  5
1FEA2
  8
L1
 10
-143.90898090703189
 20
271.74700502020738
 30
0.0
 11
-151.90898090703189
 21
271.74700502020738
 31
0.0
  0
LINE
  5
1FEA3
  8
L1
 10
-141.90898090703189
 20
299.74700502020738
 30
0.0
 11
-141.90898090703189
 21
273.74700502020738
 31
0.0
  0
LINE
  5
1FEA4
  8
L1
 10
-151.90898090703189
 20
301.74700502020738
 30
0.0
 11
-143.90898090703189
 21
301.74700502020738
 31
0.0
  0
LINE
  5
1FEA5
  8
L1
 10
-512.90898090703195
 20
301.74700502020738
 30
0.0
 11
-520.90898090703195
 21
301.74700502020738
 31
0.0
  0
LINE
  5
1FEA6
  8
L1
 10
-522.90898090703195
 20
299.74700502020738
 30
0.0
 11
-522.90898090703195
 21
273.74700502020738
 31
0.0
  0
LINE
  5
1FEA7
  8
L1
 10
-520.90898090703195
 20
271.74700502020738
 30
0.0
 11
-512.90898090703195
 21
271.74700502020738
 31
0.0
  0
LINE
  5
1FEA8
  8
L1
 10
-512.90898090703195
 20
298.74700502020738
 30
0.0
 11
-522.90898090703195
 21
298.74700502020738
 31
0.0
  0
LINE
  5
1FEA9
  8
L1
 10
-522.90898090703195
 20
274.74700502020738
 30
0.0
 11
-512.90898090703195
 21
274.74700502020738
 31
0.0
  0
LINE
  5
1FEAA
  8
L1
 10
-520.40898090703195
 20
298.74700502020738
 30
0.0
 11
-520.40898090703195
 21
274.74700502020738
 31
0.0
  0
ARC
  5
1FEAB
  8
L1
 10
-520.90898090703195
 20
299.74700502020738
 30
0.0
 40
2.0
 50
90.0
 51
180.0
  0
ARC
  5
1FEAC
  8
L1
 10
-520.90898090703195
 20
273.74700502020738
 30
0.0
 40
2.0
 50
180.0
 51
270.0
  0
LINE
  5
1FEAD
  8
L1
 10
-512.90898090703195
 20
438.74700502020738
 30
0.0
 11
-512.90898090703195
 21
301.74700502020738
 31
0.0
  0
LINE
  5
1FEAE
  8
L1
 10
-512.90898090703195
 20
465.74700502020738
 30
0.0
 11
-512.90898090703195
 21
441.74700502020738
 31
0.0
  0
ARC
  5
1FEAF
  8
L1
 10
-520.90898090703195
 20
440.74700502020738
 30
0.0
 40
2.0
 50
180.0
 51
270.0
  0
ARC
  5
1FEB0
  8
L1
 10
-520.90898090703195
 20
466.74700502020738
 30
0.0
 40
2.0
 50
90.0
 51
180.0
  0
LINE
  5
1FEB1
  8
L1
 10
-520.40898090703195
 20
465.74700502020738
 30
0.0
 11
-520.40898090703195
 21
441.74700502020738
 31
0.0
  0
LINE
  5
1FEB2
  8
L1
 10
-522.90898090703195
 20
441.74700502020738
 30
0.0
 11
-512.90898090703195
 21
441.74700502020738
 31
0.0
  0
LINE
  5
1FEB3
  8
L1
 10
-512.90898090703195
 20
465.74700502020738
 30
0.0
 11
-522.90898090703195
 21
465.74700502020738
 31
0.0
  0
LINE
  5
1FEB4
  8
L1
 10
-520.90898090703195
 20
438.74700502020738
 30
0.0
 11
-512.90898090703195
 21
438.74700502020738
 31
0.0
  0
LINE
  5
1FEB5
  8
L1
 10
-522.90898090703195
 20
466.74700502020738
 30
0.0
 11
-522.90898090703195
 21
440.74700502020738
 31
0.0
  0
LINE
  5
1FEB6
  8
L1
 10
-512.90898090703195
 20
468.74700502020738
 30
0.0
 11
-520.90898090703195
 21
468.74700502020738
 31
0.0
  0
LINE
  5
1FEDD
  8
L6
 10
-503.15898090703189
 20
207.74700502020741
 30
0.0
 11
-503.15898090703189
 21
219.24700502020741
 31
0.0
  0
LINE
  5
1FEDE
  8
L6
 10
-508.15898090703189
 20
213.24700502020741
 30
0.0
 11
-496.15898090703189
 21
213.24700502020741
 31
0.0
  0
LINE
  5
1FEE1
  8
L6
 10
-168.15898090703189
 20
213.24700502020741
 30
0.0
 11
-155.65898090703189
 21
213.24700502020741
 31
0.0
  0
LINE
  5
1FEE2
  8
L6
 10
-161.15898090703189
 20
207.74700502020741
 30
0.0
 11
-161.15898090703189
 21
219.24700502020741
 31
0.0
  0
LINE
  5
1FEE3
  8
L6
 10
-508.15898090703189
 20
197.74700502020741
 30
0.0
 11
-497.15898090703189
 21
197.74700502020741
 31
0.0
  0
LINE
  5
1FEE4
  8
L6
 10
-508.15898090703189
 20
185.74700502020741
 30
0.0
 11
-497.15898090703189
 21
185.74700502020741
 31
0.0
  0
ARC
  5
1FEE5
  8
L1
 10
-503.15898090703189
 20
185.74700502020741
 30
0.0
 40
2.5
 50
180.0
 51
0.0
  0
ARC
  5
1FEE6
  8
L1
 10
-503.15898090703189
 20
197.74700502020741
 30
0.0
 40
2.5
 50
0.0
 51
180.0
  0
LINE
  5
1FEE7
  8
L1
 10
-500.65898090703189
 20
185.74700502020741
 30
0.0
 11
-500.65898090703189
 21
197.74700502020741
 31
0.0
  0
LINE
  5
1FEE8
  8
L1
 10
-505.65898090703189
 20
197.74700502020741
 30
0.0
 11
-505.65898090703189
 21
185.74700502020741
 31
0.0
  0
LINE
  5
1FEE9
  8
L6
 10
-503.15898090703189
 20
191.74700502020741
 30
0.0
 11
-503.15898090703189
 21
203.74700502020741
 31
0.0
  0
LINE
  5
1FEEA
  8
L6
 10
-503.15898090703189
 20
179.74700502020741
 30
0.0
 11
-503.15898090703189
 21
191.74700502020741
 31
0.0
  0
LINE
  5
1FEEB
  8
L6
 10
-161.15898090703189
 20
179.74700502020741
 30
0.0
 11
-161.15898090703189
 21
191.74700502020741
 31
0.0
  0
LINE
  5
1FEEC
  8
L6
 10
-167.15898090703189
 20
185.74700502020741
 30
0.0
 11
-155.65898090703189
 21
185.74700502020741
 31
0.0
  0
LINE
  5
1FEED
  8
L6
 10
-161.15898090703189
 20
191.74700502020741
 30
0.0
 11
-161.15898090703189
 21
203.74700502020741
 31
0.0
  0
LINE
  5
1FEEE
  8
L6
 10
-167.15898090703189
 20
197.74700502020741
 30
0.0
 11
-155.65898090703189
 21
197.74700502020741
 31
0.0
  0
LINE
  5
1FEEF
  8
L1
 10
-163.65898090703189
 20
197.74700502020741
 30
0.0
 11
-163.65898090703189
 21
185.74700502020741
 31
0.0
  0
LINE
  5
1FEF0
  8
L1
 10
-158.65898090703189
 20
185.74700502020741
 30
0.0
 11
-158.65898090703189
 21
197.74700502020741
 31
0.0
  0
ARC
  5
1FEF1
  8
L1
 10
-161.15898090703189
 20
197.74700502020741
 30
0.0
 40
2.5
 50
0.0
 51
180.0
  0
ARC
  5
1FEF2
  8
L1
 10
-161.15898090703189
 20
185.74700502020741
 30
0.0
 40
2.5
 50
180.0
 51
0.0
  0
LINE
  5
1FEF3
  8
L6
 10
-164.40898090703189
 20
319.24700502020733
 30
0.0
 11
-164.40898090703189
 21
331.24700502020733
 31
0.0
  0
LINE
  5
1FEF4
  8
L6
 10
-171.40898090703189
 20
325.24700502020733
 30
0.0
 11
-158.40898090703189
 21
325.24700502020733
 31
0.0
  0
LINE
  5
1FEF6
  8
L6
 10
-164.40898090703189
 20
409.24700502020738
 30
0.0
 11
-164.40898090703189
 21
421.24700502020738
 31
0.0
  0
LINE
  5
1FEF7
  8
L6
 10
-171.40898090703189
 20
415.24700502020733
 30
0.0
 11
-158.40898090703189
 21
415.24700502020733
 31
0.0
  0
LINE
  5
1FEF9
  8
L6
 10
-500.40898090703189
 20
319.24700502020733
 30
0.0
 11
-500.40898090703189
 21
331.24700502020733
 31
0.0
  0
LINE
  5
1FEFA
  8
L6
 10
-506.40898090703189
 20
325.24700502020733
 30
0.0
 11
-493.40898090703189
 21
325.24700502020733
 31
0.0
  0
LINE
  5
1FEFD
  8
L6
 10
-506.40898090703189
 20
415.24700502020733
 30
0.0
 11
-493.40898090703189
 21
415.24700502020733
 31
0.0
  0
LINE
  5
1FEFE
  8
L6
 10
-500.40898090703189
 20
409.24700502020738
 30
0.0
 11
-500.40898090703189
 21
421.24700502020738
 31
0.0
  0
LINE
  5
1FF00
  8
L6
 10
-268.40898090703189
 20
239.2470050202073
 30
0.0
 11
-256.40898090703189
 21
239.2470050202073
 31
0.0
  0
LINE
  5
1FF01
  8
L6
 10
-262.40898090703189
 20
233.2470050202073
 30
0.0
 11
-262.40898090703189
 21
244.74700502020741
 31
0.0
  0
LINE
  5
1FF06
  8
L6
 10
-408.40898090703189
 20
239.2470050202073
 30
0.0
 11
-396.40898090703189
 21
239.2470050202073
 31
0.0
  0
LINE
  5
1FF07
  8
L6
 10
-402.40898090703189
 20
233.2470050202073
 30
0.0
 11
-402.40898090703189
 21
244.74700502020741
 31
0.0
  0
LINE
  5
1FF08
  8
L6
 10
-402.40898090703189
 20
467.24700502020738
 30
0.0
 11
-402.40898090703189
 21
479.24700502020738
 31
0.0
  0
LINE
  5
1FF09
  8
L6
 10
-408.40898090703189
 20
473.24700502020733
 30
0.0
 11
-396.40898090703189
 21
473.24700502020733
 31
0.0
  0
ARC
  5
1FF6A
  8
L1
 10
-155.5717916055618
 20
483.00926336579511
 30
0.0
 40
3.741285875028129
 50
348.24411316119989
 51
87.505854140997073
  0
ARC
  5
1FF6B
  8
L1
 10
-508.40898090703189
 20
482.24700502020738
 30
0.0
 40
4.5
 50
90.000000000000028
 51
180.0
  0
LINE
  5
1FF6F
  8
L1
 10
-151.90898090703189
 20
175.24700502020741
 30
0.0
 11
-151.90898090703189
 21
271.74700502020738
 31
0.0
  0
LINE
  5
1FF70
  8
L1
 10
-508.40898090703189
 20
170.74700502020741
 30
0.0
 11
-156.40898090703189
 21
170.74700502020741
 31
0.0
  0
LINE
  5
1FF71
  8
L1
 10
-512.90898090703195
 20
482.24700502020738
 30
0.0
 11
-512.90898090703195
 21
468.74700502020738
 31
0.0
  0
LINE
  5
1FF72
  8
L1
 10
-508.40898090703189
 20
486.74700502020738
 30
0.0
 11
-155.40898090703189
 21
486.7470050202075
 31
0.0
  0
LINE
  5
1FF77
  8
L1
 10
-334.90898090703189
 20
452.74700502020738
 30
0.0
 11
-334.90898090703189
 21
450.07713203912959
 31
0.0
  0
LINE
  5
1FF78
  8
L1
 10
-329.90898090703189
 20
452.74700502020738
 30
0.0
 11
-329.90898090703189
 21
450.07713203912959
 31
0.0
  0
ARC
  5
1FF79
  8
L1
 10
-332.40898090703189
 20
452.74700502020738
 30
0.0
 40
2.5
 50
0.0
 51
180.0
  0
ARC
  5
1FF7A
  8
L1
 10
-332.40898090703189
 20
445.74700502020738
 30
0.0
 40
5.0
 50
119.9999999999998
 51
60.000000000000099
  0
CIRCLE
  5
1FF7B
  8
L1
 10
-332.40898090703189
 20
448.74700502020738
 30
0.0
 40
10.5
  0
ARC
  5
1FF7C
  8
L1
 10
-402.40898090703189
 20
473.24700502020733
 30
0.0
 40
4.5
 50
0.0
 51
180.0
  0
LINE
  5
1FF7D
  8
L1
 10
-397.90898090703189
 20
473.24700502020733
 30
0.0
 11
-397.90898090703189
 21
471.74700502020738
 31
0.0
  0
LINE
  5
1FF7E
  8
L1
 10
-406.90898090703189
 20
473.24700502020733
 30
0.0
 11
-406.90898090703189
 21
471.74700502020738
 31
0.0
  0
LINE
  5
1FF7F
  8
L1
 10
-257.81963204538118
 20
473.24700502020733
 30
0.0
 11
-257.81963204538118
 21
471.74700502020738
 31
0.0
  0
ARC
  5
1FF80
  8
L1
 10
-262.31963204538118
 20
473.24700502020733
 30
0.0
 40
4.5
 50
0.0
 51
180.0
  0
LINE
  5
1FF81
  8
L1
 10
-266.81963204538118
 20
473.24700502020733
 30
0.0
 11
-266.81963204538118
 21
471.74700502020738
 31
0.0
  0
LINE
  5
1FF82
  8
L6
 10
-268.31963204538118
 20
473.24700502020733
 30
0.0
 11
-256.31963204538118
 21
473.24700502020733
 31
0.0
  0
LINE
  5
1FF83
  8
L6
 10
-262.31963204538118
 20
467.24700502020738
 30
0.0
 11
-262.31963204538118
 21
479.24700502020738
 31
0.0
  0
LINE
  5
1FF84
  8
L1
 10
-508.40898090703189
 20
483.74700502020738
 30
0.0
 11
-155.40898090703189
 21
483.7470050202075
 31
0.0
  0
LINE
  5
1FF86
  8
L1
 10
-509.90898090703189
 20
482.24700502020738
 30
0.0
 11
-509.90898090703189
 21
207.74700502020741
 31
0.0
  0
LINE
  5
1FF87
  8
L1
 10
-154.90898090703189
 20
207.74700502020741
 30
0.0
 11
-154.90898090703189
 21
482.2470050202075
 31
0.0
  0
ARC
  5
1FF88
  8
L1
 10
-508.40898090703189
 20
482.24700502020738
 30
0.0
 40
1.5
 50
90.000000000000028
 51
180.0
  0
ARC
  5
1FF89
  8
L1
 10
-155.62537693313971
 20
482.84153967817139
 30
0.0
 40
0.9309644062710576
 50
320.31083336459602
 51
76.559064281251494
  0
LINE
  5
1FF8A
  8
L1
 10
-497.40898090703189
 20
471.74700502020733
 30
0.0
 11
-167.40898090703189
 21
471.7470050202075
 31
0.0
  0
LINE
  5
1FF8B
  8
L1
 10
-497.90898090703189
 20
471.24700502020738
 30
0.0
 11
-497.90898090703189
 21
271.2470050202075
 31
0.0
  0
LINE
  5
1FF8C
  8
L1
 10
-166.90898090703189
 20
207.74700502020741
 30
0.0
 11
-166.90898090703189
 21
258.7470050202075
 31
0.0
  0
LINE
  5
1FF8D
  8
L1
 10
-500.40898090703189
 20
419.74700502020733
 30
0.0
 11
-497.90898090703189
 21
419.74700502020733
 31
0.0
  0
LINE
  5
1FF8E
  8
L1
 10
-500.40898090703189
 20
410.74700502020733
 30
0.0
 11
-497.90898090703189
 21
410.74700502020733
 31
0.0
  0
ARC
  5
1FF8F
  8
L1
 10
-500.40898090703189
 20
415.24700502020733
 30
0.0
 40
4.5
 50
90.0
 51
270.0
  0
LINE
  5
1FF90
  8
L1
 10
-500.40898090703189
 20
329.74700502020733
 30
0.0
 11
-497.90898090703189
 21
329.74700502020738
 31
0.0
  0
LINE
  5
1FF91
  8
L1
 10
-500.40898090703189
 20
320.74700502020733
 30
0.0
 11
-497.90898090703189
 21
320.74700502020733
 31
0.0
  0
ARC
  5
1FF92
  8
L1
 10
-500.40898090703189
 20
325.24700502020733
 30
0.0
 40
4.5
 50
90.0
 51
270.0
  0
LINE
  5
1FF93
  8
L1
 10
-406.90898090703189
 20
239.24700502020741
 30
0.0
 11
-406.90898090703172
 21
240.24700502020741
 31
0.0
  0
LINE
  5
1FF94
  8
L1
 10
-397.90898090703189
 20
239.24700502020741
 30
0.0
 11
-397.90898090703189
 21
240.24700502020741
 31
0.0
  0
ARC
  5
1FF95
  8
L1
 10
-402.40898090703189
 20
239.24700502020741
 30
0.0
 40
4.5
 50
180.0
 51
258.46304096718478
  0
LINE
  5
1FF96
  8
L1
 10
-266.90898090703189
 20
239.24700502020741
 30
0.0
 11
-266.90898090703189
 21
240.24700502020741
 31
0.0
  0
LINE
  5
1FF97
  8
L1
 10
-257.90898090703189
 20
239.24700502020741
 30
0.0
 11
-257.90898090703189
 21
240.24700502020741
 31
0.0
  0
ARC
  5
1FF98
  8
L1
 10
-262.40898090703189
 20
239.24700502020741
 30
0.0
 40
4.5
 50
180.0
 51
258.4630409671833
  0
LINE
  5
1FF99
  8
L1
 10
-164.40898090703189
 20
410.74700502020721
 30
0.0
 11
-166.90898090703189
 21
410.74700502020721
 31
0.0
  0
LINE
  5
1FF9A
  8
L1
 10
-164.40898090703189
 20
419.74700502020733
 30
0.0
 11
-166.90898090703189
 21
419.74700502020733
 31
0.0
  0
ARC
  5
1FF9B
  8
L1
 10
-164.40898090703189
 20
415.24700502020733
 30
0.0
 40
4.5
 50
270.0
 51
90.0
  0
LINE
  5
1FF9C
  8
L1
 10
-164.40898090703189
 20
321.7470050202075
 30
0.0
 11
-166.90898090703189
 21
321.7470050202075
 31
0.0
  0
LINE
  5
1FF9D
  8
L1
 10
-164.40898090703189
 20
330.7470050202075
 30
0.0
 11
-166.90898090703189
 21
330.7470050202075
 31
0.0
  0
ARC
  5
1FF9E
  8
L1
 10
-164.40898090703189
 20
326.2470050202075
 30
0.0
 40
4.5
 50
270.0
 51
90.0
  0
LINE
  5
1FF9F
  8
L1
 10
-509.90898090703189
 20
471.24700502020733
 30
0.0
 11
-497.40898090703189
 21
471.24700502020738
 31
0.0
  0
LINE
  5
1FFA0
  8
L1
 10
-497.40898090703189
 20
483.74700502020738
 30
0.0
 11
-497.40898090703189
 21
471.24700502020738
 31
0.0
  0
LINE
  5
1FFA1
  8
L1
 10
-167.40898090703189
 20
471.2470050202075
 30
0.0
 11
-167.40898090703189
 21
483.7470050202075
 31
0.0
  0
LINE
  5
1FFA3
  8
L1
 10
-167.40898090703189
 20
471.2470050202075
 30
0.0
 11
-154.90898090703189
 21
471.2470050202075
 31
0.0
  0
LINE
  5
1FFA4
  8
L1
 10
-166.90898090703189
 20
240.24700502020741
 30
0.0
 11
-497.90898090703189
 21
240.24700502020741
 31
0.0
  0
ARC
  5
1FFA5
  8
L1
 10
-503.15898090703189
 20
213.24700502020741
 30
0.0
 40
4.5
 50
90.0
 51
270.0
  0
LINE
  5
1FFA6
  8
L1
 10
-503.15898090703189
 20
217.74700502020741
 30
0.0
 11
-497.90898090703189
 21
217.74700502020741
 31
0.0
  0
LINE
  5
1FFA7
  8
L1
 10
-503.15898090703189
 20
208.74700502020741
 30
0.0
 11
-497.90898090703189
 21
208.74700502020741
 31
0.0
  0
ARC
  5
1FFAB
  8
L1
 10
-161.15898090703189
 20
213.24700502020741
 30
0.0
 40
4.5
 50
270.0
 51
90.0
  0
LINE
  5
1FFAC
  8
L1
 10
-161.15898090703189
 20
208.74700502020741
 30
0.0
 11
-166.90898090703189
 21
208.74700502020741
 31
0.0
  0
LINE
  5
1FFAD
  8
L1
 10
-161.15898090703189
 20
217.74700502020741
 30
0.0
 11
-166.90898090703189
 21
217.74700502020741
 31
0.0
  0
LINE
  5
1FFAE
  8
L1
 10
-508.40898090703189
 20
175.74700502020741
 30
0.0
 11
-156.40898090703189
 21
175.74700502020741
 31
0.0
  0
ARC
  5
1FFAF
  8
L1
 10
-508.40898090703189
 20
180.24700502020741
 30
0.0
 40
4.5
 50
180.0
 51
270.0
  0
ARC
  5
1FFB2
  8
L1
 10
-508.40898090703189
 20
175.24700502020741
 30
0.0
 40
4.5
 50
180.0
 51
270.0
  0
LINE
  5
1FFB3
  8
L1
 10
-166.90898090703189
 20
234.24700502020741
 30
0.0
 11
-261.5089809070318
 21
234.24700502020741
 31
0.0
  0
LINE
  5
1FFB4
  8
L1
 10
-509.90898090703189
 20
207.74700502020741
 30
0.0
 11
-497.90898090703189
 21
207.7470050202075
 31
0.0
  0
LINE
  5
1FFB5
  8
L1
 10
-166.90898090703149
 20
207.7470050202075
 30
0.0
 11
-154.90898090703189
 21
207.74700502020741
 31
0.0
  0
LINE
  5
1FFB6
  8
L1
 10
-496.15898090703189
 20
178.74700502020741
 30
0.0
 11
-168.15898090703189
 21
178.7470050202075
 31
0.0
  0
LINE
  5
1FFB8
  8
L1
 10
-496.15898090703189
 20
187.74700502020741
 30
0.0
 11
-444.84755844748128
 21
187.74700502020741
 31
0.0
  0
ARC
  5
1FFB9
  8
L1
 10
-432.15898090703189
 20
195.74700502020741
 30
0.0
 40
15.0
 50
212.23095263550221
 51
327.76904736449768
  0
ARC
  5
1FFBA
  8
L1
 10
-392.15898090703189
 20
195.74700502020741
 30
0.0
 40
15.0
 50
212.23095263550221
 51
327.76904736449768
  0
ARC
  5
1FFBB
  8
L1
 10
-272.15898090703189
 20
195.74700502020741
 30
0.0
 40
15.0
 50
212.23095263550209
 51
327.76904736449779
  0
ARC
  5
1FFBC
  8
L1
 10
-232.15898090703189
 20
195.74700502020741
 30
0.0
 40
15.0
 50
212.23095263550209
 51
327.76904736449779
  0
LINE
  5
1FFBD
  8
L1
 10
-259.4704033665825
 20
187.74700502020741
 30
0.0
 11
-244.8475584474813
 21
187.74700502020741
 31
0.0
  0
LINE
  5
1FFBE
  8
L1
 10
-219.4704033665825
 20
187.74700502020741
 30
0.0
 11
-168.15898090703189
 21
187.74700502020741
 31
0.0
  0
LINE
  5
1FFBF
  8
L1
 10
-379.4704033665825
 20
187.74700502020741
 30
0.0
 11
-284.84755844748128
 21
187.74700502020741
 31
0.0
  0
LINE
  5
1FFC0
  8
L1
 10
-419.4704033665825
 20
187.74700502020741
 30
0.0
 11
-404.84755844748128
 21
187.74700502020741
 31
0.0
  0
LINE
  5
1FFC1
  8
L1
 10
-168.15898090703189
 20
187.74700502020741
 30
0.0
 11
-168.15898090703189
 21
178.7470050202075
 31
0.0
  0
LINE
  5
1FFC2
  8
L1
 10
-496.15898090703189
 20
187.74700502020741
 30
0.0
 11
-496.15898090703189
 21
178.74700502020741
 31
0.0
  0
LINE
  5
1FFC3
  8
L1
 10
-498.65898090703189
 20
185.74700502020741
 30
0.0
 11
-498.65898090703189
 21
197.74700502020741
 31
0.0
  0
ARC
  5
1FFC4
  8
L1
 10
-503.15898090703189
 20
197.74700502020741
 30
0.0
 40
4.5
 50
0.0
 51
180.0
  0
LINE
  5
1FFC5
  8
L1
 10
-507.65898090703189
 20
197.74700502020741
 30
0.0
 11
-507.65898090703189
 21
185.74700502020741
 31
0.0
  0
ARC
  5
1FFC6
  8
L1
 10
-503.15898090703189
 20
185.74700502020741
 30
0.0
 40
4.5
 50
180.0
 51
0.0
  0
LINE
  5
1FFC7
  8
L1
 10
-156.65898090703189
 20
185.74700502020741
 30
0.0
 11
-156.65898090703189
 21
197.74700502020741
 31
0.0
  0
ARC
  5
1FFC8
  8
L1
 10
-161.15898090703189
 20
197.74700502020741
 30
0.0
 40
4.5
 50
0.0
 51
180.0
  0
LINE
  5
1FFC9
  8
L1
 10
-165.65898090703189
 20
197.74700502020741
 30
0.0
 11
-165.65898090703189
 21
185.74700502020741
 31
0.0
  0
ARC
  5
1FFCA
  8
L1
 10
-161.15898090703189
 20
185.74700502020741
 30
0.0
 40
4.5
 50
180.0
 51
0.0
  0
LINE
  5
208EB
  8
L1
 10
225.49999999999989
 20
482.74700502020733
 30
0.0
 11
225.49999999999989
 21
480.24700502020738
 31
0.0
  0
LINE
  5
208ED
  8
L1
 10
225.49999999999989
 20
480.24700502020738
 30
0.0
 11
227.30000000000001
 21
480.24700502020738
 31
0.0
  0
LINE
  5
208EE
  8
L1
 10
227.30000000000001
 20
480.24700502020738
 30
0.0
 11
227.30000000000001
 21
482.74700502020733
 31
0.0
  0
LINE
  5
208F2
  8
L1
 10
231.49999999999989
 20
480.24700502020738
 30
0.0
 11
231.49999999999989
 21
482.74700502020733
 31
0.0
  0
LINE
  5
208F3
  8
L1
 10
229.69999999999999
 20
480.24700502020738
 30
0.0
 11
231.49999999999989
 21
480.24700502020738
 31
0.0
  0
LINE
  5
208F4
  8
L1
 10
229.69999999999999
 20
482.74700502020733
 30
0.0
 11
229.69999999999999
 21
480.24700502020738
 31
0.0
  0
LINE
  5
208F5
  8
L1
 10
279.69999999999999
 20
482.74700502020733
 30
0.0
 11
279.69999999999999
 21
480.24700502020738
 31
0.0
  0
LINE
  5
208F6
  8
L1
 10
279.69999999999999
 20
480.24700502020738
 30
0.0
 11
281.49999999999989
 21
480.24700502020738
 31
0.0
  0
LINE
  5
208F7
  8
L1
 10
281.49999999999989
 20
480.24700502020738
 30
0.0
 11
281.49999999999989
 21
482.74700502020733
 31
0.0
  0
LINE
  5
208F8
  8
L1
 10
277.30000000000001
 20
480.24700502020738
 30
0.0
 11
277.30000000000001
 21
482.74700502020733
 31
0.0
  0
LINE
  5
208F9
  8
L1
 10
275.49999999999989
 20
480.24700502020738
 30
0.0
 11
277.30000000000001
 21
480.24700502020738
 31
0.0
  0
LINE
  5
208FA
  8
L1
 10
275.49999999999989
 20
482.74700502020733
 30
0.0
 11
275.49999999999989
 21
480.24700502020738
 31
0.0
  0
LINE
  5
208FB
  8
L1
 10
329.69999999999999
 20
482.74700502020733
 30
0.0
 11
329.69999999999999
 21
480.24700502020738
 31
0.0
  0
LINE
  5
208FC
  8
L1
 10
329.69999999999999
 20
480.24700502020738
 30
0.0
 11
331.49999999999989
 21
480.24700502020738
 31
0.0
  0
LINE
  5
208FD
  8
L1
 10
331.49999999999989
 20
480.24700502020738
 30
0.0
 11
331.49999999999989
 21
482.74700502020733
 31
0.0
  0
LINE
  5
208FE
  8
L1
 10
327.30000000000001
 20
480.24700502020738
 30
0.0
 11
327.30000000000001
 21
482.74700502020733
 31
0.0
  0
LINE
  5
208FF
  8
L1
 10
325.49999999999989
 20
480.24700502020738
 30
0.0
 11
327.30000000000001
 21
480.24700502020738
 31
0.0
  0
LINE
  5
20900
  8
L1
 10
325.49999999999989
 20
482.74700502020733
 30
0.0
 11
325.49999999999989
 21
480.24700502020738
 31
0.0
  0
LINE
  5
20901
  8
L1
 10
379.69999999999999
 20
482.74700502020733
 30
0.0
 11
379.69999999999999
 21
480.24700502020738
 31
0.0
  0
LINE
  5
20902
  8
L1
 10
379.69999999999999
 20
480.24700502020738
 30
0.0
 11
381.49999999999989
 21
480.24700502020738
 31
0.0
  0
LINE
  5
20903
  8
L1
 10
381.49999999999989
 20
480.24700502020738
 30
0.0
 11
381.49999999999989
 21
482.74700502020733
 31
0.0
  0
LINE
  5
20904
  8
L1
 10
377.30000000000001
 20
480.24700502020738
 30
0.0
 11
377.30000000000001
 21
482.74700502020733
 31
0.0
  0
LINE
  5
20905
  8
L1
 10
375.49999999999989
 20
480.24700502020738
 30
0.0
 11
377.30000000000001
 21
480.24700502020738
 31
0.0
  0
LINE
  5
20906
  8
L1
 10
375.49999999999989
 20
482.74700502020733
 30
0.0
 11
375.49999999999989
 21
480.24700502020738
 31
0.0
  0
LINE
  5
20907
  8
L1
 10
429.69999999999987
 20
482.74700502020733
 30
0.0
 11
429.69999999999987
 21
480.24700502020738
 31
0.0
  0
LINE
  5
20908
  8
L1
 10
429.69999999999987
 20
480.24700502020738
 30
0.0
 11
431.5
 21
480.24700502020738
 31
0.0
  0
LINE
  5
20909
  8
L1
 10
431.5
 20
480.24700502020738
 30
0.0
 11
431.5
 21
482.74700502020733
 31
0.0
  0
LINE
  5
2090A
  8
L1
 10
427.30000000000001
 20
480.24700502020738
 30
0.0
 11
427.30000000000001
 21
482.74700502020733
 31
0.0
  0
LINE
  5
2090B
  8
L1
 10
425.49999999999989
 20
480.24700502020738
 30
0.0
 11
427.30000000000001
 21
480.24700502020738
 31
0.0
  0
LINE
  5
2090C
  8
L1
 10
425.49999999999989
 20
482.74700502020733
 30
0.0
 11
425.49999999999989
 21
480.24700502020738
 31
0.0
  0
LINE
  5
2090D
  8
L1
 10
479.69999999999987
 20
482.74700502020733
 30
0.0
 11
479.69999999999987
 21
480.24700502020738
 31
0.0
  0
LINE
  5
2090E
  8
L1
 10
479.69999999999987
 20
480.24700502020738
 30
0.0
 11
481.5
 21
480.24700502020738
 31
0.0
  0
LINE
  5
2090F
  8
L1
 10
481.5
 20
480.24700502020738
 30
0.0
 11
481.5
 21
482.74700502020733
 31
0.0
  0
LINE
  5
20910
  8
L1
 10
477.30000000000001
 20
480.24700502020738
 30
0.0
 11
477.30000000000001
 21
482.74700502020733
 31
0.0
  0
LINE
  5
20911
  8
L1
 10
475.49999999999989
 20
480.24700502020738
 30
0.0
 11
477.30000000000001
 21
480.24700502020738
 31
0.0
  0
LINE
  5
20912
  8
L1
 10
475.49999999999989
 20
482.74700502020733
 30
0.0
 11
475.49999999999989
 21
480.24700502020738
 31
0.0
  0
LINE
  5
20913
  8
L1
 10
529.70000000000005
 20
482.74700502020733
 30
0.0
 11
529.70000000000005
 21
480.24700502020738
 31
0.0
  0
LINE
  5
20914
  8
L1
 10
529.70000000000005
 20
480.24700502020738
 30
0.0
 11
531.5
 21
480.24700502020738
 31
0.0
  0
LINE
  5
20915
  8
L1
 10
531.5
 20
480.24700502020738
 30
0.0
 11
531.5
 21
482.74700502020733
 31
0.0
  0
LINE
  5
20916
  8
L1
 10
527.29999999999995
 20
480.24700502020738
 30
0.0
 11
527.29999999999995
 21
482.74700502020733
 31
0.0
  0
LINE
  5
20917
  8
L1
 10
525.49999999999989
 20
480.24700502020738
 30
0.0
 11
527.29999999999995
 21
480.24700502020738
 31
0.0
  0
LINE
  5
20918
  8
L1
 10
525.49999999999989
 20
482.74700502020733
 30
0.0
 11
525.49999999999989
 21
480.24700502020738
 31
0.0
  0
LINE
  5
20919
  8
L1
 10
525.49999999999989
 20
257.74700502020738
 30
0.0
 11
525.49999999999989
 21
260.24700502020738
 31
0.0
  0
LINE
  5
2091A
  8
L1
 10
525.49999999999989
 20
260.24700502020738
 30
0.0
 11
527.29999999999995
 21
260.24700502020738
 31
0.0
  0
LINE
  5
2091B
  8
L1
 10
527.29999999999995
 20
260.24700502020738
 30
0.0
 11
527.29999999999995
 21
257.74700502020738
 31
0.0
  0
LINE
  5
2091C
  8
L1
 10
531.5
 20
260.24700502020738
 30
0.0
 11
531.5
 21
257.74700502020738
 31
0.0
  0
LINE
  5
2091D
  8
L1
 10
529.70000000000005
 20
260.24700502020738
 30
0.0
 11
531.5
 21
260.24700502020738
 31
0.0
  0
LINE
  5
2091E
  8
L1
 10
529.70000000000005
 20
257.74700502020738
 30
0.0
 11
529.70000000000005
 21
260.24700502020738
 31
0.0
  0
LINE
  5
2091F
  8
L1
 10
475.49999999999989
 20
257.74700502020738
 30
0.0
 11
475.49999999999989
 21
260.24700502020738
 31
0.0
  0
LINE
  5
20920
  8
L1
 10
475.49999999999989
 20
260.24700502020738
 30
0.0
 11
477.30000000000001
 21
260.24700502020738
 31
0.0
  0
LINE
  5
20921
  8
L1
 10
477.30000000000001
 20
260.24700502020738
 30
0.0
 11
477.30000000000001
 21
257.74700502020738
 31
0.0
  0
LINE
  5
20922
  8
L1
 10
481.5
 20
260.24700502020738
 30
0.0
 11
481.5
 21
257.74700502020738
 31
0.0
  0
LINE
  5
20923
  8
L1
 10
479.69999999999987
 20
260.24700502020738
 30
0.0
 11
481.5
 21
260.24700502020738
 31
0.0
  0
LINE
  5
20924
  8
L1
 10
479.69999999999987
 20
257.74700502020738
 30
0.0
 11
479.69999999999987
 21
260.24700502020738
 31
0.0
  0
LINE
  5
20925
  8
L1
 10
425.49999999999989
 20
257.74700502020738
 30
0.0
 11
425.49999999999989
 21
260.24700502020738
 31
0.0
  0
LINE
  5
20926
  8
L1
 10
425.49999999999989
 20
260.24700502020738
 30
0.0
 11
427.30000000000001
 21
260.24700502020738
 31
0.0
  0
LINE
  5
20927
  8
L1
 10
427.30000000000001
 20
260.24700502020738
 30
0.0
 11
427.30000000000001
 21
257.74700502020738
 31
0.0
  0
LINE
  5
20928
  8
L1
 10
431.5
 20
260.24700502020738
 30
0.0
 11
431.5
 21
257.74700502020738
 31
0.0
  0
LINE
  5
20929
  8
L1
 10
429.69999999999987
 20
260.24700502020738
 30
0.0
 11
431.5
 21
260.24700502020738
 31
0.0
  0
LINE
  5
2092A
  8
L1
 10
429.69999999999987
 20
257.74700502020738
 30
0.0
 11
429.69999999999987
 21
260.24700502020738
 31
0.0
  0
LINE
  5
2092B
  8
L1
 10
375.49999999999989
 20
257.74700502020738
 30
0.0
 11
375.49999999999989
 21
260.24700502020738
 31
0.0
  0
LINE
  5
2092C
  8
L1
 10
375.49999999999989
 20
260.24700502020738
 30
0.0
 11
377.30000000000001
 21
260.24700502020738
 31
0.0
  0
LINE
  5
2092D
  8
L1
 10
377.30000000000001
 20
260.24700502020738
 30
0.0
 11
377.30000000000001
 21
257.74700502020738
 31
0.0
  0
LINE
  5
2092E
  8
L1
 10
381.49999999999989
 20
260.24700502020738
 30
0.0
 11
381.49999999999989
 21
257.74700502020738
 31
0.0
  0
LINE
  5
2092F
  8
L1
 10
379.69999999999999
 20
260.24700502020738
 30
0.0
 11
381.49999999999989
 21
260.24700502020738
 31
0.0
  0
LINE
  5
20930
  8
L1
 10
379.69999999999999
 20
257.74700502020738
 30
0.0
 11
379.69999999999999
 21
260.24700502020738
 31
0.0
  0
LINE
  5
20931
  8
L1
 10
325.49999999999989
 20
257.74700502020738
 30
0.0
 11
325.49999999999989
 21
260.24700502020738
 31
0.0
  0
LINE
  5
20932
  8
L1
 10
325.49999999999989
 20
260.24700502020738
 30
0.0
 11
327.30000000000001
 21
260.24700502020738
 31
0.0
  0
LINE
  5
20933
  8
L1
 10
327.30000000000001
 20
260.24700502020738
 30
0.0
 11
327.30000000000001
 21
257.74700502020738
 31
0.0
  0
LINE
  5
20934
  8
L1
 10
331.49999999999989
 20
260.24700502020738
 30
0.0
 11
331.49999999999989
 21
257.74700502020738
 31
0.0
  0
LINE
  5
20935
  8
L1
 10
329.69999999999999
 20
260.24700502020738
 30
0.0
 11
331.49999999999989
 21
260.24700502020738
 31
0.0
  0
LINE
  5
20936
  8
L1
 10
329.69999999999999
 20
257.74700502020738
 30
0.0
 11
329.69999999999999
 21
260.24700502020738
 31
0.0
  0
LINE
  5
20937
  8
L1
 10
275.49999999999989
 20
257.74700502020738
 30
0.0
 11
275.49999999999989
 21
260.24700502020738
 31
0.0
  0
LINE
  5
20938
  8
L1
 10
275.49999999999989
 20
260.24700502020738
 30
0.0
 11
277.30000000000001
 21
260.24700502020738
 31
0.0
  0
LINE
  5
20939
  8
L1
 10
277.30000000000001
 20
260.24700502020738
 30
0.0
 11
277.30000000000001
 21
257.74700502020738
 31
0.0
  0
LINE
  5
2093A
  8
L1
 10
281.49999999999989
 20
260.24700502020738
 30
0.0
 11
281.49999999999989
 21
257.74700502020738
 31
0.0
  0
LINE
  5
2093B
  8
L1
 10
279.69999999999999
 20
260.24700502020738
 30
0.0
 11
281.49999999999989
 21
260.24700502020738
 31
0.0
  0
LINE
  5
2093C
  8
L1
 10
279.69999999999999
 20
257.74700502020738
 30
0.0
 11
279.69999999999999
 21
260.24700502020738
 31
0.0
  0
LINE
  5
2093D
  8
L1
 10
229.69999999999999
 20
257.74700502020738
 30
0.0
 11
229.69999999999999
 21
260.24700502020738
 31
0.0
  0
LINE
  5
2093E
  8
L1
 10
229.69999999999999
 20
260.24700502020738
 30
0.0
 11
231.49999999999989
 21
260.24700502020738
 31
0.0
  0
LINE
  5
2093F
  8
L1
 10
231.49999999999989
 20
260.24700502020738
 30
0.0
 11
231.49999999999989
 21
257.74700502020738
 31
0.0
  0
LINE
  5
20940
  8
L1
 10
227.30000000000001
 20
260.24700502020738
 30
0.0
 11
227.30000000000001
 21
257.74700502020738
 31
0.0
  0
LINE
  5
20941
  8
L1
 10
225.49999999999989
 20
260.24700502020738
 30
0.0
 11
227.30000000000001
 21
260.24700502020738
 31
0.0
  0
LINE
  5
20942
  8
L1
 10
225.49999999999989
 20
257.74700502020738
 30
0.0
 11
225.49999999999989
 21
260.24700502020738
 31
0.0
  0
LINE
  5
20943
  8
L1
 10
542.0
 20
271.74700502020738
 30
0.0
 11
556.0
 21
271.74700502020738
 31
0.0
  0
LINE
  5
20944
  8
L1
 10
201.0
 20
419.29700502020728
 30
0.0
 11
203.5
 21
419.29700502020728
 31
0.0
  0
LINE
  5
20945
  8
L1
 10
203.5
 20
419.29700502020728
 30
0.0
 11
203.5
 21
417.49700502020733
 31
0.0
  0
LINE
  5
20946
  8
L1
 10
203.5
 20
417.49700502020733
 30
0.0
 11
201.0
 21
417.49700502020733
 31
0.0
  0
LINE
  5
20947
  8
L1
 10
203.5
 20
421.69700502020731
 30
0.0
 11
201.0
 21
421.69700502020731
 31
0.0
  0
LINE
  5
20948
  8
L1
 10
203.5
 20
423.49700502020733
 30
0.0
 11
203.5
 21
421.69700502020731
 31
0.0
  0
LINE
  5
20949
  8
L1
 10
201.0
 20
423.49700502020733
 30
0.0
 11
203.5
 21
423.49700502020733
 31
0.0
  0
LINE
  5
2094A
  8
L1
 10
201.0
 20
369.29700502020728
 30
0.0
 11
203.5
 21
369.29700502020728
 31
0.0
  0
LINE
  5
2094B
  8
L1
 10
203.5
 20
369.29700502020728
 30
0.0
 11
203.5
 21
367.49700502020733
 31
0.0
  0
LINE
  5
2094C
  8
L1
 10
203.5
 20
367.49700502020733
 30
0.0
 11
201.0
 21
367.49700502020733
 31
0.0
  0
LINE
  5
2094D
  8
L1
 10
203.5
 20
371.69700502020731
 30
0.0
 11
201.0
 21
371.69700502020731
 31
0.0
  0
LINE
  5
2094E
  8
L1
 10
203.5
 20
373.49700502020733
 30
0.0
 11
203.5
 21
371.69700502020731
 31
0.0
  0
LINE
  5
2094F
  8
L1
 10
201.0
 20
373.49700502020733
 30
0.0
 11
203.5
 21
373.49700502020733
 31
0.0
  0
LINE
  5
20950
  8
L1
 10
201.0
 20
319.29700502020728
 30
0.0
 11
203.5
 21
319.29700502020728
 31
0.0
  0
LINE
  5
20951
  8
L1
 10
203.5
 20
319.29700502020728
 30
0.0
 11
203.5
 21
317.49700502020733
 31
0.0
  0
LINE
  5
20952
  8
L1
 10
203.5
 20
317.49700502020733
 30
0.0
 11
201.0
 21
317.49700502020733
 31
0.0
  0
LINE
  5
20953
  8
L1
 10
203.5
 20
321.69700502020731
 30
0.0
 11
201.0
 21
321.69700502020731
 31
0.0
  0
LINE
  5
20954
  8
L1
 10
203.5
 20
323.49700502020733
 30
0.0
 11
203.5
 21
321.69700502020731
 31
0.0
  0
LINE
  5
20955
  8
L1
 10
201.0
 20
323.49700502020733
 30
0.0
 11
203.5
 21
323.49700502020733
 31
0.0
  0
LINE
  5
20956
  8
L1
 10
556.0
 20
323.49700502020733
 30
0.0
 11
553.5
 21
323.49700502020733
 31
0.0
  0
LINE
  5
20957
  8
L1
 10
553.5
 20
323.49700502020733
 30
0.0
 11
553.5
 21
321.69700502020731
 31
0.0
  0
LINE
  5
20958
  8
L1
 10
553.5
 20
321.69700502020731
 30
0.0
 11
556.0
 21
321.69700502020731
 31
0.0
  0
LINE
  5
20959
  8
L1
 10
553.5
 20
317.49700502020733
 30
0.0
 11
556.0
 21
317.49700502020733
 31
0.0
  0
LINE
  5
2095A
  8
L1
 10
553.5
 20
319.29700502020728
 30
0.0
 11
553.5
 21
317.49700502020733
 31
0.0
  0
LINE
  5
2095B
  8
L1
 10
556.0
 20
319.29700502020728
 30
0.0
 11
553.5
 21
319.29700502020728
 31
0.0
  0
LINE
  5
2095C
  8
L1
 10
556.0
 20
373.49700502020733
 30
0.0
 11
553.5
 21
373.49700502020733
 31
0.0
  0
LINE
  5
2095D
  8
L1
 10
553.5
 20
373.49700502020733
 30
0.0
 11
553.5
 21
371.69700502020731
 31
0.0
  0
LINE
  5
2095E
  8
L1
 10
553.5
 20
371.69700502020731
 30
0.0
 11
556.0
 21
371.69700502020731
 31
0.0
  0
LINE
  5
2095F
  8
L1
 10
553.5
 20
367.49700502020733
 30
0.0
 11
556.0
 21
367.49700502020733
 31
0.0
  0
LINE
  5
20960
  8
L1
 10
553.5
 20
369.29700502020728
 30
0.0
 11
553.5
 21
367.49700502020733
 31
0.0
  0
LINE
  5
20961
  8
L1
 10
556.0
 20
369.29700502020728
 30
0.0
 11
553.5
 21
369.29700502020728
 31
0.0
  0
LINE
  5
20962
  8
L1
 10
556.0
 20
423.49700502020733
 30
0.0
 11
553.5
 21
423.49700502020733
 31
0.0
  0
LINE
  5
20963
  8
L1
 10
553.5
 20
423.49700502020733
 30
0.0
 11
553.5
 21
421.69700502020731
 31
0.0
  0
LINE
  5
20964
  8
L1
 10
553.5
 20
421.69700502020731
 30
0.0
 11
556.0
 21
421.69700502020731
 31
0.0
  0
LINE
  5
20965
  8
L1
 10
553.5
 20
417.49700502020733
 30
0.0
 11
556.0
 21
417.49700502020733
 31
0.0
  0
LINE
  5
20966
  8
L1
 10
553.5
 20
419.29700502020728
 30
0.0
 11
553.5
 21
417.49700502020733
 31
0.0
  0
LINE
  5
20967
  8
L1
 10
556.0
 20
419.29700502020728
 30
0.0
 11
553.5
 21
419.29700502020728
 31
0.0
  0
LINE
  5
2180A
  8
L1
 10
542.7095246169506
 20
569.23550833033357
 30
0.0
 11
544.79047538304962
 21
569.23550833033357
 31
0.0
  0
LINE
  5
2180B
  8
L1
 10
542.49999999999989
 20
575.23550833033369
 30
0.0
 11
542.7095246169506
 21
569.23550833033357
 31
0.0
  0
LINE
  5
2180D
  8
L1
 10
212.0
 20
575.23550833033369
 30
0.0
 11
212.20952461695049
 21
569.23550833033357
 31
0.0
  0
LINE
  5
2180E
  8
L1
 10
214.50000000000011
 20
575.23550833033369
 30
0.0
 11
214.29047538304951
 21
569.23550833033357
 31
0.0
  0
LINE
  5
2180F
  8
L1
 10
214.29047538304951
 20
569.23550833033357
 30
0.0
 11
212.20952461695049
 21
569.23550833033357
 31
0.0
  0
ARC
  5
2391F
  8
L1
 10
200.55000000000001
 20
180.04700502020751
 30
0.0
 40
0.3
 50
180.0
 51
270.0
  0
ARC
  5
23920
  8
L1
 10
200.55000000000001
 20
203.4470050202074
 30
0.0
 40
0.3
 50
90.0
 51
180.0
  0
ARC
  5
23921
  8
L1
 10
200.5499999999999
 20
203.4470050202074
 30
0.0
 40
0.3
 50
90.0
 51
180.0
  0
ARC
  5
23922
  8
L1
 10
212.4499999999999
 20
203.4470050202074
 30
0.0
 40
0.3
 50
0.0
 51
90.000000000000099
  0
ARC
  5
23923
  8
L1
 10
212.4499999999999
 20
180.04700502020751
 30
0.0
 40
0.3
 50
270.0
 51
0.0
  0
CIRCLE
  5
2674B
  8
L1
 10
-432.15898090703189
 20
195.74700502020741
 30
0.0
 40
9.5
  0
CIRCLE
  5
2674E
  8
L1
 10
-392.15898090703189
 20
195.74700502020741
 30
0.0
 40
9.5
  0
CIRCLE
  5
26750
  8
L1
 10
-272.15898090703189
 20
195.74700502020741
 30
0.0
 40
9.5
  0
CIRCLE
  5
26752
  8
L1
 10
-232.15898090703189
 20
195.74700502020741
 30
0.0
 40
9.5
  0
LINE
  5
26753
  8
L6
 10
-442.15898090703189
 20
195.74700502020741
 30
0.0
 11
-422.15898090703189
 21
195.74700502020741
 31
0.0
  0
LINE
  5
26754
  8
L6
 10
-432.15898090703189
 20
185.74700502020741
 30
0.0
 11
-432.15898090703189
 21
205.74700502020741
 31
0.0
  0
LINE
  5
26755
  8
L6
 10
-402.15898090703189
 20
195.74700502020741
 30
0.0
 11
-382.15898090703189
 21
195.74700502020741
 31
0.0
  0
LINE
  5
26756
  8
L6
 10
-392.15898090703189
 20
185.74700502020741
 30
0.0
 11
-392.15898090703189
 21
205.74700502020741
 31
0.0
  0
LINE
  5
26757
  8
L6
 10
-282.15898090703189
 20
195.74700502020741
 30
0.0
 11
-262.15898090703189
 21
195.74700502020741
 31
0.0
  0
LINE
  5
26758
  8
L6
 10
-272.15898090703189
 20
185.74700502020741
 30
0.0
 11
-272.15898090703189
 21
205.74700502020741
 31
0.0
  0
LINE
  5
26759
  8
L6
 10
-242.15898090703189
 20
195.74700502020741
 30
0.0
 11
-222.15898090703189
 21
195.74700502020741
 31
0.0
  0
LINE
  5
2675A
  8
L6
 10
-232.15898090703189
 20
185.74700502020741
 30
0.0
 11
-232.15898090703189
 21
205.74700502020741
 31
0.0
  0
LINE
  5
269D9
  8
L1
 10
-401.5089809070318
 20
234.24700502020741
 30
0.0
 11
-401.5089809070318
 21
234.83792348319761
 31
0.0
  0
LINE
  5
269DA
  8
L1
 10
-403.30898090703198
 20
234.24700502020741
 30
0.0
 11
-403.30898090703198
 21
234.83792348319761
 31
0.0
  0
ARC
  5
269DB
  8
L1
 10
-402.40898090703189
 20
239.24700502020741
 30
0.0
 40
4.5
 50
281.53695903281522
 51
0.0
  0
LINE
  5
269DC
  8
L1
 10
-403.30898090703198
 20
234.24700502020741
 30
0.0
 11
-497.90898090703189
 21
234.24700502020741
 31
0.0
  0
LINE
  5
269DD
  8
L1
 10
-263.30898090703198
 20
234.24700502020741
 30
0.0
 11
-263.30898090703198
 21
234.8379234831977
 31
0.0
  0
LINE
  5
269DE
  8
L1
 10
-261.5089809070318
 20
234.24700502020741
 30
0.0
 11
-261.5089809070318
 21
234.8379234831977
 31
0.0
  0
ARC
  5
269DF
  8
L1
 10
-262.40898090703189
 20
239.24700502020741
 30
0.0
 40
4.5
 50
281.5369590328151
 51
0.0
  0
LINE
  5
269E0
  8
L1
 10
-263.30898090703198
 20
234.24700502020741
 30
0.0
 11
-401.5089809070318
 21
234.24700502020741
 31
0.0
  0
ARC
  5
27293
  8
L1
 10
-156.40898090703189
 20
180.24700502020741
 30
0.0
 40
4.5
 50
270.0
 51
0.0
  0
ARC
  5
27294
  8
L1
 10
-156.40898090703189
 20
175.24700502020741
 30
0.0
 40
4.5
 50
270.0
 51
0.0
  0
INSERT
  5
292BA
  8
L32
  2
GEOTOL
 10
1416.5858721444711
 20
917.99999999999966
 30
0.0
  0
LINE
  5
2951A
  8
L1
 10
-167.40898090703189
 20
271.2470050202075
 30
0.0
 11
-154.90898090703189
 21
271.2470050202075
 31
0.0
  0
LINE
  5
2951B
  8
L1
 10
-167.40898090703189
 20
258.7470050202075
 30
0.0
 11
-154.90898090703189
 21
258.7470050202075
 31
0.0
  0
LINE
  5
2951C
  8
L1
 10
-167.40898090703189
 20
258.7470050202075
 30
0.0
 11
-167.40898090703189
 21
271.2470050202075
 31
0.0
  0
LINE
  5
2951D
  8
L1
 10
-166.90898090703189
 20
271.2470050202075
 30
0.0
 11
-166.90898090703189
 21
471.2470050202075
 31
0.0
  0
LINE
  5
2951E
  8
L1
 10
-497.40898090703189
 20
258.7470050202075
 30
0.0
 11
-509.90898090703189
 21
258.7470050202075
 31
0.0
  0
LINE
  5
2951F
  8
L1
 10
-497.40898090703189
 20
258.7470050202075
 30
0.0
 11
-497.40898090703189
 21
271.2470050202075
 31
0.0
  0
LINE
  5
29520
  8
L1
 10
-497.40898090703189
 20
271.2470050202075
 30
0.0
 11
-509.90898090703189
 21
271.2470050202075
 31
0.0
  0
LINE
  5
29521
  8
L1
 10
-497.90898090703189
 20
258.7470050202075
 30
0.0
 11
-497.90898090703189
 21
207.74700502020741
 31
0.0
  0
LINE
  5
29568
  8
L1
 10
-495.40898090703189
 20
471.74700502020733
 30
0.0
 11
-495.40898090703189
 21
451.74700502020733
 31
0.0
  0
LINE
  5
29569
  8
L1
 10
-495.40898090703189
 20
451.74700502020733
 30
0.0
 11
-497.90898090703189
 21
451.74700502020733
 31
0.0
  0
LINE
  5
2956A
  8
L1
 10
-169.40898090703189
 20
471.74700502020733
 30
0.0
 11
-169.40898090703189
 21
451.74700502020733
 31
0.0
  0
LINE
  5
2956B
  8
L1
 10
-169.40898090703189
 20
451.74700502020733
 30
0.0
 11
-166.90898090703189
 21
451.74700502020733
 31
0.0
  0
LINE
  5
2AB8B
  8
L1
 10
26.251542753487449
 20
247.80918284669841
 30
0.0
 11
26.251542753487229
 21
178.6848271937161
 31
0.0
  0
LINE
  5
2AB8C
  8
L1
 10
29.751542753487449
 20
253.7470050202075
 30
0.0
 11
29.751542753487229
 21
170.74700502020741
 31
0.0
  0
LINE
  5
2AB8D
  8
L1
 10
89.751542753487229
 20
486.7470050202075
 30
0.0
 11
89.751542753487229
 21
175.74700502020789
 31
0.0
  0
LINE
  5
2AB8E
  8
L1
 10
89.751542753487229
 20
175.74700502020789
 30
0.0
 11
32.751542753487449
 21
175.74700502020789
 31
0.0
  0
LINE
  5
2AB8F
  8
L1
 10
95.751542753487215
 20
202.24700502020789
 30
0.0
 11
95.751542753487215
 21
181.24700502020789
 31
0.0
  0
LINE
  5
2AB90
  8
L1
 10
95.751542753487215
 20
181.24700502020789
 30
0.0
 11
89.751542753487229
 21
181.24700502020789
 31
0.0
  0
LINE
  5
2AB91
  8
L1
 10
89.751542753487229
 20
202.24700502020789
 30
0.0
 11
95.751542753487215
 21
202.24700502020789
 31
0.0
  0
LINE
  5
2AB92
  8
L1
 10
29.751542753487449
 20
177.74700502020741
 30
0.0
 11
26.251542753487229
 21
178.6848271937161
 31
0.0
  0
LINE
  5
2AB93
  8
L1
 10
29.751542753487229
 20
170.74700502020741
 30
0.0
 11
32.751542753487449
 21
170.74700502020741
 31
0.0
  0
LINE
  5
2AB94
  8
L1
 10
32.751542753487449
 20
175.74700502020789
 30
0.0
 11
32.751542753487449
 21
170.74700502020741
 31
0.0
  0
LINE
  5
2AB95
  8
L1
 10
-34.248457246512878
 20
486.74700502020733
 30
0.0
 11
-34.248457246512771
 21
253.7470050202073
 31
0.0
  0
LINE
  5
2AB96
  8
L1
 10
-37.748457246512878
 20
483.8091828466986
 30
0.0
 11
-37.748457246512771
 21
256.68482719371599
 31
0.0
  0
LINE
  5
2AB97
  8
L1
 10
29.751542753487449
 20
253.7470050202075
 30
0.0
 11
-34.248457246512771
 21
253.7470050202073
 31
0.0
  0
LINE
  5
2AB98
  8
L1
 10
29.751542753487449
 20
248.74700502020741
 30
0.0
 11
26.251542753487449
 21
247.80918284669841
 31
0.0
  0
LINE
  5
2AB99
  8
L1
 10
-34.248457246512771
 20
255.74700502020721
 30
0.0
 11
-37.748457246512771
 21
256.68482719371599
 31
0.0
  0
ARC
  5
2AB9A
  8
L1
 10
-11.248457246512769
 20
299.74700502020733
 30
0.0
 40
2.0
 50
0.000000000000007
 51
90.000000000000028
  0
LINE
  5
2AB9B
  8
L1
 10
-17.248457246512771
 20
299.24700502020733
 30
0.0
 11
-9.2484572465127712
 21
299.24700502020733
 31
0.0
  0
ARC
  5
2AB9C
  8
L1
 10
-11.248457246512769
 20
273.74700502020733
 30
0.0
 40
2.0
 50
270.0
 51
0.000000000000007
  0
LINE
  5
2AB9D
  8
L1
 10
-17.248457246512771
 20
274.24700502020733
 30
0.0
 11
-9.2484572465127712
 21
274.24700502020733
 31
0.0
  0
LINE
  5
2AB9E
  8
L1
 10
-9.2484572465127712
 20
274.24700502020733
 30
0.0
 11
-9.2484572465127712
 21
273.74700502020733
 31
0.0
  0
LINE
  5
2AB9F
  8
L1
 10
-9.2484572465127712
 20
273.74700502020733
 30
0.0
 11
-9.2484572465127712
 21
273.74700502019732
 31
0.0
  0
LINE
  5
2ABA0
  8
L1
 10
-9.2484572465127712
 20
299.24700502020733
 30
0.0
 11
-9.2484572465127712
 21
299.74700502020733
 31
0.0
  0
LINE
  5
2ABA1
  8
L1
 10
-17.248457246512771
 20
299.24700502020733
 30
0.0
 11
-17.248457246512771
 21
274.24700502020733
 31
0.0
  0
LINE
  5
2ABA2
  8
L1
 10
-29.248457246512771
 20
274.24700502020733
 30
0.0
 11
-29.248457246512771
 21
299.24700502020733
 31
0.0
  0
LINE
  5
2ABA3
  8
L1
 10
-34.248457246512771
 20
274.24700502020733
 30
0.0
 11
-29.248457246512771
 21
274.24700502020733
 31
0.0
  0
LINE
  5
2ABA4
  8
L1
 10
-34.248457246512771
 20
271.74700502020733
 30
0.0
 11
-11.248457246512769
 21
271.74700502020733
 31
0.0
  0
LINE
  5
2ABA5
  8
L1
 10
-34.248457246512771
 20
299.24700502020733
 30
0.0
 11
-29.248457246512771
 21
299.24700502020733
 31
0.0
  0
LINE
  5
2ABA6
  8
L1
 10
-34.248457246512771
 20
301.74700502020733
 30
0.0
 11
-11.248457246512769
 21
301.74700502020733
 31
0.0
  0
LINE
  5
2ABA7
  8
L1
 10
-34.248457246512878
 20
486.74700502020733
 30
0.0
 11
89.751542753487229
 21
486.7470050202075
 31
0.0
  0
LINE
  5
2ABA8
  8
L1
 10
95.751542753487215
 20
471.74700502020733
 30
0.0
 11
95.751542753487215
 21
451.74700502020733
 31
0.0
  0
LINE
  5
2ABA9
  8
L1
 10
95.751542753487215
 20
451.74700502020733
 30
0.0
 11
89.751542753487229
 21
451.74700502020733
 31
0.0
  0
LINE
  5
2ABAA
  8
L1
 10
89.751542753487456
 20
438.2470050202075
 30
0.0
 11
95.751542753487456
 21
438.2470050202075
 31
0.0
  0
LINE
  5
2ABAB
  8
L1
 10
95.751542753487456
 20
438.2470050202075
 30
0.0
 11
95.751542753487456
 21
451.7470050202075
 31
0.0
  0
LINE
  5
2ABAC
  8
L1
 10
89.751542753487229
 20
471.74700502020733
 30
0.0
 11
95.751542753487215
 21
471.74700502020733
 31
0.0
  0
LINE
  5
2ABAD
  8
L1
 10
-17.248457246512881
 20
466.24700502020733
 30
0.0
 11
-17.248457246512771
 21
441.24700502020733
 31
0.0
  0
LINE
  5
2ABAE
  8
L1
 10
-29.248457246512771
 20
441.24700502020733
 30
0.0
 11
-29.248457246512881
 21
466.24700502020733
 31
0.0
  0
LINE
  5
2ABAF
  8
L1
 10
-17.248457246512771
 20
441.24700502020733
 30
0.0
 11
-9.2484572465127712
 21
441.24700502020733
 31
0.0
  0
ARC
  5
2ABB0
  8
L1
 10
-11.24845724651288
 20
440.74700502020733
 30
0.0
 40
2.0
 50
270.0
 51
0.000000000000007
  0
LINE
  5
2ABB1
  8
L1
 10
-9.2484572465127712
 20
440.74700502020733
 30
0.0
 11
-9.2484572465127712
 21
440.74700502019732
 31
0.0
  0
LINE
  5
2ABB2
  8
L1
 10
-9.2484572465127712
 20
441.24700502020733
 30
0.0
 11
-9.2484572465127712
 21
440.74700502020733
 31
0.0
  0
LINE
  5
2ABB3
  8
L1
 10
-34.248457246512771
 20
441.24700502020733
 30
0.0
 11
-29.248457246512771
 21
441.24700502020733
 31
0.0
  0
LINE
  5
2ABB4
  8
L1
 10
-34.248457246512771
 20
438.74700502020733
 30
0.0
 11
-11.248457246512769
 21
438.74700502020733
 31
0.0
  0
LINE
  5
2ABB5
  8
L1
 10
-17.248457246512881
 20
466.24700502020733
 30
0.0
 11
-9.2484572465128831
 21
466.24700502020733
 31
0.0
  0
ARC
  5
2ABB6
  8
L1
 10
-11.24845724651288
 20
466.74700502020733
 30
0.0
 40
2.0
 50
0.000000000000007
 51
90.000000000000028
  0
LINE
  5
2ABB7
  8
L1
 10
-9.2484572465128831
 20
466.24700502020733
 30
0.0
 11
-9.2484572465128831
 21
466.74700502020733
 31
0.0
  0
LINE
  5
2ABB8
  8
L1
 10
-34.248457246512878
 20
466.24700502020733
 30
0.0
 11
-29.248457246512881
 21
466.24700502020733
 31
0.0
  0
LINE
  5
2ABB9
  8
L1
 10
-34.248457246512878
 20
468.74700502020721
 30
0.0
 11
-11.24845724651288
 21
468.74700502020721
 31
0.0
  0
LINE
  5
2ABBA
  8
L1
 10
-34.248457246512878
 20
484.74700502020738
 30
0.0
 11
-37.748457246512878
 21
483.8091828466986
 31
0.0
  0
LINE
  5
2AC02
  8
L1
 10
560.0
 20
-63.933743932672883
 30
0.0
 11
560.0
 21
60.06625606732711
 31
0.0
  0
LINE
  5
2AC18
  8
L1
 10
197.0
 20
60.06625606732711
 30
0.0
 11
197.0
 21
-63.933743932672883
 31
0.0
  0
LINE
  5
2AC19
  8
L1
 10
560.0
 20
60.06625606732711
 30
0.0
 11
197.0
 21
60.06625606732711
 31
0.0
  0
LINE
  5
2AC1A
  8
L1
 10
203.0
 20
66.066256067327117
 30
0.0
 11
203.0
 21
60.06625606732711
 31
0.0
  0
LINE
  5
2AC1B
  8
L1
 10
212.0
 20
66.066256067327117
 30
0.0
 11
212.0
 21
60.06625606732711
 31
0.0
  0
LINE
  5
2AC1C
  8
L1
 10
212.0
 20
60.06625606732711
 30
0.0
 11
212.20952461695049
 21
66.066256067327117
 31
0.0
  0
LINE
  5
2AC1D
  8
L1
 10
214.50000000000011
 20
60.06625606732711
 30
0.0
 11
214.29047538304951
 21
66.066256067327117
 31
0.0
  0
LINE
  5
2AC1E
  8
L1
 10
212.0
 20
66.066256067327117
 30
0.0
 11
212.0
 21
60.06625606732711
 31
0.0
  0
LINE
  5
2AC1F
  8
L1
 10
212.0
 20
66.066256067327117
 30
0.0
 11
203.0
 21
66.066256067327117
 31
0.0
  0
LINE
  5
2AC20
  8
L1
 10
214.29047538304951
 20
66.066256067327117
 30
0.0
 11
212.20952461695049
 21
66.066256067327117
 31
0.0
  0
LINE
  5
2AC21
  8
L1
 10
389.0
 20
66.066256067327117
 30
0.0
 11
389.0
 21
60.06625606732711
 31
0.0
  0
LINE
  5
2AC22
  8
L1
 10
368.0
 20
66.066256067327117
 30
0.0
 11
368.0
 21
60.06625606732711
 31
0.0
  0
LINE
  5
2AC23
  8
L1
 10
389.0
 20
66.066256067327117
 30
0.0
 11
368.0
 21
66.066256067327117
 31
0.0
  0
LINE
  5
2AC24
  8
L1
 10
554.0
 20
66.066256067327117
 30
0.0
 11
554.0
 21
60.06625606732711
 31
0.0
  0
LINE
  5
2AC25
  8
L1
 10
545.0
 20
66.066256067327117
 30
0.0
 11
545.0
 21
60.06625606732711
 31
0.0
  0
LINE
  5
2AC26
  8
L1
 10
542.49999999999989
 20
60.06625606732711
 30
0.0
 11
542.7095246169506
 21
66.066256067327117
 31
0.0
  0
LINE
  5
2AC27
  8
L1
 10
545.0
 20
60.06625606732711
 30
0.0
 11
544.79047538304962
 21
66.066256067327117
 31
0.0
  0
LINE
  5
2AC28
  8
L1
 10
554.0
 20
66.066256067327117
 30
0.0
 11
545.0
 21
66.066256067327117
 31
0.0
  0
LINE
  5
2AC29
  8
L1
 10
542.7095246169506
 20
66.066256067327117
 30
0.0
 11
544.79047538304962
 21
66.066256067327117
 31
0.0
  0
LINE
  5
2AC2A
  8
L1
 10
187.0
 20
-63.933743932672883
 30
0.0
 11
570.0
 21
-63.933743932672883
 31
0.0
  0
LINE
  5
2AC2B
  8
L1
 10
199.93782217350889
 20
-67.433743932672883
 30
0.0
 11
557.06217782649117
 21
-67.433743932672883
 31
0.0
  0
LINE
  5
2AC2F
  8
L1
 10
197.0
 20
-38.933743932672883
 30
0.0
 11
197.0
 21
-63.933743932672883
 31
0.0
  0
LINE
  5
2AC30
  8
L1
 10
187.0
 20
-63.933743932672883
 30
0.0
 11
187.0
 21
-41.933743932672883
 31
0.0
  0
ARC
  5
2AC31
  8
L1
 10
190.0
 20
-41.933743932672883
 30
0.0
 40
3.0
 50
90.000000000000028
 51
180.0
  0
LINE
  5
2AC35
  8
L1
 10
190.0
 20
-38.933743932672883
 30
0.0
 11
197.0
 21
-38.933743932672883
 31
0.0
  0
LINE
  5
2AC36
  8
L1
 10
199.0
 20
-63.933743932672883
 30
0.0
 11
199.93782217350889
 21
-67.433743932672883
 31
0.0
  0
LINE
  5
2AC3C
  8
L1
 10
570.0
 20
-63.933743932672883
 30
0.0
 11
570.0
 21
-41.933743932672883
 31
0.0
  0
LINE
  5
2AC3D
  8
L1
 10
560.0
 20
-38.933743932672883
 30
0.0
 11
560.0
 21
-63.933743932672883
 31
0.0
  0
LINE
  5
2AC40
  8
L1
 10
567.0
 20
-38.933743932672883
 30
0.0
 11
560.0
 21
-38.933743932672883
 31
0.0
  0
ARC
  5
2AC41
  8
L1
 10
567.0
 20
-41.933743932672883
 30
0.0
 40
3.0
 50
0.0
 51
90.000000000000028
  0
LINE
  5
2AC42
  8
L1
 10
558.0
 20
-63.933743932672883
 30
0.0
 11
557.06217782649117
 21
-67.433743932672883
 31
0.0
  0
TEXT
  5
2AC6E
  8
L1
 10
-448.4846960576287
 20
527.07237940306425
 30
0.0
 40
20.0
  1
FIBOX CARDMASTER 36/31 -3 BASE
  0
LINE
  5
2C015
  8
L23
  6
DASHDOT
 62
     1
 10
542.0
 20
-63.933743932672883
 30
0.0
 11
542.0
 21
44.566256067327103
 31
0.0
  0
INSERT
  5
2C502
  8
L32
  2
GEOTOL
 10
1976.7479550248149
 20
1671.264731027389
 30
0.0
  0
ARC
  5
2D565
  8
L23
  6
DASHDOT
 62
     1
 10
541.0
 20
44.56625606732711
 30
0.0
 40
1.0
 50
0.0
 51
90.0
  0
LINE
  5
2D566
  8
L23
  6
DASHDOT
 62
     1
 10
215.0
 20
-63.933743932672883
 30
0.0
 11
215.0
 21
44.566256067327103
 31
0.0
  0
LINE
  5
2D567
  8
L23
  6
DASHDOT
 62
     1
 10
216.0
 20
45.566256067327103
 30
0.0
 11
541.0
 21
45.566256067327132
 31
0.0
  0
ARC
  5
2D568
  8
L23
  6
DASHDOT
 62
     1
 10
216.0
 20
44.56625606732711
 30
0.0
 40
1.0
 50
90.0
 51
180.0
  0
INSERT
  5
2F356
  8
L32
  2
GEOTOL
 10
1886.4803877193051
 20
1664.6000297329499
 30
0.0
  0
INSERT
  5
2FB75
  8
ASHADE
 62
     1
  2
AVE_RENDER
 10
-31.06299511304962
 20
-6.8999702670492971
 30
0.0
1001
AVE_RENDER
1002
{
1070
     7
1000
Pref
1070
    30
1070
    20
1070
     1
1070
     0
1000

1070
    10
1070
     1
1070
    10
1040
1.0
1070
     1
1040
0.3
1040
0.7
1040
0.0
1040
10.0
1010
-1.0
1020
-1.0
1030
-1.0
1040
0.3
1070
    49
1070
     0
1070
     0
1010
1.0
1020
1.0
1030
1.0
1040
45.0
1070
     1
1070
     0
1000
WCS
1040
0.0
1070
     0
1040
10.0
1002
}
  0
INSERT
  5
2FB76
  8
ASHADE
 62
     3
  2
AVE_RENDER
 10
-31.06299511304962
 20
-6.8999702670492971
 30
0.0
1001
AVE_RENDER
1002
{
1070
     0
1000
Full Opt
1070
     0
1070
     1
1070
     1
1070
     1
1070
     0
1070
     0
1070
     0
1070
     1
1070
     1
1040
0.0001
1040
0.0001
1002
}
  0
INSERT
  5
2FB77
  8
ASHADE
 62
     4
  2
AVE_RENDER
 10
-31.06299511304962
 20
-6.8999702670492971
 30
0.0
1001
AVE_RENDER
1002
{
1070
     0
1000
Quick Opt
1070
     0
1070
     1
1070
     1
1070
     1
1070
     0
1070
     0
1070
     1
1002
}
  0
INSERT
  5
2FB78
  8
ASHADE
 62
     5
  2
AVE_RENDER
 10
-31.06299511304962
 20
-6.8999702670492971
 30
0.0
1001
AVE_RENDER
1002
{
1070
     1
1000
Scanl Opt
1070
     2
1070
     0
1070
     2
1040
2.0
1040
4.0
1070
     0
1070
     1
1070
     0
1040
0.03
1002
}
  0
INSERT
  5
2FB79
  8
ASHADE
 62
     6
  2
AVE_RENDER
 10
-31.06299511304962
 20
-6.8999702670492971
 30
0.0
1001
AVE_RENDER
1002
{
1070
     2
1000
Raytr Opt
1070
     2
1070
     0
1070
     2
1040
2.0
1040
4.0
1070
     0
1070
     1
1070
     1
1040
0.03
1070
     3
1040
0.03
1002
}
  0
INSERT
  5
2FB7A
  8
ASHADE
 62
     7
  2
AVE_RENDER
 10
-31.06299511304962
 20
-6.8999702670492971
 30
0.0
1001
AVE_RENDER
1002
{
1070
     0
1000
RFile Opt
1070
     1
1070
   640
1070
   480
1070
 10000
1070
     1
1070
     8
1070
     8
1070
     0
1070
     0
1070
     0
1070
     0
1070
     0
1070
     0
1070
     0
1002
}
  0
INSERT
  5
2FB7B
  8
ASHADE
 62
     8
  2
AVE_RENDER
 10
-31.06299511304962
 20
-6.8999702670492971
 30
0.0
1001
AVE_RENDER
1002
{
1070
     0
1000
Fog Opt
1070
     0
1070
     0
1040
0.0
1040
1.0
1040
0.0
1040
1.0
1010
0.5
1020
0.5
1030
0.5
1002
}
  0
INSERT
  5
2FB7C
  8
ASHADE
 62
     9
  2
AVE_RENDER
 10
-31.06299511304962
 20
-6.8999702670492971
 30
0.0
1001
AVE_RENDER
1002
{
1070
     0
1000
BG Opt
1070
     0
1070
     1
1010
0.0
1020
0.0
1030
0.0
1010
1.0
1020
0.0
1030
0.0
1010
0.0
1020
1.0
1030
0.0
1010
0.0
1020
0.0
1030
1.0
1040
0.5
1040
0.33
1040
0.0
1000

1070
     1
1000

1070
     1
1070
     1
1040
1.0
1040
1.0
1040
0.0
1040
0.0
1070
     0
1002
}
  0
INSERT
  5
2FB7D
  8
ASHADE
 62
     1
  2
AVE_GLOBAL
 10
-31.06299511304962
 20
-6.8999702670492971
 30
0.0
1001
AVE_MATERIAL
1002
{
1000
*GLOBAL*
1000
1
1000
Global finish.
1002
{
1002
}
1002
{
1070
    63
1002
{
1002
{
1010
-1.0
1020
-1.0
1030
-1.0
1002
}
1040
0.1000000014901161
1000

1040
0.0
1002
{
1002
}
1040
0.0
1002
{
1002
}
1040
0.0
1002
}
1002
{
1002
{
1010
-1.0
1020
-1.0
1030
-1.0
1002
}
1040
0.699999988079071
1000

1040
0.0
1002
{
1002
}
1040
0.0
1002
{
1002
}
1040
0.0
1002
}
1002
{
1002
{
1010
-1.0
1020
-1.0
1030
-1.0
1002
}
1040
0.2000000029802322
1000

1040
0.0
1002
{
1002
}
1040
0.0
1002
{
1002
}
1040
0.0
1002
}
1002
{
1070
     0
1002
{
1070
     1
1002
{
1040
1.0
1040
1.0
1000

1040
0.0
1002
{
1002
}
1040
0.0
1002
{
1002
}
1040
0.0
1002
}
1002
}
1040
1.0
1040
0.0
1040
0.0
1002
}
1002
{
1040
1.0
1040
1.0
1000

1040
0.0
1002
{
1002
}
1040
0.0
1002
{
1002
}
1040
0.0
1002
}
1002
{
1040
0.5
1040
1.0
1000

1040
0.0
1002
{
1002
}
1040
0.0
1002
{
1002
}
1040
0.0
1002
}
1002
{
1070
     0
1040
0.0
1002
{
1002
}
1040
1.0
1002
{
1002
}
1040
0.0
1002
}
1002
{
1040
0.0
1002
{
1002
{
1010
0.0
1020
0.0
1030
0.0
1002
}
1040
1.0
1000

1040
0.0
1002
{
1002
}
1040
0.0
1002
{
1002
}
1040
0.0
1002
}
1002
}
1002
{
1002
{
1070
     1
1002
{
1040
0.0
1040
1.0
1000

1040
0.0
1002
{
1002
}
1040
0.0
1002
{
1002
}
1040
0.0
1002
}
1002
}
1040
0.0
1002
{
1002
}
1010
1.0
1020
0.0
1030
0.0
1010
0.0
1020
1.0
1030
0.0
1010
0.0
1020
0.0
1030
1.0
1070
     0
1002
}
1002
{
1002
{
1040
1.0
1040
1.0
1002
{
1070
     1
1002
{
1040
1.0
1040
1.0
1000

1040
0.0
1002
{
1002
}
1040
0.0
1002
{
1002
}
1040
0.0
1002
}
1002
}
1002
}
1070
     0
1040
0.0
1002
{
1002
}
1002
}
1002
{
1002
}
1002
}
1002
{
1071
        3
1070
     3
1070
     0
1002
{
1070
     2
1070
     0
1070
     0
1040
0.0
1002
}
1070
     0
1070
     2
1002
{
1002
}
1002
}
1002
{
1040
8030.0
1040
190.30000305175781
1040
0.3050000071525574
1040
228.0
1040
545.0
1040
14.0
1040
17.39999961853027
1040
0.4560000002384186
1002
}
1002
}
  0
LINE
  5
313E3
  8
L23
  6
DASHDOT
 10
-29.748457246512771
 20
468.7470050202075
 30
0.0
 11
85.751542753487215
 21
468.7470050202075
 31
0.0
  0
LINE
  5
313E4
  8
L23
  6
DASHDOT
 10
85.751542753487215
 20
325.2470050202075
 30
0.0
 11
80.751542753487215
 21
328.13375636615569
 31
0.0
  0
LINE
  5
313E5
  8
L23
  6
DASHED
 10
82.751542753487229
 20
190.74700502020761
 30
0.0
 11
82.751542753487229
 21
179.74700502020761
 31
0.0
  0
LINE
  5
313E6
  8
L23
  6
DASHED
 10
75.251542753487229
 20
217.74700502020761
 30
0.0
 11
85.751542753487215
 21
218.11367309987079
 31
0.0
  0
LINE
  5
313E7
  8
L23
  6
DASHED
 10
75.251542753487229
 20
230.74700502020761
 30
0.0
 11
85.751542753487215
 21
230.74700502020761
 31
0.0
  0
LINE
  5
313E8
  8
L23
  6
DASHED
 10
75.251542753487229
 20
242.74700502020761
 30
0.0
 11
85.751542753487215
 21
242.74700502020761
 31
0.0
  0
LINE
  5
313E9
  8
L23
  6
DASHED
 10
75.251542753487229
 20
208.74700502020761
 30
0.0
 11
85.751542753487215
 21
208.3803369405442
 31
0.0
  0
LINE
  5
313EA
  8
L23
  6
DASHED
 10
85.751542753487215
 20
190.74700502020761
 30
0.0
 11
82.751542753487229
 21
190.74700502020761
 31
0.0
  0
LINE
  5
313EB
  8
L23
  6
DASHDOT
 10
85.751542753487215
 20
415.2470050202075
 30
0.0
 11
80.751542753487215
 21
412.36025367425941
 31
0.0
  0
LINE
  5
313EC
  8
L23
  6
DASHED
 10
80.751542753487215
 20
459.07240117274858
 30
0.0
 11
85.751542753487215
 21
459.2470050202075
 31
0.0
  0
LINE
  5
313ED
  8
L23
  6
DASHED
 10
80.751542753487215
 20
438.42160886766618
 30
0.0
 11
85.751542753487215
 21
438.2470050202075
 31
0.0
  0
LINE
  5
313EE
  8
L23
  6
DASHED
 10
75.251542753487229
 20
365.7470050202075
 30
0.0
 11
85.751542753487215
 21
365.38033694054428
 31
0.0
  0
LINE
  5
313EF
  8
L23
  6
DASHED
 10
75.251542753487229
 20
374.7470050202075
 30
0.0
 11
85.751542753487215
 21
375.11367309987071
 31
0.0
  0
LINE
  5
313F0
  8
L23
  6
DASHDOT
 10
80.751542753487215
 20
412.36025367425941
 30
0.0
 11
80.751542753487215
 21
374.93906925241231
 31
0.0
  0
LINE
  5
313F1
  8
L23
  6
DASHDOT
 10
80.751542753487215
 20
365.55494078800302
 30
0.0
 11
80.751542753487215
 21
328.13375636615569
 31
0.0
  0
LINE
  5
313F2
  8
L23
  6
DASHED
 10
80.751542753487215
 20
438.42160886766618
 30
0.0
 11
80.751542753487215
 21
459.0724011727487
 31
0.0
  0
LINE
  5
313F3
  8
L23
  6
DASHED
 10
79.251542753487229
 20
472.7470050202075
 30
0.0
 11
89.751542753487229
 21
472.7470050202075
 31
0.0
  0
LINE
  5
313F4
  8
L23
  6
DASHED
 10
89.751542753487229
 20
483.7470050202075
 30
0.0
 11
79.251542753487229
 21
483.7470050202075
 31
0.0
  0
LINE
  5
313F5
  8
L23
  6
DASHED
 10
79.251542753487229
 20
483.7470050202075
 30
0.0
 11
79.251542753487229
 21
472.7470050202075
 31
0.0
  0
LINE
  5
313F6
  8
L23
  6
DASHDOT
 10
-29.748457246512771
 20
271.7470050202075
 30
0.0
 11
75.251542753487229
 21
271.7470050202075
 31
0.0
  0
LINE
  5
313F7
  8
L23
  6
DASHED
 10
75.251542753487229
 20
271.7470050202075
 30
0.0
 11
75.251542753487229
 21
482.7470050202075
 31
0.0
  0
LINE
  5
313F8
  8
L23
  6
DASHED
 10
85.751542753487215
 20
365.38033694054428
 30
0.0
 11
85.751542753487215
 21
242.74700502020761
 31
0.0
  0
LINE
  5
313F9
  8
L23
  6
DASHED
 10
85.751542753487215
 20
438.2470050202075
 30
0.0
 11
85.751542753487215
 21
375.11367309987071
 31
0.0
  0
LINE
  5
313FA
  8
L23
  6
DASHED
 10
75.251542753487229
 20
208.74700502020761
 30
0.0
 11
75.251542753487229
 21
217.74700502020761
 31
0.0
  0
LINE
  5
313FB
  8
L23
  6
DASHED
 10
75.251542753487229
 20
242.74700502020761
 30
0.0
 11
75.251542753487229
 21
230.74700502020761
 31
0.0
  0
LINE
  5
313FC
  8
L23
  6
DASHED
 10
82.751542753487229
 20
190.74700502020761
 30
0.0
 11
82.751542753487229
 21
179.74700502020761
 31
0.0
  0
LINE
  5
313FD
  8
L23
  6
DASHED
 10
85.751542753487215
 20
230.74700502020761
 30
0.0
 11
85.751542753487215
 21
218.11367309987079
 31
0.0
  0
LINE
  5
313FE
  8
L23
  6
DASHED
 10
85.751542753487215
 20
190.74700502020761
 30
0.0
 11
82.751542753487229
 21
190.74700502020761
 31
0.0
  0
LINE
  5
313FF
  8
L23
  6
DASHED
 10
85.751542753487215
 20
208.3803369405442
 30
0.0
 11
85.751542753487215
 21
190.74700502020761
 31
0.0
  0
LINE
  5
31490
  8
L1
 10
667.24845724651266
 20
486.7470050202075
 30
0.0
 11
667.24845724651266
 21
175.74700502020789
 31
0.0
  0
LINE
  5
31491
  8
L23
  6
DASHED
 10
671.24845724651266
 20
365.38033694054428
 30
0.0
 11
671.24845724651266
 21
242.74700502020761
 31
0.0
  0
LINE
  5
31492
  8
L23
  6
DASHED
 10
681.74845724651277
 20
271.7470050202075
 30
0.0
 11
681.74845724651277
 21
482.7470050202075
 31
0.0
  0
LINE
  5
31493
  8
L1
 10
794.74845724651277
 20
483.8091828466986
 30
0.0
 11
794.74845724651266
 21
256.68482719371599
 31
0.0
  0
LINE
  5
31494
  8
L1
 10
791.24845724651277
 20
486.74700502020733
 30
0.0
 11
791.24845724651266
 21
253.7470050202073
 31
0.0
  0
LINE
  5
31495
  8
L1
 10
661.24845724651266
 20
202.24700502020789
 30
0.0
 11
661.24845724651266
 21
181.24700502020789
 31
0.0
  0
LINE
  5
31496
  8
L1
 10
730.74845724651254
 20
247.80918284669841
 30
0.0
 11
730.74845724651277
 21
178.6848271937161
 31
0.0
  0
LINE
  5
31497
  8
L1
 10
727.24845724651254
 20
253.7470050202075
 30
0.0
 11
727.24845724651277
 21
170.74700502020741
 31
0.0
  0
LINE
  5
31498
  8
L23
  6
DASHED
 10
671.24845724651266
 20
208.3803369405442
 30
0.0
 11
671.24845724651266
 21
190.74700502020761
 31
0.0
  0
LINE
  5
31499
  8
L1
 10
667.24845724651266
 20
175.74700502020789
 30
0.0
 11
724.24845724651254
 21
175.74700502020789
 31
0.0
  0
LINE
  5
3149A
  8
L1
 10
727.24845724651254
 20
177.74700502020741
 30
0.0
 11
730.74845724651277
 21
178.6848271937161
 31
0.0
  0
LINE
  5
3149B
  8
L1
 10
727.24845724651277
 20
170.74700502020741
 30
0.0
 11
724.24845724651254
 21
170.74700502020741
 31
0.0
  0
LINE
  5
3149C
  8
L1
 10
724.24845724651254
 20
175.74700502020789
 30
0.0
 11
724.24845724651254
 21
170.74700502020741
 31
0.0
  0
LINE
  5
3149D
  8
L23
  6
DASHED
 10
674.24845724651266
 20
190.74700502020761
 30
0.0
 11
674.24845724651266
 21
179.74700502020761
 31
0.0
  0
LINE
  5
3149E
  8
L23
  6
DASHED
 10
674.24845724651266
 20
190.74700502020761
 30
0.0
 11
674.24845724651266
 21
179.74700502020761
 31
0.0
  0
LINE
  5
3149F
  8
L1
 10
661.24845724651266
 20
181.24700502020789
 30
0.0
 11
667.24845724651266
 21
181.24700502020789
 31
0.0
  0
LINE
  5
314A0
  8
L23
  6
DASHED
 10
671.24845724651266
 20
190.74700502020761
 30
0.0
 11
674.24845724651266
 21
190.74700502020761
 31
0.0
  0
LINE
  5
314A1
  8
L23
  6
DASHED
 10
671.24845724651266
 20
190.74700502020761
 30
0.0
 11
674.24845724651266
 21
190.74700502020761
 31
0.0
  0
LINE
  5
314A2
  8
L23
  6
DASHDOT
 10
786.74845724651266
 20
271.7470050202075
 30
0.0
 11
681.74845724651277
 21
271.7470050202075
 31
0.0
  0
LINE
  5
314A3
  8
L1
 10
727.24845724651254
 20
253.7470050202075
 30
0.0
 11
791.24845724651266
 21
253.7470050202073
 31
0.0
  0
LINE
  5
314A4
  8
L1
 10
791.24845724651266
 20
255.74700502020721
 30
0.0
 11
794.74845724651266
 21
256.68482719371599
 31
0.0
  0
LINE
  5
314A5
  8
L1
 10
727.24845724651254
 20
248.74700502020741
 30
0.0
 11
730.74845724651254
 21
247.80918284669841
 31
0.0
  0
LINE
  5
314A6
  8
L1
 10
786.24845724651266
 20
274.24700502020733
 30
0.0
 11
786.24845724651266
 21
299.24700502020733
 31
0.0
  0
LINE
  5
314A7
  8
L1
 10
774.24845724651266
 20
299.24700502020733
 30
0.0
 11
774.24845724651266
 21
274.24700502020733
 31
0.0
  0
LINE
  5
314A8
  8
L1
 10
791.24845724651266
 20
271.74700502020733
 30
0.0
 11
768.24845724651277
 21
271.74700502020733
 31
0.0
  0
LINE
  5
314A9
  8
L1
 10
791.24845724651266
 20
274.24700502020733
 30
0.0
 11
786.24845724651266
 21
274.24700502020733
 31
0.0
  0
ARC
  5
314AA
  8
L1
 10
768.24845724651277
 20
273.74700502020733
 30
0.0
 40
2.0
 50
180.0
 51
270.0
  0
LINE
  5
314AB
  8
L1
 10
774.24845724651266
 20
274.24700502020733
 30
0.0
 11
766.24845724651266
 21
274.24700502020733
 31
0.0
  0
LINE
  5
314AC
  8
L1
 10
766.24845724651266
 20
273.74700502020733
 30
0.0
 11
766.24845724651266
 21
273.74700502019732
 31
0.0
  0
LINE
  5
314AD
  8
L1
 10
766.24845724651266
 20
274.24700502020733
 30
0.0
 11
766.24845724651266
 21
273.74700502020733
 31
0.0
  0
LINE
  5
314AE
  8
L1
 10
791.24845724651266
 20
301.74700502020733
 30
0.0
 11
768.24845724651277
 21
301.74700502020733
 31
0.0
  0
LINE
  5
314AF
  8
L1
 10
791.24845724651266
 20
299.24700502020733
 30
0.0
 11
786.24845724651266
 21
299.24700502020733
 31
0.0
  0
LINE
  5
314B0
  8
L1
 10
774.24845724651266
 20
299.24700502020733
 30
0.0
 11
766.24845724651266
 21
299.24700502020733
 31
0.0
  0
LINE
  5
314B1
  8
L1
 10
766.24845724651266
 20
299.24700502020733
 30
0.0
 11
766.24845724651266
 21
299.74700502020733
 31
0.0
  0
ARC
  5
314B2
  8
L1
 10
768.24845724651277
 20
299.74700502020733
 30
0.0
 40
2.0
 50
89.999999999999986
 51
180.0
  0
LINE
  5
314B3
  8
L23
  6
DASHED
 10
671.24845724651266
 20
230.74700502020761
 30
0.0
 11
671.24845724651266
 21
218.11367309987079
 31
0.0
  0
LINE
  5
314B4
  8
L23
  6
DASHED
 10
681.74845724651277
 20
217.74700502020761
 30
0.0
 11
671.24845724651266
 21
218.11367309987079
 31
0.0
  0
LINE
  5
314B5
  8
L23
  6
DASHED
 10
681.74845724651277
 20
208.74700502020761
 30
0.0
 11
671.24845724651266
 21
208.3803369405442
 31
0.0
  0
LINE
  5
314B6
  8
L23
  6
DASHED
 10
681.74845724651277
 20
208.74700502020761
 30
0.0
 11
681.74845724651277
 21
217.74700502020761
 31
0.0
  0
LINE
  5
314B7
  8
L1
 10
667.24845724651266
 20
202.24700502020789
 30
0.0
 11
661.24845724651266
 21
202.24700502020789
 31
0.0
  0
LINE
  5
314B8
  8
L23
  6
DASHED
 10
681.74845724651277
 20
242.74700502020761
 30
0.0
 11
671.24845724651266
 21
242.74700502020761
 31
0.0
  0
LINE
  5
314B9
  8
L23
  6
DASHED
 10
681.74845724651277
 20
230.74700502020761
 30
0.0
 11
671.24845724651266
 21
230.74700502020761
 31
0.0
  0
LINE
  5
314BA
  8
L23
  6
DASHED
 10
681.74845724651277
 20
242.74700502020761
 30
0.0
 11
681.74845724651277
 21
230.74700502020761
 31
0.0
  0
LINE
  5
314BB
  8
L23
  6
DASHED
 10
671.24845724651266
 20
438.2470050202075
 30
0.0
 11
671.24845724651266
 21
375.11367309987071
 31
0.0
  0
LINE
  5
314BC
  8
L23
  6
DASHDOT
 10
676.24845724651266
 20
412.36025367425941
 30
0.0
 11
676.24845724651266
 21
374.93906925241231
 31
0.0
  0
LINE
  5
314BD
  8
L23
  6
DASHDOT
 10
676.24845724651266
 20
365.55494078800302
 30
0.0
 11
676.24845724651266
 21
328.13375636615569
 31
0.0
  0
LINE
  5
314BE
  8
L23
  6
DASHDOT
 10
671.24845724651266
 20
325.2470050202075
 30
0.0
 11
676.24845724651266
 21
328.13375636615569
 31
0.0
  0
LINE
  5
314BF
  8
L23
  6
DASHED
 10
681.74845724651277
 20
374.7470050202075
 30
0.0
 11
671.24845724651266
 21
375.11367309987071
 31
0.0
  0
LINE
  5
314C0
  8
L23
  6
DASHED
 10
681.74845724651277
 20
365.7470050202075
 30
0.0
 11
671.24845724651266
 21
365.38033694054428
 31
0.0
  0
LINE
  5
314C1
  8
L23
  6
DASHDOT
 10
671.24845724651266
 20
415.2470050202075
 30
0.0
 11
676.24845724651266
 21
412.36025367425941
 31
0.0
  0
LINE
  5
314C2
  8
L23
  6
DASHDOT
 10
786.74845724651266
 20
468.7470050202075
 30
0.0
 11
671.24845724651266
 21
468.7470050202075
 31
0.0
  0
LINE
  5
314C3
  8
L1
 10
791.24845724651277
 20
486.74700502020733
 30
0.0
 11
667.24845724651266
 21
486.7470050202075
 31
0.0
  0
ARC
  5
314C4
  8
L1
 10
768.24845724651288
 20
466.74700502020733
 30
0.0
 40
2.0
 50
89.999999999999986
 51
180.0
  0
LINE
  5
314C5
  8
L1
 10
791.24845724651266
 20
438.74700502020733
 30
0.0
 11
768.24845724651277
 21
438.74700502020733
 31
0.0
  0
LINE
  5
314C6
  8
L1
 10
786.24845724651266
 20
441.24700502020733
 30
0.0
 11
786.24845724651277
 21
466.24700502020733
 31
0.0
  0
LINE
  5
314C7
  8
L1
 10
791.24845724651266
 20
441.24700502020733
 30
0.0
 11
786.24845724651266
 21
441.24700502020733
 31
0.0
  0
LINE
  5
314C8
  8
L1
 10
791.24845724651277
 20
466.24700502020733
 30
0.0
 11
786.24845724651277
 21
466.24700502020733
 31
0.0
  0
LINE
  5
314C9
  8
L1
 10
774.24845724651277
 20
466.24700502020733
 30
0.0
 11
774.24845724651266
 21
441.24700502020733
 31
0.0
  0
LINE
  5
314CA
  8
L1
 10
774.24845724651266
 20
441.24700502020733
 30
0.0
 11
766.24845724651266
 21
441.24700502020733
 31
0.0
  0
LINE
  5
314CB
  8
L1
 10
766.24845724651266
 20
441.24700502020733
 30
0.0
 11
766.24845724651266
 21
440.74700502020733
 31
0.0
  0
LINE
  5
314CC
  8
L1
 10
766.24845724651266
 20
440.74700502020733
 30
0.0
 11
766.24845724651266
 21
440.74700502019732
 31
0.0
  0
ARC
  5
314CD
  8
L1
 10
768.24845724651288
 20
440.74700502020733
 30
0.0
 40
2.0
 50
180.0
 51
270.0
  0
LINE
  5
314CE
  8
L1
 10
774.24845724651277
 20
466.24700502020733
 30
0.0
 11
766.24845724651277
 21
466.24700502020733
 31
0.0
  0
LINE
  5
314CF
  8
L1
 10
766.24845724651277
 20
466.24700502020733
 30
0.0
 11
766.24845724651277
 21
466.74700502020733
 31
0.0
  0
LINE
  5
314D0
  8
L1
 10
791.24845724651277
 20
468.74700502020721
 30
0.0
 11
768.24845724651288
 21
468.74700502020721
 31
0.0
  0
LINE
  5
314D1
  8
L1
 10
791.24845724651277
 20
484.74700502020738
 30
0.0
 11
794.74845724651277
 21
483.8091828466986
 31
0.0
  0
LINE
  5
314D2
  8
L1
 10
661.24845724651266
 20
471.74700502020733
 30
0.0
 11
661.24845724651266
 21
451.74700502020733
 31
0.0
  0
LINE
  5
314D3
  8
L23
  6
DASHED
 10
676.24845724651266
 20
438.42160886766618
 30
0.0
 11
676.24845724651266
 21
459.0724011727487
 31
0.0
  0
LINE
  5
314D4
  8
L1
 10
667.24845724651254
 20
438.2470050202075
 30
0.0
 11
661.24845724651254
 21
438.2470050202075
 31
0.0
  0
LINE
  5
314D5
  8
L1
 10
661.24845724651266
 20
451.74700502020733
 30
0.0
 11
667.24845724651266
 21
451.74700502020733
 31
0.0
  0
LINE
  5
314D6
  8
L23
  6
DASHED
 10
676.24845724651266
 20
438.42160886766618
 30
0.0
 11
671.24845724651266
 21
438.2470050202075
 31
0.0
  0
LINE
  5
314D7
  8
L1
 10
661.24845724651254
 20
438.2470050202075
 30
0.0
 11
661.24845724651254
 21
451.7470050202075
 31
0.0
  0
LINE
  5
314D8
  8
L23
  6
DASHED
 10
676.24845724651266
 20
459.07240117274858
 30
0.0
 11
671.24845724651266
 21
459.2470050202075
 31
0.0
  0
LINE
  5
314D9
  8
L23
  6
DASHED
 10
677.74845724651277
 20
483.7470050202075
 30
0.0
 11
677.74845724651277
 21
472.7470050202075
 31
0.0
  0
LINE
  5
314DA
  8
L1
 10
667.24845724651266
 20
471.74700502020733
 30
0.0
 11
661.24845724651266
 21
471.74700502020733
 31
0.0
  0
LINE
  5
314DB
  8
L23
  6
DASHED
 10
677.74845724651277
 20
472.7470050202075
 30
0.0
 11
667.24845724651266
 21
472.7470050202075
 31
0.0
  0
LINE
  5
314DC
  8
L23
  6
DASHED
 10
667.24845724651266
 20
483.7470050202075
 30
0.0
 11
677.74845724651277
 21
483.7470050202075
 31
0.0
  0
VIEWPORT
  5
1
 67
     1
  8
0
 10
210.0
 20
152.0942408376963
 30
0.0
 40
420.0
 41
304.18848167539261
 68
     1
 69
     1
1001
ACAD
1000
MVIEW
1002
{
1070
    16
1010
0.0
1020
0.0
1030
0.0
1010
0.0
1020
0.0
1030
1.0
1040
0.0
1040
304.18848167539261
1040
210.0
1040
152.0942408376963
1040
50.0
1040
0.0
1040
0.0
1070
     0
1070
   100
1070
     1
1070
     1
1070
     1
1070
     0
1070
     0
1070
     0
1040
0.0
1040
0.0
1040
0.0
1040
1.0
1040
1.0
1040
0.0
1040
0.0
1070
     0
1002
{
1002
}
1002
}
  0
ENDSEC
  0
EOF
