  0
SECTION
  2
HEADER
  9
$ACADVER
  1
AC1009
  9
$INSBASE
 10
0.0
 20
0.0
 30
0.0
  9
$EXTMIN
 10
-2070.640491058542
 20
633.34954788598043
 30
-0.0000000000000153
  9
$EXTMAX
 10
-1343.5732725408379
 20
1078.442814220303
 30
0.0
  9
$LIMMIN
 10
-412.57855704083528
 20
-366.0
  9
$LIMMAX
 10
427.42144295916461
 20
228.0
  9
$ORTHOMODE
 70
     1
  9
$REGENMODE
 70
     1
  9
$FILLMODE
 70
     1
  9
$QTEXTMODE
 70
     0
  9
$MIRRTEXT
 70
     1
  9
$DRAGMODE
 70
     2
  9
$LTSCALE
 40
7.0
  9
$OSMODE
 70
    55
  9
$ATTMODE
 70
     1
  9
$TEXTSIZE
 40
10.0
  9
$TRACEWID
 40
0.5
  9
$TEXTSTYLE
  7
SIMPLEX
  9
$CLAYER
  8
1
  9
$CELTYPE
  6
BYLAYER
  9
$CECOLOR
 62
   256
  9
$DIMSCALE
 40
1.0
  9
$DIMASZ
 40
3.5
  9
$DIMEXO
 40
0.1
  9
$DIMDLI
 40
0.38
  9
$DIMRND
 40
0.0
  9
$DIMDLE
 40
0.0
  9
$DIMEXE
 40
0.18
  9
$DIMTP
 40
0.0
  9
$DIMTM
 40
0.0
  9
$DIMTXT
 40
3.5
  9
$DIMCEN
 40
1.0
  9
$DIMTSZ
 40
0.0
  9
$DIMTOL
 70
     0
  9
$DIMLIM
 70
     0
  9
$DIMTIH
 70
     0
  9
$DIMTOH
 70
     0
  9
$DIMSE1
 70
     0
  9
$DIMSE2
 70
     0
  9
$DIMTAD
 70
     1
  9
$DIMZIN
 70
     8
  9
$DIMBLK
  1

  9
$DIMASO
 70
     1
  9
$DIMSHO
 70
     1
  9
$DIMPOST
  1

  9
$DIMAPOST
  1

  9
$DIMALT
 70
     0
  9
$DIMALTD
 70
     2
  9
$DIMALTF
 40
25.399999999999999
  9
$DIMLFAC
 40
1.0
  9
$DIMTOFL
 70
     1
  9
$DIMTVP
 40
0.0
  9
$DIMTIX
 70
     0
  9
$DIMSOXD
 70
     0
  9
$DIMSAH
 70
     0
  9
$DIMBLK1
  1

  9
$DIMBLK2
  1

  9
$DIMSTYLE
  2
FIBOX
  9
$DIMCLRD
 70
     1
  9
$DIMCLRE
 70
     1
  9
$DIMCLRT
 70
     3
  9
$DIMTFAC
 40
1.0
  9
$DIMGAP
 40
1.0
  9
$LUNITS
 70
     2
  9
$LUPREC
 70
     2
  9
$SKETCHINC
 40
1.0
  9
$FILLETRAD
 40
0.0
  9
$AUNITS
 70
     0
  9
$AUPREC
 70
     2
  9
$MENU
  1
RL-CONS
  9
$ELEVATION
 40
0.0
  9
$PELEVATION
 40
0.0
  9
$THICKNESS
 40
0.0
  9
$LIMCHECK
 70
     0
  9
$BLIPMODE
 70
     0
  9
$CHAMFERA
 40
5.0
  9
$CHAMFERB
 40
5.0
  9
$SKPOLY
 70
     0
  9
$TDCREATE
 40
2449512.7404981479
  9
$TDUPDATE
 40
2453482.3984301039
  9
$TDINDWG
 40
0.4017731597
  9
$TDUSRTIMER
 40
0.4017731597
  9
$USRTIMER
 70
     1
  9
$ANGBASE
 50
0.0
  9
$ANGDIR
 70
     0
  9
$PDMODE
 70
    34
  9
$PDSIZE
 40
0.0
  9
$PLINEWID
 40
0.0
  9
$COORDS
 70
     2
  9
$SPLFRAME
 70
     0
  9
$SPLINETYPE
 70
     6
  9
$SPLINESEGS
 70
     8
  9
$ATTDIA
 70
     0
  9
$ATTREQ
 70
     1
  9
$HANDLING
 70
-16383
  9
$HANDSEED
  5
1E78
  9
$SURFTAB1
 70
     6
  9
$SURFTAB2
 70
     6
  9
$SURFTYPE
 70
     6
  9
$SURFU
 70
     6
  9
$SURFV
 70
     6
  9
$UCSNAME
  2

  9
$UCSORG
 10
0.0
 20
0.0
 30
0.0
  9
$UCSXDIR
 10
1.0
 20
0.0
 30
0.0
  9
$UCSYDIR
 10
0.0
 20
1.0
 30
0.0
  9
$PUCSNAME
  2

  9
$PUCSORG
 10
0.0
 20
0.0
 30
0.0
  9
$PUCSXDIR
 10
1.0
 20
0.0
 30
0.0
  9
$PUCSYDIR
 10
0.0
 20
1.0
 30
0.0
  9
$USERI1
 70
     0
  9
$USERI2
 70
     0
  9
$USERI3
 70
     0
  9
$USERI4
 70
     0
  9
$USERI5
 70
     0
  9
$USERR1
 40
1.0
  9
$USERR2
 40
0.0
  9
$USERR3
 40
3.5
  9
$USERR4
 40
0.0
  9
$USERR5
 40
0.0
  9
$WORLDVIEW
 70
     1
  9
$SHADEDGE
 70
     3
  9
$SHADEDIF
 70
    70
  9
$TILEMODE
 70
     1
  9
$MAXACTVP
 70
    16
  9
$PLIMCHECK
 70
     0
  9
$PEXTMIN
 10
1.0000000000000000E+020
 20
1.0000000000000000E+020
 30
1.0000000000000000E+020
  9
$PEXTMAX
 10
-1.0000000000000000E+020
 20
-1.0000000000000000E+020
 30
-1.0000000000000000E+020
  9
$PLIMMIN
 10
-412.57855704083528
 20
-366.0
  9
$PLIMMAX
 10
7.421442959164664
 20
-69.0
  9
$UNITMODE
 70
     0
  9
$VISRETAIN
 70
     0
  9
$PLINEGEN
 70
     0
  9
$PSLTSCALE
 70
     0
  0
ENDSEC
  0
SECTION
  2
TABLES
  0
TABLE
  2
VPORT
 70
     3
  0
VPORT
  2
*ACTIVE
 70
     0
 10
0.0
 20
0.0
 11
1.0
 21
1.0
 12
-1294.528324758855
 22
1221.8961810531421
 13
0.0
 23
0.0
 14
1.0
 24
1.0
 15
10.0
 25
10.0
 16
0.0
 26
0.0
 36
1.0
 17
-412.57855704083528
 27
-366.0
 37
0.0
 40
469.3099688914308
 41
1.5552208835341359
 42
50.0
 43
0.0
 44
0.0
 50
0.0
 51
0.0
 71
     0
 72
   100
 73
     1
 74
     0
 75
     0
 76
     0
 77
     0
 78
     1
  0
ENDTAB
  0
TABLE
  2
LTYPE
 70
     2
  0
LTYPE
  2
CONTINUOUS
 70
     0
  3
Solid line
 72
    65
 73
     0
 40
0.0
  0
LTYPE
  2
HIDDEN
 70
     0
  3
__ __ __ __ __ __ __ __ __ __ __ __ __ __ __ __
 72
    65
 73
     2
 40
0.375
 49
0.25
 49
-0.125
  0
ENDTAB
  0
TABLE
  2
LAYER
 70
     5
  0
LAYER
  2
0
 70
     0
 62
     7
  6
CONTINUOUS
  0
LAYER
  2
DEFPOINTS
 70
     0
 62
     7
  6
CONTINUOUS
  0
LAYER
  2
1
 70
     0
 62
     7
  6
CONTINUOUS
  0
LAYER
  2
2
 70
     0
 62
     1
  6
HIDDEN
  0
LAYER
  2
L1
 70
     0
 62
     2
  6
CONTINUOUS
  0
ENDTAB
  0
TABLE
  2
STYLE
 70
     2
  0
STYLE
  2
STANDARD
 70
     0
 40
0.0
 41
1.0
 50
0.0
 71
     0
 42
3.5
  3
ISO.SHX
  4

  0
STYLE
  2
SIMPLEX
 70
     0
 40
0.0
 41
1.0
 50
0.0
 71
     0
 42
10.0
  3
simplex.shx
  4

  0
ENDTAB
  0
TABLE
  2
VIEW
 70
     0
  0
ENDTAB
  0
TABLE
  2
UCS
 70
     0
  0
ENDTAB
  0
TABLE
  2
APPID
 70
     1
  0
APPID
  2
ACAD
 70
     0
  0
ENDTAB
  0
TABLE
  2
DIMSTYLE
 70
     2
  0
DIMSTYLE
  2
STANDARD
 70
     0
  3

  4

  5

  6

  7

 40
1.0
 41
3.5
 42
1.0
 43
7.0
 44
1.0
 45
0.0
 46
0.0
 47
0.0
 48
0.0
140
3.5
141
1.0
142
0.0
143
25.399999999999999
144
0.5
145
0.0
146
1.0
147
2.0
 71
     0
 72
     0
 73
     0
 74
     0
 75
     0
 76
     0
 77
     1
 78
     8
170
     0
171
     2
172
     0
173
     0
174
     0
175
     0
176
   256
177
   256
178
     2
  0
DIMSTYLE
  2
FIBOX
 70
     0
  3

  4

  5

  6

  7

 40
1.0
 41
3.5
 42
0.1
 43
0.38
 44
0.18
 45
0.0
 46
0.0
 47
0.0
 48
0.0
140
3.5
141
1.0
142
0.0
143
25.399999999999999
144
1.0
145
0.0
146
1.0
147
1.0
 71
     0
 72
     0
 73
     0
 74
     0
 75
     0
 76
     0
 77
     1
 78
     8
170
     0
171
     2
172
     1
173
     0
174
     0
175
     0
176
     1
177
     1
178
     3
  0
ENDTAB
  0
ENDSEC
  0
SECTION
  2
BLOCKS
  0
BLOCK
  8
0
  2
$MODEL_SPACE
 70
     0
 10
0.0
 20
0.0
 30
0.0
  3
$MODEL_SPACE
  1

  0
ENDBLK
  5
1D34
  8
0
  0
BLOCK
 67
     1
  8
0
  2
$PAPER_SPACE
 70
     0
 10
0.0
 20
0.0
 30
0.0
  3
$PAPER_SPACE
  1

  0
ENDBLK
  5
1D32
 67
     1
  8
0
  0
ENDSEC
  0
SECTION
  2
ENTITIES
  0
CIRCLE
  5
148
  8
1
 10
-1758.51784862195
 20
902.13492504459612
 30
0.0
 40
4.5
  0
CIRCLE
  5
149
  8
1
 10
-1758.51784862195
 20
902.13492504459612
 30
0.0
 40
1.1999999999999991
  0
LINE
  5
159
  8
1
 10
-1749.8178486219499
 20
839.38492504459623
 30
0.0
 11
-1749.8178486219499
 21
937.384925044596
 31
0.0
  0
LINE
  5
15A
  8
1
 10
-1751.01784862195
 20
839.38492504459623
 30
0.0
 11
-1751.01784862195
 21
937.384925044596
 31
0.0
  0
LINE
  5
15B
  8
1
 10
-1748.01784862195
 20
838.384925044596
 30
0.0
 11
-1748.01784862195
 21
938.384925044596
 31
0.0
  0
CIRCLE
  5
200
  8
1
 10
-1831.01784862195
 20
906.68492504459596
 30
0.0
 40
8.5
  0
ARC
  5
201
  8
1
 10
-1831.01784862195
 20
903.68492504459584
 30
0.0
 40
5.0
 50
119.9999999999998
 51
60.000000000000099
  0
CIRCLE
  5
202
  8
1
 10
-1831.01784862195
 20
906.68492504459596
 30
0.0
 40
10.5
  0
CIRCLE
  5
206
  8
1
 10
-1903.51784862195
 20
902.13492504459612
 30
0.0
 40
4.5
  0
CIRCLE
  5
207
  8
1
 10
-1903.51784862195
 20
902.13492504459612
 30
0.0
 40
1.1999999999999991
  0
LINE
  5
230
  8
1
 10
-1912.21784862195
 20
839.38492504459623
 30
0.0
 11
-1912.21784862195
 21
937.384925044596
 31
0.0
  0
LINE
  5
231
  8
1
 10
-1911.01784862195
 20
839.38492504459623
 30
0.0
 11
-1911.01784862195
 21
937.384925044596
 31
0.0
  0
LINE
  5
232
  8
1
 10
-1914.01784862195
 20
838.384925044596
 30
0.0
 11
-1914.01784862195
 21
938.384925044596
 31
0.0
  0
CIRCLE
  5
235
  8
1
  6
HIDDEN
 10
-1412.120673605303
 20
797.38492504459612
 30
0.0
 40
10.25
  0
LINE
  5
23C
  8
1
 10
-1826.9867197478
 20
813.88492504459612
 30
0.0
 11
-1800.048977496099
 21
813.88492504459612
 31
0.0
  0
LINE
  5
253
  8
1
 10
-1831.01784862195
 20
832.58492504459616
 30
0.0
 11
-1756.76784862195
 21
832.58492504459582
 31
0.0
  0
LINE
  5
254
  8
1
 10
-1831.01784862195
 20
831.38492504459623
 30
0.0
 11
-1756.76784862195
 21
831.38492504459623
 31
0.0
  0
LINE
  5
255
  8
1
 10
-1831.01784862195
 20
831.18492504459607
 30
0.0
 11
-1756.3678486219731
 21
831.18492504459607
 31
0.0
  0
LINE
  5
256
  8
1
 10
-1899.26784862195
 20
783.1849250445963
 30
0.0
 11
-1762.76784862195
 21
783.18492504459596
 31
0.0
  0
LINE
  5
257
  8
1
 10
-1899.26784862195
 20
784.38492504459612
 30
0.0
 11
-1762.76784862195
 21
784.38492504459612
 31
0.0
  0
LINE
  5
25B
  8
1
 10
-1910.01784862195
 20
837.18492504459596
 30
0.0
 11
-1752.01784862195
 21
837.18492504459596
 31
0.0
  0
LINE
  5
25C
  8
1
 10
-1910.01784862195
 20
838.384925044596
 30
0.0
 11
-1752.01784862195
 21
838.384925044596
 31
0.0
  0
LINE
  5
25D
  8
1
 10
-1910.7147398136599
 20
781.38492504459612
 30
0.0
 11
-1751.32095743024
 21
781.38492504459612
 31
0.0
  0
LINE
  5
25E
  8
1
 10
-1911.01784862195
 20
835.38492504459612
 30
0.0
 11
-1751.01784862195
 21
835.38492504459612
 31
0.0
  0
CIRCLE
  5
26D
  8
1
  6
HIDDEN
 10
-1484.620673605303
 20
797.38492504459612
 30
0.0
 40
10.4
  0
ARC
  5
272
  8
1
 10
-1879.51784862195
 20
797.38492504459612
 30
0.0
 40
16.5
 50
90.0
 51
125.51448315318029
  0
LINE
  5
283
  8
1
 10
-1831.01784862195
 20
831.18492504459607
 30
0.0
 11
-1905.6678486219271
 21
831.18492504459607
 31
0.0
  0
LINE
  5
284
  8
1
 10
-1831.01784862195
 20
831.38492504459623
 30
0.0
 11
-1905.26784862195
 21
831.38492504459623
 31
0.0
  0
LINE
  5
285
  8
1
 10
-1831.01784862195
 20
832.58492504459616
 30
0.0
 11
-1905.26784862195
 21
832.58492504459582
 31
0.0
  0
LINE
  5
286
  8
1
 10
-1901.0985788430989
 20
838.36398215687143
 30
0.0
 11
-1901.173288335332
 21
842.64408610036958
 31
0.0
  0
LINE
  5
287
  8
1
 10
-1899.8987616089109
 20
838.384925044596
 30
0.0
 11
-1900.0480435594641
 21
846.93728226390795
 31
0.0
  0
ARC
  5
293
  8
1
 10
-1903.51784862195
 20
845.88492504459612
 30
0.0
 40
4.0
 50
135.5729959991954
 51
305.88357174089259
  0
ARC
  5
2AE
  8
1
 10
-1905.01784862195
 20
807.884925044596
 30
0.0
 40
5.2499999999996128
 50
0.0
 51
89.99999999999504
  0
ARC
  5
2AF
  8
1
 10
-1905.01784862195
 20
807.884925044596
 30
0.0
 40
4.0499999999996126
 50
0.0
 51
90.000000000001606
  0
ARC
  5
2B0
  8
1
 10
-1892.51784862195
 20
807.884925044596
 30
0.0
 40
4.5
 50
117.26604445073271
 51
62.733955549267222
  0
LINE
  5
2B3
  8
1
 10
-1913.7147398136599
 20
784.38492504459612
 30
0.0
 11
-1913.714739813659
 21
837.07085583025923
 31
0.0
  0
LINE
  5
2B4
  8
1
 10
-1911.4147398136599
 20
804.38492504459623
 30
0.0
 11
-1901.26784862195
 21
804.384925044596
 31
0.0
  0
LINE
  5
2B5
  8
1
 10
-1910.7147398136599
 20
783.38492504459612
 30
0.0
 11
-1901.26784862195
 21
783.38492504459612
 31
0.0
  0
LINE
  5
2B7
  8
1
 10
-1903.8178486219499
 20
798.68492504459618
 30
0.0
 11
-1903.8178486219499
 21
789.08492504459605
 31
0.0
  0
CIRCLE
  5
2B9
  8
1
 10
-1905.01784862195
 20
807.884925044596
 30
0.0
 40
1.6000000000000001
  0
LINE
  5
2BA
  8
1
 10
-1911.7147398136599
 20
807.884925044596
 30
0.0
 11
-1909.0147398136601
 21
807.884925044596
 31
0.0
  0
LINE
  5
2BB
  8
1
 10
-1911.7147398136599
 20
809.88492504459623
 30
0.0
 11
-1909.0147398136601
 21
809.88492504459623
 31
0.0
  0
LINE
  5
2BE
  8
1
 10
-1909.0147398136601
 20
807.884925044596
 30
0.0
 11
-1909.0147398136601
 21
809.88492504459623
 31
0.0
  0
LINE
  5
2BF
  8
1
 10
-1911.7147398136599
 20
807.884925044596
 30
0.0
 11
-1911.7147398136599
 21
809.88492504459623
 31
0.0
  0
ARC
  5
2C0
  8
1
 10
-1911.4147398136599
 20
804.08492504459616
 30
0.0
 40
0.3
 50
90.0
 51
180.0
  0
LINE
  5
2C1
  8
1
 10
-1909.21784862195
 20
798.68492504459618
 30
0.0
 11
-1909.21784862195
 21
789.08492504459605
 31
0.0
  0
ARC
  5
2C4
  8
1
 10
-1906.51784862195
 20
798.68492504459618
 30
0.0
 40
2.7000000000000002
 50
0.0
 51
180.0
  0
ARC
  5
2C6
  8
1
 10
-1910.7147398136599
 20
784.38492504459612
 30
0.0
 40
3.0
 50
180.0
 51
270.0
  0
ARC
  5
2C7
  8
1
 10
-1910.7147398136599
 20
784.38492504459612
 30
0.0
 40
1.0
 50
180.0
 51
269.99999999999972
  0
ARC
  5
2C9
  8
1
 10
-1906.51784862195
 20
789.08492504459605
 30
0.0
 40
2.7000000000000002
 50
180.0
 51
0.0
  0
LINE
  5
2CA
  8
1
 10
-1911.7147398136599
 20
784.38492504459612
 30
0.0
 11
-1911.7147398136599
 21
804.08492504459616
 31
0.0
  0
ARC
  5
2CC
  8
1
 10
-1901.26784862195
 20
804.08492504459616
 30
0.0
 40
0.3
 50
0.0
 51
89.999999999999673
  0
CIRCLE
  5
2CD
  8
1
 10
-1892.51784862195
 20
807.884925044596
 30
0.0
 40
1.1999999999999991
  0
ARC
  5
2CF
  8
1
 10
-1901.26784862195
 20
783.68492504459596
 30
0.0
 40
0.3
 50
270.0
 51
0.0
  0
ARC
  5
2D0
  8
1
 10
-1899.26784862195
 20
784.88492504459634
 30
0.0
 40
1.7
 50
180.0
 51
269.99999999999989
  0
ARC
  5
2D1
  8
1
 10
-1899.26784862195
 20
784.88492504459612
 30
0.0
 40
0.5
 50
180.0
 51
269.99999999999989
  0
ARC
  5
2D2
  8
1
 10
-1879.51784862195
 20
797.38492504459612
 30
0.0
 40
16.5
 50
156.63042966123589
 51
231.98772045564979
  0
LINE
  5
2D3
  8
1
 10
-1900.96784862195
 20
807.884925044596
 30
0.0
 11
-1900.96784862195
 21
783.68492504459596
 31
0.0
  0
LINE
  5
2D4
  8
1
 10
-1899.76784862195
 20
807.884925044596
 30
0.0
 11
-1899.76784862195
 21
784.88492504459612
 31
0.0
  0
LINE
  5
2D5
  8
1
 10
-1905.76784862195
 20
830.88492504459612
 30
0.0
 11
-1900.0765761544139
 21
830.88492504459612
 31
0.0
  0
LINE
  5
2D6
  8
1
 10
-1901.76784862195
 20
835.38492504459612
 30
0.0
 11
-1901.76784862195
 21
832.58492504459582
 31
0.0
  0
LINE
  5
2D7
  8
1
 10
-1905.76784862195
 20
827.88492504459612
 30
0.0
 11
-1904.26784862195
 21
827.88492504459612
 31
0.0
  0
LINE
  5
2D8
  8
1
 10
-1905.76784862195
 20
828.88492504459612
 30
0.0
 11
-1904.26784862195
 21
828.88492504459612
 31
0.0
  0
LINE
  5
2D9
  8
1
 10
-1904.26784862195
 20
827.88492504459612
 30
0.0
 11
-1904.26784862195
 21
828.88492504459612
 31
0.0
  0
ARC
  5
2DA
  8
1
 10
-1905.26784862195
 20
830.88492504459612
 30
0.0
 40
0.5
 50
90.0
 51
180.0
  0
ARC
  5
2DB
  8
1
 10
-1905.26784862195
 20
830.88492504459589
 30
0.0
 40
1.7
 50
90.000000000000099
 51
180.0
  0
ARC
  5
2DC
  8
1
 10
-1911.01784862195
 20
838.384925044596
 30
0.0
 40
3.0
 50
180.0
 51
270.0
  0
ARC
  5
2DD
  8
1
 10
-1910.01784862195
 20
839.38492504459623
 30
0.0
 40
2.2000000000000002
 50
180.0
 51
270.0
  0
ARC
  5
2DE
  8
1
 10
-1910.01784862195
 20
839.38492504459623
 30
0.0
 40
1.0
 50
180.0
 51
270.0
  0
LINE
  5
2DF
  8
1
 10
-1905.76784862195
 20
824.884925044596
 30
0.0
 11
-1904.26784862195
 21
824.884925044596
 31
0.0
  0
LINE
  5
2E0
  8
1
 10
-1904.26784862195
 20
820.88492504459612
 30
0.0
 11
-1904.26784862195
 21
821.88492504459612
 31
0.0
  0
LINE
  5
2E1
  8
1
 10
-1905.76784862195
 20
823.884925044596
 30
0.0
 11
-1904.26784862195
 21
823.884925044596
 31
0.0
  0
LINE
  5
2E2
  8
1
 10
-1905.76784862195
 20
821.88492504459612
 30
0.0
 11
-1904.26784862195
 21
821.88492504459612
 31
0.0
  0
LINE
  5
2E3
  8
1
 10
-1905.76784862195
 20
820.88492504459612
 30
0.0
 11
-1904.26784862195
 21
820.88492504459612
 31
0.0
  0
LINE
  5
2E4
  8
1
 10
-1904.26784862195
 20
823.884925044596
 30
0.0
 11
-1904.26784862195
 21
824.884925044596
 31
0.0
  0
LINE
  5
2E5
  8
1
 10
-1904.26784862195
 20
816.884925044596
 30
0.0
 11
-1904.26784862195
 21
817.884925044596
 31
0.0
  0
LINE
  5
2E6
  8
1
 10
-1905.76784862195
 20
813.88492504459612
 30
0.0
 11
-1904.26784862195
 21
813.88492504459612
 31
0.0
  0
LINE
  5
2E7
  8
1
 10
-1905.76784862195
 20
814.88492504459612
 30
0.0
 11
-1904.26784862195
 21
814.88492504459612
 31
0.0
  0
LINE
  5
2E8
  8
1
 10
-1905.76784862195
 20
816.884925044596
 30
0.0
 11
-1904.26784862195
 21
816.884925044596
 31
0.0
  0
LINE
  5
2E9
  8
1
 10
-1904.26784862195
 20
813.88492504459612
 30
0.0
 11
-1904.26784862195
 21
814.88492504459612
 31
0.0
  0
LINE
  5
2EA
  8
1
 10
-1905.76784862195
 20
817.884925044596
 30
0.0
 11
-1904.26784862195
 21
817.884925044596
 31
0.0
  0
ARC
  5
2EB
  8
1
 10
-1905.26784862195
 20
813.63492504459578
 30
0.0
 40
1.7
 50
180.0
 51
270.00000000000171
  0
ARC
  5
2EC
  8
1
 10
-1905.26784862195
 20
813.63492504459555
 30
0.0
 40
0.5
 50
180.0
 51
269.99999999999562
  0
LINE
  5
2ED
  8
1
 10
-1905.01784862195
 20
811.93492504459573
 30
0.0
 11
-1905.26784862195
 21
811.93492504459584
 31
0.0
  0
LINE
  5
2EE
  8
1
 10
-1905.01784862195
 20
813.13492504459566
 30
0.0
 11
-1905.26784862195
 21
813.13492504459566
 31
0.0
  0
LINE
  5
2EF
  8
1
 10
-1905.76784862195
 20
830.88492504459612
 30
0.0
 11
-1905.76784862195
 21
813.63492504459555
 31
0.0
  0
LINE
  5
2F0
  8
1
 10
-1906.96784862195
 20
830.88492504459589
 30
0.0
 11
-1906.96784862195
 21
813.63492504459578
 31
0.0
  0
LINE
  5
2F1
  8
1
 10
-1884.51784862195
 20
839.88492504459623
 30
0.0
 11
-1885.51784862195
 21
839.88492504459623
 31
0.0
  0
LINE
  5
2F2
  8
1
 10
-1884.51784862195
 20
838.38492504459623
 30
0.0
 11
-1884.51784862195
 21
839.88492504459623
 31
0.0
  0
LINE
  5
2F3
  8
1
 10
-1885.51784862195
 20
838.38492504459623
 30
0.0
 11
-1885.51784862195
 21
839.88492504459623
 31
0.0
  0
ARC
  5
2F4
  8
1
 10
-1900.0765761544139
 20
831.08492504459605
 30
0.0
 40
0.2
 50
270.0
 51
0.0
  0
LINE
  5
2F5
  8
1
 10
-1899.8765761544139
 20
831.38492504459623
 30
0.0
 11
-1899.8765761544139
 21
831.08492504459605
 31
0.0
  0
CIRCLE
  5
2F8
  8
1
 10
-1892.51784862195
 20
815.884925044596
 30
0.0
 40
1.1999999999999991
  0
ARC
  5
2FA
  8
1
 10
-1892.51784862195
 20
815.884925044596
 30
0.0
 40
4.5
 50
297.26604445073269
 51
242.73395554926719
  0
LINE
  5
2FB
  8
1
 10
-1914.01784862195
 20
863.88492504459634
 30
0.0
 11
-1921.052753434825
 21
863.76213032432361
 31
0.0
  0
LINE
  5
2FC
  8
1
 10
-1914.01784862195
 20
846.384925044596
 30
0.0
 11
-1923.01784862195
 21
846.384925044596
 31
0.0
  0
LINE
  5
2FD
  8
1
 10
-1914.01784862195
 20
861.384925044596
 30
0.0
 11
-1923.01784862195
 21
861.384925044596
 31
0.0
  0
LINE
  5
2FE
  8
1
 10
-1914.01784862195
 20
843.88492504459623
 30
0.0
 11
-1921.052753434825
 21
844.00771976486874
 31
0.0
  0
LINE
  5
309
  8
1
 10
-1920.51784862195
 20
846.384925044596
 30
0.0
 11
-1920.51784862195
 21
861.384925044596
 31
0.0
  0
LINE
  5
30A
  8
1
 10
-1923.01784862195
 20
846.00741515518155
 30
0.0
 11
-1923.01784862195
 21
861.7624349340108
 31
0.0
  0
ARC
  5
30B
  8
1
 10
-1921.01784862195
 20
846.00741515518155
 30
0.0
 40
2.0
 50
180.0
 51
268.99999999999909
  0
ARC
  5
30C
  8
1
 10
-1921.01784862195
 20
861.7624349340108
 30
0.0
 40
2.0
 50
91.000000000000838
 51
180.0
  0
CIRCLE
  5
30E
  8
1
 10
-1890.01784862195
 20
874.63492504459612
 30
0.0
 40
4.5
  0
CIRCLE
  5
310
  8
1
 10
-1903.51784862195
 20
874.63492504459612
 30
0.0
 40
4.5
  0
ARC
  5
311
  8
1
 10
-1903.0475866449331
 20
846.88492504459612
 30
0.0
 40
3.0
 50
0.9999999999999378
 51
90.0
  0
CIRCLE
  5
31F
  8
1
 10
-1903.51784862195
 20
845.88492504459612
 30
0.0
 40
1.1999999999999991
  0
LINE
  5
320
  8
1
 10
-1916.01784862195
 20
861.384925044596
 30
0.0
 11
-1916.01784862195
 21
863.85001491473975
 31
0.0
  0
LINE
  5
321
  8
1
 10
-1909.51784862195
 20
861.88492504459612
 30
0.0
 11
-1909.51784862195
 21
862.88492504459612
 31
0.0
  0
LINE
  5
322
  8
1
 10
-1911.01784862195
 20
858.884925044596
 30
0.0
 11
-1909.51784862195
 21
858.884925044596
 31
0.0
  0
LINE
  5
323
  8
1
 10
-1911.01784862195
 20
859.88492504459623
 30
0.0
 11
-1909.51784862195
 21
859.88492504459623
 31
0.0
  0
LINE
  5
324
  8
1
 10
-1911.01784862195
 20
861.88492504459612
 30
0.0
 11
-1909.51784862195
 21
861.88492504459612
 31
0.0
  0
LINE
  5
325
  8
1
 10
-1909.51784862195
 20
858.884925044596
 30
0.0
 11
-1909.51784862195
 21
859.88492504459623
 31
0.0
  0
LINE
  5
326
  8
1
 10
-1911.01784862195
 20
862.88492504459612
 30
0.0
 11
-1909.51784862195
 21
862.88492504459612
 31
0.0
  0
LINE
  5
327
  8
1
 10
-1916.01784862195
 20
843.91983517445237
 30
0.0
 11
-1916.01784862195
 21
846.384925044596
 31
0.0
  0
LINE
  5
328
  8
1
 10
-1906.3744199933669
 20
848.68492504459596
 30
0.0
 11
-1911.01784862195
 21
848.68492504459596
 31
0.0
  0
LINE
  5
329
  8
1
 10
-1903.0475866449331
 20
849.884925044596
 30
0.0
 11
-1911.01784862195
 21
849.884925044596
 31
0.0
  0
CIRCLE
  5
339
  8
1
 10
-1903.51784862195
 20
874.63492504459612
 30
0.0
 40
1.1999999999999991
  0
LINE
  5
33D
  8
1
 10
-1909.51784862195
 20
901.13492504459612
 30
0.0
 11
-1909.51784862195
 21
900.13492504459623
 31
0.0
  0
LINE
  5
33E
  8
1
 10
-1911.01784862195
 20
901.13492504459612
 30
0.0
 11
-1909.51784862195
 21
901.13492504459612
 31
0.0
  0
LINE
  5
33F
  8
1
 10
-1911.01784862195
 20
900.13492504459623
 30
0.0
 11
-1909.51784862195
 21
900.13492504459623
 31
0.0
  0
LINE
  5
340
  8
1
 10
-1911.01784862195
 20
886.384925044596
 30
0.0
 11
-1909.51784862195
 21
886.384925044596
 31
0.0
  0
LINE
  5
341
  8
1
 10
-1909.51784862195
 20
890.38492504459612
 30
0.0
 11
-1909.51784862195
 21
889.38492504459623
 31
0.0
  0
LINE
  5
342
  8
1
 10
-1911.01784862195
 20
887.384925044596
 30
0.0
 11
-1909.51784862195
 21
887.384925044596
 31
0.0
  0
LINE
  5
343
  8
1
 10
-1911.01784862195
 20
889.38492504459623
 30
0.0
 11
-1909.51784862195
 21
889.38492504459623
 31
0.0
  0
LINE
  5
344
  8
1
 10
-1911.01784862195
 20
890.38492504459612
 30
0.0
 11
-1909.51784862195
 21
890.38492504459612
 31
0.0
  0
LINE
  5
345
  8
1
 10
-1909.51784862195
 20
887.384925044596
 30
0.0
 11
-1909.51784862195
 21
886.384925044596
 31
0.0
  0
LINE
  5
346
  8
1
 10
-1911.01784862195
 20
876.634925044596
 30
0.0
 11
-1909.51784862195
 21
876.634925044596
 31
0.0
  0
LINE
  5
347
  8
1
 10
-1909.51784862195
 20
872.63492504459612
 30
0.0
 11
-1909.51784862195
 21
873.63492504459612
 31
0.0
  0
LINE
  5
348
  8
1
 10
-1911.01784862195
 20
875.63492504459612
 30
0.0
 11
-1909.51784862195
 21
875.63492504459612
 31
0.0
  0
LINE
  5
349
  8
1
 10
-1911.01784862195
 20
873.63492504459612
 30
0.0
 11
-1909.51784862195
 21
873.63492504459612
 31
0.0
  0
LINE
  5
34A
  8
1
 10
-1911.01784862195
 20
872.63492504459612
 30
0.0
 11
-1909.51784862195
 21
872.63492504459612
 31
0.0
  0
LINE
  5
34B
  8
1
 10
-1909.51784862195
 20
875.63492504459612
 30
0.0
 11
-1909.51784862195
 21
876.634925044596
 31
0.0
  0
CIRCLE
  5
34D
  8
1
 10
-1890.01784862195
 20
874.63492504459612
 30
0.0
 40
1.1999999999999991
  0
CIRCLE
  5
35B
  8
1
  6
HIDDEN
 10
-1460.120673605303
 20
797.38492504459612
 30
0.0
 40
10.25
  0
LINE
  5
360
  8
1
 10
-1861.9867197478
 20
813.88492504459612
 30
0.0
 11
-1835.048977496099
 21
813.88492504459612
 31
0.0
  0
LINE
  5
371
  8
1
 10
-1867.01784862195
 20
839.88492504459623
 30
0.0
 11
-1868.01784862195
 21
839.88492504459623
 31
0.0
  0
CIRCLE
  5
372
  8
1
 10
-1866.01784862195
 20
815.884925044596
 30
0.0
 40
4.5
  0
LINE
  5
374
  8
1
 10
-1868.01784862195
 20
838.38492504459623
 30
0.0
 11
-1868.01784862195
 21
839.88492504459623
 31
0.0
  0
LINE
  5
375
  8
1
 10
-1881.51784862195
 20
838.38492504459623
 30
0.0
 11
-1881.51784862195
 21
839.88492504459623
 31
0.0
  0
LINE
  5
376
  8
1
 10
-1882.51784862195
 20
838.38492504459623
 30
0.0
 11
-1882.51784862195
 21
839.88492504459623
 31
0.0
  0
LINE
  5
377
  8
1
 10
-1881.51784862195
 20
839.88492504459623
 30
0.0
 11
-1882.51784862195
 21
839.88492504459623
 31
0.0
  0
LINE
  5
378
  8
1
 10
-1879.51784862195
 20
813.88492504459612
 30
0.0
 11
-1870.048977496099
 21
813.88492504459612
 31
0.0
  0
LINE
  5
379
  8
1
 10
-1864.01784862195
 20
839.88492504459623
 30
0.0
 11
-1865.01784862195
 21
839.88492504459623
 31
0.0
  0
LINE
  5
37A
  8
1
 10
-1865.01784862195
 20
838.38492504459623
 30
0.0
 11
-1865.01784862195
 21
839.88492504459623
 31
0.0
  0
LINE
  5
37B
  8
1
 10
-1864.01784862195
 20
838.38492504459623
 30
0.0
 11
-1864.01784862195
 21
839.88492504459623
 31
0.0
  0
LINE
  5
37C
  8
1
 10
-1867.01784862195
 20
838.38492504459623
 30
0.0
 11
-1867.01784862195
 21
839.88492504459623
 31
0.0
  0
CIRCLE
  5
37E
  8
1
 10
-1866.01784862195
 20
815.884925044596
 30
0.0
 40
1.1999999999999991
  0
ARC
  5
380
  8
1
 10
-1831.01784862195
 20
807.884925044596
 30
0.0
 40
4.5
 50
117.26604445073271
 51
62.733955549267222
  0
LINE
  5
385
  8
1
 10
-1835.01784862195
 20
786.38492504459578
 30
0.0
 11
-1827.01784862195
 21
786.38492504459578
 31
0.0
  0
CIRCLE
  5
386
  8
1
 10
-1831.01784862195
 20
791.38492504459612
 30
0.0
 40
4.5
  0
LINE
  5
38C
  8
1
 10
-1835.01784862195
 20
786.38492504459578
 30
0.0
 11
-1835.01784862195
 21
784.38492504459612
 31
0.0
  0
CIRCLE
  5
398
  8
1
 10
-1831.01784862195
 20
807.884925044596
 30
0.0
 40
1.1999999999999991
  0
LINE
  5
39B
  8
1
 10
-1827.01784862195
 20
786.38492504459578
 30
0.0
 11
-1827.01784862195
 21
784.38492504459612
 31
0.0
  0
ARC
  5
39E
  8
1
 10
-1831.01784862195
 20
815.884925044596
 30
0.0
 40
4.5
 50
297.26604445073269
 51
242.73395554926719
  0
LINE
  5
3A0
  8
1
 10
-1846.51784862195
 20
838.38492504459623
 30
0.0
 11
-1846.51784862195
 21
839.88492504459623
 31
0.0
  0
LINE
  5
3A1
  8
1
 10
-1847.51784862195
 20
838.38492504459623
 30
0.0
 11
-1847.51784862195
 21
839.88492504459623
 31
0.0
  0
LINE
  5
3A2
  8
1
 10
-1850.51784862195
 20
838.38492504459623
 30
0.0
 11
-1850.51784862195
 21
839.88492504459623
 31
0.0
  0
LINE
  5
3A3
  8
1
 10
-1849.51784862195
 20
838.38492504459623
 30
0.0
 11
-1849.51784862195
 21
839.88492504459623
 31
0.0
  0
LINE
  5
3A4
  8
1
 10
-1849.51784862195
 20
839.88492504459623
 30
0.0
 11
-1850.51784862195
 21
839.88492504459623
 31
0.0
  0
LINE
  5
3A5
  8
1
 10
-1846.51784862195
 20
839.88492504459623
 30
0.0
 11
-1847.51784862195
 21
839.88492504459623
 31
0.0
  0
LINE
  5
3A8
  8
1
 10
-1832.01784862195
 20
839.88492504459623
 30
0.0
 11
-1833.01784862195
 21
839.88492504459623
 31
0.0
  0
LINE
  5
3A9
  8
1
 10
-1832.01784862195
 20
838.38492504459623
 30
0.0
 11
-1832.01784862195
 21
839.88492504459623
 31
0.0
  0
LINE
  5
3AA
  8
1
 10
-1833.01784862195
 20
838.38492504459623
 30
0.0
 11
-1833.01784862195
 21
839.88492504459623
 31
0.0
  0
LINE
  5
3AB
  8
1
 10
-1829.01784862195
 20
838.38492504459623
 30
0.0
 11
-1829.01784862195
 21
839.88492504459623
 31
0.0
  0
LINE
  5
3AC
  8
1
 10
-1830.01784862195
 20
838.38492504459623
 30
0.0
 11
-1830.01784862195
 21
839.88492504459623
 31
0.0
  0
LINE
  5
3AD
  8
1
 10
-1829.01784862195
 20
839.88492504459623
 30
0.0
 11
-1830.01784862195
 21
839.88492504459623
 31
0.0
  0
CIRCLE
  5
3AE
  8
1
 10
-1831.01784862195
 20
815.884925044596
 30
0.0
 40
1.1999999999999991
  0
ARC
  5
53E
  8
1
 10
-1751.01784862195
 20
838.384925044596
 30
0.0
 40
3.0
 50
270.0
 51
0.0
  0
ARC
  5
543
  8
1
 10
-1751.32095743024
 20
784.38492504459612
 30
0.0
 40
3.0
 50
270.0
 51
0.0
  0
LINE
  5
544
  8
1
 10
-1760.9371184008
 20
838.36398215687143
 30
0.0
 11
-1760.862408908567
 21
842.64408610036958
 31
0.0
  0
ARC
  5
545
  8
1
 10
-1758.51784862195
 20
845.88492504459612
 30
0.0
 40
4.0
 50
234.11642825910371
 51
44.427004000804601
  0
LINE
  5
546
  8
1
 10
-1762.136935634988
 20
838.384925044596
 30
0.0
 11
-1761.9876536844361
 21
846.93728226390795
 31
0.0
  0
CIRCLE
  5
55A
  8
1
  6
HIDDEN
 10
-1387.620673605303
 20
797.38492504459612
 30
0.0
 40
10.25
  0
ARC
  5
55E
  8
1
 10
-1783.01784862195
 20
797.38492504459612
 30
0.0
 40
16.5
 50
53.130102354156143
 51
90.0
  0
CIRCLE
  5
57A
  8
1
 10
-1796.01784862195
 20
815.884925044596
 30
0.0
 40
4.5
  0
LINE
  5
57B
  8
1
 10
-1812.51784862195
 20
839.88492504459623
 30
0.0
 11
-1811.51784862195
 21
839.88492504459623
 31
0.0
  0
LINE
  5
57C
  8
1
 10
-1812.51784862195
 20
838.38492504459623
 30
0.0
 11
-1812.51784862195
 21
839.88492504459623
 31
0.0
  0
LINE
  5
57D
  8
1
 10
-1811.51784862195
 20
838.38492504459623
 30
0.0
 11
-1811.51784862195
 21
839.88492504459623
 31
0.0
  0
LINE
  5
57E
  8
1
 10
-1815.51784862195
 20
838.38492504459623
 30
0.0
 11
-1815.51784862195
 21
839.88492504459623
 31
0.0
  0
LINE
  5
57F
  8
1
 10
-1814.51784862195
 20
838.38492504459623
 30
0.0
 11
-1814.51784862195
 21
839.88492504459623
 31
0.0
  0
LINE
  5
580
  8
1
 10
-1815.51784862195
 20
839.88492504459623
 30
0.0
 11
-1814.51784862195
 21
839.88492504459623
 31
0.0
  0
LINE
  5
581
  8
1
 10
-1795.01784862195
 20
839.88492504459623
 30
0.0
 11
-1794.01784862195
 21
839.88492504459623
 31
0.0
  0
LINE
  5
582
  8
1
 10
-1795.01784862195
 20
838.38492504459623
 30
0.0
 11
-1795.01784862195
 21
839.88492504459623
 31
0.0
  0
LINE
  5
583
  8
1
 10
-1794.01784862195
 20
838.38492504459623
 30
0.0
 11
-1794.01784862195
 21
839.88492504459623
 31
0.0
  0
LINE
  5
584
  8
1
 10
-1798.01784862195
 20
838.38492504459623
 30
0.0
 11
-1798.01784862195
 21
839.88492504459623
 31
0.0
  0
LINE
  5
585
  8
1
 10
-1797.01784862195
 20
838.38492504459623
 30
0.0
 11
-1797.01784862195
 21
839.88492504459623
 31
0.0
  0
LINE
  5
586
  8
1
 10
-1798.01784862195
 20
839.88492504459623
 30
0.0
 11
-1797.01784862195
 21
839.88492504459623
 31
0.0
  0
CIRCLE
  5
588
  8
1
 10
-1796.01784862195
 20
815.884925044596
 30
0.0
 40
1.1999999999999991
  0
LINE
  5
58A
  8
1
 10
-1791.9867197478
 20
813.88492504459612
 30
0.0
 11
-1783.01784862195
 21
813.88492504459612
 31
0.0
  0
ARC
  5
58D
  8
1
 10
-1769.51784862195
 20
807.884925044596
 30
0.0
 40
4.5
 50
117.26604445073271
 51
62.733955549267222
  0
ARC
  5
58F
  8
1
 10
-1757.01784862195
 20
807.884925044596
 30
0.0
 40
4.0499999999996126
 50
89.999999999998394
 51
180.0
  0
ARC
  5
590
  8
1
 10
-1757.01784862195
 20
807.884925044596
 30
0.0
 40
5.2499999999996128
 50
90.000000000004945
 51
180.0
  0
ARC
  5
593
  8
1
 10
-1783.01784862195
 20
797.38492504459612
 30
0.0
 40
16.5
 50
308.01227954434938
 51
22.619864948039869
  0
CIRCLE
  5
595
  8
1
 10
-1769.51784862195
 20
807.884925044596
 30
0.0
 40
1.1999999999999991
  0
LINE
  5
597
  8
1
 10
-1754.4143837661029
 20
807.884925044596
 30
0.0
 11
-1754.4143837661029
 21
808.884925044596
 31
0.0
  0
LINE
  5
598
  8
1
 10
-1750.32095743024
 20
807.884925044596
 30
0.0
 11
-1750.32095743024
 21
809.88492504459623
 31
0.0
  0
LINE
  5
599
  8
1
 10
-1753.0209574302401
 20
807.884925044596
 30
0.0
 11
-1753.0209574302401
 21
809.88492504459623
 31
0.0
  0
LINE
  5
59A
  8
1
 10
-1750.32095743024
 20
809.88492504459623
 30
0.0
 11
-1753.0209574302401
 21
809.88492504459623
 31
0.0
  0
LINE
  5
59B
  8
1
 10
-1750.32095743024
 20
807.884925044596
 30
0.0
 11
-1753.0209574302401
 21
807.884925044596
 31
0.0
  0
LINE
  5
59C
  8
1
 10
-1755.51784862195
 20
802.81734309904311
 30
0.0
 11
-1757.01784862195
 21
802.81734309904311
 31
0.0
  0
ARC
  5
59D
  8
1
 10
-1760.76784862195
 20
804.08492504459616
 30
0.0
 40
0.3
 50
90.000000000000327
 51
180.0
  0
LINE
  5
59E
  8
1
 10
-1750.62095743024
 20
804.38492504459623
 30
0.0
 11
-1760.76784862195
 21
804.384925044596
 31
0.0
  0
ARC
  5
59F
  8
1
 10
-1750.62095743024
 20
804.08492504459616
 30
0.0
 40
0.3
 50
0.0
 51
90.0
  0
LINE
  5
5A0
  8
1
 10
-1752.8178486219499
 20
798.68492504459618
 30
0.0
 11
-1752.8178486219499
 21
789.08492504459605
 31
0.0
  0
LINE
  5
5A1
  8
1
 10
-1758.21784862195
 20
798.68492504459618
 30
0.0
 11
-1758.21784862195
 21
789.08492504459605
 31
0.0
  0
ARC
  5
5A2
  8
1
 10
-1755.51784862195
 20
798.68492504459618
 30
0.0
 40
2.7000000000000002
 50
0.0
 51
180.0
  0
CIRCLE
  5
5A8
  8
1
 10
-1757.01784862195
 20
807.884925044596
 30
0.0
 40
1.6000000000000001
  0
ARC
  5
5A9
  8
1
 10
-1760.76784862195
 20
783.68492504459596
 30
0.0
 40
0.3
 50
180.0
 51
270.0
  0
LINE
  5
5AA
  8
1
 10
-1751.32095743024
 20
783.38492504459612
 30
0.0
 11
-1760.76784862195
 21
783.38492504459612
 31
0.0
  0
ARC
  5
5AB
  8
1
 10
-1751.32095743024
 20
784.38492504459612
 30
0.0
 40
1.0
 50
270.00000000000023
 51
0.0
  0
ARC
  5
5AC
  8
1
 10
-1762.76784862195
 20
784.88492504459612
 30
0.0
 40
0.5
 50
270.0
 51
0.0
  0
ARC
  5
5AD
  8
1
 10
-1762.76784862195
 20
784.88492504459634
 30
0.0
 40
1.7
 50
270.0
 51
0.0
  0
LINE
  5
5AE
  8
1
 10
-1762.26784862195
 20
807.884925044596
 30
0.0
 11
-1762.26784862195
 21
784.88492504459612
 31
0.0
  0
LINE
  5
5AF
  8
1
 10
-1761.0678486219499
 20
807.884925044596
 30
0.0
 11
-1761.0678486219499
 21
783.68492504459596
 31
0.0
  0
LINE
  5
5B0
  8
1
 10
-1750.32095743024
 20
784.38492504459612
 30
0.0
 11
-1750.32095743024
 21
804.08492504459616
 31
0.0
  0
ARC
  5
5B1
  8
1
 10
-1755.51784862195
 20
789.08492504459605
 30
0.0
 40
2.7000000000000002
 50
180.0
 51
0.0
  0
ARC
  5
5B2
  8
1
 10
-1769.51784862195
 20
815.884925044596
 30
0.0
 40
4.5
 50
297.26604445073269
 51
242.73395554926719
  0
LINE
  5
5B3
  8
1
 10
-1780.51784862195
 20
839.88492504459623
 30
0.0
 11
-1779.51784862195
 21
839.88492504459623
 31
0.0
  0
LINE
  5
5B4
  8
1
 10
-1779.51784862195
 20
838.38492504459623
 30
0.0
 11
-1779.51784862195
 21
839.88492504459623
 31
0.0
  0
LINE
  5
5B5
  8
1
 10
-1780.51784862195
 20
838.38492504459623
 30
0.0
 11
-1780.51784862195
 21
839.88492504459623
 31
0.0
  0
LINE
  5
5B6
  8
1
 10
-1776.51784862195
 20
838.38492504459623
 30
0.0
 11
-1776.51784862195
 21
839.88492504459623
 31
0.0
  0
LINE
  5
5B7
  8
1
 10
-1777.51784862195
 20
838.38492504459623
 30
0.0
 11
-1777.51784862195
 21
839.88492504459623
 31
0.0
  0
LINE
  5
5B8
  8
1
 10
-1777.51784862195
 20
839.88492504459623
 30
0.0
 11
-1776.51784862195
 21
839.88492504459623
 31
0.0
  0
CIRCLE
  5
5C0
  8
1
 10
-1769.51784862195
 20
815.884925044596
 30
0.0
 40
1.1999999999999991
  0
ARC
  5
5C7
  8
1
 10
-1756.76784862195
 20
830.88492504459589
 30
0.0
 40
1.7
 50
0.0
 51
89.999999999999915
  0
ARC
  5
5C8
  8
1
 10
-1756.76784862195
 20
830.88492504459612
 30
0.0
 40
0.5
 50
0.0
 51
90.0
  0
LINE
  5
5C9
  8
1
 10
-1757.76784862195
 20
827.88492504459612
 30
0.0
 11
-1757.76784862195
 21
828.88492504459612
 31
0.0
  0
LINE
  5
5CA
  8
1
 10
-1756.26784862195
 20
828.88492504459612
 30
0.0
 11
-1757.76784862195
 21
828.88492504459612
 31
0.0
  0
LINE
  5
5CB
  8
1
 10
-1756.26784862195
 20
827.88492504459612
 30
0.0
 11
-1757.76784862195
 21
827.88492504459612
 31
0.0
  0
ARC
  5
5CC
  8
1
 10
-1752.01784862195
 20
839.38492504459623
 30
0.0
 40
1.0
 50
270.0
 51
0.0
  0
ARC
  5
5CD
  8
1
 10
-1752.01784862195
 20
839.38492504459623
 30
0.0
 40
2.2000000000000002
 50
270.0
 51
0.0
  0
LINE
  5
5CF
  8
1
 10
-1762.159121089486
 20
831.38492504459623
 30
0.0
 11
-1762.159121089486
 21
831.08492504459605
 31
0.0
  0
ARC
  5
5D0
  8
1
 10
-1761.959121089486
 20
831.08492504459605
 30
0.0
 40
0.2
 50
180.0
 51
270.0
  0
LINE
  5
5D1
  8
1
 10
-1756.26784862195
 20
830.88492504459612
 30
0.0
 11
-1761.959121089486
 21
830.88492504459612
 31
0.0
  0
LINE
  5
5D2
  8
1
 10
-1757.01784862195
 20
813.13492504459566
 30
0.0
 11
-1756.76784862195
 21
813.13492504459566
 31
0.0
  0
ARC
  5
5D3
  8
1
 10
-1756.76784862195
 20
813.63492504459555
 30
0.0
 40
0.5
 50
270.00000000000432
 51
0.0
  0
ARC
  5
5D4
  8
1
 10
-1756.76784862195
 20
813.63492504459578
 30
0.0
 40
1.7
 50
269.99999999999818
 51
0.0
  0
LINE
  5
5D5
  8
1
 10
-1757.01784862195
 20
811.93492504459573
 30
0.0
 11
-1756.76784862195
 21
811.93492504459584
 31
0.0
  0
LINE
  5
5D6
  8
1
 10
-1756.26784862195
 20
817.884925044596
 30
0.0
 11
-1757.76784862195
 21
817.884925044596
 31
0.0
  0
LINE
  5
5D7
  8
1
 10
-1757.76784862195
 20
813.88492504459612
 30
0.0
 11
-1757.76784862195
 21
814.88492504459612
 31
0.0
  0
LINE
  5
5D8
  8
1
 10
-1756.26784862195
 20
816.884925044596
 30
0.0
 11
-1757.76784862195
 21
816.884925044596
 31
0.0
  0
LINE
  5
5D9
  8
1
 10
-1756.26784862195
 20
814.88492504459612
 30
0.0
 11
-1757.76784862195
 21
814.88492504459612
 31
0.0
  0
LINE
  5
5DA
  8
1
 10
-1756.26784862195
 20
813.88492504459612
 30
0.0
 11
-1757.76784862195
 21
813.88492504459612
 31
0.0
  0
LINE
  5
5DB
  8
1
 10
-1757.76784862195
 20
816.884925044596
 30
0.0
 11
-1757.76784862195
 21
817.884925044596
 31
0.0
  0
LINE
  5
5DC
  8
1
 10
-1757.76784862195
 20
823.884925044596
 30
0.0
 11
-1757.76784862195
 21
824.884925044596
 31
0.0
  0
LINE
  5
5DD
  8
1
 10
-1756.26784862195
 20
820.88492504459612
 30
0.0
 11
-1757.76784862195
 21
820.88492504459612
 31
0.0
  0
LINE
  5
5DE
  8
1
 10
-1756.26784862195
 20
821.88492504459612
 30
0.0
 11
-1757.76784862195
 21
821.88492504459612
 31
0.0
  0
LINE
  5
5DF
  8
1
 10
-1756.26784862195
 20
823.884925044596
 30
0.0
 11
-1757.76784862195
 21
823.884925044596
 31
0.0
  0
LINE
  5
5E0
  8
1
 10
-1757.76784862195
 20
820.88492504459612
 30
0.0
 11
-1757.76784862195
 21
821.88492504459612
 31
0.0
  0
LINE
  5
5E1
  8
1
 10
-1756.26784862195
 20
824.884925044596
 30
0.0
 11
-1757.76784862195
 21
824.884925044596
 31
0.0
  0
LINE
  5
5E2
  8
1
 10
-1755.0678486219499
 20
830.88492504459589
 30
0.0
 11
-1755.0678486219499
 21
813.63492504459578
 31
0.0
  0
LINE
  5
5E3
  8
1
 10
-1756.26784862195
 20
830.88492504459612
 30
0.0
 11
-1756.26784862195
 21
813.63492504459555
 31
0.0
  0
CIRCLE
  5
5F4
  8
1
 10
-1772.01784862195
 20
874.63492504459612
 30
0.0
 40
4.5
  0
CIRCLE
  5
5F5
  8
1
 10
-1758.51784862195
 20
874.63492504459612
 30
0.0
 40
4.5
  0
LINE
  5
5F8
  8
1
 10
-1755.6612772505321
 20
848.68492504459596
 30
0.0
 11
-1751.01784862195
 21
848.68492504459596
 31
0.0
  0
LINE
  5
5FA
  8
1
 10
-1758.9881105989671
 20
849.884925044596
 30
0.0
 11
-1751.01784862195
 21
849.884925044596
 31
0.0
  0
LINE
  5
5FB
  8
1
 10
-1751.01784862195
 20
862.88492504459612
 30
0.0
 11
-1752.51784862195
 21
862.88492504459612
 31
0.0
  0
LINE
  5
5FC
  8
1
 10
-1752.51784862195
 20
858.884925044596
 30
0.0
 11
-1752.51784862195
 21
859.88492504459623
 31
0.0
  0
LINE
  5
5FD
  8
1
 10
-1751.01784862195
 20
861.88492504459612
 30
0.0
 11
-1752.51784862195
 21
861.88492504459612
 31
0.0
  0
LINE
  5
5FE
  8
1
 10
-1751.01784862195
 20
859.88492504459623
 30
0.0
 11
-1752.51784862195
 21
859.88492504459623
 31
0.0
  0
LINE
  5
5FF
  8
1
 10
-1751.01784862195
 20
858.884925044596
 30
0.0
 11
-1752.51784862195
 21
858.884925044596
 31
0.0
  0
LINE
  5
600
  8
1
 10
-1752.51784862195
 20
861.88492504459612
 30
0.0
 11
-1752.51784862195
 21
862.88492504459612
 31
0.0
  0
CIRCLE
  5
602
  8
1
 10
-1758.51784862195
 20
845.88492504459612
 30
0.0
 40
1.1999999999999991
  0
ARC
  5
604
  8
1
 10
-1758.9881105989671
 20
846.88492504459612
 30
0.0
 40
3.0
 50
90.0
 51
179.0
  0
CIRCLE
  5
609
  8
1
 10
-1772.01784862195
 20
874.63492504459612
 30
0.0
 40
1.1999999999999991
  0
LINE
  5
60A
  8
1
 10
-1751.01784862195
 20
900.13492504459623
 30
0.0
 11
-1752.51784862195
 21
900.13492504459623
 31
0.0
  0
LINE
  5
60B
  8
1
 10
-1751.01784862195
 20
901.13492504459612
 30
0.0
 11
-1752.51784862195
 21
901.13492504459612
 31
0.0
  0
LINE
  5
60C
  8
1
 10
-1752.51784862195
 20
901.13492504459612
 30
0.0
 11
-1752.51784862195
 21
900.13492504459623
 31
0.0
  0
LINE
  5
60D
  8
1
 10
-1752.51784862195
 20
887.384925044596
 30
0.0
 11
-1752.51784862195
 21
886.384925044596
 31
0.0
  0
LINE
  5
60E
  8
1
 10
-1751.01784862195
 20
890.38492504459612
 30
0.0
 11
-1752.51784862195
 21
890.38492504459612
 31
0.0
  0
LINE
  5
60F
  8
1
 10
-1751.01784862195
 20
889.38492504459623
 30
0.0
 11
-1752.51784862195
 21
889.38492504459623
 31
0.0
  0
LINE
  5
610
  8
1
 10
-1751.01784862195
 20
887.384925044596
 30
0.0
 11
-1752.51784862195
 21
887.384925044596
 31
0.0
  0
LINE
  5
611
  8
1
 10
-1752.51784862195
 20
890.38492504459612
 30
0.0
 11
-1752.51784862195
 21
889.38492504459623
 31
0.0
  0
LINE
  5
612
  8
1
 10
-1751.01784862195
 20
886.384925044596
 30
0.0
 11
-1752.51784862195
 21
886.384925044596
 31
0.0
  0
LINE
  5
614
  8
1
 10
-1752.51784862195
 20
875.63492504459612
 30
0.0
 11
-1752.51784862195
 21
876.634925044596
 31
0.0
  0
LINE
  5
615
  8
1
 10
-1751.01784862195
 20
872.63492504459612
 30
0.0
 11
-1752.51784862195
 21
872.63492504459612
 31
0.0
  0
LINE
  5
616
  8
1
 10
-1751.01784862195
 20
873.63492504459612
 30
0.0
 11
-1752.51784862195
 21
873.63492504459612
 31
0.0
  0
LINE
  5
617
  8
1
 10
-1751.01784862195
 20
875.63492504459612
 30
0.0
 11
-1752.51784862195
 21
875.63492504459612
 31
0.0
  0
LINE
  5
618
  8
1
 10
-1752.51784862195
 20
872.63492504459612
 30
0.0
 11
-1752.51784862195
 21
873.63492504459612
 31
0.0
  0
LINE
  5
619
  8
1
 10
-1751.01784862195
 20
876.634925044596
 30
0.0
 11
-1752.51784862195
 21
876.634925044596
 31
0.0
  0
CIRCLE
  5
61A
  8
1
 10
-1758.517848621949
 20
874.63492504459612
 30
0.0
 40
1.1999999999999991
  0
CIRCLE
  5
61B
  8
1
 10
-1758.51784862195
 20
874.63492504459612
 30
0.0
 40
1.1999999999999991
  0
LINE
  5
623
  8
1
 10
-1748.3209574302409
 20
784.38492504459612
 30
0.0
 11
-1748.3209574302409
 21
837.07085583025923
 31
0.0
  0
LINE
  5
628
  8
1
 10
-1746.01784862195
 20
861.384925044596
 30
0.0
 11
-1746.01784862195
 21
863.85001491473975
 31
0.0
  0
LINE
  5
629
  8
1
 10
-1748.01784862195
 20
863.88492504459634
 30
0.0
 11
-1740.9829438090751
 21
863.76213032432361
 31
0.0
  0
LINE
  5
62A
  8
1
 10
-1739.01784862195
 20
846.00741515518155
 30
0.0
 11
-1739.01784862195
 21
861.7624349340108
 31
0.0
  0
LINE
  5
62B
  8
1
 10
-1748.01784862195
 20
861.384925044596
 30
0.0
 11
-1739.01784862195
 21
861.384925044596
 31
0.0
  0
LINE
  5
62C
  8
1
 10
-1748.01784862195
 20
846.384925044596
 30
0.0
 11
-1739.01784862195
 21
846.384925044596
 31
0.0
  0
LINE
  5
62D
  8
1
 10
-1741.51784862195
 20
846.384925044596
 30
0.0
 11
-1741.51784862195
 21
861.384925044596
 31
0.0
  0
LINE
  5
62E
  8
1
 10
-1748.01784862195
 20
843.88492504459623
 30
0.0
 11
-1740.9829438090751
 21
844.00771976486874
 31
0.0
  0
LINE
  5
62F
  8
1
 10
-1746.01784862195
 20
843.9198351744526
 30
0.0
 11
-1746.01784862195
 21
846.384925044596
 31
0.0
  0
ARC
  5
630
  8
1
 10
-1741.01784862195
 20
846.00741515518155
 30
0.0
 40
2.0
 50
271.0000000000008
 51
0.0
  0
ARC
  5
631
  8
1
 10
-1741.01784862195
 20
861.7624349340108
 30
0.0
 40
2.0
 50
0.0
 51
88.999999999999147
  0
LINE
  5
82F
  8
1
 10
-1748.32095743024
 20
1044.895029135683
 30
0.0
 11
-1913.7147398136599
 21
1044.895029135683
 31
0.0
  0
LINE
  5
831
  8
1
 10
-1762.76784862195
 20
1049.688681682997
 30
0.0
 11
-1899.267848621949
 21
1049.688681682997
 31
0.0
  0
LINE
  5
832
  8
1
 10
-1899.26784862195
 20
1047.895029135683
 30
0.0
 11
-1762.7678486219511
 21
1047.895029135683
 31
0.0
  0
LINE
  5
833
  8
1
 10
-1905.26784862195
 20
1056.39398960583
 30
0.0
 11
-1756.76784862195
 21
1056.393989605848
 31
0.0
  0
LINE
  5
835
  8
1
 10
-1749.8178486219499
 20
1078.395029135683
 30
0.0
 11
-1831.017848621949
 21
1078.395029135683
 31
0.0
  0
LINE
  5
837
  8
1
 10
-1910.01784862195
 20
939.58492504459605
 30
0.0
 11
-1752.01784862195
 21
939.58492504459605
 31
0.0
  0
LINE
  5
838
  8
1
 10
-1910.01784862195
 20
938.384925044596
 30
0.0
 11
-1752.01784862195
 21
938.384925044596
 31
0.0
  0
LINE
  5
839
  8
1
 10
-1911.01784862195
 20
941.38492504459612
 30
0.0
 11
-1751.01784862195
 21
941.38492504459612
 31
0.0
  0
LINE
  5
83A
  8
1
 10
-1913.51784862195
 20
1006.895029135683
 30
0.0
 11
-1748.51784862195
 21
1006.895029135683
 31
0.0
  0
LINE
  5
83B
  8
1
 10
-1913.8727709017419
 20
1075.395029135683
 30
0.0
 11
-1748.1629263421571
 21
1075.395029135683
 31
0.0
  0
LINE
  5
88F
  8
1
 10
-1913.51784862195
 20
1006.895029135683
 30
0.0
 11
-1913.8727709017419
 21
1075.395029135683
 31
0.0
  0
LINE
  5
8CC
  8
1
 10
-1914.01784862195
 20
930.38492504459623
 30
0.0
 11
-1923.01784862195
 21
930.38492504459623
 31
0.0
  0
LINE
  5
8CD
  8
1
 10
-1914.01784862195
 20
932.884925044596
 30
0.0
 11
-1921.0527534348239
 21
932.76213032432372
 31
0.0
  0
LINE
  5
8CE
  8
1
 10
-1914.01784862195
 20
912.88492504459634
 30
0.0
 11
-1921.0527534348239
 21
913.00771976486863
 31
0.0
  0
LINE
  5
8CF
  8
1
 10
-1914.01784862195
 20
915.38492504459612
 30
0.0
 11
-1923.01784862195
 21
915.38492504459612
 31
0.0
  0
ARC
  5
8E4
  8
1
 10
-1921.01784862195
 20
930.76243493401091
 30
0.0
 40
2.0
 50
90.999999999999005
 51
180.0
  0
ARC
  5
8E5
  8
1
 10
-1921.01784862195
 20
915.00741515518155
 30
0.0
 40
2.0
 50
180.0
 51
269.00000000000091
  0
LINE
  5
8E6
  8
1
 10
-1920.51784862195
 20
915.38492504459612
 30
0.0
 11
-1920.51784862195
 21
930.38492504459623
 31
0.0
  0
LINE
  5
8E7
  8
1
 10
-1923.01784862195
 20
915.00741515518155
 30
0.0
 11
-1923.01784862195
 21
930.76243493401091
 31
0.0
  0
LINE
  5
8EB
  8
1
 10
-1899.01784862195
 20
930.88492504459612
 30
0.0
 11
-1899.01784862195
 21
938.384925044596
 31
0.0
  0
CIRCLE
  5
8ED
  8
1
 10
-1903.51784862195
 20
930.88492504459612
 30
0.0
 40
1.1999999999999991
  0
LINE
  5
8F0
  8
1
 10
-1916.01784862195
 20
930.38492504459623
 30
0.0
 11
-1916.01784862195
 21
932.85001491473975
 31
0.0
  0
ARC
  5
8F1
  8
1
 10
-1903.51784862195
 20
930.88492504459612
 30
0.0
 40
4.5
 50
48.189685104221411
 51
221.8103148957785
  0
ARC
  5
8F3
  8
1
 10
-1903.51784862195
 20
930.88492504459612
 30
0.0
 40
4.5
 50
270.0
 51
0.0
  0
LINE
  5
8FB
  8
1
 10
-1916.01784862195
 20
912.91983517445249
 30
0.0
 11
-1916.01784862195
 21
915.38492504459612
 31
0.0
  0
LINE
  5
8FD
  8
1
 10
-1911.01784862195
 20
913.88492504459612
 30
0.0
 11
-1909.51784862195
 21
913.88492504459612
 31
0.0
  0
LINE
  5
8FE
  8
1
 10
-1909.51784862195
 20
917.88492504459623
 30
0.0
 11
-1909.51784862195
 21
916.884925044596
 31
0.0
  0
LINE
  5
8FF
  8
1
 10
-1911.01784862195
 20
914.88492504459612
 30
0.0
 11
-1909.51784862195
 21
914.88492504459612
 31
0.0
  0
LINE
  5
900
  8
1
 10
-1911.01784862195
 20
916.884925044596
 30
0.0
 11
-1909.51784862195
 21
916.884925044596
 31
0.0
  0
LINE
  5
901
  8
1
 10
-1911.01784862195
 20
917.88492504459623
 30
0.0
 11
-1909.51784862195
 21
917.88492504459623
 31
0.0
  0
LINE
  5
902
  8
1
 10
-1909.51784862195
 20
914.88492504459612
 30
0.0
 11
-1909.51784862195
 21
913.88492504459612
 31
0.0
  0
LINE
  5
903
  8
1
 10
-1911.01784862195
 20
904.13492504459612
 30
0.0
 11
-1909.51784862195
 21
904.13492504459612
 31
0.0
  0
LINE
  5
904
  8
1
 10
-1911.01784862195
 20
903.13492504459612
 30
0.0
 11
-1909.51784862195
 21
903.13492504459612
 31
0.0
  0
LINE
  5
905
  8
1
 10
-1909.51784862195
 20
904.13492504459612
 30
0.0
 11
-1909.51784862195
 21
903.13492504459612
 31
0.0
  0
LINE
  5
908
  8
1
 10
-1906.8719505882
 20
927.88492504459612
 30
0.0
 11
-1911.01784862195
 21
927.88492504459612
 31
0.0
  0
LINE
  5
909
  8
1
 10
-1903.51784862195
 20
926.38492504459612
 30
0.0
 11
-1911.01784862195
 21
926.38492504459612
 31
0.0
  0
ARC
  5
910
  8
1
 10
-1910.01784862195
 20
937.384925044596
 30
0.0
 40
1.0
 50
90.0
 51
180.0
  0
ARC
  5
911
  8
1
 10
-1911.01784862195
 20
938.384925044596
 30
0.0
 40
3.0
 50
90.0
 51
180.0
  0
ARC
  5
912
  8
1
 10
-1910.01784862195
 20
937.384925044596
 30
0.0
 40
2.2000000000000002
 50
90.0
 51
180.0
  0
LINE
  5
917
  8
1
 10
-1885.51784862195
 20
938.384925044596
 30
0.0
 11
-1885.51784862195
 21
936.88492504459612
 31
0.0
  0
LINE
  5
918
  8
1
 10
-1884.51784862195
 20
938.384925044596
 30
0.0
 11
-1884.51784862195
 21
936.88492504459612
 31
0.0
  0
LINE
  5
919
  8
1
 10
-1884.51784862195
 20
936.88492504459612
 30
0.0
 11
-1885.51784862195
 21
936.88492504459612
 31
0.0
  0
LINE
  5
91A
  8
1
 10
-1900.51784862195
 20
934.2390270108458
 30
0.0
 11
-1900.51784862195
 21
938.384925044596
 31
0.0
  0
LINE
  5
92B
  8
1
 10
-1901.8178486219499
 20
998.89502913568344
 30
0.0
 11
-1887.587663564276
 21
998.89502913568344
 31
0.0
  0
LINE
  5
92C
  8
1
 10
-1901.678208102524
 20
1006.895029135683
 30
0.0
 11
-1901.8178486219499
 21
998.89502913568344
 31
0.0
  0
LINE
  5
92F
  8
1
 10
-1911.3574891413759
 20
1006.895029135683
 30
0.0
 11
-1911.21784862195
 21
998.89502913568344
 31
0.0
  0
LINE
  5
930
  8
1
 10
-1911.21784862195
 20
998.89502913568344
 30
0.0
 11
-1901.8178486219499
 21
998.89502913568344
 31
0.0
  0
LINE
  5
935
  8
1
 10
-1887.51784862195
 20
1006.895029135683
 30
0.0
 11
-1887.587663564276
 21
998.89502913568344
 31
0.0
  0
CIRCLE
  5
94B
  8
1
 10
-1866.01784862195
 20
930.88492504459612
 30
0.0
 40
4.5
  0
CIRCLE
  5
94C
  8
1
 10
-1866.01784862195
 20
930.88492504459612
 30
0.0
 40
1.1999999999999991
  0
LINE
  5
94F
  8
1
 10
-1867.01784862195
 20
936.88492504459612
 30
0.0
 11
-1868.01784862195
 21
936.88492504459612
 31
0.0
  0
LINE
  5
950
  8
1
 10
-1868.01784862195
 20
938.384925044596
 30
0.0
 11
-1868.01784862195
 21
936.88492504459612
 31
0.0
  0
LINE
  5
951
  8
1
 10
-1881.51784862195
 20
936.88492504459612
 30
0.0
 11
-1882.51784862195
 21
936.88492504459612
 31
0.0
  0
LINE
  5
952
  8
1
 10
-1882.51784862195
 20
938.384925044596
 30
0.0
 11
-1882.51784862195
 21
936.88492504459612
 31
0.0
  0
LINE
  5
953
  8
1
 10
-1881.51784862195
 20
938.384925044596
 30
0.0
 11
-1881.51784862195
 21
936.88492504459612
 31
0.0
  0
LINE
  5
954
  8
1
 10
-1867.01784862195
 20
938.384925044596
 30
0.0
 11
-1867.01784862195
 21
936.88492504459612
 31
0.0
  0
LINE
  5
955
  8
1
 10
-1864.01784862195
 20
938.384925044596
 30
0.0
 11
-1864.01784862195
 21
936.88492504459612
 31
0.0
  0
LINE
  5
956
  8
1
 10
-1865.01784862195
 20
938.384925044596
 30
0.0
 11
-1865.01784862195
 21
936.88492504459612
 31
0.0
  0
LINE
  5
957
  8
1
 10
-1864.01784862195
 20
936.88492504459612
 30
0.0
 11
-1865.01784862195
 21
936.88492504459612
 31
0.0
  0
CIRCLE
  5
95A
  8
1
 10
-1831.01784862195
 20
931.38492504459623
 30
0.0
 40
4.5
  0
LINE
  5
967
  8
1
 10
-1828.51784862195
 20
910.68492504459584
 30
0.0
 11
-1828.51784862195
 21
908.01505206351817
 31
0.0
  0
LINE
  5
968
  8
1
 10
-1833.51784862195
 20
910.68492504459584
 30
0.0
 11
-1833.51784862195
 21
908.01505206351817
 31
0.0
  0
ARC
  5
969
  8
1
 10
-1831.01784862195
 20
910.68492504459584
 30
0.0
 40
2.5
 50
0.0
 51
180.0
  0
LINE
  5
96D
  8
1
 10
-1846.51784862195
 20
938.384925044596
 30
0.0
 11
-1846.51784862195
 21
936.88492504459612
 31
0.0
  0
LINE
  5
96E
  8
1
 10
-1849.51784862195
 20
936.88492504459612
 30
0.0
 11
-1850.51784862195
 21
936.88492504459612
 31
0.0
  0
LINE
  5
96F
  8
1
 10
-1849.51784862195
 20
938.384925044596
 30
0.0
 11
-1849.51784862195
 21
936.88492504459612
 31
0.0
  0
LINE
  5
970
  8
1
 10
-1850.51784862195
 20
938.384925044596
 30
0.0
 11
-1850.51784862195
 21
936.88492504459612
 31
0.0
  0
LINE
  5
971
  8
1
 10
-1847.51784862195
 20
938.384925044596
 30
0.0
 11
-1847.51784862195
 21
936.88492504459612
 31
0.0
  0
LINE
  5
972
  8
1
 10
-1846.51784862195
 20
936.88492504459612
 30
0.0
 11
-1847.51784862195
 21
936.88492504459612
 31
0.0
  0
LINE
  5
973
  8
1
 10
-1829.01784862195
 20
936.88492504459612
 30
0.0
 11
-1830.01784862195
 21
936.88492504459612
 31
0.0
  0
LINE
  5
974
  8
1
 10
-1830.01784862195
 20
938.384925044596
 30
0.0
 11
-1830.01784862195
 21
936.88492504459612
 31
0.0
  0
LINE
  5
975
  8
1
 10
-1829.01784862195
 20
938.384925044596
 30
0.0
 11
-1829.01784862195
 21
936.88492504459612
 31
0.0
  0
LINE
  5
976
  8
1
 10
-1833.01784862195
 20
938.384925044596
 30
0.0
 11
-1833.01784862195
 21
936.88492504459612
 31
0.0
  0
LINE
  5
977
  8
1
 10
-1832.01784862195
 20
938.384925044596
 30
0.0
 11
-1832.01784862195
 21
936.88492504459612
 31
0.0
  0
LINE
  5
978
  8
1
 10
-1832.01784862195
 20
936.88492504459612
 30
0.0
 11
-1833.01784862195
 21
936.88492504459612
 31
0.0
  0
ARC
  5
98D
  8
1
 10
-1834.76784862195
 20
1003.895029135683
 30
0.0
 40
1.0
 50
270.0
 51
0.0
  0
LINE
  5
98E
  8
1
 10
-1833.76784862195
 20
1004.395029135683
 30
0.0
 11
-1828.26784862195
 21
1004.395029135683
 31
0.0
  0
LINE
  5
990
  8
1
 10
-1833.76784862195
 20
1003.895029135683
 30
0.0
 11
-1833.76784862195
 21
1004.395029135683
 31
0.0
  0
LINE
  5
993
  8
1
 10
-1838.26784862195
 20
1003.895029135683
 30
0.0
 11
-1838.26784862195
 21
1005.895029135683
 31
0.0
  0
ARC
  5
994
  8
1
 10
-1837.26784862195
 20
1003.895029135683
 30
0.0
 40
1.0
 50
180.0
 51
269.9999999999996
  0
LINE
  5
995
  8
1
 10
-1839.26784862195
 20
1005.895029135683
 30
0.0
 11
-1839.26784862195
 21
1006.895029135683
 31
0.0
  0
LINE
  5
996
  8
1
 10
-1838.26784862195
 20
1005.895029135683
 30
0.0
 11
-1839.26784862195
 21
1005.895029135683
 31
0.0
  0
LINE
  5
9A7
  8
1
 10
-1834.76784862195
 20
1002.895029135683
 30
0.0
 11
-1837.26784862195
 21
1002.895029135683
 31
0.0
  0
LINE
  5
9AA
  8
1
 10
-1822.76784862195
 20
1005.895029135683
 30
0.0
 11
-1822.76784862195
 21
1006.895029135683
 31
0.0
  0
LINE
  5
9AF
  8
1
 10
-1828.26784862195
 20
1003.895029135683
 30
0.0
 11
-1828.26784862195
 21
1004.395029135683
 31
0.0
  0
ARC
  5
9B0
  8
1
 10
-1827.26784862195
 20
1003.895029135683
 30
0.0
 40
1.0
 50
180.0
 51
270.0
  0
LINE
  5
9B1
  8
1
 10
-1827.26784862195
 20
1002.895029135683
 30
0.0
 11
-1824.76784862195
 21
1002.895029135683
 31
0.0
  0
ARC
  5
9B2
  8
1
 10
-1824.76784862195
 20
1003.895029135683
 30
0.0
 40
1.0
 50
270.00000000000028
 51
0.0
  0
LINE
  5
9B3
  8
1
 10
-1823.76784862195
 20
1003.895029135683
 30
0.0
 11
-1823.76784862195
 21
1005.895029135683
 31
0.0
  0
LINE
  5
9B6
  8
1
 10
-1823.76784862195
 20
1005.895029135683
 30
0.0
 11
-1822.76784862195
 21
1005.895029135683
 31
0.0
  0
LINE
  5
9BD
  8
1
 10
-1912.21784862195
 20
1078.395029135683
 30
0.0
 11
-1831.017848621949
 21
1078.395029135683
 31
0.0
  0
LINE
  5
9BF
  8
1
 10
-1922.8649761249681
 20
1055.3775760646861
 30
0.0
 11
-1923.01784862195
 21
1072.895029135683
 31
0.0
  0
LINE
  5
9C0
  8
1
 10
-1920.86505227884
 20
1053.395029135683
 30
0.0
 11
-1914.01784862195
 21
1053.395029135683
 31
0.0
  0
ARC
  5
9EF
  8
1
 10
-1920.86505227884
 20
1055.395029135683
 30
0.0
 40
2.0
 50
180.49999999999989
 51
270.0
  0
LINE
  5
9F3
  8
1
 10
-1905.76784862195
 20
1056.307169737308
 30
0.0
 11
-1905.76784862195
 21
1053.5626021639389
 31
0.0
  0
LINE
  5
9F4
  8
1
 10
-1906.96784862195
 20
1056.307169737308
 30
0.0
 11
-1907.266686040681
 21
1044.895029135683
 31
0.0
  0
POLYLINE
  5
9F5
  8
1
 66
     1
 10
0.0
 20
0.0
 30
0.0
  0
VERTEX
  5
1DF2
  8
1
 10
-1899.76784862195
 20
1052.2503055591819
 30
0.0
 42
0.2707443478876268
  0
VERTEX
  5
1DF3
  8
1
 10
-1899.970498657083
 20
1052.5971184880771
 30
0.0
 42
0.0710836476602074
  0
VERTEX
  5
1DF4
  8
1
 10
-1901.30553802072
 20
1053.1168454853489
 30
0.0
 42
0.0332446860458197
  0
VERTEX
  5
1DF5
  8
1
 10
-1902.8552395760221
 20
1053.371473068014
 30
0.0
 42
0.02410154025602
  0
VERTEX
  5
1DF6
  8
1
 10
-1905.01784862195
 20
1053.4757780751061
 30
0.0
 42
0.0241015402560213
  0
SEQEND
  5
1DF7
  8
1
  0
POLYLINE
  5
9F6
  8
1
 66
     1
 10
0.0
 20
0.0
 30
0.0
  0
VERTEX
  5
1DF8
  8
1
 10
-1900.96784862195
 20
1052.2503055591819
 30
0.0
 42
0.2625887210450227
  0
VERTEX
  5
1DF9
  8
1
 10
-1901.1323243766101
 20
1052.541892121325
 30
0.0
 42
0.0747215099328401
  0
VERTEX
  5
1DFA
  8
1
 10
-1902.1540661581439
 20
1052.967227080831
 30
0.0
 42
0.03550843823257
  0
VERTEX
  5
1DFB
  8
1
 10
-1903.350908839092
 20
1053.1779905029071
 30
0.0
 42
0.0258370627131203
  0
VERTEX
  5
1DFC
  8
1
 10
-1905.01784862195
 20
1053.2641856982559
 30
0.0
 42
0.0258370627130968
  0
SEQEND
  5
1DFD
  8
1
  0
LINE
  5
9F8
  8
1
 10
-1905.26784862195
 20
1053.2641856982559
 30
0.0
 11
-1905.01784862195
 21
1053.2641856982559
 31
0.0
  0
LINE
  5
9F9
  8
1
 10
-1905.26784862195
 20
1053.4757780751061
 30
0.0
 11
-1905.01784862195
 21
1053.4757780751061
 31
0.0
  0
POLYLINE
  5
9FA
  8
1
 66
     1
 10
0.0
 20
0.0
 30
0.0
  0
VERTEX
  5
1DFE
  8
1
 10
-1905.26784862195
 20
1053.4757780751061
 30
0.0
 42
-0.0179528718256618
  0
VERTEX
  5
1DFF
  8
1
 10
-1905.474316317898
 20
1053.483193841412
 30
0.0
 42
-0.0250377148196745
  0
VERTEX
  5
1E00
  8
1
 10
-1905.6214020125431
 20
1053.5012082619551
 30
0.0
 42
-0.0563179969730268
  0
VERTEX
  5
1E01
  8
1
 10
-1905.752511366489
 20
1053.5395419378549
 30
0.0
 42
-0.3021816287208285
  0
VERTEX
  5
1E02
  8
1
 10
-1905.76784862195
 20
1053.5626021639389
 30
0.0
 42
-0.3021816287197159
  0
SEQEND
  5
1E03
  8
1
  0
POLYLINE
  5
9FB
  8
1
 66
     1
 10
0.0
 20
0.0
 30
0.0
  0
VERTEX
  5
1E04
  8
1
 10
-1905.26784862195
 20
1053.2641856982559
 30
0.0
 42
-0.0052877851924635
  0
VERTEX
  5
1E05
  8
1
 10
-1905.971821688616
 20
1053.271630823142
 30
0.0
 42
-0.007468947870235
  0
VERTEX
  5
1E06
  8
1
 10
-1906.469930149967
 20
1053.2896146490041
 30
0.0
 42
-0.01791436931456
  0
VERTEX
  5
1E07
  8
1
 10
-1906.9505683536031
 20
1053.331463876465
 30
0.0
 42
-0.3787223311314991
  0
VERTEX
  5
1E08
  8
1
 10
-1906.96784862195
 20
1053.351005566778
 30
0.0
 42
-0.3787223311281338
  0
SEQEND
  5
1E09
  8
1
  0
ARC
  5
9FE
  8
1
 10
-1899.267848621949
 20
1049.188681682997
 30
0.0
 40
0.5
 50
90.0
 51
180.0
  0
POLYLINE
  5
9FF
  8
1
 66
     1
 10
0.0
 20
0.0
 30
0.0
  0
VERTEX
  5
1E0A
  8
1
 10
-1899.26784862195
 20
1047.895029135683
 30
0.0
 42
-0.0052877851924635
  0
VERTEX
  5
1E0B
  8
1
 10
-1899.971821688616
 20
1047.90247426057
 30
0.0
 42
-0.007468947870235
  0
VERTEX
  5
1E0C
  8
1
 10
-1900.469930149967
 20
1047.9204580864321
 30
0.0
 42
-0.01791436931456
  0
VERTEX
  5
1E0D
  8
1
 10
-1900.9505683536031
 20
1047.962307313893
 30
0.0
 42
-0.3787223311314991
  0
VERTEX
  5
1E0E
  8
1
 10
-1900.96784862195
 20
1047.981849004206
 30
0.0
 42
-0.3787223311281338
  0
SEQEND
  5
1E0F
  8
1
  0
POLYLINE
  5
A00
  8
1
 66
     1
 10
0.0
 20
0.0
 30
0.0
  0
VERTEX
  5
1E10
  8
1
 10
-1899.26784862195
 20
1047.895029135683
 30
0.0
 42
-0.0179528718256618
  0
VERTEX
  5
1E11
  8
1
 10
-1899.474316317898
 20
1047.9024449019901
 30
0.0
 42
-0.0250377148196745
  0
VERTEX
  5
1E12
  8
1
 10
-1899.6214020125431
 20
1047.920459322532
 30
0.0
 42
-0.0563179969730268
  0
VERTEX
  5
1E13
  8
1
 10
-1899.752511366489
 20
1047.958792998432
 30
0.0
 42
-0.3021816287208285
  0
VERTEX
  5
1E14
  8
1
 10
-1899.76784862195
 20
1047.981853224516
 30
0.0
 42
-0.3021816287197159
  0
SEQEND
  5
1E15
  8
1
  0
LINE
  5
A02
  8
1
 10
-1900.96784862195
 20
1052.2503055591819
 30
0.0
 11
-1901.160453313496
 21
1044.895029135683
 31
0.0
  0
LINE
  5
A04
  8
1
 10
-1899.76784862195
 20
1052.2503055591819
 30
0.0
 11
-1899.76784862195
 21
1047.981853224516
 31
0.0
  0
POLYLINE
  5
A05
  8
1
 66
     1
 10
0.0
 20
0.0
 30
0.0
  0
VERTEX
  5
1E16
  8
1
 10
-1905.26784862195
 20
1056.39398960583
 30
0.0
 42
0.0052877851924635
  0
VERTEX
  5
1E17
  8
1
 10
-1905.971821688616
 20
1056.3865444809451
 30
0.0
 42
0.007468947870235
  0
VERTEX
  5
1E18
  8
1
 10
-1906.469930149967
 20
1056.3685606550821
 30
0.0
 42
0.01791436931456
  0
VERTEX
  5
1E19
  8
1
 10
-1906.9505683536031
 20
1056.3267114276209
 30
0.0
 42
0.3787223311314991
  0
VERTEX
  5
1E1A
  8
1
 10
-1906.96784862195
 20
1056.307169737308
 30
0.0
 42
0.3787223311281338
  0
SEQEND
  5
1E1B
  8
1
  0
POLYLINE
  5
A06
  8
1
 66
     1
 10
0.0
 20
0.0
 30
0.0
  0
VERTEX
  5
1E1C
  8
1
 10
-1905.26784862195
 20
1056.39398960583
 30
0.0
 42
0.0179528718256618
  0
VERTEX
  5
1E1D
  8
1
 10
-1905.474316317898
 20
1056.386573839525
 30
0.0
 42
0.0250377148196745
  0
VERTEX
  5
1E1E
  8
1
 10
-1905.6214020125431
 20
1056.3685594189819
 30
0.0
 42
0.0563179969730268
  0
VERTEX
  5
1E1F
  8
1
 10
-1905.752511366489
 20
1056.330225743081
 30
0.0
 42
0.3021816287208285
  0
VERTEX
  5
1E20
  8
1
 10
-1905.76784862195
 20
1056.307165516997
 30
0.0
 42
0.3021816287197159
  0
SEQEND
  5
1E21
  8
1
  0
LINE
  5
A07
  8
1
 10
-1923.01784862195
 20
1072.895029135683
 30
0.0
 11
-1916.01784862195
 21
1072.895029135683
 31
0.0
  0
LINE
  5
A14
  8
1
 10
-1913.9971232333489
 20
1071.395029135683
 30
0.0
 11
-1916.01784862195
 21
1071.395029135683
 31
0.0
  0
LINE
  5
A15
  8
1
 10
-1916.01784862195
 20
1071.395029135683
 30
0.0
 11
-1916.01784862195
 21
1072.8950291356839
 31
0.0
  0
LINE
  5
A16
  8
1
 10
-1912.21784862195
 20
1078.395029135683
 30
0.0
 11
-1912.2964063866571
 21
1075.395029135683
 31
0.0
  0
LINE
  5
A8F
  8
1
 10
-1603.8535983842969
 20
930.38492504459555
 30
0.0
 11
-1603.8535983842969
 21
915.38492504459612
 31
0.0
  0
LINE
  5
A90
  8
1
 10
-1613.8535983842969
 20
930.38492504459555
 30
0.0
 11
-1613.8535983842969
 21
915.38492504459612
 31
0.0
  0
LINE
  5
A91
  8
1
 10
-1599.8535983842969
 20
941.2553913658395
 30
0.0
 11
-1599.8535983842969
 21
835.2553913658395
 31
0.0
  0
LINE
  5
A92
  8
1
 10
-1596.8535983842969
 20
939.58492504459593
 30
0.0
 11
-1596.8535983842969
 21
888.38492504459634
 31
0.0
  0
LINE
  5
AE3
  8
1
 10
-1679.3535983842969
 20
936.31511010227007
 30
0.0
 11
-1679.3535983842969
 21
914.95473998692239
 31
0.0
  0
LINE
  5
B58
  8
2
 10
-1668.3535983842969
 20
937.88492504459612
 30
0.0
 11
-1668.3535983842969
 21
784.58181623630605
 31
0.0
  0
LINE
  5
B59
  8
1
 10
-1671.3535983842969
 20
940.884925044596
 30
0.0
 11
-1671.3535983842969
 21
781.58181623630583
 31
0.0
  0
LINE
  5
BF0
  8
2
 10
-1668.3535983842969
 20
936.384925044596
 30
0.0
 11
-1604.853598384296
 21
936.71394058863746
 31
0.0
  0
LINE
  5
BF1
  8
2
 10
-1668.3535983842969
 20
937.88492504459612
 30
0.0
 11
-1596.8535983842969
 21
938.25539136583961
 31
0.0
  0
LINE
  5
BF4
  8
1
 10
-1671.3535983842969
 20
940.884925044596
 30
0.0
 11
-1599.8535983842969
 21
941.2553913658395
 31
0.0
  0
ARC
  5
C06
  8
1
 10
-1751.01784862195
 20
938.384925044596
 30
0.0
 40
3.0
 50
0.0
 51
90.0
  0
CIRCLE
  5
C0A
  8
1
 10
-1796.01784862195
 20
930.88492504459612
 30
0.0
 40
1.1999999999999991
  0
CIRCLE
  5
C0B
  8
1
 10
-1796.01784862195
 20
930.88492504459612
 30
0.0
 40
4.5
  0
LINE
  5
C12
  8
1
 10
-1815.51784862195
 20
936.88492504459612
 30
0.0
 11
-1814.51784862195
 21
936.88492504459612
 31
0.0
  0
LINE
  5
C13
  8
1
 10
-1814.51784862195
 20
938.384925044596
 30
0.0
 11
-1814.51784862195
 21
936.88492504459612
 31
0.0
  0
LINE
  5
C14
  8
1
 10
-1815.51784862195
 20
938.384925044596
 30
0.0
 11
-1815.51784862195
 21
936.88492504459612
 31
0.0
  0
LINE
  5
C15
  8
1
 10
-1811.51784862195
 20
938.384925044596
 30
0.0
 11
-1811.51784862195
 21
936.88492504459612
 31
0.0
  0
LINE
  5
C16
  8
1
 10
-1812.51784862195
 20
938.384925044596
 30
0.0
 11
-1812.51784862195
 21
936.88492504459612
 31
0.0
  0
LINE
  5
C17
  8
1
 10
-1812.51784862195
 20
936.88492504459612
 30
0.0
 11
-1811.51784862195
 21
936.88492504459612
 31
0.0
  0
LINE
  5
C18
  8
1
 10
-1798.01784862195
 20
936.88492504459612
 30
0.0
 11
-1797.01784862195
 21
936.88492504459612
 31
0.0
  0
LINE
  5
C19
  8
1
 10
-1797.01784862195
 20
938.384925044596
 30
0.0
 11
-1797.01784862195
 21
936.88492504459612
 31
0.0
  0
LINE
  5
C1A
  8
1
 10
-1798.01784862195
 20
938.384925044596
 30
0.0
 11
-1798.01784862195
 21
936.88492504459612
 31
0.0
  0
LINE
  5
C1B
  8
1
 10
-1794.01784862195
 20
938.384925044596
 30
0.0
 11
-1794.01784862195
 21
936.88492504459612
 31
0.0
  0
LINE
  5
C1C
  8
1
 10
-1795.01784862195
 20
938.384925044596
 30
0.0
 11
-1795.01784862195
 21
936.88492504459612
 31
0.0
  0
LINE
  5
C1D
  8
1
 10
-1795.01784862195
 20
936.88492504459612
 30
0.0
 11
-1794.01784862195
 21
936.88492504459612
 31
0.0
  0
ARC
  5
C22
  8
1
 10
-1758.51784862195
 20
930.88492504459612
 30
0.0
 40
4.5
 50
318.18968510422138
 51
131.8103148957785
  0
CIRCLE
  5
C24
  8
1
 10
-1758.51784862195
 20
930.88492504459612
 30
0.0
 40
1.1999999999999991
  0
LINE
  5
C25
  8
1
 10
-1763.01784862195
 20
930.88492504459612
 30
0.0
 11
-1763.01784862195
 21
938.384925044596
 31
0.0
  0
LINE
  5
C33
  8
1
 10
-1758.51784862195
 20
926.38492504459612
 30
0.0
 11
-1751.01784862195
 21
926.38492504459612
 31
0.0
  0
LINE
  5
C34
  8
1
 10
-1755.1637466556999
 20
927.88492504459612
 30
0.0
 11
-1751.01784862195
 21
927.88492504459612
 31
0.0
  0
LINE
  5
C37
  8
1
 10
-1752.51784862195
 20
914.88492504459612
 30
0.0
 11
-1752.51784862195
 21
913.88492504459612
 31
0.0
  0
LINE
  5
C38
  8
1
 10
-1751.01784862195
 20
917.88492504459623
 30
0.0
 11
-1752.51784862195
 21
917.88492504459623
 31
0.0
  0
LINE
  5
C39
  8
1
 10
-1751.01784862195
 20
916.884925044596
 30
0.0
 11
-1752.51784862195
 21
916.884925044596
 31
0.0
  0
LINE
  5
C3A
  8
1
 10
-1751.01784862195
 20
914.88492504459612
 30
0.0
 11
-1752.51784862195
 21
914.88492504459612
 31
0.0
  0
LINE
  5
C3B
  8
1
 10
-1752.51784862195
 20
917.88492504459623
 30
0.0
 11
-1752.51784862195
 21
916.884925044596
 31
0.0
  0
LINE
  5
C3C
  8
1
 10
-1751.01784862195
 20
913.88492504459612
 30
0.0
 11
-1752.51784862195
 21
913.88492504459612
 31
0.0
  0
LINE
  5
C3D
  8
1
 10
-1752.51784862195
 20
904.13492504459612
 30
0.0
 11
-1752.51784862195
 21
903.13492504459612
 31
0.0
  0
LINE
  5
C3E
  8
1
 10
-1751.01784862195
 20
903.13492504459612
 30
0.0
 11
-1752.51784862195
 21
903.13492504459612
 31
0.0
  0
LINE
  5
C3F
  8
1
 10
-1751.01784862195
 20
904.13492504459612
 30
0.0
 11
-1752.51784862195
 21
904.13492504459612
 31
0.0
  0
ARC
  5
C48
  8
1
 10
-1758.51784862195
 20
930.88492504459612
 30
0.0
 40
4.5
 50
180.0
 51
270.0
  0
LINE
  5
C4F
  8
1
 10
-1777.51784862195
 20
936.88492504459612
 30
0.0
 11
-1776.51784862195
 21
936.88492504459612
 31
0.0
  0
LINE
  5
C50
  8
1
 10
-1777.51784862195
 20
938.384925044596
 30
0.0
 11
-1777.51784862195
 21
936.88492504459612
 31
0.0
  0
LINE
  5
C51
  8
1
 10
-1776.51784862195
 20
938.384925044596
 30
0.0
 11
-1776.51784862195
 21
936.88492504459612
 31
0.0
  0
LINE
  5
C52
  8
1
 10
-1780.51784862195
 20
938.384925044596
 30
0.0
 11
-1780.51784862195
 21
936.88492504459612
 31
0.0
  0
LINE
  5
C53
  8
1
 10
-1779.51784862195
 20
938.384925044596
 30
0.0
 11
-1779.51784862195
 21
936.88492504459612
 31
0.0
  0
LINE
  5
C54
  8
1
 10
-1780.51784862195
 20
936.88492504459612
 30
0.0
 11
-1779.51784862195
 21
936.88492504459612
 31
0.0
  0
LINE
  5
C56
  8
1
 10
-1761.51784862195
 20
934.2390270108458
 30
0.0
 11
-1761.51784862195
 21
938.384925044596
 31
0.0
  0
ARC
  5
C57
  8
1
 10
-1752.01784862195
 20
937.384925044596
 30
0.0
 40
1.0
 50
0.0
 51
90.0
  0
ARC
  5
C58
  8
1
 10
-1752.01784862195
 20
937.384925044596
 30
0.0
 40
2.2000000000000002
 50
0.0
 51
90.0
  0
LINE
  5
C84
  8
1
 10
-1746.01784862195
 20
930.38492504459623
 30
0.0
 11
-1746.01784862195
 21
932.85001491473963
 31
0.0
  0
ARC
  5
C85
  8
1
 10
-1741.01784862195
 20
930.76243493401091
 30
0.0
 40
2.0
 50
0.0
 51
89.000000000001009
  0
LINE
  5
C86
  8
1
 10
-1748.01784862195
 20
930.38492504459623
 30
0.0
 11
-1739.01784862195
 21
930.38492504459623
 31
0.0
  0
LINE
  5
C87
  8
1
 10
-1746.01784862195
 20
912.91983517445249
 30
0.0
 11
-1746.01784862195
 21
915.38492504459612
 31
0.0
  0
ARC
  5
C88
  8
1
 10
-1741.01784862195
 20
915.00741515518155
 30
0.0
 40
2.0
 50
270.99999999999898
 51
0.0
  0
LINE
  5
C89
  8
1
 10
-1748.01784862195
 20
912.88492504459634
 30
0.0
 11
-1740.9829438090751
 21
913.00771976486863
 31
0.0
  0
LINE
  5
C8A
  8
1
 10
-1748.01784862195
 20
915.38492504459612
 30
0.0
 11
-1739.01784862195
 21
915.38492504459612
 31
0.0
  0
LINE
  5
C8B
  8
1
 10
-1739.01784862195
 20
915.00741515518155
 30
0.0
 11
-1739.01784862195
 21
930.76243493401091
 31
0.0
  0
LINE
  5
C8C
  8
1
 10
-1741.51784862195
 20
915.38492504459612
 30
0.0
 11
-1741.51784862195
 21
930.38492504459623
 31
0.0
  0
LINE
  5
C8D
  8
1
 10
-1748.01784862195
 20
932.884925044596
 30
0.0
 11
-1740.9829438090751
 21
932.76213032432372
 31
0.0
  0
LINE
  5
C90
  8
2
 10
-1660.3535983842969
 20
935.38492504459612
 30
0.0
 11
-1660.3535983842969
 21
926.38492504459612
 31
0.0
  0
LINE
  5
C91
  8
1
 10
-1673.8535983842969
 20
934.634925044596
 30
0.0
 11
-1673.8535983842969
 21
928.13492504459612
 31
0.0
  0
LINE
  5
C92
  8
2
 10
-1673.0535983842969
 20
933.884925044596
 30
0.0
 11
-1673.0535983842969
 21
928.88492504459612
 31
0.0
  0
LINE
  5
C93
  8
1
 10
-1672.3535983842969
 20
936.384925044596
 30
0.0
 11
-1672.3535983842969
 21
926.38492504459612
 31
0.0
  0
LINE
  5
C94
  8
1
 10
-1672.3535983842969
 20
934.634925044596
 30
0.0
 11
-1673.8535983842969
 21
934.634925044596
 31
0.0
  0
LINE
  5
C95
  8
2
 10
-1673.0535983842969
 20
933.884925044596
 30
0.0
 11
-1673.8535983842969
 21
933.884925044596
 31
0.0
  0
LINE
  5
C96
  8
1
 10
-1671.3535983842969
 20
936.384925044596
 30
0.0
 11
-1672.3535983842969
 21
936.384925044596
 31
0.0
  0
LINE
  5
C97
  8
1
 10
-1671.3535983842969
 20
936.38492504459566
 30
0.0
 11
-1679.3535983842969
 21
936.31511010227007
 31
0.0
  0
LINE
  5
C98
  8
2
 10
-1668.3535983842969
 20
935.52456556402205
 30
0.0
 11
-1660.3535983842969
 21
935.38492504459657
 31
0.0
  0
LINE
  5
C99
  8
2
 10
-1663.3535983842969
 20
933.38492504459612
 30
0.0
 11
-1663.3535983842969
 21
929.384925044596
 31
0.0
  0
LINE
  5
C9A
  8
1
 10
-1672.3535983842969
 20
920.384925044596
 30
0.0
 11
-1672.3535983842969
 21
917.37619817680536
 31
0.0
  0
LINE
  5
C9B
  8
1
 10
-1672.3535983842969
 20
920.384925044596
 30
0.0
 11
-1671.3535983842969
 21
920.384925044596
 31
0.0
  0
LINE
  5
C9C
  8
1
 10
-1671.3535983842969
 20
917.38492504459612
 30
0.0
 11
-1679.3532937688101
 21
917.31511276060928
 31
0.0
  0
LINE
  5
C9D
  8
1
 10
-1671.3535983842969
 20
926.38492504459612
 30
0.0
 11
-1672.3535983842969
 21
926.38492504459612
 31
0.0
  0
LINE
  5
C9E
  8
1
 10
-1672.3535983842969
 20
928.13492504459612
 30
0.0
 11
-1673.8535983842969
 21
928.13492504459612
 31
0.0
  0
LINE
  5
C9F
  8
2
 10
-1673.0535983842969
 20
928.88492504459612
 30
0.0
 11
-1673.8535983842969
 21
928.88492504459612
 31
0.0
  0
LINE
  5
CA0
  8
2
 10
-1663.3535983842969
 20
933.38492504459612
 30
0.0
 11
-1673.0535983842969
 21
933.38492504459612
 31
0.0
  0
LINE
  5
CA1
  8
2
 10
-1663.3535983842969
 20
929.384925044596
 30
0.0
 11
-1673.0535983842969
 21
929.384925044596
 31
0.0
  0
LINE
  5
CA4
  8
2
 10
-1668.3535983842969
 20
926.24528452517063
 30
0.0
 11
-1660.3535983842969
 21
926.38492504459612
 31
0.0
  0
LINE
  5
D14
  8
1
 10
-1749.8178486219499
 20
1078.395029135683
 30
0.0
 11
-1749.7392908572431
 21
1075.395029135683
 31
0.0
  0
LINE
  5
D39
  8
1
 10
-1748.51784862195
 20
1006.895029135683
 30
0.0
 11
-1748.1629263421571
 21
1075.395029135683
 31
0.0
  0
LINE
  5
D3A
  8
1
 10
-1739.1707211189309
 20
1055.3775760646861
 30
0.0
 11
-1739.01784862195
 21
1072.895029135683
 31
0.0
  0
LINE
  5
D3B
  8
1
 10
-1621.853598384296
 20
930.38492504459623
 30
0.0
 11
-1613.8535983842969
 21
930.38492504459623
 31
0.0
  0
LINE
  5
D3C
  8
1
 10
-1619.871051455294
 20
932.7320525476149
 30
0.0
 11
-1602.3535983842969
 21
932.884925044596
 31
0.0
  0
ARC
  5
D67
  8
1
 10
-1741.170644965059
 20
1055.395029135683
 30
0.0
 40
2.0
 50
270.0
 51
359.5
  0
LINE
  5
D68
  8
1
 10
-1741.01784862195
 20
1053.395029135683
 30
0.0
 11
-1748.01784862195
 21
1053.395029135683
 31
0.0
  0
ARC
  5
D73
  8
1
 10
-1619.853598384296
 20
930.73212870148654
 30
0.0
 40
2.0
 50
90.499999999999744
 51
180.0
  0
LINE
  5
D74
  8
1
 10
-1621.853598384296
 20
930.73212870148654
 30
0.0
 11
-1621.853598384296
 21
930.38492504459555
 31
0.0
  0
LINE
  5
D93
  8
1
 10
-1746.017848621949
 20
1071.395029135683
 30
0.0
 11
-1746.017848621949
 21
1072.8950291356839
 31
0.0
  0
LINE
  5
D94
  8
1
 10
-1748.038574010551
 20
1071.395029135683
 30
0.0
 11
-1746.017848621949
 21
1071.395029135683
 31
0.0
  0
LINE
  5
D99
  8
1
 10
-1739.01784862195
 20
1072.895029135683
 30
0.0
 11
-1746.017848621949
 21
1072.895029135683
 31
0.0
  0
LINE
  5
D9B
  8
2
 10
-1604.8535983842969
 20
926.38492504459657
 30
0.0
 11
-1604.853598384296
 21
938.34347426739441
 31
0.0
  0
LINE
  5
D9C
  8
2
 10
-1617.4327529644379
 20
938.27829730065798
 30
0.0
 11
-1616.1489306057181
 21
926.38492504459657
 31
0.0
  0
LINE
  5
D9F
  8
1
 10
-1596.8535983842969
 20
939.58492504459593
 30
0.0
 11
-1599.8535983842969
 21
939.66348280930345
 31
0.0
  0
LINE
  5
DA0
  8
2
 10
-1605.6535983842959
 20
929.384925044596
 30
0.0
 11
-1605.6535983842959
 21
932.38492504459612
 31
0.0
  0
LINE
  5
DA1
  8
2
 10
-1605.6535983842959
 20
929.384925044596
 30
0.0
 11
-1604.853598384296
 21
929.384925044596
 31
0.0
  0
LINE
  5
DA2
  8
2
 10
-1605.6535983842959
 20
932.38492504459612
 30
0.0
 11
-1604.853598384296
 21
932.38492504459612
 31
0.0
  0
LINE
  5
DA4
  8
1
 10
-1603.8535983842969
 20
930.38492504459623
 30
0.0
 11
-1602.3535983842969
 21
930.38492504459623
 31
0.0
  0
LINE
  5
DA6
  8
1
 10
-1602.3535983842969
 20
932.884925044596
 30
0.0
 11
-1602.3535983842969
 21
930.38492504459555
 31
0.0
  0
LINE
  5
DA7
  8
2
 10
-1614.3535983842969
 20
932.08492504459628
 30
0.0
 11
-1614.3535983842969
 21
929.68492504459618
 31
0.0
  0
LINE
  5
DA8
  8
2
 10
-1616.1489306057181
 20
926.38492504459657
 30
0.0
 11
-1614.8535983842969
 21
926.38492504459657
 31
0.0
  0
LINE
  5
DA9
  8
2
 10
-1614.3535983842969
 20
929.68492504459618
 30
0.0
 11
-1605.6535983842959
 21
929.68492504459618
 31
0.0
  0
LINE
  5
DAA
  8
2
 10
-1614.3535983842969
 20
932.08492504459628
 30
0.0
 11
-1605.6535983842959
 21
932.08492504459628
 31
0.0
  0
LINE
  5
DAB
  8
2
 10
-1614.8535983842969
 20
926.38492504459657
 30
0.0
 11
-1604.8535983842969
 21
926.38492504459657
 31
0.0
  0
LINE
  5
DBB
  8
2
 10
-1671.3535983842969
 20
848.38492504459555
 30
0.0
 11
-1615.853598384296
 21
848.09736027775648
 31
0.0
  0
LINE
  5
DBC
  8
2
 10
-1668.3535983842969
 20
784.58181623630605
 30
0.0
 11
-1630.353598384296
 21
784.38492504459578
 31
0.0
  0
LINE
  5
DBD
  8
2
 10
-1668.3535983842969
 20
850.34347426739396
 30
0.0
 11
-1604.853598384296
 21
850.01445872335285
 31
0.0
  0
LINE
  5
DBE
  8
2
 10
-1668.3535983842969
 20
804.07948467191943
 30
0.0
 11
-1633.3535983842969
 21
804.38492504459578
 31
0.0
  0
LINE
  5
DBF
  8
2
 10
-1671.3535983842969
 20
805.68492504459596
 30
0.0
 11
-1644.3535983842969
 21
805.92055047494648
 31
0.0
  0
LINE
  5
DC1
  8
1
 10
-1671.3535983842969
 20
781.58181623630583
 30
0.0
 11
-1633.3535983842969
 21
781.38492504459555
 31
0.0
  0
ARC
  5
DC2
  8
1
 10
-1677.853598384296
 20
849.38492504459612
 30
0.0
 40
1.0
 50
179.99999999999929
 51
270.0
  0
LINE
  5
E18
  8
2
 10
-1660.3535983842969
 20
906.63492504459612
 30
0.0
 11
-1660.3535983842969
 21
897.63492504459612
 31
0.0
  0
ARC
  5
E19
  8
1
 10
-1677.853598384296
 20
898.884925044596
 30
0.0
 40
1.0
 50
90.000000000000966
 51
180.0000000000046
  0
LINE
  5
E1A
  8
1
 10
-1671.353598384296
 20
899.884925044596
 30
0.0
 11
-1677.853598384296
 21
899.884925044596
 31
0.0
  0
LINE
  5
E1B
  8
1
 10
-1671.3535983842969
 20
914.88492504459612
 30
0.0
 11
-1679.3535983842969
 21
914.95473998692239
 31
0.0
  0
LINE
  5
E1C
  8
2
 10
-1668.3535983842969
 20
906.77456556402205
 30
0.0
 11
-1660.3535983842969
 21
906.63492504459646
 31
0.0
  0
LINE
  5
E1E
  8
1
 10
-1678.853598384296
 20
898.884925044596
 30
0.0
 11
-1678.853598384296
 21
897.64966792261566
 31
0.0
  0
LINE
  5
E1F
  8
1
 10
-1674.930948653486
 20
895.384925044596
 30
0.0
 11
-1678.853598384296
 21
897.64966792261566
 31
0.0
  0
LINE
  5
E20
  8
1
 10
-1674.430948653486
 20
895.384925044596
 30
0.0
 11
-1674.9309486534869
 21
895.384925044596
 31
0.0
  0
LINE
  5
E21
  8
1
 10
-1673.5649232497019
 20
896.88492504459612
 30
0.0
 11
-1674.430948653486
 21
895.384925044596
 31
0.0
  0
LINE
  5
E22
  8
1
 10
-1671.353598384296
 20
896.88492504459612
 30
0.0
 11
-1673.5649232497019
 21
896.88492504459612
 31
0.0
  0
LINE
  5
E23
  8
2
 10
-1668.3535983842969
 20
897.49528452517063
 30
0.0
 11
-1660.3535983842969
 21
897.63492504459612
 31
0.0
  0
LINE
  5
E27
  8
2
 10
-1660.3535983842969
 20
879.13492504459612
 30
0.0
 11
-1660.3535983842969
 21
870.13492504459612
 31
0.0
  0
LINE
  5
E28
  8
2
 10
-1668.3535983842969
 20
879.27456556402205
 30
0.0
 11
-1660.3535983842969
 21
879.13492504459657
 31
0.0
  0
LINE
  5
E29
  8
2
 10
-1668.3535983842969
 20
869.99528452517063
 30
0.0
 11
-1660.3535983842969
 21
870.13492504459612
 31
0.0
  0
LINE
  5
E2B
  8
1
 10
-1671.3535983842969
 20
850.13492504459623
 30
0.0
 11
-1676.8535983842969
 21
850.13492504459623
 31
0.0
  0
LINE
  5
E2D
  8
1
 10
-1671.3535983842969
 20
859.88492504459623
 30
0.0
 11
-1677.853598384296
 21
859.88492504459623
 31
0.0
  0
ARC
  5
E2E
  8
1
 10
-1677.853598384296
 20
858.88492504459623
 30
0.0
 40
1.0
 50
89.999999999999986
 51
180.0
  0
LINE
  5
E2F
  8
1
 10
-1678.853598384296
 20
849.38492504459612
 30
0.0
 11
-1678.853598384296
 21
858.884925044596
 31
0.0
  0
LINE
  5
E30
  8
1
 10
-1676.8535983842969
 20
850.13492504459623
 30
0.0
 11
-1676.8535983842969
 21
859.88492504459623
 31
0.0
  0
LINE
  5
E82
  8
2
 10
-1660.3535983842969
 20
820.38492504459589
 30
0.0
 11
-1660.3535983842969
 21
803.38492504459589
 31
0.0
  0
LINE
  5
E83
  8
1
 10
-1671.3535983842969
 20
848.38492504459612
 30
0.0
 11
-1677.853598384296
 21
848.38492504459612
 31
0.0
  0
LINE
  5
E84
  8
2
 10
-1668.3535983842969
 20
820.52456556402194
 30
0.0
 11
-1660.3535983842969
 21
820.38492504459634
 31
0.0
  0
LINE
  5
E86
  8
2
 10
-1666.3535983842969
 20
814.38492504459578
 30
0.0
 11
-1666.3535983842969
 21
784.57145354200566
 31
0.0
  0
LINE
  5
E87
  8
1
 10
-1679.3535983842969
 20
803.38492504459634
 30
0.0
 11
-1679.353598384296
 21
784.38492504459612
 31
0.0
  0
LINE
  5
E88
  8
2
 10
-1669.3535983842969
 20
811.38492504459589
 30
0.0
 11
-1669.3535983842969
 21
783.38492504459578
 31
0.0
  0
LINE
  5
E89
  8
2
 10
-1679.3535983842969
 20
801.38492504459589
 30
0.0
 11
-1668.3535983842969
 21
801.4809205902942
 31
0.0
  0
LINE
  5
E8A
  8
1
 10
-1679.353598384296
 20
803.38492504459634
 30
0.0
 11
-1671.3535983842969
 21
803.52456556402205
 31
0.0
  0
LINE
  5
E8B
  8
2
 10
-1669.3535983842969
 20
811.38492504459589
 30
0.0
 11
-1671.3535983842969
 21
811.38492504459532
 31
0.0
  0
LINE
  5
E8C
  8
2
 10
-1666.3535983842969
 20
814.38492504459578
 30
0.0
 11
-1668.3535983842969
 21
814.38492504459578
 31
0.0
  0
LINE
  5
E8E
  8
2
 10
-1666.3535983842969
 20
803.280194655027
 30
0.0
 11
-1660.3535983842969
 21
803.38492504459589
 31
0.0
  0
LINE
  5
E8F
  8
2
 10
-1663.353598384296
 20
793.38492504459543
 30
0.0
 11
-1663.353598384296
 21
789.38492504459543
 31
0.0
  0
LINE
  5
E90
  8
2
 10
-1661.853598384296
 20
795.88492504459578
 30
0.0
 11
-1661.853598384296
 21
786.88492504459589
 31
0.0
  0
LINE
  5
E91
  8
2
 10
-1673.0535983842969
 20
788.88492504459578
 30
0.0
 11
-1673.8535983842969
 21
788.88492504459578
 31
0.0
  0
LINE
  5
E92
  8
1
 10
-1679.353598384296
 20
784.38492504459612
 30
0.0
 11
-1671.3535983842969
 21
784.24528452517029
 31
0.0
  0
LINE
  5
E93
  8
2
 10
-1679.3535983842969
 20
786.38492504459589
 30
0.0
 11
-1668.3535983842969
 21
786.28892949889746
 31
0.0
  0
LINE
  5
E94
  8
2
 10
-1669.3535983842969
 20
783.38492504459578
 30
0.0
 11
-1671.3535983842969
 21
783.38492504459543
 31
0.0
  0
LINE
  5
E95
  8
2
 10
-1669.353598384296
 20
786.38492504459589
 30
0.0
 11
-1672.3535983842969
 21
786.38492504459543
 31
0.0
  0
LINE
  5
E96
  8
2
 10
-1672.3535983842969
 20
788.13492504459589
 30
0.0
 11
-1673.8535983842969
 21
788.13492504459589
 31
0.0
  0
LINE
  5
E97
  8
2
 10
-1673.0535983842969
 20
793.88492504459589
 30
0.0
 11
-1673.8535983842969
 21
793.88492504459589
 31
0.0
  0
LINE
  5
E98
  8
2
 10
-1669.353598384296
 20
796.38492504459578
 30
0.0
 11
-1672.3535983842969
 21
796.38492504459543
 31
0.0
  0
LINE
  5
E99
  8
2
 10
-1672.3535983842969
 20
794.63492504459578
 30
0.0
 11
-1673.8535983842969
 21
794.63492504459578
 31
0.0
  0
LINE
  5
E9A
  8
2
 10
-1673.0535983842969
 20
793.88492504459589
 30
0.0
 11
-1673.0535983842969
 21
788.88492504459578
 31
0.0
  0
LINE
  5
E9B
  8
2
 10
-1673.8535983842969
 20
794.63492504459578
 30
0.0
 11
-1673.8535983842969
 21
788.13492504459589
 31
0.0
  0
LINE
  5
E9C
  8
2
 10
-1672.3535983842969
 20
796.38492504459543
 30
0.0
 11
-1672.3535983842969
 21
786.38492504459543
 31
0.0
  0
LINE
  5
E9E
  8
2
 10
-1661.853598384296
 20
786.88492504459589
 30
0.0
 11
-1666.3535983842969
 21
786.80637725241911
 31
0.0
  0
LINE
  5
E9F
  8
2
 10
-1661.853598384296
 20
795.88492504459578
 30
0.0
 11
-1666.3535983842969
 21
795.96347283677312
 31
0.0
  0
LINE
  5
EA0
  8
2
 10
-1663.353598384296
 20
789.38492504459543
 30
0.0
 11
-1673.8535983842969
 21
789.38492504459589
 31
0.0
  0
LINE
  5
EA1
  8
2
 10
-1663.353598384296
 20
793.38492504459543
 30
0.0
 11
-1673.8535983842969
 21
793.38492504459589
 31
0.0
  0
LINE
  5
EA2
  8
2
 10
-1604.853598384296
 20
850.01445872335285
 30
0.0
 11
-1604.8535983842951
 21
838.384925044596
 31
0.0
  0
LINE
  5
EB0
  8
1
 10
-1613.8535983842969
 20
846.38492504459646
 30
0.0
 11
-1613.8535983842969
 21
861.384925044596
 31
0.0
  0
LINE
  5
EB1
  8
1
 10
-1603.8535983842969
 20
846.38492504459646
 30
0.0
 11
-1603.8535983842969
 21
861.384925044596
 31
0.0
  0
LINE
  5
EB2
  8
1
 10
-1596.8535983842969
 20
837.1849250445963
 30
0.0
 11
-1596.8535983842969
 21
888.38492504459634
 31
0.0
  0
LINE
  5
EC2
  8
1
 10
-1602.353598384296
 20
863.88492504459612
 30
0.0
 11
-1619.8535983842969
 21
863.88492504459612
 31
0.0
  0
LINE
  5
EC3
  8
1
 10
-1602.353598384296
 20
912.88492504459612
 30
0.0
 11
-1619.853598384296
 21
912.88492504459612
 31
0.0
  0
LINE
  5
EC4
  8
1
 10
-1621.853598384296
 20
861.384925044596
 30
0.0
 11
-1613.8535983842969
 21
861.384925044596
 31
0.0
  0
LINE
  5
EC5
  8
1
 10
-1621.853598384296
 20
915.38492504459612
 30
0.0
 11
-1613.8535983842969
 21
915.38492504459612
 31
0.0
  0
ARC
  5
EC9
  8
1
 10
-1619.853598384296
 20
914.88492504459612
 30
0.0
 40
2.0
 50
179.99999999998261
 51
269.9999999999996
  0
LINE
  5
ECA
  8
1
 10
-1621.853598384296
 20
915.38492504459555
 30
0.0
 11
-1621.853598384296
 21
914.8849250445968
 31
0.0
  0
LINE
  5
ECB
  8
1
 10
-1621.853598384296
 20
861.38492504459657
 30
0.0
 11
-1621.8535983842969
 21
861.88492504459555
 31
0.0
  0
ARC
  5
ECC
  8
1
 10
-1619.8535983842969
 20
861.88492504459612
 30
0.0
 40
2.0
 50
90.000000000000327
 51
180.00000000001731
  0
LINE
  5
EEB
  8
1
 10
-1603.8535983842969
 20
915.38492504459612
 30
0.0
 11
-1602.3535983842969
 21
915.38492504459612
 31
0.0
  0
LINE
  5
EEC
  8
1
 10
-1602.3535983842969
 20
915.38492504459555
 30
0.0
 11
-1602.353598384296
 21
912.88492504459612
 31
0.0
  0
LINE
  5
EED
  8
1
 10
-1603.8535983842969
 20
861.384925044596
 30
0.0
 11
-1602.3535983842969
 21
861.384925044596
 31
0.0
  0
LINE
  5
EEF
  8
1
 10
-1602.3535983842969
 20
861.38492504459657
 30
0.0
 11
-1602.353598384296
 21
863.88492504459612
 31
0.0
  0
LINE
  5
EF0
  8
2
 10
-1634.3587796618981
 20
837.07663488933542
 30
0.0
 11
-1615.8535983842951
 21
837.17251665761296
 31
0.0
  0
LINE
  5
EF1
  8
1
 10
-1619.871051455294
 20
844.03779754157722
 30
0.0
 11
-1602.3535983842969
 21
843.88492504459623
 31
0.0
  0
LINE
  5
EF2
  8
2
 10
-1596.8535983842969
 20
838.384925044596
 30
0.0
 11
-1625.612192313527
 21
838.384925044596
 31
0.0
  0
LINE
  5
EF3
  8
1
 10
-1621.853598384296
 20
846.384925044596
 30
0.0
 11
-1613.8535983842969
 21
846.384925044596
 31
0.0
  0
LINE
  5
EF4
  8
2
 10
-1621.8535983842969
 20
840.14399240210935
 30
0.0
 11
-1604.8535983842951
 21
840.05590950055489
 31
0.0
  0
LINE
  5
EF5
  8
1
 10
-1624.854637914149
 20
835.12585230091781
 30
0.0
 11
-1599.8535983842969
 21
835.2553913658395
 31
0.0
  0
LINE
  5
F31
  8
2
 10
-1635.3535983842969
 20
836.07664831224429
 30
0.0
 11
-1635.353598384298
 21
812.38492504459634
 31
0.0
  0
LINE
  5
F32
  8
1
 10
-1630.3535983842969
 20
783.1849250445963
 30
0.0
 11
-1621.854637914149
 21
831.38492504459623
 31
0.0
  0
LINE
  5
F33
  8
1
 10
-1633.3535983842969
 20
835.08181623630583
 30
0.0
 11
-1633.3535983842969
 21
781.38492504459612
 31
0.0
  0
LINE
  5
F34
  8
1
 10
-1621.854637914149
 20
832.58492504459582
 30
0.0
 11
-1624.854637914149
 21
832.8473910351737
 31
0.0
  0
LINE
  5
F35
  8
2
 10
-1621.854637914148
 20
831.38492504459578
 30
0.0
 11
-1626.5599458369829
 21
831.30279358929545
 31
0.0
  0
LINE
  5
F36
  8
2
 10
-1628.5599458369829
 20
831.18492504459562
 30
0.0
 11
-1627.5818078195521
 21
836.73222139993015
 31
0.0
  0
LINE
  5
F38
  8
1
 10
-1624.854637914149
 20
832.8473910351737
 30
0.0
 11
-1624.854637914149
 21
835.12585230091781
 31
0.0
  0
ARC
  5
F39
  8
2
 10
-1634.3535983842969
 20
836.07664831224429
 30
0.0
 40
1.0
 50
90.296866667324849
 51
180.0
  0
ARC
  5
F3C
  8
2
 10
-1625.6121923135281
 20
836.384925044596
 30
0.0
 40
2.0
 50
89.999999999999986
 51
170.0000000000019
  0
LINE
  5
F3D
  8
1
 10
-1624.8442464726099
 20
832.84648190184134
 30
0.0
 11
-1633.313768125802
 21
833.58746903198301
 31
0.0
  0
LINE
  5
F3E
  8
1
 10
-1633.3535983842969
 20
835.08181623630583
 30
0.0
 11
-1624.854637914149
 21
835.12585230091781
 31
0.0
  0
LINE
  5
F3F
  8
2
 10
-1626.5599458369829
 20
831.30279358929545
 30
0.0
 11
-1626.6778143816821
 21
831.18492504459562
 31
0.0
  0
LINE
  5
F41
  8
2
 10
-1626.6778143816821
 20
831.18492504459562
 30
0.0
 11
-1628.5599458369829
 21
831.18492504459562
 31
0.0
  0
LINE
  5
F42
  8
1
 10
-1621.854637914149
 20
832.58492504459582
 30
0.0
 11
-1621.854637914149
 21
831.38492504459623
 31
0.0
  0
LINE
  5
F43
  8
1
 10
-1621.853598384296
 20
846.03772138770569
 30
0.0
 11
-1621.853598384296
 21
846.38492504459646
 31
0.0
  0
ARC
  5
F44
  8
1
 10
-1619.853598384296
 20
846.03772138770591
 30
0.0
 40
2.0
 50
180.0
 51
269.50000000000023
  0
LINE
  5
F45
  8
2
 10
-1623.6126657418099
 20
838.384925044596
 30
0.0
 11
-1621.8535983842969
 21
840.14399240210935
 31
0.0
  0
LINE
  5
F53
  8
2
 10
-1634.1535983842971
 20
809.88492504459623
 30
0.0
 11
-1634.1535983842971
 21
805.88492504459589
 31
0.0
  0
LINE
  5
F54
  8
2
 10
-1634.1535983842971
 20
805.88492504459589
 30
0.0
 11
-1633.3535983842969
 21
805.88492504459589
 31
0.0
  0
LINE
  5
F55
  8
2
 10
-1634.1535983842971
 20
809.88492504459623
 30
0.0
 11
-1633.3535983842969
 21
809.88492504459623
 31
0.0
  0
LINE
  5
F56
  8
1
 10
-1641.8535983842969
 20
807.884925044596
 30
0.0
 11
-1638.8535983842969
 21
807.884925044596
 31
0.0
  0
LINE
  5
F57
  8
1
 10
-1641.8535983842969
 20
809.88492504459646
 30
0.0
 11
-1638.8535983842969
 21
809.88492504459623
 31
0.0
  0
LINE
  5
F58
  8
1
 10
-1638.3535983842969
 20
809.38492504459612
 30
0.0
 11
-1638.3535983842969
 21
808.38492504459612
 31
0.0
  0
LINE
  5
F59
  8
1
 10
-1642.3535983842969
 20
809.38492504459657
 30
0.0
 11
-1642.3535983842969
 21
808.38492504459612
 31
0.0
  0
ARC
  5
F5A
  8
1
 10
-1638.8535983842969
 20
809.38492504459634
 30
0.0
 40
0.5
 50
0.0
 51
89.999999999997627
  0
ARC
  5
F5B
  8
1
 10
-1638.8535983842969
 20
808.38492504459612
 30
0.0
 40
0.5
 50
269.9999999999992
 51
0.0
  0
ARC
  5
F5C
  8
1
 10
-1641.8535983842969
 20
808.38492504459612
 30
0.0
 40
0.5
 50
180.0
 51
269.99999999999898
  0
ARC
  5
F5D
  8
1
 10
-1641.8535983842969
 20
809.38492504459657
 30
0.0
 40
0.5
 50
89.999999999998124
 51
180.0
  0
LINE
  5
F5E
  8
2
 10
-1644.353598384296
 20
812.38492504459578
 30
0.0
 11
-1644.3535983842969
 21
805.92055047494648
 31
0.0
  0
LINE
  5
F5F
  8
2
 10
-1644.353598384296
 20
812.38492504459578
 30
0.0
 11
-1635.353598384298
 21
812.38492504459634
 31
0.0
  0
LINE
  5
F60
  8
2
 10
-1642.8535983842969
 20
809.48492504459568
 30
0.0
 11
-1642.8535983842969
 21
806.28492504459598
 31
0.0
  0
LINE
  5
F61
  8
2
 10
-1642.8535983842969
 20
806.28492504459598
 30
0.0
 11
-1634.1535983842971
 21
806.28492504459598
 31
0.0
  0
LINE
  5
F62
  8
2
 10
-1642.8535983842969
 20
809.48492504459568
 30
0.0
 11
-1634.1535983842971
 21
809.48492504459568
 31
0.0
  0
LINE
  5
F64
  8
1
 10
-1625.2841976889281
 20
811.93492504459584
 30
0.0
 11
-1633.3535983842969
 21
811.72362035087644
 31
0.0
  0
LINE
  5
F66
  8
1
 10
-1630.3535983842969
 20
783.1849250445963
 30
0.0
 11
-1633.3535983842969
 21
783.10636727988879
 31
0.0
  0
LINE
  5
F67
  8
2
 10
-1630.3535983842969
 20
783.18492504459596
 30
0.0
 11
-1630.353598384296
 21
784.38492504459578
 31
0.0
  0
LINE
  5
F6F
  8
1
 10
-1596.8535983842969
 20
837.1849250445963
 30
0.0
 11
-1599.8535983842969
 21
837.10636727988879
 31
0.0
  0
LINE
  5
F70
  8
1
 10
-1603.8535983842969
 20
846.384925044596
 30
0.0
 11
-1602.3535983842969
 21
846.384925044596
 31
0.0
  0
LINE
  5
F72
  8
1
 10
-1602.3535983842969
 20
843.88492504459623
 30
0.0
 11
-1602.3535983842969
 21
846.38492504459646
 31
0.0
  0
LINE
  5
F73
  8
2
 10
-1614.353598384296
 20
848.63570224666876
 30
0.0
 11
-1614.353598384296
 21
838.384925044596
 31
0.0
  0
LINE
  5
F74
  8
2
 10
-1615.853598384296
 20
848.09736027775648
 30
0.0
 11
-1615.8535983842951
 21
837.17251665761296
 31
0.0
  0
LINE
  5
F76
  8
2
 10
-1614.353598384296
 20
848.63570224666876
 30
0.0
 11
-1604.853598384296
 21
848.6849250445963
 31
0.0
  0
CIRCLE
  5
FAD
  8
1
 10
-1436.120673605303
 20
906.68492504459596
 30
0.0
 40
10.5
  0
ARC
  5
FAE
  8
1
 10
-1436.120673605303
 20
903.68492504459584
 30
0.0
 40
5.0
 50
119.9999999999998
 51
60.000000000000099
  0
LINE
  5
FD7
  8
1
 10
-1353.620673605303
 20
784.58181623630605
 30
0.0
 11
-1353.620673605303
 21
937.88492504459612
 31
0.0
  0
LINE
  5
FD9
  8
2
 10
-1356.120673605303
 20
839.38492504459623
 30
0.0
 11
-1356.120673605303
 21
937.384925044596
 31
0.0
  0
LINE
  5
FF0
  8
1
 10
-1518.620673605303
 20
784.58181623630605
 30
0.0
 11
-1518.620673605303
 21
937.88492504459612
 31
0.0
  0
LINE
  5
FF2
  8
2
 10
-1516.120673605303
 20
839.38492504459623
 30
0.0
 11
-1516.120673605303
 21
937.384925044596
 31
0.0
  0
LINE
  5
100E
  8
1
 10
-1431.120673605303
 20
783.38492504459578
 30
0.0
 11
-1387.620673605303
 21
783.38492504459543
 31
0.0
  0
LINE
  5
1010
  8
1
 10
-1484.620673605303
 20
811.384925044596
 30
0.0
 11
-1387.620673605303
 21
811.384925044596
 31
0.0
  0
LINE
  5
1020
  8
1
 10
-1515.620673605303
 20
781.58181623630605
 30
0.0
 11
-1356.620673605303
 21
781.58181623630605
 31
0.0
  0
LINE
  5
1023
  8
2
 10
-1515.120673605303
 20
838.384925044596
 30
0.0
 11
-1357.120673605303
 21
838.384925044596
 31
0.0
  0
LINE
  5
124A
  8
1
 10
-1484.620673605303
 20
783.38492504459612
 30
0.0
 11
-1441.120673605303
 21
783.38492504459578
 31
0.0
  0
LINE
  5
125A
  8
2
 10
-1506.201403826452
 20
838.36398215687143
 30
0.0
 11
-1506.276113318685
 21
842.64408610036958
 31
0.0
  0
POLYLINE
  5
1274
  8
1
 66
     1
 10
0.0
 20
0.0
 30
0.0
 70
     1
  0
VERTEX
  5
1E22
  8
1
 10
-1507.470673605302
 20
848.38492504459612
 30
0.0
  0
VERTEX
  5
1E23
  8
1
 10
-1516.320673605303
 20
848.38492504459612
 30
0.0
 42
0.4142135623730951
  0
VERTEX
  5
1E24
  8
1
 10
-1516.820673605303
 20
847.88492504459623
 30
0.0
  0
VERTEX
  5
1E25
  8
1
 10
-1516.820673605303
 20
806.18492504459607
 30
0.0
 42
0.4142135623730951
  0
VERTEX
  5
1E26
  8
1
 10
-1516.320673605303
 20
805.68492504459596
 30
0.0
  0
VERTEX
  5
1E27
  8
1
 10
-1506.7706736053019
 20
805.68492504459618
 30
0.0
 42
0.4142135623730884
  0
VERTEX
  5
1E28
  8
1
 10
-1506.470673605302
 20
805.98492504459625
 30
0.0
  0
VERTEX
  5
1E29
  8
1
 10
-1506.470673605302
 20
808.23179475936331
 30
0.0
 42
0.4142135623729619
  0
VERTEX
  5
1E2A
  8
1
 10
-1509.970673605301
 20
811.73179475936331
 30
0.0
  0
VERTEX
  5
1E2B
  8
1
 10
-1510.370673605302
 20
811.73179475936354
 30
0.0
 42
-0.4142135623729377
  0
VERTEX
  5
1E2C
  8
1
 10
-1512.273803890535
 20
813.63492504459555
 30
0.0
  0
VERTEX
  5
1E2D
  8
1
 10
-1512.273803890535
 20
830.44537702199727
 30
0.0
 42
-0.4142135623730951
  0
VERTEX
  5
1E2E
  8
1
 10
-1510.273803890535
 20
832.44537702199727
 30
0.0
  0
VERTEX
  5
1E2F
  8
1
 10
-1506.7706736053019
 20
832.44537702199727
 30
0.0
 42
0.4142135623729841
  0
VERTEX
  5
1E30
  8
1
 10
-1506.470673605302
 20
832.74537702199734
 30
0.0
  0
VERTEX
  5
1E31
  8
1
 10
-1506.470673605302
 20
847.38492504459623
 30
0.0
 42
0.4142135623730951
  0
SEQEND
  5
1E32
  8
1
  0
ARC
  5
1275
  8
2
 10
-1508.620673605303
 20
845.88492504459612
 30
0.0
 40
4.0
 50
135.5729959991954
 51
305.88357174089037
  0
ARC
  5
1286
  8
1
 10
-1484.620673605303
 20
797.38492504459612
 30
0.0
 40
14.0
 50
90.0
 51
270.0
  0
ARC
  5
12A5
  8
1
 10
-1510.120673605303
 20
807.884925044596
 30
0.0
 40
4.0
 50
113.8691803902464
 51
213.36701296923209
  0
ARC
  5
12A8
  8
1
 10
-1511.620673605303
 20
789.08492504459605
 30
0.0
 40
4.7000000000000002
 50
180.0
 51
0.0
  0
ARC
  5
12A9
  8
1
 10
-1511.620673605303
 20
798.68492504459618
 30
0.0
 40
4.7000000000000002
 50
0.0
 51
180.0
  0
ARC
  5
12AB
  8
1
 10
-1511.620673605303
 20
789.08492504459605
 30
0.0
 40
2.7000000000000002
 50
180.0
 51
0.0
  0
ARC
  5
12AC
  8
1
 10
-1511.620673605303
 20
798.68492504459618
 30
0.0
 40
2.7000000000000002
 50
0.0
 51
180.0
  0
LINE
  5
12B3
  8
1
 10
-1516.320673605303
 20
798.68492504459618
 30
0.0
 11
-1516.320673605303
 21
789.08492504459605
 31
0.0
  0
LINE
  5
12B4
  8
1
 10
-1514.320673605303
 20
798.68492504459618
 30
0.0
 11
-1514.320673605303
 21
789.08492504459605
 31
0.0
  0
ARC
  5
12B5
  8
1
 10
-1515.620673605303
 20
784.58181623630605
 30
0.0
 40
3.0
 50
180.0
 51
270.0
  0
LINE
  5
12B9
  8
1
 10
-1516.8175647970129
 20
806.88492504459612
 30
0.0
 11
-1513.9936569515039
 21
806.88492504459612
 31
0.0
  0
LINE
  5
12BB
  8
1
 10
-1506.9206736053029
 20
798.68492504459618
 30
0.0
 11
-1506.9206736053029
 21
789.08492504459605
 31
0.0
  0
LINE
  5
12BC
  8
1
 10
-1508.9206736053029
 20
798.68492504459618
 30
0.0
 11
-1508.9206736053029
 21
789.08492504459605
 31
0.0
  0
ARC
  5
12C7
  8
2
 10
-1515.120673605303
 20
839.38492504459623
 30
0.0
 40
1.0
 50
180.0
 51
270.0
  0
LINE
  5
12CC
  8
1
 10
-1516.8175647970129
 20
810.88492504459612
 30
0.0
 11
-1512.766424916359
 21
810.88492504459612
 31
0.0
  0
LINE
  5
12F0
  8
2
 10
-1486.620673605303
 20
839.88492504459623
 30
0.0
 11
-1487.620673605303
 21
839.88492504459623
 31
0.0
  0
LINE
  5
12F1
  8
2
 10
-1487.620673605303
 20
838.38492504459623
 30
0.0
 11
-1487.620673605303
 21
839.88492504459623
 31
0.0
  0
LINE
  5
12F2
  8
2
 10
-1486.620673605303
 20
838.38492504459623
 30
0.0
 11
-1486.620673605303
 21
839.88492504459623
 31
0.0
  0
LINE
  5
12F3
  8
2
 10
-1490.620673605303
 20
838.38492504459623
 30
0.0
 11
-1490.620673605303
 21
839.88492504459623
 31
0.0
  0
LINE
  5
12F4
  8
2
 10
-1489.620673605303
 20
838.38492504459623
 30
0.0
 11
-1489.620673605303
 21
839.88492504459623
 31
0.0
  0
LINE
  5
12F5
  8
2
 10
-1489.620673605303
 20
839.88492504459623
 30
0.0
 11
-1490.620673605303
 21
839.88492504459623
 31
0.0
  0
LINE
  5
12F8
  8
2
 10
-1472.120673605303
 20
839.88492504459623
 30
0.0
 11
-1473.120673605303
 21
839.88492504459623
 31
0.0
  0
LINE
  5
12F9
  8
2
 10
-1472.120673605303
 20
838.38492504459623
 30
0.0
 11
-1472.120673605303
 21
839.88492504459623
 31
0.0
  0
LINE
  5
12FA
  8
2
 10
-1473.120673605303
 20
838.38492504459623
 30
0.0
 11
-1473.120673605303
 21
839.88492504459623
 31
0.0
  0
LINE
  5
12FB
  8
2
 10
-1469.120673605303
 20
838.38492504459623
 30
0.0
 11
-1469.120673605303
 21
839.88492504459623
 31
0.0
  0
LINE
  5
12FC
  8
2
 10
-1470.120673605303
 20
838.38492504459623
 30
0.0
 11
-1470.120673605303
 21
839.88492504459623
 31
0.0
  0
LINE
  5
12FD
  8
2
 10
-1469.120673605303
 20
839.88492504459623
 30
0.0
 11
-1470.120673605303
 21
839.88492504459623
 31
0.0
  0
CIRCLE
  5
1314
  8
1
 10
-1510.620673605303
 20
854.88492504459612
 30
0.0
 40
2.25
  0
LINE
  5
1315
  8
1
 10
-1515.620673605303
 20
867.884925044596
 30
0.0
 11
-1505.620673605302
 21
867.884925044596
 31
0.0
  0
LINE
  5
1316
  8
1
 10
-1515.620673605303
 20
866.38492504459589
 30
0.0
 11
-1505.620673605302
 21
866.38492504459589
 31
0.0
  0
LINE
  5
1317
  8
1
 10
-1515.620673605303
 20
864.88492504459612
 30
0.0
 11
-1505.620673605302
 21
864.88492504459612
 31
0.0
  0
LINE
  5
131C
  8
1
 10
-1504.620673605303
 20
859.884925044596
 30
0.0
 11
-1515.620673605303
 21
859.884925044596
 31
0.0
  0
LINE
  5
131D
  8
1
 10
-1504.620673605303
 20
848.38492504459646
 30
0.0
 11
-1515.620673605302
 21
848.38492504459646
 31
0.0
  0
LINE
  5
131E
  8
2
 10
-1511.4772449767199
 20
848.68492504459596
 30
0.0
 11
-1516.120673605303
 21
848.68492504459596
 31
0.0
  0
LINE
  5
1320
  8
2
 10
-1508.1504116282861
 20
849.884925044596
 30
0.0
 11
-1516.120673605303
 21
849.884925044596
 31
0.0
  0
LINE
  5
1321
  8
1
 10
-1515.620673605303
 20
864.88492504459612
 30
0.0
 11
-1515.620673605303
 21
867.884925044596
 31
0.0
  0
LINE
  5
1323
  8
1
 10
-1515.620673605303
 20
859.884925044596
 30
0.0
 11
-1515.620673605302
 21
848.38492504459646
 31
0.0
  0
LINE
  5
1324
  8
1
 10
-1519.120673605303
 20
863.88492504459634
 30
0.0
 11
-1526.1555784181769
 21
863.76213032432361
 31
0.0
  0
LINE
  5
1325
  8
1
 10
-1525.620673605303
 20
846.384925044596
 30
0.0
 11
-1525.620673605303
 21
861.384925044596
 31
0.0
  0
LINE
  5
1326
  8
2
 10
-1516.120673605303
 20
862.88492504459612
 30
0.0
 11
-1514.620673605303
 21
862.88492504459612
 31
0.0
  0
LINE
  5
1327
  8
2
 10
-1514.620673605303
 20
858.884925044596
 30
0.0
 11
-1514.620673605303
 21
859.88492504459623
 31
0.0
  0
LINE
  5
1328
  8
2
 10
-1516.120673605303
 20
861.88492504459612
 30
0.0
 11
-1514.620673605303
 21
861.88492504459612
 31
0.0
  0
LINE
  5
1329
  8
2
 10
-1516.120673605303
 20
859.88492504459623
 30
0.0
 11
-1514.620673605303
 21
859.88492504459623
 31
0.0
  0
LINE
  5
132A
  8
2
 10
-1516.120673605303
 20
858.884925044596
 30
0.0
 11
-1514.620673605303
 21
858.884925044596
 31
0.0
  0
LINE
  5
132B
  8
2
 10
-1514.620673605303
 20
861.88492504459612
 30
0.0
 11
-1514.620673605303
 21
862.88492504459612
 31
0.0
  0
LINE
  5
132C
  8
1
 10
-1528.120673605303
 20
846.00741515518155
 30
0.0
 11
-1528.120673605303
 21
861.7624349340108
 31
0.0
  0
LINE
  5
132D
  8
1
 10
-1519.120673605303
 20
861.384925044596
 30
0.0
 11
-1528.120673605303
 21
861.384925044596
 31
0.0
  0
LINE
  5
132E
  8
1
 10
-1519.120673605303
 20
846.384925044596
 30
0.0
 11
-1528.120673605303
 21
846.384925044596
 31
0.0
  0
LINE
  5
132F
  8
1
 10
-1519.120673605303
 20
843.88492504459623
 30
0.0
 11
-1526.1555784181769
 21
844.00771976486874
 31
0.0
  0
ARC
  5
1330
  8
1
 10
-1526.120673605303
 20
846.00741515518155
 30
0.0
 40
2.0
 50
180.0
 51
268.99999999999909
  0
ARC
  5
1331
  8
1
 10
-1526.120673605303
 20
861.7624349340108
 30
0.0
 40
2.0
 50
91.000000000000838
 51
180.0
  0
LINE
  5
1332
  8
1
 10
-1505.620673605302
 20
864.88492504459612
 30
0.0
 11
-1505.620673605302
 21
867.884925044596
 31
0.0
  0
ARC
  5
1333
  8
1
 10
-1504.620673605303
 20
850.38492504459646
 30
0.0
 40
2.0
 50
270.0
 51
0.0
  0
ARC
  5
1334
  8
1
 10
-1504.620673605303
 20
857.884925044596
 30
0.0
 40
2.0
 50
0.0
 51
90.0
  0
LINE
  5
1338
  8
1
 10
-1502.620673605303
 20
857.884925044596
 30
0.0
 11
-1502.620673605303
 21
850.38492504459646
 31
0.0
  0
ARC
  5
1339
  8
2
 10
-1508.1504116282861
 20
846.88492504459612
 30
0.0
 40
3.0
 50
0.9999999999999378
 51
90.0
  0
CIRCLE
  5
133A
  8
2
 10
-1508.620673605303
 20
845.88492504459612
 30
0.0
 40
1.1999999999999991
  0
LINE
  5
133B
  8
1
 10
-1515.620673605303
 20
889.88492504459612
 30
0.0
 11
-1505.620673605302
 21
889.88492504459612
 31
0.0
  0
LINE
  5
133C
  8
1
 10
-1515.620673605303
 20
891.38492504459612
 30
0.0
 11
-1505.620673605302
 21
891.38492504459612
 31
0.0
  0
LINE
  5
133D
  8
1
 10
-1515.620673605303
 20
892.88492504459623
 30
0.0
 11
-1505.620673605302
 21
892.88492504459623
 31
0.0
  0
LINE
  5
134C
  8
1
 10
-1515.620673605303
 20
895.384925044596
 30
0.0
 11
-1505.620673605302
 21
895.384925044596
 31
0.0
  0
LINE
  5
134D
  8
1
 10
-1515.620673605303
 20
899.884925044596
 30
0.0
 11
-1505.620673605302
 21
899.884925044596
 31
0.0
  0
LINE
  5
134F
  8
1
 10
-1515.620673605303
 20
899.884925044596
 30
0.0
 11
-1515.620673605303
 21
895.384925044596
 31
0.0
  0
LINE
  5
1350
  8
2
 10
-1514.620673605303
 20
887.384925044596
 30
0.0
 11
-1514.620673605303
 21
886.384925044596
 31
0.0
  0
LINE
  5
1351
  8
2
 10
-1516.120673605303
 20
890.38492504459612
 30
0.0
 11
-1514.620673605303
 21
890.38492504459612
 31
0.0
  0
LINE
  5
1352
  8
2
 10
-1516.120673605303
 20
889.38492504459623
 30
0.0
 11
-1514.620673605303
 21
889.38492504459623
 31
0.0
  0
LINE
  5
1353
  8
2
 10
-1516.120673605303
 20
887.384925044596
 30
0.0
 11
-1514.620673605303
 21
887.384925044596
 31
0.0
  0
LINE
  5
1354
  8
2
 10
-1514.620673605303
 20
890.38492504459612
 30
0.0
 11
-1514.620673605303
 21
889.38492504459623
 31
0.0
  0
LINE
  5
1355
  8
2
 10
-1516.120673605303
 20
886.384925044596
 30
0.0
 11
-1514.620673605303
 21
886.384925044596
 31
0.0
  0
LINE
  5
1356
  8
2
 10
-1516.120673605303
 20
900.13492504459623
 30
0.0
 11
-1514.620673605303
 21
900.13492504459623
 31
0.0
  0
LINE
  5
1357
  8
2
 10
-1516.120673605303
 20
901.13492504459612
 30
0.0
 11
-1514.620673605303
 21
901.13492504459612
 31
0.0
  0
LINE
  5
1358
  8
2
 10
-1514.620673605303
 20
901.13492504459612
 30
0.0
 11
-1514.620673605303
 21
900.13492504459623
 31
0.0
  0
LINE
  5
1359
  8
2
 10
-1514.620673605303
 20
875.63492504459612
 30
0.0
 11
-1514.620673605303
 21
876.634925044596
 31
0.0
  0
LINE
  5
135A
  8
2
 10
-1516.120673605303
 20
872.63492504459612
 30
0.0
 11
-1514.620673605303
 21
872.63492504459612
 31
0.0
  0
LINE
  5
135B
  8
2
 10
-1516.120673605303
 20
873.63492504459612
 30
0.0
 11
-1514.620673605303
 21
873.63492504459612
 31
0.0
  0
LINE
  5
135C
  8
2
 10
-1516.120673605303
 20
875.63492504459612
 30
0.0
 11
-1514.620673605303
 21
875.63492504459612
 31
0.0
  0
LINE
  5
135D
  8
2
 10
-1514.620673605303
 20
872.63492504459612
 30
0.0
 11
-1514.620673605303
 21
873.63492504459612
 31
0.0
  0
LINE
  5
135E
  8
2
 10
-1516.120673605303
 20
876.634925044596
 30
0.0
 11
-1514.620673605303
 21
876.634925044596
 31
0.0
  0
LINE
  5
135F
  8
1
 10
-1505.620673605302
 20
899.884925044596
 30
0.0
 11
-1505.620673605302
 21
895.384925044596
 31
0.0
  0
CIRCLE
  5
1363
  8
1
 10
-1431.120673605303
 20
800.38492504459612
 30
0.0
 40
3.25
  0
CIRCLE
  5
1382
  8
1
 10
-1431.120673605303
 20
800.38492504459612
 30
0.0
 40
2.25
  0
CIRCLE
  5
1384
  8
1
 10
-1436.120673605303
 20
791.38492504459612
 30
0.0
 40
2.0
  0
CIRCLE
  5
1388
  8
1
 10
-1441.120673605303
 20
800.38492504459612
 30
0.0
 40
2.25
  0
CIRCLE
  5
1389
  8
1
 10
-1441.120673605303
 20
800.38492504459612
 30
0.0
 40
3.25
  0
LINE
  5
138E
  8
1
 10
-1433.120673605303
 20
787.38492504459578
 30
0.0
 11
-1432.120673605303
 21
787.38492504459578
 31
0.0
  0
ARC
  5
138F
  8
1
 10
-1432.120673605303
 20
786.38492504459578
 30
0.0
 40
1.0
 50
0.0
 51
90.0
  0
LINE
  5
1390
  8
1
 10
-1440.120673605303
 20
787.38492504459578
 30
0.0
 11
-1439.120673605302
 21
787.38492504459578
 31
0.0
  0
LINE
  5
1391
  8
1
 10
-1431.120673605303
 20
786.38492504459578
 30
0.0
 11
-1431.120673605303
 21
783.38492504459578
 31
0.0
  0
LINE
  5
1393
  8
1
 10
-1441.120673605303
 20
786.38492504459578
 30
0.0
 11
-1441.120673605303
 21
783.38492504459578
 31
0.0
  0
ARC
  5
1394
  8
1
 10
-1440.120673605303
 20
786.38492504459578
 30
0.0
 40
1.0
 50
90.0
 51
180.0
  0
CIRCLE
  5
1396
  8
1
 10
-1436.120673605303
 20
791.38492504459612
 30
0.0
 40
3.2500000000001128
  0
CIRCLE
  5
1397
  8
1
 10
-1436.120673605303
 20
791.38492504459612
 30
0.0
 40
2.5
  0
CIRCLE
  5
1398
  8
1
 10
-1436.120673605303
 20
791.38492504459612
 30
0.0
 40
5.0
  0
LINE
  5
1399
  8
2
 10
-1451.620673605303
 20
838.38492504459623
 30
0.0
 11
-1451.620673605303
 21
839.88492504459623
 31
0.0
  0
LINE
  5
139A
  8
2
 10
-1452.620673605303
 20
838.38492504459623
 30
0.0
 11
-1452.620673605303
 21
839.88492504459623
 31
0.0
  0
LINE
  5
139B
  8
2
 10
-1451.620673605303
 20
839.88492504459623
 30
0.0
 11
-1452.620673605303
 21
839.88492504459623
 31
0.0
  0
LINE
  5
139C
  8
2
 10
-1454.620673605303
 20
839.88492504459623
 30
0.0
 11
-1455.620673605303
 21
839.88492504459623
 31
0.0
  0
LINE
  5
139D
  8
2
 10
-1454.620673605303
 20
838.38492504459623
 30
0.0
 11
-1454.620673605303
 21
839.88492504459623
 31
0.0
  0
LINE
  5
139E
  8
2
 10
-1455.620673605303
 20
838.38492504459623
 30
0.0
 11
-1455.620673605303
 21
839.88492504459623
 31
0.0
  0
LINE
  5
139F
  8
2
 10
-1434.120673605303
 20
839.88492504459623
 30
0.0
 11
-1435.120673605303
 21
839.88492504459623
 31
0.0
  0
LINE
  5
13A0
  8
2
 10
-1435.120673605303
 20
838.38492504459623
 30
0.0
 11
-1435.120673605303
 21
839.88492504459623
 31
0.0
  0
LINE
  5
13A1
  8
2
 10
-1434.120673605303
 20
838.38492504459623
 30
0.0
 11
-1434.120673605303
 21
839.88492504459623
 31
0.0
  0
LINE
  5
13A2
  8
2
 10
-1438.120673605303
 20
838.38492504459623
 30
0.0
 11
-1438.120673605303
 21
839.88492504459623
 31
0.0
  0
LINE
  5
13A3
  8
2
 10
-1437.120673605303
 20
838.38492504459623
 30
0.0
 11
-1437.120673605303
 21
839.88492504459623
 31
0.0
  0
LINE
  5
13A4
  8
2
 10
-1437.120673605303
 20
839.88492504459623
 30
0.0
 11
-1438.120673605303
 21
839.88492504459623
 31
0.0
  0
LINE
  5
13AF
  8
2
 10
-1420.620673605303
 20
839.88492504459623
 30
0.0
 11
-1419.620673605303
 21
839.88492504459623
 31
0.0
  0
LINE
  5
13B0
  8
2
 10
-1419.620673605303
 20
838.38492504459623
 30
0.0
 11
-1419.620673605303
 21
839.88492504459623
 31
0.0
  0
LINE
  5
13B1
  8
2
 10
-1420.620673605303
 20
838.38492504459623
 30
0.0
 11
-1420.620673605303
 21
839.88492504459623
 31
0.0
  0
LINE
  5
13B2
  8
2
 10
-1416.620673605303
 20
838.38492504459623
 30
0.0
 11
-1416.620673605303
 21
839.88492504459623
 31
0.0
  0
LINE
  5
13B3
  8
2
 10
-1417.620673605303
 20
838.38492504459623
 30
0.0
 11
-1417.620673605303
 21
839.88492504459623
 31
0.0
  0
LINE
  5
13B4
  8
2
 10
-1417.620673605303
 20
839.88492504459623
 30
0.0
 11
-1416.620673605303
 21
839.88492504459623
 31
0.0
  0
LINE
  5
13B5
  8
2
 10
-1403.120673605303
 20
839.88492504459623
 30
0.0
 11
-1402.120673605303
 21
839.88492504459623
 31
0.0
  0
LINE
  5
13B6
  8
2
 10
-1402.120673605303
 20
838.38492504459623
 30
0.0
 11
-1402.120673605303
 21
839.88492504459623
 31
0.0
  0
LINE
  5
13B7
  8
2
 10
-1403.120673605303
 20
838.38492504459623
 30
0.0
 11
-1403.120673605303
 21
839.88492504459623
 31
0.0
  0
LINE
  5
13B8
  8
2
 10
-1399.120673605303
 20
838.38492504459623
 30
0.0
 11
-1399.120673605303
 21
839.88492504459623
 31
0.0
  0
LINE
  5
13B9
  8
2
 10
-1400.120673605303
 20
838.38492504459623
 30
0.0
 11
-1400.120673605303
 21
839.88492504459623
 31
0.0
  0
LINE
  5
13BA
  8
2
 10
-1400.120673605303
 20
839.88492504459623
 30
0.0
 11
-1399.120673605303
 21
839.88492504459623
 31
0.0
  0
CIRCLE
  5
13BF
  8
1
 10
-1436.120673605303
 20
861.23337064045108
 30
0.0
 40
6.0
  0
LINE
  5
13DF
  8
2
 10
-1366.039943384154
 20
838.36398215687143
 30
0.0
 11
-1365.9652338919209
 21
842.64408610036958
 31
0.0
  0
ARC
  5
13E0
  8
2
 10
-1363.620673605303
 20
845.88492504459612
 30
0.0
 40
4.0
 50
234.11642825910371
 51
44.427004000804601
  0
POLYLINE
  5
13E2
  8
1
 66
     1
 10
0.0
 20
0.0
 30
0.0
 70
     1
  0
VERTEX
  5
1E33
  8
1
 10
-1364.770673605303
 20
848.38492504459612
 30
0.0
  0
VERTEX
  5
1E34
  8
1
 10
-1355.9206736053029
 20
848.38492504459612
 30
0.0
 42
-0.4142135623730951
  0
VERTEX
  5
1E35
  8
1
 10
-1355.420673605302
 20
847.88492504459623
 30
0.0
  0
VERTEX
  5
1E36
  8
1
 10
-1355.420673605302
 20
806.18492504459607
 30
0.0
 42
-0.4142135623730951
  0
VERTEX
  5
1E37
  8
1
 10
-1355.9206736053029
 20
805.68492504459596
 30
0.0
  0
VERTEX
  5
1E38
  8
1
 10
-1365.4706736053031
 20
805.68492504459618
 30
0.0
 42
-0.4142135623730884
  0
VERTEX
  5
1E39
  8
1
 10
-1365.770673605303
 20
805.98492504459625
 30
0.0
  0
VERTEX
  5
1E3A
  8
1
 10
-1365.770673605303
 20
808.23179475936331
 30
0.0
 42
-0.4142135623729619
  0
VERTEX
  5
1E3B
  8
1
 10
-1362.270673605304
 20
811.73179475936331
 30
0.0
  0
VERTEX
  5
1E3C
  8
1
 10
-1361.870673605303
 20
811.73179475936354
 30
0.0
 42
0.4142135623729377
  0
VERTEX
  5
1E3D
  8
1
 10
-1359.9675433200709
 20
813.63492504459555
 30
0.0
  0
VERTEX
  5
1E3E
  8
1
 10
-1359.96754332007
 20
830.44537702199727
 30
0.0
 42
0.4142135623730951
  0
VERTEX
  5
1E3F
  8
1
 10
-1361.96754332007
 20
832.44537702199727
 30
0.0
  0
VERTEX
  5
1E40
  8
1
 10
-1365.4706736053031
 20
832.44537702199727
 30
0.0
 42
-0.4142135623729841
  0
VERTEX
  5
1E41
  8
1
 10
-1365.770673605303
 20
832.74537702199734
 30
0.0
  0
VERTEX
  5
1E42
  8
1
 10
-1365.770673605303
 20
847.38492504459623
 30
0.0
 42
-0.4142135623730951
  0
SEQEND
  5
1E43
  8
1
  0
ARC
  5
13E9
  8
1
 10
-1360.620673605303
 20
798.68492504459618
 30
0.0
 40
2.7000000000000002
 50
0.0
 51
180.0
  0
ARC
  5
13EA
  8
1
 10
-1360.620673605303
 20
798.68492504459618
 30
0.0
 40
4.7000000000000002
 50
0.0
 51
180.0
  0
ARC
  5
13ED
  8
1
 10
-1362.120673605303
 20
807.884925044596
 30
0.0
 40
4.0
 50
326.63298703076788
 51
66.130819609753544
  0
ARC
  5
13F9
  8
1
 10
-1360.620673605303
 20
789.08492504459605
 30
0.0
 40
2.7000000000000002
 50
180.0
 51
0.0
  0
ARC
  5
13FA
  8
1
 10
-1360.620673605303
 20
789.08492504459605
 30
0.0
 40
4.7000000000000002
 50
180.0
 51
0.0
  0
ARC
  5
1401
  8
1
 10
-1387.620673605303
 20
797.38492504459612
 30
0.0
 40
14.0
 50
270.0
 51
90.0
  0
LINE
  5
1407
  8
1
 10
-1363.3206736053021
 20
798.68492504459618
 30
0.0
 11
-1363.3206736053021
 21
789.08492504459605
 31
0.0
  0
LINE
  5
1408
  8
1
 10
-1365.320673605303
 20
798.68492504459618
 30
0.0
 11
-1365.320673605303
 21
789.08492504459605
 31
0.0
  0
LINE
  5
1417
  8
2
 10
-1382.620673605303
 20
839.88492504459623
 30
0.0
 11
-1381.620673605303
 21
839.88492504459623
 31
0.0
  0
LINE
  5
1418
  8
2
 10
-1382.620673605303
 20
838.38492504459623
 30
0.0
 11
-1382.620673605303
 21
839.88492504459623
 31
0.0
  0
LINE
  5
1419
  8
2
 10
-1381.620673605303
 20
838.38492504459623
 30
0.0
 11
-1381.620673605303
 21
839.88492504459623
 31
0.0
  0
LINE
  5
141A
  8
2
 10
-1385.620673605303
 20
838.38492504459623
 30
0.0
 11
-1385.620673605303
 21
839.88492504459623
 31
0.0
  0
LINE
  5
141B
  8
2
 10
-1384.620673605303
 20
838.38492504459623
 30
0.0
 11
-1384.620673605303
 21
839.88492504459623
 31
0.0
  0
LINE
  5
141C
  8
2
 10
-1385.620673605303
 20
839.88492504459623
 30
0.0
 11
-1384.620673605303
 21
839.88492504459623
 31
0.0
  0
LINE
  5
1448
  8
1
 10
-1355.423782413593
 20
806.88492504459612
 30
0.0
 11
-1358.247690259102
 21
806.88492504459612
 31
0.0
  0
LINE
  5
144A
  8
1
 10
-1355.9206736053029
 20
798.68492504459618
 30
0.0
 11
-1355.9206736053029
 21
789.08492504459605
 31
0.0
  0
LINE
  5
144B
  8
1
 10
-1357.9206736053029
 20
798.68492504459618
 30
0.0
 11
-1357.9206736053029
 21
789.08492504459605
 31
0.0
  0
ARC
  5
144E
  8
1
 10
-1356.620673605303
 20
784.58181623630605
 30
0.0
 40
3.0
 50
270.0
 51
0.0000000000000636
  0
ARC
  5
1450
  8
2
 10
-1357.120673605303
 20
839.38492504459623
 30
0.0
 40
1.0
 50
270.0
 51
0.0
  0
LINE
  5
1453
  8
1
 10
-1355.423782413593
 20
810.88492504459612
 30
0.0
 11
-1359.474922294246
 21
810.88492504459612
 31
0.0
  0
LINE
  5
1455
  8
1
 10
-1356.620673605302
 20
892.88492504459623
 30
0.0
 11
-1366.620673605303
 21
892.88492504459623
 31
0.0
  0
LINE
  5
1456
  8
1
 10
-1356.620673605302
 20
891.38492504459612
 30
0.0
 11
-1366.620673605303
 21
891.38492504459612
 31
0.0
  0
LINE
  5
1457
  8
1
 10
-1356.620673605302
 20
889.88492504459612
 30
0.0
 11
-1366.620673605303
 21
889.88492504459612
 31
0.0
  0
LINE
  5
1459
  8
1
 10
-1356.620673605302
 20
899.884925044596
 30
0.0
 11
-1366.620673605303
 21
899.884925044596
 31
0.0
  0
LINE
  5
145A
  8
1
 10
-1356.620673605303
 20
895.384925044596
 30
0.0
 11
-1366.620673605303
 21
895.384925044596
 31
0.0
  0
LINE
  5
145B
  8
1
 10
-1356.620673605302
 20
864.88492504459612
 30
0.0
 11
-1366.620673605303
 21
864.88492504459612
 31
0.0
  0
LINE
  5
145C
  8
1
 10
-1356.620673605302
 20
866.38492504459589
 30
0.0
 11
-1366.620673605303
 21
866.38492504459589
 31
0.0
  0
LINE
  5
145D
  8
1
 10
-1356.620673605302
 20
867.884925044596
 30
0.0
 11
-1366.620673605303
 21
867.884925044596
 31
0.0
  0
CIRCLE
  5
1462
  8
1
 10
-1361.620673605303
 20
854.88492504459612
 30
0.0
 40
2.25
  0
LINE
  5
1463
  8
2
 10
-1364.0909355823201
 20
849.884925044596
 30
0.0
 11
-1356.120673605303
 21
849.884925044596
 31
0.0
  0
LINE
  5
1464
  8
2
 10
-1360.7641022338851
 20
848.68492504459596
 30
0.0
 11
-1356.120673605303
 21
848.68492504459596
 31
0.0
  0
LINE
  5
1465
  8
1
 10
-1367.620673605302
 20
848.38492504459646
 30
0.0
 11
-1356.620673605303
 21
848.38492504459646
 31
0.0
  0
LINE
  5
1466
  8
1
 10
-1367.620673605302
 20
859.884925044596
 30
0.0
 11
-1356.620673605303
 21
859.884925044596
 31
0.0
  0
LINE
  5
146E
  8
1
 10
-1366.620673605303
 20
864.88492504459612
 30
0.0
 11
-1366.620673605303
 21
867.884925044596
 31
0.0
  0
CIRCLE
  5
1471
  8
2
 10
-1363.620673605303
 20
845.88492504459612
 30
0.0
 40
1.1999999999999991
  0
ARC
  5
1472
  8
1
 10
-1367.620673605302
 20
857.884925044596
 30
0.0
 40
2.0
 50
90.0
 51
180.0
  0
ARC
  5
1473
  8
1
 10
-1367.620673605302
 20
850.38492504459646
 30
0.0
 40
2.0
 50
180.0
 51
270.0
  0
LINE
  5
1474
  8
1
 10
-1369.620673605302
 20
857.884925044596
 30
0.0
 11
-1369.620673605302
 21
850.38492504459646
 31
0.0
  0
ARC
  5
1476
  8
2
 10
-1364.0909355823201
 20
846.88492504459612
 30
0.0
 40
3.0
 50
90.0
 51
179.0
  0
LINE
  5
1479
  8
1
 10
-1366.620673605303
 20
889.88492504459612
 30
0.0
 11
-1366.620673605303
 21
892.88492504459623
 31
0.0
  0
LINE
  5
147A
  8
1
 10
-1366.620673605303
 20
899.884925044596
 30
0.0
 11
-1366.620673605303
 21
895.384925044596
 31
0.0
  0
LINE
  5
147D
  8
1
 10
-1356.620673605302
 20
864.88492504459612
 30
0.0
 11
-1356.620673605302
 21
867.884925044596
 31
0.0
  0
LINE
  5
147E
  8
1
 10
-1353.120673605302
 20
863.88492504459634
 30
0.0
 11
-1346.0857687924281
 21
863.76213032432361
 31
0.0
  0
LINE
  5
147F
  8
1
 10
-1344.120673605302
 20
846.00741515518155
 30
0.0
 11
-1344.120673605302
 21
861.7624349340108
 31
0.0
  0
LINE
  5
1480
  8
1
 10
-1346.620673605303
 20
846.384925044596
 30
0.0
 11
-1346.620673605303
 21
861.384925044596
 31
0.0
  0
LINE
  5
1481
  8
1
 10
-1353.120673605303
 20
846.384925044596
 30
0.0
 11
-1344.120673605303
 21
846.384925044596
 31
0.0
  0
LINE
  5
1482
  8
1
 10
-1353.120673605303
 20
861.384925044596
 30
0.0
 11
-1344.120673605303
 21
861.384925044596
 31
0.0
  0
LINE
  5
1485
  8
1
 10
-1356.620673605303
 20
859.884925044596
 30
0.0
 11
-1356.620673605303
 21
848.38492504459646
 31
0.0
  0
LINE
  5
1486
  8
2
 10
-1357.620673605303
 20
861.88492504459612
 30
0.0
 11
-1357.620673605303
 21
862.88492504459612
 31
0.0
  0
LINE
  5
1487
  8
2
 10
-1356.120673605303
 20
858.884925044596
 30
0.0
 11
-1357.620673605303
 21
858.884925044596
 31
0.0
  0
LINE
  5
1488
  8
2
 10
-1356.120673605303
 20
859.88492504459623
 30
0.0
 11
-1357.620673605303
 21
859.88492504459623
 31
0.0
  0
LINE
  5
1489
  8
2
 10
-1356.120673605303
 20
861.88492504459612
 30
0.0
 11
-1357.620673605303
 21
861.88492504459612
 31
0.0
  0
LINE
  5
148A
  8
2
 10
-1357.620673605303
 20
858.884925044596
 30
0.0
 11
-1357.620673605303
 21
859.88492504459623
 31
0.0
  0
LINE
  5
148B
  8
2
 10
-1356.120673605303
 20
862.88492504459612
 30
0.0
 11
-1357.620673605303
 21
862.88492504459612
 31
0.0
  0
LINE
  5
148C
  8
1
 10
-1353.120673605302
 20
843.88492504459623
 30
0.0
 11
-1346.0857687924281
 21
844.00771976486874
 31
0.0
  0
ARC
  5
148D
  8
1
 10
-1346.120673605302
 20
846.00741515518155
 30
0.0
 40
2.0
 50
271.0000000000008
 51
0.0
  0
ARC
  5
148E
  8
1
 10
-1346.120673605302
 20
861.7624349340108
 30
0.0
 40
2.0
 50
0.0
 51
88.999999999999147
  0
LINE
  5
148F
  8
1
 10
-1356.620673605302
 20
892.88492504459623
 30
0.0
 11
-1356.620673605302
 21
889.88492504459612
 31
0.0
  0
LINE
  5
1490
  8
1
 10
-1356.620673605303
 20
899.884925044596
 30
0.0
 11
-1356.620673605303
 21
895.384925044596
 31
0.0
  0
LINE
  5
1491
  8
2
 10
-1356.120673605303
 20
886.384925044596
 30
0.0
 11
-1357.620673605303
 21
886.384925044596
 31
0.0
  0
LINE
  5
1492
  8
2
 10
-1357.620673605303
 20
890.38492504459612
 30
0.0
 11
-1357.620673605303
 21
889.38492504459623
 31
0.0
  0
LINE
  5
1493
  8
2
 10
-1356.120673605303
 20
887.384925044596
 30
0.0
 11
-1357.620673605303
 21
887.384925044596
 31
0.0
  0
LINE
  5
1494
  8
2
 10
-1356.120673605303
 20
889.38492504459623
 30
0.0
 11
-1357.620673605303
 21
889.38492504459623
 31
0.0
  0
LINE
  5
1495
  8
2
 10
-1356.120673605303
 20
890.38492504459612
 30
0.0
 11
-1357.620673605303
 21
890.38492504459612
 31
0.0
  0
LINE
  5
1496
  8
2
 10
-1357.620673605303
 20
887.384925044596
 30
0.0
 11
-1357.620673605303
 21
886.384925044596
 31
0.0
  0
LINE
  5
1497
  8
2
 10
-1357.620673605303
 20
901.13492504459612
 30
0.0
 11
-1357.620673605303
 21
900.13492504459623
 31
0.0
  0
LINE
  5
1498
  8
2
 10
-1356.120673605303
 20
901.13492504459612
 30
0.0
 11
-1357.620673605303
 21
901.13492504459612
 31
0.0
  0
LINE
  5
1499
  8
2
 10
-1356.120673605303
 20
900.13492504459623
 30
0.0
 11
-1357.620673605303
 21
900.13492504459623
 31
0.0
  0
LINE
  5
149A
  8
2
 10
-1356.120673605303
 20
876.634925044596
 30
0.0
 11
-1357.620673605303
 21
876.634925044596
 31
0.0
  0
LINE
  5
149B
  8
2
 10
-1357.620673605303
 20
872.63492504459612
 30
0.0
 11
-1357.620673605303
 21
873.63492504459612
 31
0.0
  0
LINE
  5
149C
  8
2
 10
-1356.120673605303
 20
875.63492504459612
 30
0.0
 11
-1357.620673605303
 21
875.63492504459612
 31
0.0
  0
LINE
  5
149D
  8
2
 10
-1356.120673605303
 20
873.63492504459612
 30
0.0
 11
-1357.620673605303
 21
873.63492504459612
 31
0.0
  0
LINE
  5
149E
  8
2
 10
-1356.120673605303
 20
872.63492504459612
 30
0.0
 11
-1357.620673605303
 21
872.63492504459612
 31
0.0
  0
LINE
  5
149F
  8
2
 10
-1357.620673605303
 20
875.63492504459612
 30
0.0
 11
-1357.620673605303
 21
876.634925044596
 31
0.0
  0
LINE
  5
14B4
  8
1
 10
-1515.620673605303
 20
940.884925044596
 30
0.0
 11
-1356.620673605303
 21
940.884925044596
 31
0.0
  0
LINE
  5
14B6
  8
2
 10
-1515.120673605303
 20
938.384925044596
 30
0.0
 11
-1357.120673605303
 21
938.384925044596
 31
0.0
  0
LINE
  5
17CD
  8
1
 10
-1498.120673605303
 20
926.38492504459612
 30
0.0
 11
-1495.120673605303
 21
926.38492504459612
 31
0.0
  0
LINE
  5
17CE
  8
1
 10
-1498.120673605303
 20
928.88492504459612
 30
0.0
 11
-1495.120673605303
 21
928.88492504459612
 31
0.0
  0
LINE
  5
17CF
  8
1
 10
-1498.120673605303
 20
933.884925044596
 30
0.0
 11
-1495.120673605303
 21
933.884925044596
 31
0.0
  0
LINE
  5
17D0
  8
1
 10
-1498.120673605303
 20
936.384925044596
 30
0.0
 11
-1495.120673605303
 21
936.384925044596
 31
0.0
  0
LINE
  5
17E0
  8
1
 10
-1514.120673605303
 20
917.38492504459612
 30
0.0
 11
-1495.620673605303
 21
917.38492504459612
 31
0.0
  0
LINE
  5
17E1
  8
1
 10
-1514.120673605303
 20
914.88492504459612
 30
0.0
 11
-1495.620673605303
 21
914.88492504459612
 31
0.0
  0
ARC
  5
17E2
  8
2
 10
-1509.120673605303
 20
931.38492504459623
 30
0.0
 40
4.5
 50
231.78307670383731
 51
38.216923296159628
  0
CIRCLE
  5
17E3
  8
1
 10
-1509.120673605303
 20
931.38492504459623
 30
0.0
 40
3.2500000000001128
  0
CIRCLE
  5
17E4
  8
1
 10
-1509.120673605303
 20
931.38492504459623
 30
0.0
 40
2.5
  0
CIRCLE
  5
17E6
  8
1
 10
-1509.120673605303
 20
931.38492504459623
 30
0.0
 40
2.0
  0
LINE
  5
17E7
  8
1
 10
-1516.820673605303
 20
929.34939113866346
 30
0.0
 11
-1516.820673605303
 21
937.58492504459605
 31
0.0
  0
ARC
  5
17E8
  8
1
 10
-1526.120673605303
 20
930.76243493401091
 30
0.0
 40
2.0
 50
90.999999999999005
 51
180.0
  0
CIRCLE
  5
17E9
  8
1
 10
-1509.120673605303
 20
931.38492504459623
 30
0.0
 40
5.0
  0
LINE
  5
17EA
  8
2
 10
-1511.9045557867139
 20
927.84939113866335
 30
0.0
 11
-1516.120673605303
 21
927.84939113866335
 31
0.0
  0
LINE
  5
17EB
  8
1
 10
-1514.120673605302
 20
920.38492504459634
 30
0.0
 11
-1511.620673605302
 21
920.38492504459634
 31
0.0
  0
LINE
  5
17EE
  8
1
 10
-1519.120673605303
 20
930.38492504459623
 30
0.0
 11
-1528.120673605303
 21
930.38492504459623
 31
0.0
  0
LINE
  5
17EF
  8
1
 10
-1519.120673605303
 20
912.88492504459634
 30
0.0
 11
-1526.1555784181769
 21
913.00771976486863
 31
0.0
  0
LINE
  5
17F0
  8
2
 10
-1514.620673605303
 20
904.13492504459612
 30
0.0
 11
-1514.620673605303
 21
903.13492504459612
 31
0.0
  0
LINE
  5
17F1
  8
2
 10
-1516.120673605303
 20
903.13492504459612
 30
0.0
 11
-1514.620673605303
 21
903.13492504459612
 31
0.0
  0
LINE
  5
17F2
  8
2
 10
-1516.120673605303
 20
904.13492504459612
 30
0.0
 11
-1514.620673605303
 21
904.13492504459612
 31
0.0
  0
LINE
  5
17F3
  8
2
 10
-1514.620673605303
 20
914.88492504459612
 30
0.0
 11
-1514.620673605303
 21
913.88492504459612
 31
0.0
  0
LINE
  5
17F4
  8
2
 10
-1516.120673605303
 20
917.88492504459623
 30
0.0
 11
-1514.620673605303
 21
917.88492504459623
 31
0.0
  0
LINE
  5
17F5
  8
2
 10
-1516.120673605303
 20
916.884925044596
 30
0.0
 11
-1514.620673605303
 21
916.884925044596
 31
0.0
  0
LINE
  5
17F6
  8
2
 10
-1516.120673605303
 20
914.88492504459612
 30
0.0
 11
-1514.620673605303
 21
914.88492504459612
 31
0.0
  0
LINE
  5
17F7
  8
2
 10
-1514.620673605303
 20
917.88492504459623
 30
0.0
 11
-1514.620673605303
 21
916.884925044596
 31
0.0
  0
LINE
  5
17F8
  8
2
 10
-1516.120673605303
 20
913.88492504459612
 30
0.0
 11
-1514.620673605303
 21
913.88492504459612
 31
0.0
  0
LINE
  5
17F9
  8
1
 10
-1514.120673605303
 20
917.38492504459612
 30
0.0
 11
-1514.120673605303
 21
914.88492504459612
 31
0.0
  0
ARC
  5
17FA
  8
1
 10
-1526.120673605303
 20
915.00741515518155
 30
0.0
 40
2.0
 50
180.0
 51
269.00000000000091
  0
LINE
  5
17FB
  8
1
 10
-1519.120673605303
 20
915.38492504459612
 30
0.0
 11
-1528.120673605303
 21
915.38492504459612
 31
0.0
  0
LINE
  5
17FC
  8
1
 10
-1528.120673605303
 20
915.00741515518155
 30
0.0
 11
-1528.120673605303
 21
930.76243493401091
 31
0.0
  0
LINE
  5
17FD
  8
1
 10
-1514.120673605302
 20
920.38492504459634
 30
0.0
 11
-1514.120673605303
 21
917.38492504459634
 31
0.0
  0
LINE
  5
17FE
  8
1
 10
-1525.620673605303
 20
915.38492504459612
 30
0.0
 11
-1525.620673605303
 21
930.38492504459623
 31
0.0
  0
LINE
  5
17FF
  8
1
 10
-1513.687576463672
 20
929.34939113866346
 30
0.0
 11
-1516.820673605303
 21
929.34939113866346
 31
0.0
  0
LINE
  5
1800
  8
1
 10
-1498.120673605303
 20
926.38492504459612
 30
0.0
 11
-1498.120673605303
 21
928.88492504459612
 31
0.0
  0
LINE
  5
1801
  8
1
 10
-1504.120673605303
 20
920.38492504459634
 30
0.0
 11
-1506.620673605303
 21
920.38492504459634
 31
0.0
  0
LINE
  5
1802
  8
1
 10
-1504.120673605303
 20
920.38492504459634
 30
0.0
 11
-1504.120673605303
 21
917.38492504459634
 31
0.0
  0
LINE
  5
1803
  8
1
 10
-1506.620673605303
 20
920.38492504459634
 30
0.0
 11
-1506.620673605302
 21
917.38492504459634
 31
0.0
  0
LINE
  5
1804
  8
1
 10
-1511.620673605302
 20
920.38492504459634
 30
0.0
 11
-1511.620673605303
 21
917.38492504459634
 31
0.0
  0
LINE
  5
1805
  8
1
 10
-1515.320673605303
 20
939.08492504459605
 30
0.0
 11
-1507.085139699371
 21
939.08492504459605
 31
0.0
  0
LINE
  5
1806
  8
1
 10
-1519.120673605303
 20
932.884925044596
 30
0.0
 11
-1526.1555784181769
 21
932.76213032432372
 31
0.0
  0
ARC
  5
1807
  8
2
 10
-1515.120673605303
 20
937.384925044596
 30
0.0
 40
1.0
 50
90.0
 51
180.0
  0
ARC
  5
1808
  8
1
 10
-1515.320673605303
 20
937.58492504459605
 30
0.0
 40
1.5
 50
90.0
 51
180.0
  0
ARC
  5
1809
  8
1
 10
-1515.620673605303
 20
937.88492504459612
 30
0.0
 40
3.0
 50
90.0
 51
180.0
  0
LINE
  5
180C
  8
1
 10
-1498.120673605303
 20
936.384925044596
 30
0.0
 11
-1498.120673605303
 21
933.884925044596
 31
0.0
  0
LINE
  5
180D
  8
2
 10
-1505.5851396993701
 20
934.1688072260074
 30
0.0
 11
-1505.5851396993701
 21
938.38492504459668
 31
0.0
  0
LINE
  5
180E
  8
1
 10
-1507.0851396993701
 20
935.95182790296553
 30
0.0
 11
-1507.085139699371
 21
939.08492504459605
 31
0.0
  0
LINE
  5
1812
  8
1
 10
-1495.120673605303
 20
936.384925044596
 30
0.0
 11
-1495.120673605303
 21
917.88492504459623
 31
0.0
  0
LINE
  5
1813
  8
1
 10
-1492.620673605303
 20
936.384925044596
 30
0.0
 11
-1492.620673605303
 21
917.88492504459623
 31
0.0
  0
ARC
  5
1823
  8
1
 10
-1495.620673605303
 20
917.88492504459623
 30
0.0
 40
0.5
 50
270.0
 51
0.0
  0
ARC
  5
1824
  8
1
 10
-1495.620673605303
 20
917.88492504459623
 30
0.0
 40
3.0
 50
270.0
 51
0.0
  0
LINE
  5
1830
  8
2
 10
-1486.620673605303
 20
938.384925044596
 30
0.0
 11
-1486.620673605303
 21
936.88492504459612
 31
0.0
  0
LINE
  5
1831
  8
2
 10
-1487.620673605303
 20
938.384925044596
 30
0.0
 11
-1487.620673605303
 21
936.88492504459612
 31
0.0
  0
LINE
  5
1832
  8
2
 10
-1486.620673605303
 20
936.88492504459612
 30
0.0
 11
-1487.620673605303
 21
936.88492504459612
 31
0.0
  0
LINE
  5
1833
  8
2
 10
-1489.620673605303
 20
936.88492504459612
 30
0.0
 11
-1490.620673605303
 21
936.88492504459612
 31
0.0
  0
LINE
  5
1834
  8
2
 10
-1489.620673605303
 20
938.384925044596
 30
0.0
 11
-1489.620673605303
 21
936.88492504459612
 31
0.0
  0
LINE
  5
1835
  8
2
 10
-1490.620673605303
 20
938.384925044596
 30
0.0
 11
-1490.620673605303
 21
936.88492504459612
 31
0.0
  0
LINE
  5
1836
  8
1
 10
-1495.120673605303
 20
936.384925044596
 30
0.0
 11
-1492.620673605303
 21
936.384925044596
 31
0.0
  0
LINE
  5
1837
  8
2
 10
-1469.120673605303
 20
936.88492504459612
 30
0.0
 11
-1470.120673605303
 21
936.88492504459612
 31
0.0
  0
LINE
  5
1838
  8
2
 10
-1470.120673605303
 20
938.384925044596
 30
0.0
 11
-1470.120673605303
 21
936.88492504459612
 31
0.0
  0
LINE
  5
1839
  8
2
 10
-1469.120673605303
 20
938.384925044596
 30
0.0
 11
-1469.120673605303
 21
936.88492504459612
 31
0.0
  0
LINE
  5
183A
  8
2
 10
-1473.120673605303
 20
938.384925044596
 30
0.0
 11
-1473.120673605303
 21
936.88492504459612
 31
0.0
  0
LINE
  5
183B
  8
2
 10
-1472.120673605303
 20
938.384925044596
 30
0.0
 11
-1472.120673605303
 21
936.88492504459612
 31
0.0
  0
LINE
  5
183C
  8
2
 10
-1472.120673605303
 20
936.88492504459612
 30
0.0
 11
-1473.120673605303
 21
936.88492504459612
 31
0.0
  0
CIRCLE
  5
184E
  8
1
 10
-1431.120673605303
 20
922.38492504459623
 30
0.0
 40
3.25
  0
CIRCLE
  5
185D
  8
1
 10
-1436.120673605303
 20
931.38492504459623
 30
0.0
 40
3.2500000000001128
  0
CIRCLE
  5
185E
  8
1
 10
-1436.120673605303
 20
931.38492504459623
 30
0.0
 40
2.5
  0
CIRCLE
  5
185F
  8
1
 10
-1436.120673605303
 20
931.38492504459623
 30
0.0
 40
2.0
  0
CIRCLE
  5
1860
  8
1
 10
-1436.120673605303
 20
931.38492504459623
 30
0.0
 40
5.0
  0
ARC
  5
187F
  8
1
 10
-1436.120673605303
 20
910.68492504459584
 30
0.0
 40
2.5
 50
0.0
 51
180.0
  0
LINE
  5
1880
  8
1
 10
-1438.620673605303
 20
910.68492504459584
 30
0.0
 11
-1438.620673605303
 21
908.01505206351817
 31
0.0
  0
LINE
  5
1881
  8
1
 10
-1433.620673605303
 20
910.68492504459584
 30
0.0
 11
-1433.620673605303
 21
908.01505206351817
 31
0.0
  0
CIRCLE
  5
1883
  8
1
 10
-1431.120673605303
 20
922.38492504459623
 30
0.0
 40
2.25
  0
CIRCLE
  5
1885
  8
1
 10
-1441.120673605303
 20
922.38492504459623
 30
0.0
 40
3.25
  0
CIRCLE
  5
1886
  8
1
 10
-1441.120673605303
 20
922.38492504459623
 30
0.0
 40
2.25
  0
LINE
  5
1889
  8
2
 10
-1451.620673605303
 20
936.88492504459612
 30
0.0
 11
-1452.620673605303
 21
936.88492504459612
 31
0.0
  0
LINE
  5
188A
  8
2
 10
-1452.620673605303
 20
938.384925044596
 30
0.0
 11
-1452.620673605303
 21
936.88492504459612
 31
0.0
  0
LINE
  5
188B
  8
2
 10
-1451.620673605303
 20
938.384925044596
 30
0.0
 11
-1451.620673605303
 21
936.88492504459612
 31
0.0
  0
LINE
  5
188C
  8
2
 10
-1455.620673605303
 20
938.384925044596
 30
0.0
 11
-1455.620673605303
 21
936.88492504459612
 31
0.0
  0
LINE
  5
188D
  8
2
 10
-1454.620673605303
 20
938.384925044596
 30
0.0
 11
-1454.620673605303
 21
936.88492504459612
 31
0.0
  0
LINE
  5
188E
  8
2
 10
-1454.620673605303
 20
936.88492504459612
 30
0.0
 11
-1455.620673605303
 21
936.88492504459612
 31
0.0
  0
LINE
  5
188F
  8
2
 10
-1437.120673605303
 20
936.88492504459612
 30
0.0
 11
-1438.120673605303
 21
936.88492504459612
 31
0.0
  0
LINE
  5
1890
  8
2
 10
-1437.120673605303
 20
938.384925044596
 30
0.0
 11
-1437.120673605303
 21
936.88492504459612
 31
0.0
  0
LINE
  5
1891
  8
2
 10
-1438.120673605303
 20
938.384925044596
 30
0.0
 11
-1438.120673605303
 21
936.88492504459612
 31
0.0
  0
LINE
  5
1892
  8
2
 10
-1434.120673605303
 20
938.384925044596
 30
0.0
 11
-1434.120673605303
 21
936.88492504459612
 31
0.0
  0
LINE
  5
1893
  8
2
 10
-1435.120673605303
 20
938.384925044596
 30
0.0
 11
-1435.120673605303
 21
936.88492504459612
 31
0.0
  0
LINE
  5
1894
  8
2
 10
-1434.120673605303
 20
936.88492504459612
 30
0.0
 11
-1435.120673605303
 21
936.88492504459612
 31
0.0
  0
LINE
  5
1899
  8
2
 10
-1417.620673605303
 20
936.88492504459612
 30
0.0
 11
-1416.620673605303
 21
936.88492504459612
 31
0.0
  0
LINE
  5
189A
  8
2
 10
-1417.620673605303
 20
938.384925044596
 30
0.0
 11
-1417.620673605303
 21
936.88492504459612
 31
0.0
  0
LINE
  5
189B
  8
2
 10
-1416.620673605303
 20
938.384925044596
 30
0.0
 11
-1416.620673605303
 21
936.88492504459612
 31
0.0
  0
LINE
  5
189C
  8
2
 10
-1420.620673605303
 20
938.384925044596
 30
0.0
 11
-1420.620673605303
 21
936.88492504459612
 31
0.0
  0
LINE
  5
189D
  8
2
 10
-1419.620673605303
 20
938.384925044596
 30
0.0
 11
-1419.620673605303
 21
936.88492504459612
 31
0.0
  0
LINE
  5
189E
  8
2
 10
-1420.620673605303
 20
936.88492504459612
 30
0.0
 11
-1419.620673605303
 21
936.88492504459612
 31
0.0
  0
LINE
  5
18A1
  8
2
 10
-1400.120673605303
 20
936.88492504459612
 30
0.0
 11
-1399.120673605303
 21
936.88492504459612
 31
0.0
  0
LINE
  5
18A2
  8
2
 10
-1400.120673605303
 20
938.384925044596
 30
0.0
 11
-1400.120673605303
 21
936.88492504459612
 31
0.0
  0
LINE
  5
18A3
  8
2
 10
-1399.120673605303
 20
938.384925044596
 30
0.0
 11
-1399.120673605303
 21
936.88492504459612
 31
0.0
  0
LINE
  5
18A4
  8
2
 10
-1403.120673605303
 20
938.384925044596
 30
0.0
 11
-1403.120673605303
 21
936.88492504459612
 31
0.0
  0
LINE
  5
18A5
  8
2
 10
-1402.120673605303
 20
938.384925044596
 30
0.0
 11
-1402.120673605303
 21
936.88492504459612
 31
0.0
  0
LINE
  5
18A6
  8
2
 10
-1403.120673605303
 20
936.88492504459612
 30
0.0
 11
-1402.120673605303
 21
936.88492504459612
 31
0.0
  0
LINE
  5
1973
  8
1
 10
-1356.920673605302
 20
939.08492504459605
 30
0.0
 11
-1365.1562075112349
 21
939.08492504459605
 31
0.0
  0
LINE
  5
1974
  8
1
 10
-1358.120673605303
 20
920.38492504459634
 30
0.0
 11
-1360.620673605303
 21
920.38492504459634
 31
0.0
  0
CIRCLE
  5
1975
  8
1
 10
-1363.120673605303
 20
931.38492504459623
 30
0.0
 40
3.2500000000001128
  0
LINE
  5
1976
  8
1
 10
-1358.120673605302
 20
914.88492504459612
 30
0.0
 11
-1376.620673605303
 21
914.88492504459612
 31
0.0
  0
LINE
  5
1977
  8
1
 10
-1358.120673605303
 20
917.38492504459612
 30
0.0
 11
-1376.620673605303
 21
917.38492504459612
 31
0.0
  0
CIRCLE
  5
1978
  8
1
 10
-1363.120673605303
 20
931.38492504459623
 30
0.0
 40
5.0
  0
ARC
  5
1979
  8
2
 10
-1363.120673605303
 20
931.38492504459623
 30
0.0
 40
4.5
 50
141.78307670384029
 51
308.21692329616252
  0
CIRCLE
  5
198B
  8
1
 10
-1363.120673605303
 20
931.38492504459623
 30
0.0
 40
2.0
  0
CIRCLE
  5
198C
  8
1
 10
-1363.120673605303
 20
931.38492504459623
 30
0.0
 40
2.5
  0
LINE
  5
198D
  8
1
 10
-1379.620673605303
 20
936.384925044596
 30
0.0
 11
-1379.620673605303
 21
917.88492504459623
 31
0.0
  0
LINE
  5
198E
  8
1
 10
-1377.120673605303
 20
936.384925044596
 30
0.0
 11
-1377.120673605303
 21
917.88492504459623
 31
0.0
  0
ARC
  5
198F
  8
1
 10
-1376.620673605303
 20
917.88492504459623
 30
0.0
 40
3.0
 50
180.0
 51
270.0
  0
LINE
  5
1990
  8
1
 10
-1360.620673605303
 20
920.38492504459634
 30
0.0
 11
-1360.620673605302
 21
917.38492504459634
 31
0.0
  0
LINE
  5
1991
  8
1
 10
-1365.620673605302
 20
920.38492504459634
 30
0.0
 11
-1365.620673605303
 21
917.38492504459634
 31
0.0
  0
LINE
  5
1992
  8
1
 10
-1374.120673605303
 20
926.38492504459612
 30
0.0
 11
-1374.120673605303
 21
928.88492504459612
 31
0.0
  0
LINE
  5
1993
  8
1
 10
-1374.120673605303
 20
928.88492504459612
 30
0.0
 11
-1377.120673605303
 21
928.88492504459612
 31
0.0
  0
LINE
  5
1994
  8
1
 10
-1374.120673605303
 20
926.38492504459612
 30
0.0
 11
-1377.120673605303
 21
926.38492504459612
 31
0.0
  0
ARC
  5
1995
  8
1
 10
-1376.620673605303
 20
917.88492504459623
 30
0.0
 40
0.5
 50
180.0
 51
270.0
  0
LINE
  5
1996
  8
1
 10
-1368.120673605302
 20
920.38492504459634
 30
0.0
 11
-1368.120673605303
 21
917.38492504459634
 31
0.0
  0
LINE
  5
1997
  8
1
 10
-1368.120673605302
 20
920.38492504459634
 30
0.0
 11
-1365.620673605302
 21
920.38492504459634
 31
0.0
  0
LINE
  5
1998
  8
1
 10
-1377.120673605303
 20
936.384925044596
 30
0.0
 11
-1379.620673605303
 21
936.384925044596
 31
0.0
  0
LINE
  5
1999
  8
2
 10
-1385.620673605303
 20
936.88492504459612
 30
0.0
 11
-1384.620673605303
 21
936.88492504459612
 31
0.0
  0
LINE
  5
199A
  8
2
 10
-1384.620673605303
 20
938.384925044596
 30
0.0
 11
-1384.620673605303
 21
936.88492504459612
 31
0.0
  0
LINE
  5
199B
  8
2
 10
-1385.620673605303
 20
938.384925044596
 30
0.0
 11
-1385.620673605303
 21
936.88492504459612
 31
0.0
  0
LINE
  5
199C
  8
2
 10
-1381.620673605303
 20
938.384925044596
 30
0.0
 11
-1381.620673605303
 21
936.88492504459612
 31
0.0
  0
LINE
  5
199D
  8
2
 10
-1382.620673605303
 20
938.384925044596
 30
0.0
 11
-1382.620673605303
 21
936.88492504459612
 31
0.0
  0
LINE
  5
199E
  8
2
 10
-1382.620673605303
 20
936.88492504459612
 30
0.0
 11
-1381.620673605303
 21
936.88492504459612
 31
0.0
  0
LINE
  5
199F
  8
2
 10
-1366.6562075112361
 20
934.1688072260074
 30
0.0
 11
-1366.6562075112349
 21
938.38492504459668
 31
0.0
  0
LINE
  5
19A0
  8
1
 10
-1374.120673605303
 20
936.384925044596
 30
0.0
 11
-1377.120673605303
 21
936.384925044596
 31
0.0
  0
LINE
  5
19A1
  8
1
 10
-1374.120673605303
 20
933.884925044596
 30
0.0
 11
-1377.120673605303
 21
933.884925044596
 31
0.0
  0
LINE
  5
19A2
  8
1
 10
-1374.120673605303
 20
936.384925044596
 30
0.0
 11
-1374.120673605303
 21
933.884925044596
 31
0.0
  0
LINE
  5
19A3
  8
1
 10
-1365.1562075112361
 20
935.95182790296553
 30
0.0
 11
-1365.1562075112349
 21
939.08492504459605
 31
0.0
  0
ARC
  5
19A4
  8
1
 10
-1346.120673605302
 20
930.76243493401091
 30
0.0
 40
2.0
 50
0.0
 51
89.000000000001009
  0
LINE
  5
19A5
  8
1
 10
-1355.420673605302
 20
929.34939113866346
 30
0.0
 11
-1355.420673605302
 21
937.58492504459605
 31
0.0
  0
LINE
  5
19B3
  8
1
 10
-1353.120673605303
 20
930.38492504459623
 30
0.0
 11
-1344.120673605303
 21
930.38492504459623
 31
0.0
  0
LINE
  5
19B4
  8
1
 10
-1358.553770746933
 20
929.34939113866346
 30
0.0
 11
-1355.420673605302
 21
929.34939113866346
 31
0.0
  0
LINE
  5
19B5
  8
2
 10
-1360.3367914238911
 20
927.84939113866335
 30
0.0
 11
-1356.120673605303
 21
927.84939113866335
 31
0.0
  0
ARC
  5
19B6
  8
1
 10
-1346.120673605302
 20
915.00741515518155
 30
0.0
 40
2.0
 50
270.99999999999898
 51
0.0
  0
LINE
  5
19B7
  8
1
 10
-1353.120673605302
 20
912.88492504459634
 30
0.0
 11
-1346.0857687924281
 21
913.00771976486863
 31
0.0
  0
LINE
  5
19B8
  8
1
 10
-1353.120673605303
 20
915.38492504459612
 30
0.0
 11
-1344.120673605303
 21
915.38492504459612
 31
0.0
  0
LINE
  5
19B9
  8
1
 10
-1358.120673605303
 20
917.38492504459612
 30
0.0
 11
-1358.120673605302
 21
914.88492504459612
 31
0.0
  0
LINE
  5
19BA
  8
2
 10
-1356.120673605303
 20
904.13492504459612
 30
0.0
 11
-1357.620673605303
 21
904.13492504459612
 31
0.0
  0
LINE
  5
19BB
  8
2
 10
-1356.120673605303
 20
903.13492504459612
 30
0.0
 11
-1357.620673605303
 21
903.13492504459612
 31
0.0
  0
LINE
  5
19BC
  8
2
 10
-1357.620673605303
 20
904.13492504459612
 30
0.0
 11
-1357.620673605303
 21
903.13492504459612
 31
0.0
  0
LINE
  5
19BD
  8
2
 10
-1356.120673605303
 20
913.88492504459612
 30
0.0
 11
-1357.620673605303
 21
913.88492504459612
 31
0.0
  0
LINE
  5
19BE
  8
2
 10
-1357.620673605303
 20
917.88492504459623
 30
0.0
 11
-1357.620673605303
 21
916.884925044596
 31
0.0
  0
LINE
  5
19BF
  8
2
 10
-1356.120673605303
 20
914.88492504459612
 30
0.0
 11
-1357.620673605303
 21
914.88492504459612
 31
0.0
  0
LINE
  5
19C0
  8
2
 10
-1356.120673605303
 20
916.884925044596
 30
0.0
 11
-1357.620673605303
 21
916.884925044596
 31
0.0
  0
LINE
  5
19C1
  8
2
 10
-1356.120673605303
 20
917.88492504459623
 30
0.0
 11
-1357.620673605303
 21
917.88492504459623
 31
0.0
  0
LINE
  5
19C2
  8
2
 10
-1357.620673605303
 20
914.88492504459612
 30
0.0
 11
-1357.620673605303
 21
913.88492504459612
 31
0.0
  0
LINE
  5
19C3
  8
1
 10
-1344.120673605302
 20
915.00741515518155
 30
0.0
 11
-1344.120673605302
 21
930.76243493401091
 31
0.0
  0
LINE
  5
19C4
  8
1
 10
-1358.120673605303
 20
920.38492504459634
 30
0.0
 11
-1358.120673605303
 21
917.38492504459634
 31
0.0
  0
LINE
  5
19C5
  8
1
 10
-1346.620673605303
 20
915.38492504459612
 30
0.0
 11
-1346.620673605303
 21
930.38492504459623
 31
0.0
  0
LINE
  5
19C6
  8
1
 10
-1353.120673605302
 20
932.884925044596
 30
0.0
 11
-1346.0857687924281
 21
932.76213032432372
 31
0.0
  0
ARC
  5
19C7
  8
2
 10
-1357.120673605303
 20
937.384925044596
 30
0.0
 40
1.0
 50
0.0
 51
90.0
  0
ARC
  5
19D2
  8
1
 10
-1356.920673605302
 20
937.58492504459605
 30
0.0
 40
1.5
 50
0.0
 51
90.0
  0
ARC
  5
19D3
  8
1
 10
-1356.620673605303
 20
937.88492504459612
 30
0.0
 40
3.0
 50
0.0
 51
90.0
  0
LINE
  5
1A5A
  8
1
 10
-1990.516066180759
 20
850.134925044596
 30
0.0
 11
-1990.516066180759
 21
859.884925044596
 31
0.0
  0
ARC
  5
1A5B
  8
1
 10
-1989.5160661807599
 20
858.884925044596
 30
0.0
 40
1.0
 50
0.000000000000007
 51
90.0
  0
LINE
  5
1A5C
  8
1
 10
-1996.016066180759
 20
914.88492504459612
 30
0.0
 11
-1996.016066180759
 21
850.134925044596
 31
0.0
  0
LINE
  5
1A5D
  8
1
 10
-2067.516066180759
 20
835.2553913658395
 30
0.0
 11
-2067.516066180759
 21
941.2553913658395
 31
0.0
  0
LINE
  5
1A5F
  8
1
 10
-2034.016066180759
 20
835.08181623630605
 30
0.0
 11
-2067.516066180759
 21
835.2553913658395
 31
0.0
  0
LINE
  5
1A60
  8
1
 10
-2024.316066180759
 20
781.43518411195373
 30
0.0
 11
-2034.016066180759
 21
781.38492504459612
 31
0.0
  0
LINE
  5
1A72
  8
1
 10
-1996.016066180759
 20
832.4453770219975
 30
0.0
 11
-1996.016066180759
 21
811.384925044596
 31
0.0
  0
LINE
  5
1A74
  8
1
 10
-1988.016066180759
 20
784.384925044596
 30
0.0
 11
-1996.016066180759
 21
784.24528452517029
 31
0.0
  0
LINE
  5
1A75
  8
1
 10
-1988.016066180759
 20
803.38492504459623
 30
0.0
 11
-1996.016066180759
 21
803.52456556402194
 31
0.0
  0
LINE
  5
1A76
  8
1
 10
-1988.016066180759
 20
784.38492504459612
 30
0.0
 11
-1988.016066180759
 21
801.38492504459612
 31
0.0
  0
LINE
  5
1A77
  8
1
 10
-1988.016066180759
 20
803.38492504459623
 30
0.0
 11
-1988.016066180759
 21
784.38492504459612
 31
0.0
  0
LINE
  5
1A7A
  8
1
 10
-1996.016066180759
 20
811.384925044596
 30
0.0
 11
-1996.016066180759
 21
783.38492504459589
 31
0.0
  0
LINE
  5
1A7B
  8
1
 10
-2005.7160661807591
 20
781.53155716894855
 30
0.0
 11
-2024.316066180759
 21
781.43518411195373
 31
0.0
  0
LINE
  5
1A7C
  8
1
 10
-1996.016066180759
 20
781.58181623630605
 30
0.0
 11
-2005.7160661807591
 21
781.53155716894855
 31
0.0
  0
LINE
  5
1A7E
  8
1
 10
-1996.016066180759
 20
783.38492504459589
 30
0.0
 11
-1996.016066180759
 21
781.58181623630605
 31
0.0
  0
LINE
  5
1A84
  8
1
 10
-1996.016066180759
 20
850.134925044596
 30
0.0
 11
-1990.516066180759
 21
850.134925044596
 31
0.0
  0
LINE
  5
1A85
  8
1
 10
-1996.016066180759
 20
848.38492504459612
 30
0.0
 11
-1989.516066180759
 21
848.38492504459612
 31
0.0
  0
LINE
  5
1A86
  8
1
 10
-1988.516066180759
 20
849.38492504459612
 30
0.0
 11
-1988.5160661807599
 21
858.884925044596
 31
0.0
  0
ARC
  5
1A87
  8
1
 10
-1989.516066180759
 20
849.38492504459612
 30
0.0
 40
1.0
 50
270.0
 51
0.0000000000006177
  0
LINE
  5
1A8A
  8
1
 10
-1996.016066180759
 20
940.884925044596
 30
0.0
 11
-1996.016066180759
 21
832.4453770219975
 31
0.0
  0
LINE
  5
1A97
  8
1
 10
-2037.016066180759
 20
783.1849250445963
 30
0.0
 11
-2045.515026650907
 21
831.38492504459623
 31
0.0
  0
LINE
  5
1A98
  8
1
 10
-2037.016066180759
 20
783.1849250445963
 30
0.0
 11
-2034.016066180759
 21
783.10636727988867
 31
0.0
  0
LINE
  5
1A99
  8
1
 10
-2034.016066180759
 20
833.59095372806701
 30
0.0
 11
-2034.016066180759
 21
781.38492504459612
 31
0.0
  0
LINE
  5
1A9D
  8
1
 10
-2045.515026650907
 20
832.58492504459605
 30
0.0
 11
-2034.016066180759
 21
833.59095372806701
 31
0.0
  0
LINE
  5
1A9F
  8
1
 10
-2034.016066180759
 20
824.884925044596
 30
0.0
 11
-2034.016066180759
 21
823.884925044596
 31
0.0
  0
LINE
  5
1AA0
  8
1
 10
-2034.016066180759
 20
817.884925044596
 30
0.0
 11
-2034.016066180759
 21
816.884925044596
 31
0.0
  0
LINE
  5
1AA1
  8
1
 10
-2034.016066180759
 20
814.88492504459612
 30
0.0
 11
-2034.016066180759
 21
813.88492504459612
 31
0.0
  0
LINE
  5
1AA2
  8
1
 10
-2034.016066180759
 20
821.88492504459612
 30
0.0
 11
-2034.016066180759
 21
820.88492504459612
 31
0.0
  0
LINE
  5
1AA4
  8
1
 10
-2034.016066180759
 20
831.18492504459584
 30
0.0
 11
-2034.016066180759
 21
830.88492504459612
 31
0.0
  0
LINE
  5
1AA5
  8
1
 10
-2034.016066180759
 20
835.08181623630605
 30
0.0
 11
-2034.016066180759
 21
833.59095372806701
 31
0.0
  0
LINE
  5
1AA6
  8
1
 10
-2034.016066180759
 20
828.88492504459612
 30
0.0
 11
-2034.016066180759
 21
827.88492504459612
 31
0.0
  0
LINE
  5
1AA7
  8
1
 10
-2034.016066180759
 20
830.88492504459612
 30
0.0
 11
-2034.016066180759
 21
831.18492504459584
 31
0.0
  0
LINE
  5
1AA9
  8
1
 10
-2045.515026650907
 20
832.58492504459605
 30
0.0
 11
-2045.515026650907
 21
831.38492504459623
 31
0.0
  0
LINE
  5
1AB9
  8
1
 10
-2067.516066180759
 20
837.10636727988856
 30
0.0
 11
-2067.516066180759
 21
835.38492504459623
 31
0.0
  0
LINE
  5
1ABA
  8
1
 10
-2070.516066180759
 20
837.1849250445963
 30
0.0
 11
-2067.516066180759
 21
837.10636727988856
 31
0.0
  0
LINE
  5
1ABB
  8
1
 10
-2070.516066180759
 20
837.1849250445963
 30
0.0
 11
-2070.516066180759
 21
838.384925044596
 31
0.0
  0
LINE
  5
1ABD
  8
1
 10
-1996.016066180759
 20
940.884925044596
 30
0.0
 11
-2067.516066180759
 21
941.2553913658395
 31
0.0
  0
LINE
  5
1AD4
  8
1
 10
-1992.938715911569
 20
895.384925044596
 30
0.0
 11
-1992.438715911569
 21
895.384925044596
 31
0.0
  0
LINE
  5
1AD5
  8
1
 10
-1996.016066180759
 20
899.884925044596
 30
0.0
 11
-1989.5160661807599
 21
899.884925044596
 31
0.0
  0
LINE
  5
1AD6
  8
1
 10
-1990.516066180759
 20
859.884925044596
 30
0.0
 11
-1989.5160661807599
 21
859.884925044596
 31
0.0
  0
LINE
  5
1AD7
  8
1
 10
-1988.5160661807599
 20
898.88492504459589
 30
0.0
 11
-1988.5160661807599
 21
897.64966792261578
 31
0.0
  0
LINE
  5
1AD8
  8
1
 10
-1992.438715911569
 20
895.384925044596
 30
0.0
 11
-1988.5160661807599
 21
897.64966792261578
 31
0.0
  0
ARC
  5
1AD9
  8
1
 10
-1989.5160661807599
 20
898.884925044596
 30
0.0
 40
1.0
 50
359.99999999999528
 51
89.999999999999005
  0
LINE
  5
1ADC
  8
1
 10
-1994.516066180759
 20
866.38492504459612
 30
0.0
 11
-1996.016066180759
 21
867.88492504459623
 31
0.0
  0
LINE
  5
1ADD
  8
1
 10
-1994.516066180759
 20
866.38492504459612
 30
0.0
 11
-1994.516066180759
 21
864.88492504459612
 31
0.0
  0
LINE
  5
1ADE
  8
1
 10
-1996.016066180759
 20
864.88492504459612
 30
0.0
 11
-1994.516066180759
 21
864.88492504459612
 31
0.0
  0
LINE
  5
1AEA
  8
1
 10
-1996.016066180759
 20
892.88492504459578
 30
0.0
 11
-1994.516066180759
 21
892.88492504459578
 31
0.0
  0
LINE
  5
1AEB
  8
1
 10
-1994.516066180759
 20
891.38492504459578
 30
0.0
 11
-1994.516066180759
 21
892.88492504459578
 31
0.0
  0
LINE
  5
1AEC
  8
1
 10
-1994.516066180759
 20
891.38492504459578
 30
0.0
 11
-1996.016066180759
 21
889.88492504459566
 31
0.0
  0
LINE
  5
1AEE
  8
1
 10
-1993.804741315354
 20
896.88492504459612
 30
0.0
 11
-1992.938715911569
 21
895.384925044596
 31
0.0
  0
LINE
  5
1AEF
  8
1
 10
-1996.016066180759
 20
896.88492504459612
 30
0.0
 11
-1993.804741315354
 21
896.88492504459612
 31
0.0
  0
LINE
  5
1AF0
  8
1
 10
-1988.016066180759
 20
914.95473998692216
 30
0.0
 11
-1996.016066180759
 21
914.88492504459623
 31
0.0
  0
LINE
  5
1AF1
  8
1
 10
-1988.016066180759
 20
917.31511010226995
 30
0.0
 11
-1996.016066180759
 21
917.38492504459612
 31
0.0
  0
LINE
  5
1AF2
  8
1
 10
-1988.016066180759
 20
914.95473998692216
 30
0.0
 11
-1988.016066180759
 21
917.31511010226995
 31
0.0
  0
LINE
  5
1AF3
  8
1
 10
-1993.516066180759
 20
928.88492504459612
 30
0.0
 11
-1993.516066180759
 21
928.13492504459612
 31
0.0
  0
LINE
  5
1AF7
  8
1
 10
-1996.016066180759
 20
926.38492504459589
 30
0.0
 11
-1996.016066180759
 21
917.38492504459612
 31
0.0
  0
LINE
  5
1AF8
  8
1
 10
-1995.016066180759
 20
928.13492504459612
 30
0.0
 11
-1995.016066180759
 21
926.38492504459589
 31
0.0
  0
LINE
  5
1AF9
  8
1
 10
-1996.016066180759
 20
926.38492504459589
 30
0.0
 11
-1995.016066180759
 21
926.38492504459589
 31
0.0
  0
LINE
  5
1AFA
  8
1
 10
-1995.016066180759
 20
928.13492504459634
 30
0.0
 11
-1993.516066180759
 21
928.13492504459634
 31
0.0
  0
LINE
  5
1AFB
  8
1
 10
-1996.016066180759
 20
940.884925044596
 30
0.0
 11
-1996.016066180759
 21
939.08492504459605
 31
0.0
  0
LINE
  5
1AFD
  8
1
 10
-1996.016066180759
 20
936.40238010952407
 30
0.0
 11
-1995.016066180759
 21
936.384925044596
 31
0.0
  0
LINE
  5
1B00
  8
1
 10
-1996.016066180759
 20
939.08492504459605
 30
0.0
 11
-1996.016066180759
 21
936.384925044596
 31
0.0
  0
LINE
  5
1B03
  8
1
 10
-1995.016066180759
 20
936.384925044596
 30
0.0
 11
-1995.016066180759
 21
928.13492504459612
 31
0.0
  0
LINE
  5
1B04
  8
1
 10
-1995.016066180759
 20
934.63492504459623
 30
0.0
 11
-1993.516066180759
 21
934.63492504459623
 31
0.0
  0
LINE
  5
1B05
  8
1
 10
-1993.516066180759
 20
934.63492504459623
 30
0.0
 11
-1993.516066180759
 21
928.13492504459612
 31
0.0
  0
LINE
  5
1B26
  8
1
 10
-2067.516066180759
 20
941.38492504459612
 30
0.0
 11
-2067.516066180759
 21
939.66348280930379
 31
0.0
  0
LINE
  5
1B27
  8
1
 10
-2070.516066180759
 20
938.38492504459623
 30
0.0
 11
-2070.516066180759
 21
939.58492504459605
 31
0.0
  0
LINE
  5
1B28
  8
1
 10
-2070.516066180759
 20
939.58492504459605
 30
0.0
 11
-2067.516066180759
 21
939.66348280930379
 31
0.0
  0
LINE
  5
1B2B
  8
2
 10
-1505.0015865922639
 20
838.38492504459623
 30
0.0
 11
-1505.1508685428171
 21
846.93728226390795
 31
0.0
  0
LINE
  5
1B2C
  8
2
 10
-1367.2397606183411
 20
838.38492504459623
 30
0.0
 11
-1367.0904786677891
 21
846.93728226390795
 31
0.0
  0
LINE
  5
1B2E
  8
1
 10
-2070.516066180759
 20
837.1849250445963
 30
0.0
 11
-2070.516066180759
 21
939.58492504459605
 31
0.0
  0
LINE
  5
1B31
  8
1
 10
-1760.2178486219491
 20
998.89502913568344
 30
0.0
 11
-1774.448033679623
 21
998.89502913568344
 31
0.0
  0
LINE
  5
1B32
  8
1
 10
-1760.357489141375
 20
1006.895029135683
 30
0.0
 11
-1760.2178486219491
 21
998.89502913568344
 31
0.0
  0
LINE
  5
1B33
  8
1
 10
-1750.678208102524
 20
1006.895029135683
 30
0.0
 11
-1750.817848621949
 21
998.89502913568344
 31
0.0
  0
LINE
  5
1B34
  8
1
 10
-1750.817848621949
 20
998.89502913568344
 30
0.0
 11
-1760.2178486219491
 21
998.89502913568344
 31
0.0
  0
LINE
  5
1B35
  8
1
 10
-1762.26784862195
 20
1052.2503055591819
 30
0.0
 11
-1762.26784862195
 21
1047.981853224516
 31
0.0
  0
LINE
  5
1B36
  8
1
 10
-1761.067848621949
 20
1052.2503055591819
 30
0.0
 11
-1760.8752439304039
 21
1044.895029135683
 31
0.0
  0
POLYLINE
  5
1B37
  8
1
 66
     1
 10
0.0
 20
0.0
 30
0.0
  0
VERTEX
  5
1E44
  8
1
 10
-1762.767848621949
 20
1047.895029135683
 30
0.0
 42
0.0179528718256618
  0
VERTEX
  5
1E45
  8
1
 10
-1762.561380926001
 20
1047.9024449019901
 30
0.0
 42
0.0250377148196745
  0
VERTEX
  5
1E46
  8
1
 10
-1762.4142952313559
 20
1047.920459322532
 30
0.0
 42
0.0563179969730268
  0
VERTEX
  5
1E47
  8
1
 10
-1762.28318587741
 20
1047.958792998432
 30
0.0
 42
0.3021816287208285
  0
VERTEX
  5
1E48
  8
1
 10
-1762.26784862195
 20
1047.981853224516
 30
0.0
 42
0.3021816287197159
  0
SEQEND
  5
1E49
  8
1
  0
POLYLINE
  5
1B38
  8
1
 66
     1
 10
0.0
 20
0.0
 30
0.0
  0
VERTEX
  5
1E4A
  8
1
 10
-1762.767848621949
 20
1047.895029135683
 30
0.0
 42
0.0052877851924635
  0
VERTEX
  5
1E4B
  8
1
 10
-1762.0638755552829
 20
1047.90247426057
 30
0.0
 42
0.007468947870235
  0
VERTEX
  5
1E4C
  8
1
 10
-1761.565767093932
 20
1047.9204580864321
 30
0.0
 42
0.01791436931456
  0
VERTEX
  5
1E4D
  8
1
 10
-1761.0851288902959
 20
1047.962307313893
 30
0.0
 42
0.3787223311314991
  0
VERTEX
  5
1E4E
  8
1
 10
-1761.067848621949
 20
1047.981849004206
 30
0.0
 42
0.3787223311281338
  0
SEQEND
  5
1E4F
  8
1
  0
ARC
  5
1B39
  8
1
 10
-1762.76784862195
 20
1049.188681682997
 30
0.0
 40
0.5
 50
0.000000000000007
 51
90.0
  0
POLYLINE
  5
1B3A
  8
1
 66
     1
 10
0.0
 20
0.0
 30
0.0
  0
VERTEX
  5
1E50
  8
1
 10
-1756.76784862195
 20
1053.2641856982559
 30
0.0
 42
0.0052877851924635
  0
VERTEX
  5
1E51
  8
1
 10
-1756.0638755552829
 20
1053.271630823142
 30
0.0
 42
0.007468947870235
  0
VERTEX
  5
1E52
  8
1
 10
-1755.565767093932
 20
1053.2896146490041
 30
0.0
 42
0.01791436931456
  0
VERTEX
  5
1E53
  8
1
 10
-1755.0851288902959
 20
1053.331463876465
 30
0.0
 42
0.3787223311314991
  0
VERTEX
  5
1E54
  8
1
 10
-1755.067848621949
 20
1053.351005566778
 30
0.0
 42
0.3787223311281338
  0
SEQEND
  5
1E55
  8
1
  0
POLYLINE
  5
1B3B
  8
1
 66
     1
 10
0.0
 20
0.0
 30
0.0
  0
VERTEX
  5
1E56
  8
1
 10
-1756.76784862195
 20
1053.4757780751061
 30
0.0
 42
0.0179528718256618
  0
VERTEX
  5
1E57
  8
1
 10
-1756.561380926001
 20
1053.483193841412
 30
0.0
 42
0.0250377148196745
  0
VERTEX
  5
1E58
  8
1
 10
-1756.4142952313559
 20
1053.5012082619551
 30
0.0
 42
0.0563179969730268
  0
VERTEX
  5
1E59
  8
1
 10
-1756.28318587741
 20
1053.5395419378549
 30
0.0
 42
0.3021816287208285
  0
VERTEX
  5
1E5A
  8
1
 10
-1756.267848621949
 20
1053.5626021639389
 30
0.0
 42
0.3021816287197159
  0
SEQEND
  5
1E5B
  8
1
  0
LINE
  5
1B3C
  8
1
 10
-1756.76784862195
 20
1053.4757780751061
 30
0.0
 11
-1757.017848621949
 21
1053.4757780751061
 31
0.0
  0
LINE
  5
1B3D
  8
1
 10
-1756.76784862195
 20
1053.2641856982559
 30
0.0
 11
-1757.017848621949
 21
1053.2641856982559
 31
0.0
  0
LINE
  5
1B3E
  8
1
 10
-1755.067848621949
 20
1056.307169737308
 30
0.0
 11
-1754.769011203219
 21
1044.895029135683
 31
0.0
  0
LINE
  5
1B3F
  8
1
 10
-1756.267848621949
 20
1056.307169737308
 30
0.0
 11
-1756.267848621949
 21
1053.5626021639389
 31
0.0
  0
POLYLINE
  5
1B40
  8
1
 66
     1
 10
0.0
 20
0.0
 30
0.0
  0
VERTEX
  5
1E5C
  8
1
 10
-1761.067848621949
 20
1052.2503055591819
 30
0.0
 42
-0.2625887210450227
  0
VERTEX
  5
1E5D
  8
1
 10
-1760.9033728672889
 20
1052.541892121325
 30
0.0
 42
-0.0747215099328401
  0
VERTEX
  5
1E5E
  8
1
 10
-1759.8816310857551
 20
1052.967227080831
 30
0.0
 42
-0.03550843823257
  0
VERTEX
  5
1E5F
  8
1
 10
-1758.684788404807
 20
1053.1779905029071
 30
0.0
 42
-0.0258370627131203
  0
VERTEX
  5
1E60
  8
1
 10
-1757.017848621949
 20
1053.2641856982559
 30
0.0
 42
-0.0258370627130968
  0
SEQEND
  5
1E61
  8
1
  0
POLYLINE
  5
1B41
  8
1
 66
     1
 10
0.0
 20
0.0
 30
0.0
  0
VERTEX
  5
1E62
  8
1
 10
-1762.26784862195
 20
1052.2503055591819
 30
0.0
 42
-0.2707443478876268
  0
VERTEX
  5
1E63
  8
1
 10
-1762.065198586816
 20
1052.5971184880771
 30
0.0
 42
-0.0710836476602074
  0
VERTEX
  5
1E64
  8
1
 10
-1760.730159223179
 20
1053.1168454853489
 30
0.0
 42
-0.0332446860458197
  0
VERTEX
  5
1E65
  8
1
 10
-1759.1804576678769
 20
1053.371473068014
 30
0.0
 42
-0.02410154025602
  0
VERTEX
  5
1E66
  8
1
 10
-1757.017848621949
 20
1053.4757780751061
 30
0.0
 42
-0.0241015402560213
  0
SEQEND
  5
1E67
  8
1
  0
POLYLINE
  5
1B42
  8
1
 66
     1
 10
0.0
 20
0.0
 30
0.0
  0
VERTEX
  5
1E68
  8
1
 10
-1756.76784862195
 20
1056.39398960583
 30
0.0
 42
-0.0179528718256618
  0
VERTEX
  5
1E69
  8
1
 10
-1756.561380926001
 20
1056.386573839525
 30
0.0
 42
-0.0250377148196745
  0
VERTEX
  5
1E6A
  8
1
 10
-1756.4142952313559
 20
1056.3685594189819
 30
0.0
 42
-0.0563179969730268
  0
VERTEX
  5
1E6B
  8
1
 10
-1756.28318587741
 20
1056.330225743081
 30
0.0
 42
-0.3021816287208285
  0
VERTEX
  5
1E6C
  8
1
 10
-1756.267848621949
 20
1056.307165516997
 30
0.0
 42
-0.3021816287197159
  0
SEQEND
  5
1E6D
  8
1
  0
POLYLINE
  5
1B43
  8
1
 66
     1
 10
0.0
 20
0.0
 30
0.0
  0
VERTEX
  5
1E6E
  8
1
 10
-1756.76784862195
 20
1056.39398960583
 30
0.0
 42
-0.0052877851924635
  0
VERTEX
  5
1E6F
  8
1
 10
-1756.0638755552829
 20
1056.3865444809451
 30
0.0
 42
-0.007468947870235
  0
VERTEX
  5
1E70
  8
1
 10
-1755.565767093932
 20
1056.3685606550821
 30
0.0
 42
-0.01791436931456
  0
VERTEX
  5
1E71
  8
1
 10
-1755.0851288902959
 20
1056.3267114276209
 30
0.0
 42
-0.3787223311314991
  0
VERTEX
  5
1E72
  8
1
 10
-1755.067848621949
 20
1056.307169737308
 30
0.0
 42
-0.3787223311281338
  0
SEQEND
  5
1E73
  8
1
  0
LINE
  5
1B44
  8
1
 10
-1774.517848621949
 20
1006.895029135683
 30
0.0
 11
-1774.448033679623
 21
998.89502913568344
 31
0.0
  0
LINE
  5
1B48
  8
1
 10
-1913.51784862195
 20
707.95824844275535
 30
0.0
 11
-1748.51784862195
 21
707.95824844275535
 31
0.0
  0
LINE
  5
1B49
  8
1
 10
-1912.21784862195
 20
633.45824844275535
 30
0.0
 11
-1831.017848621949
 21
633.45824844275535
 31
0.0
  0
LINE
  5
1B4A
  8
1
 10
-1913.8883149431931
 20
636.45824844275535
 30
0.0
 11
-1748.1473823007061
 21
636.45824844275535
 31
0.0
  0
LINE
  5
1B4D
  8
1
 10
-1901.8178486219499
 20
715.95824844275535
 30
0.0
 11
-1887.587663564276
 21
715.95824844275535
 31
0.0
  0
LINE
  5
1B4E
  8
1
 10
-1901.678208102524
 20
707.95824844275535
 30
0.0
 11
-1901.8178486219499
 21
715.95824844275535
 31
0.0
  0
LINE
  5
1B4F
  8
1
 10
-1911.3574891413759
 20
707.95824844275535
 30
0.0
 11
-1911.21784862195
 21
715.95824844275535
 31
0.0
  0
LINE
  5
1B50
  8
1
 10
-1911.21784862195
 20
715.95824844275535
 30
0.0
 11
-1901.8178486219499
 21
715.95824844275535
 31
0.0
  0
LINE
  5
1B51
  8
1
 10
-1913.51784862195
 20
707.95824844275535
 30
0.0
 11
-1913.8883149431931
 21
636.45824844275535
 31
0.0
  0
LINE
  5
1B61
  8
1
 10
-1922.8649761249681
 20
656.47570151375203
 30
0.0
 11
-1923.01784862195
 21
638.95824844275535
 31
0.0
  0
ARC
  5
1B62
  8
1
 10
-1920.86505227884
 20
656.45824844275512
 30
0.0
 40
2.0
 50
90.000000000000028
 51
179.5
  0
LINE
  5
1B63
  8
1
 10
-1920.86505227884
 20
658.45824844275512
 30
0.0
 11
-1914.01784862195
 21
658.45824844275512
 31
0.0
  0
LINE
  5
1B64
  8
1
 10
-1912.21784862195
 20
633.45824844275535
 30
0.0
 11
-1912.2964063866571
 21
636.45824844275558
 31
0.0
  0
LINE
  5
1B65
  8
1
 10
-1916.01784862195
 20
640.45824844275501
 30
0.0
 11
-1916.01784862195
 21
638.95824844275455
 31
0.0
  0
LINE
  5
1B66
  8
1
 10
-1913.9971232333489
 20
640.45824844275501
 30
0.0
 11
-1916.01784862195
 21
640.45824844275501
 31
0.0
  0
LINE
  5
1B67
  8
1
 10
-1923.01784862195
 20
638.95824844275535
 30
0.0
 11
-1916.01784862195
 21
638.95824844275535
 31
0.0
  0
LINE
  5
1B68
  8
1
 10
-1774.517848621949
 20
707.95824844275535
 30
0.0
 11
-1774.448033679623
 21
715.95824844275535
 31
0.0
  0
LINE
  5
1B69
  8
1
 10
-1750.678208102524
 20
707.95824844275535
 30
0.0
 11
-1750.817848621949
 21
715.95824844275535
 31
0.0
  0
LINE
  5
1B6A
  8
1
 10
-1760.357489141375
 20
707.95824844275535
 30
0.0
 11
-1760.2178486219491
 21
715.95824844275535
 31
0.0
  0
LINE
  5
1B6C
  8
1
 10
-1823.76784862195
 20
710.95824844275535
 30
0.0
 11
-1823.76784862195
 21
708.95824844275535
 31
0.0
  0
LINE
  5
1B6D
  8
1
 10
-1838.26784862195
 20
710.95824844275535
 30
0.0
 11
-1838.26784862195
 21
708.95824844275535
 31
0.0
  0
LINE
  5
1B6F
  8
1
 10
-1887.51784862195
 20
707.95824844275535
 30
0.0
 11
-1887.587663564276
 21
715.95824844275535
 31
0.0
  0
ARC
  5
1B70
  8
1
 10
-1824.76784862195
 20
710.95824844275535
 30
0.0
 40
1.0
 50
0.0
 51
89.999999999999659
  0
LINE
  5
1B71
  8
1
 10
-1827.26784862195
 20
711.95824844275535
 30
0.0
 11
-1824.76784862195
 21
711.95824844275535
 31
0.0
  0
ARC
  5
1B72
  8
1
 10
-1827.26784862195
 20
710.95824844275535
 30
0.0
 40
1.0
 50
90.000000000000028
 51
180.0
  0
LINE
  5
1B73
  8
1
 10
-1828.26784862195
 20
710.95824844275535
 30
0.0
 11
-1828.26784862195
 21
710.45824844275523
 31
0.0
  0
LINE
  5
1B74
  8
1
 10
-1834.76784862195
 20
711.95824844275535
 30
0.0
 11
-1837.26784862195
 21
711.95824844275535
 31
0.0
  0
LINE
  5
1B75
  8
1
 10
-1833.76784862195
 20
710.95824844275535
 30
0.0
 11
-1833.76784862195
 21
710.45824844275523
 31
0.0
  0
ARC
  5
1B76
  8
1
 10
-1834.76784862195
 20
710.95824844275535
 30
0.0
 40
1.0
 50
0.0
 51
90.000000000000028
  0
ARC
  5
1B77
  8
1
 10
-1837.26784862195
 20
710.95824844275535
 30
0.0
 40
1.0
 50
90.000000000000355
 51
180.0
  0
LINE
  5
1B78
  8
1
 10
-1833.76784862195
 20
710.45824844275535
 30
0.0
 11
-1828.26784862195
 21
710.45824844275535
 31
0.0
  0
LINE
  5
1B79
  8
1
 10
-1750.817848621949
 20
715.95824844275535
 30
0.0
 11
-1760.2178486219491
 21
715.95824844275535
 31
0.0
  0
LINE
  5
1B7A
  8
1
 10
-1760.2178486219491
 20
715.95824844275535
 30
0.0
 11
-1774.448033679623
 21
715.95824844275535
 31
0.0
  0
LINE
  5
1B7B
  8
1
 10
-1749.8178486219499
 20
633.45824844275535
 30
0.0
 11
-1831.017848621949
 21
633.45824844275535
 31
0.0
  0
LINE
  5
1B7C
  8
1
 10
-1822.76784862195
 20
708.95824844275535
 30
0.0
 11
-1839.26784862195
 21
708.95824844275535
 31
0.0
  0
LINE
  5
1B7D
  8
1
 10
-1839.26784862195
 20
708.95824844275535
 30
0.0
 11
-1839.26784862195
 21
707.95824844275535
 31
0.0
  0
LINE
  5
1B80
  8
1
 10
-1822.76784862195
 20
708.95824844275535
 30
0.0
 11
-1822.76784862195
 21
707.95824844275535
 31
0.0
  0
LINE
  5
1B83
  8
1
 10
-1748.51784862195
 20
707.95824844275535
 30
0.0
 11
-1748.1473823007061
 21
636.45824844275535
 31
0.0
  0
LINE
  5
1B93
  8
1
 10
-1739.1707211189309
 20
656.47570151375203
 30
0.0
 11
-1739.01784862195
 21
638.95824844275535
 31
0.0
  0
LINE
  5
1B94
  8
1
 10
-1741.01784862195
 20
658.45824844275512
 30
0.0
 11
-1748.01784862195
 21
658.45824844275512
 31
0.0
  0
ARC
  5
1B95
  8
1
 10
-1741.170644965059
 20
656.45824844275512
 30
0.0
 40
2.0
 50
0.499999999999932
 51
90.000000000000028
  0
LINE
  5
1B96
  8
1
 10
-1748.038574010551
 20
640.45824844275501
 30
0.0
 11
-1746.017848621949
 21
640.45824844275501
 31
0.0
  0
LINE
  5
1B97
  8
1
 10
-1746.017848621949
 20
640.45824844275501
 30
0.0
 11
-1746.017848621949
 21
638.95824844275455
 31
0.0
  0
LINE
  5
1B98
  8
1
 10
-1739.01784862195
 20
638.95824844275535
 30
0.0
 11
-1746.017848621949
 21
638.95824844275535
 31
0.0
  0
LINE
  5
1B99
  8
1
 10
-1749.8178486219499
 20
633.45824844275535
 30
0.0
 11
-1749.7392908572431
 21
636.45824844275558
 31
0.0
  0
LINE
  5
1BA0
  8
1
 10
-2063.516066180759
 20
846.38492504459646
 30
0.0
 11
-2063.516066180759
 21
861.384925044596
 31
0.0
  0
LINE
  5
1BA1
  8
1
 10
-2053.516066180759
 20
846.38492504459646
 30
0.0
 11
-2053.516066180759
 21
861.384925044596
 31
0.0
  0
LINE
  5
1BA2
  8
1
 10
-2065.016066180759
 20
843.88492504459623
 30
0.0
 11
-2065.016066180759
 21
846.38492504459646
 31
0.0
  0
LINE
  5
1BA3
  8
1
 10
-2063.516066180759
 20
846.384925044596
 30
0.0
 11
-2065.016066180759
 21
846.384925044596
 31
0.0
  0
ARC
  5
1BA4
  8
1
 10
-2047.516066180759
 20
846.03772138770591
 30
0.0
 40
2.0
 50
270.49999999999972
 51
0.000000000000007
  0
LINE
  5
1BA5
  8
1
 10
-2045.516066180759
 20
846.03772138770569
 30
0.0
 11
-2045.516066180759
 21
846.38492504459646
 31
0.0
  0
LINE
  5
1BA6
  8
1
 10
-2045.516066180759
 20
846.384925044596
 30
0.0
 11
-2053.516066180759
 21
846.384925044596
 31
0.0
  0
LINE
  5
1BA7
  8
1
 10
-2047.4986131097619
 20
844.03779754157722
 30
0.0
 11
-2065.016066180759
 21
843.88492504459623
 31
0.0
  0
LINE
  5
1BA8
  8
1
 10
-2065.016066180759
 20
861.38492504459657
 30
0.0
 11
-2065.016066180759
 21
863.88492504459612
 31
0.0
  0
LINE
  5
1BA9
  8
1
 10
-2063.516066180759
 20
861.384925044596
 30
0.0
 11
-2065.016066180759
 21
861.384925044596
 31
0.0
  0
ARC
  5
1BAA
  8
1
 10
-2047.516066180759
 20
861.88492504459612
 30
0.0
 40
2.0
 50
359.99999999998261
 51
89.999999999999673
  0
LINE
  5
1BAB
  8
1
 10
-2045.516066180759
 20
861.38492504459657
 30
0.0
 11
-2045.516066180759
 21
861.88492504459555
 31
0.0
  0
LINE
  5
1BAC
  8
1
 10
-2045.516066180759
 20
861.384925044596
 30
0.0
 11
-2053.516066180759
 21
861.384925044596
 31
0.0
  0
LINE
  5
1BAD
  8
1
 10
-2065.016066180759
 20
863.88492504459612
 30
0.0
 11
-2047.516066180759
 21
863.88492504459612
 31
0.0
  0
LINE
  5
1BAE
  8
1
 10
-2053.516066180759
 20
930.38492504459555
 30
0.0
 11
-2053.516066180759
 21
915.38492504459612
 31
0.0
  0
LINE
  5
1BAF
  8
1
 10
-2063.516066180759
 20
930.38492504459555
 30
0.0
 11
-2063.516066180759
 21
915.38492504459612
 31
0.0
  0
LINE
  5
1BB0
  8
1
 10
-2065.016066180759
 20
915.38492504459555
 30
0.0
 11
-2065.016066180759
 21
912.88492504459612
 31
0.0
  0
LINE
  5
1BB1
  8
1
 10
-2063.516066180759
 20
915.38492504459612
 30
0.0
 11
-2065.016066180759
 21
915.38492504459612
 31
0.0
  0
LINE
  5
1BB2
  8
1
 10
-2045.516066180759
 20
915.38492504459555
 30
0.0
 11
-2045.516066180759
 21
914.8849250445968
 31
0.0
  0
ARC
  5
1BB3
  8
1
 10
-2047.516066180759
 20
914.88492504459612
 30
0.0
 40
2.0
 50
270.00000000000028
 51
0.000000000017411
  0
LINE
  5
1BB4
  8
1
 10
-2045.516066180759
 20
915.38492504459612
 30
0.0
 11
-2053.516066180759
 21
915.38492504459612
 31
0.0
  0
LINE
  5
1BB5
  8
1
 10
-2065.016066180759
 20
912.88492504459612
 30
0.0
 11
-2047.516066180759
 21
912.88492504459612
 31
0.0
  0
LINE
  5
1BB6
  8
1
 10
-2065.016066180759
 20
932.884925044596
 30
0.0
 11
-2065.016066180759
 21
930.38492504459555
 31
0.0
  0
LINE
  5
1BB7
  8
1
 10
-2063.516066180759
 20
930.38492504459623
 30
0.0
 11
-2065.016066180759
 21
930.38492504459623
 31
0.0
  0
LINE
  5
1BB8
  8
1
 10
-2045.516066180759
 20
930.73212870148654
 30
0.0
 11
-2045.516066180759
 21
930.38492504459555
 31
0.0
  0
ARC
  5
1BB9
  8
1
 10
-2047.516066180759
 20
930.73212870148654
 30
0.0
 40
2.0
 50
0.000000000000007
 51
89.500000000000256
  0
LINE
  5
1BBA
  8
1
 10
-2047.4986131097619
 20
932.7320525476149
 30
0.0
 11
-2065.016066180759
 21
932.884925044596
 31
0.0
  0
LINE
  5
1BBB
  8
1
 10
-2045.516066180759
 20
930.38492504459623
 30
0.0
 11
-2053.516066180759
 21
930.38492504459623
 31
0.0
  0
LINE
  5
1BBD
  8
1
 10
-1996.016066180759
 20
914.88492504459612
 30
0.0
 11
-1988.016066180759
 21
914.95473998692239
 31
0.0
  0
LINE
  5
1BBE
  8
1
 10
-1988.016066180759
 20
936.31511010227007
 30
0.0
 11
-1988.016066180759
 21
914.95473998692239
 31
0.0
  0
LINE
  5
1BBF
  8
1
 10
-1996.016066180759
 20
936.38492504459566
 30
0.0
 11
-1988.016066180759
 21
936.31511010227007
 31
0.0
  0
LINE
  5
1BC6
  8
1
 10
-2067.516066180759
 20
936.31511010227007
 30
0.0
 11
-2067.516066180759
 21
914.95473998692239
 31
0.0
  0
LINE
  5
1BC7
  8
1
 10
-1901.8178486219499
 20
636.45824844275535
 30
0.0
 11
-1887.587663564276
 21
636.45824844275535
 31
0.0
  0
LINE
  5
1BC8
  8
1
 10
-1911.21784862195
 20
1078.395029135683
 30
0.0
 11
-1901.8178486219499
 21
1078.395029135683
 31
0.0
  0
LINE
  5
1BC9
  8
1
 10
-1599.8535983842969
 20
936.31511010227007
 30
0.0
 11
-1599.8535983842969
 21
914.95473998692239
 31
0.0
  0
TEXT
  5
1C83
  8
1
 10
-1671.7749810670839
 20
981.62405927670227
 30
0.0
 40
10.0
  1
FIBOX CARDMASTER 17/16-L3
  7
SIMPLEX
  0
ENDSEC
  0
EOF
