  0
SECTION
  2
HEADER
  9
$ACADVER
  1
AC1015
  9
$ACADMAINTVER
 70
           6
  9
$DWGCODEPAGE
  3
ANSI_1252
  9
$INSBASE
 10
0.0
 20
0.0
 30
0.0
  9
$EXTMIN
 10
-1252.067132783491
 20
-124.68723889669
 30
0.0
  9
$EXTMAX
 10
526.871981433815
 20
807.952152021409
 30
0.0
  9
$LIMMIN
 10
0.0
 20
0.0
  9
$LIMMAX
 10
0.0
 20
0.0
  9
$ORTHOMODE
 70
           0
  9
$REGENMODE
 70
           1
  9
$FILLMODE
 70
           1
  9
$QTEXTMODE
 70
           0
  9
$MIRRTEXT
 70
           1
  9
$LTSCALE
 40
1.0
  9
$ATTMODE
 70
           1
  9
$TEXTSIZE
 40
3.5
  9
$TRACEWID
 40
1.0
  9
$TEXTSTYLE
  7
Standard
  9
$CLAYER
  8
0
  9
$CELTYPE
  6
ByLayer
  9
$CECOLOR
 62
         256
  9
$CELTSCALE
 40
1.0
  9
$DISPSILH
 70
           0
  9
$DIMSCALE
 40
1.0
  9
$DIMASZ
 40
6.0
  9
$DIMEXO
 40
1.0
  9
$DIMDLI
 40
3.75
  9
$DIMRND
 40
0.0
  9
$DIMDLE
 40
0.0
  9
$DIMEXE
 40
1.0
  9
$DIMTP
 40
0.0
  9
$DIMTM
 40
0.0
  9
$DIMTXT
 40
3.5
  9
$DIMCEN
 40
2.5
  9
$DIMTSZ
 40
0.0
  9
$DIMTOL
 70
           0
  9
$DIMLIM
 70
           0
  9
$DIMTIH
 70
           1
  9
$DIMTOH
 70
           1
  9
$DIMSE1
 70
           0
  9
$DIMSE2
 70
           0
  9
$DIMTAD
 70
           1
  9
$DIMZIN
 70
           0
  9
$DIMBLK
  1

  9
$DIMASO
 70
           1
  9
$DIMSHO
 70
           1
  9
$DIMPOST
  1

  9
$DIMAPOST
  1

  9
$DIMALT
 70
           0
  9
$DIMALTD
 70
           3
  9
$DIMALTF
 40
0.03937007874
  9
$DIMLFAC
 40
1.0
  9
$DIMTOFL
 70
           1
  9
$DIMTVP
 40
0.0
  9
$DIMTIX
 70
           0
  9
$DIMSOXD
 70
           0
  9
$DIMSAH
 70
           0
  9
$DIMBLK1
  1

  9
$DIMBLK2
  1

  9
$DIMSTYLE
  2
ISO-25
  9
$DIMCLRD
 70
           0
  9
$DIMCLRE
 70
           0
  9
$DIMCLRT
 70
           0
  9
$DIMTFAC
 40
1.0
  9
$DIMGAP
 40
1.524
  9
$DIMJUST
 70
           0
  9
$DIMSD1
 70
           0
  9
$DIMSD2
 70
           0
  9
$DIMTOLJ
 70
           0
  9
$DIMTZIN
 70
           0
  9
$DIMALTZ
 70
           0
  9
$DIMALTTZ
 70
           0
  9
$DIMUPT
 70
           0
  9
$DIMDEC
 70
           2
  9
$DIMTDEC
 70
           2
  9
$DIMALTU
 70
           2
  9
$DIMALTTD
 70
           3
  9
$DIMTXSTY
  7
Standard
  9
$DIMAUNIT
 70
           0
  9
$DIMADEC
 70
           0
  9
$DIMALTRND
 40
0.0
  9
$DIMAZIN
 70
           0
  9
$DIMDSEP
 70
          44
  9
$DIMATFIT
 70
           3
  9
$DIMFRAC
 70
           0
  9
$DIMLDRBLK
  1

  9
$DIMLUNIT
 70
           2
  9
$DIMLWD
 70
          -2
  9
$DIMLWE
 70
          -2
  9
$DIMTMOVE
 70
           0
  9
$LUNITS
 70
           2
  9
$LUPREC
 70
           2
  9
$SKETCHINC
 40
1.0
  9
$FILLETRAD
 40
10.0
  9
$AUNITS
 70
           0
  9
$AUPREC
 70
           0
  9
$MENU
  1
.
  9
$ELEVATION
 40
0.0
  9
$PELEVATION
 40
0.0
  9
$THICKNESS
 40
0.0
  9
$LIMCHECK
 70
           0
  9
$CHAMFERA
 40
10.0
  9
$CHAMFERB
 40
10.0
  9
$CHAMFERC
 40
20.0
  9
$CHAMFERD
 40
0.0
  9
$SKPOLY
 70
           0
  9
$TDCREATE
 40
2453845.439600058
  9
$TDUCREATE
 40
0.000000000
  9
$TDUPDATE
 40
2453845.590659062
  9
$TDUUPDATE
 40
2453845.507325729
  9
$TDINDWG
 40
0.0008796181
  9
$TDUSRTIMER
 40
0.0008796181
  9
$USRTIMER
 70
           1
  9
$ANGBASE
 50
0.0
  9
$ANGDIR
 70
           0
  9
$PDMODE
 70
           0
  9
$PDSIZE
 40
-1.0
  9
$PLINEWID
 40
0.0
  9
$SPLFRAME
 70
           0
  9
$SPLINETYPE
 70
           6
  9
$SPLINESEGS
 70
           8
  9
$HANDSEED
  5
162
  9
$SURFTAB1
 70
           6
  9
$SURFTAB2
 70
           6
  9
$SURFTYPE
 70
           6
  9
$SURFU
 70
           6
  9
$SURFV
 70
           6
  9
$UCSBASE
  2

  9
$UCSNAME
  2

  9
$UCSORG
 10
0.0
 20
0.0
 30
0.0
  9
$UCSXDIR
 10
1.0
 20
0.0
 30
0.0
  9
$UCSYDIR
 10
0.0
 20
1.0
 30
0.0
  9
$UCSORTHOREF
  2

  9
$UCSORTHOVIEW
 70
           0
  9
$UCSORGTOP
 10
0.0
 20
0.0
 30
0.0
  9
$UCSORGBOTTOM
 10
0.0
 20
0.0
 30
0.0
  9
$UCSORGLEFT
 10
0.0
 20
0.0
 30
0.0
  9
$UCSORGRIGHT
 10
0.0
 20
0.0
 30
0.0
  9
$UCSORGFRONT
 10
0.0
 20
0.0
 30
0.0
  9
$UCSORGBACK
 10
0.0
 20
0.0
 30
0.0
  9
$PUCSBASE
  2

  9
$PUCSNAME
  2

  9
$PUCSORG
 10
0.0
 20
0.0
 30
0.0
  9
$PUCSXDIR
 10
1.0
 20
0.0
 30
0.0
  9
$PUCSYDIR
 10
0.0
 20
1.0
 30
0.0
  9
$PUCSORTHOREF
  2

  9
$PUCSORTHOVIEW
 70
           0
  9
$PUCSORGTOP
 10
0.0
 20
0.0
 30
0.0
  9
$PUCSORGBOTTOM
 10
0.0
 20
0.0
 30
0.0
  9
$PUCSORGLEFT
 10
0.0
 20
0.0
 30
0.0
  9
$PUCSORGRIGHT
 10
0.0
 20
0.0
 30
0.0
  9
$PUCSORGFRONT
 10
0.0
 20
0.0
 30
0.0
  9
$PUCSORGBACK
 10
0.0
 20
0.0
 30
0.0
  9
$USERI1
 70
           0
  9
$USERI2
 70
           0
  9
$USERI3
 70
           0
  9
$USERI4
 70
           0
  9
$USERI5
 70
           0
  9
$USERR1
 40
0.0
  9
$USERR2
 40
0.0
  9
$USERR3
 40
0.0
  9
$USERR4
 40
0.0
  9
$USERR5
 40
0.0
  9
$WORLDVIEW
 70
           1
  9
$SHADEDGE
 70
           3
  9
$SHADEDIF
 70
          70
  9
$TILEMODE
 70
           1
  9
$MAXACTVP
 70
          64
  9
$PINSBASE
 10
0.0
 20
0.0
 30
0.0
  9
$PLIMCHECK
 70
           0
  9
$PEXTMIN
 10
1.000000000000E+20
 20
1.000000000000E+20
 30
1.000000000000E+20
  9
$PEXTMAX
 10
-1.000000000000E+20
 20
-1.000000000000E+20
 30
-1.000000000000E+20
  9
$PLIMMIN
 10
0.0
 20
0.0
  9
$PLIMMAX
 10
420.0
 20
297.0
  9
$UNITMODE
 70
           0
  9
$VISRETAIN
 70
           1
  9
$PLINEGEN
 70
           0
  9
$PSLTSCALE
 70
           1
  9
$TREEDEPTH
 70
        3020
  9
$CMLSTYLE
  2
Standard
  9
$CMLJUST
 70
           0
  9
$CMLSCALE
 40
20.0
  9
$PROXYGRAPHICS
 70
           1
  9
$MEASUREMENT
 70
           1
  9
$CELWEIGHT
370
          -1
  9
$ENDCAPS
280
           0
  9
$JOINSTYLE
280
           0
  9
$LWDISPLAY
290
           1
  9
$INSUNITS
 70
           4
  9
$HYPERLINKBASE
  1

  9
$STYLESHEET
  1

  9
$XEDIT
290
           0
  9
$CEPSNTYPE
380
           0
  9
$PSTYLEMODE
290
           1
  9
$FINGERPRINTGUID
  2
{FB4CCC3F-79FD-4E60-8112-B2B779881ADE}
  9
$VERSIONGUID
  2
{FAEB1C32-E019-11D5-929B-00C0DF256EC4}
  9
$EXTNAMES
290
           1
  9
$PSVPSCALE
 40
0.0
  0
ENDSEC
  0
SECTION
  2
CLASSES
  0
CLASS
  1
ACDBDICTIONARYWDFLT
  2
AcDbDictionaryWithDefault
  3
ObjectDBX Classes
 90
        0
280
           0
281
           0
  0
CLASS
  1
ACDBPLACEHOLDER
  2
AcDbPlaceHolder
  3
ObjectDBX Classes
 90
        0
280
           0
281
           0
  0
CLASS
  1
LAYOUT
  2
AcDbLayout
  3
ObjectDBX Classes
 90
        0
280
           0
281
           0
  0
CLASS
  1
LWPOLYLINE
  2
AcDbPolyline
  3
AutoCAD 2000
 90
        0
280
           0
281
           1
  0
CLASS
  1
IMAGE
  2
AcDbRasterImage
  3
ISM
 90
      127
280
           0
281
           1
  0
CLASS
  1
OLE2FRAME
  2
AcDbOle2Frame
  3
AutoCAD 2000
 90
        0
280
           0
281
           1
  0
CLASS
  1
HATCH
  2
AcDbHatch
  3
AutoCAD 2000
 90
        0
280
           0
281
           1
  0
CLASS
  1
DICTIONARYVAR
  2
AcDbDictionaryVar
  3
AutoCAD 2000
 90
        0
280
           0
281
           0
  0
CLASS
  1
RASTERVARIABLES
  2
AcDbRasterVariables
  3
ISM
 90
        0
280
           0
281
           0
  0
CLASS
  1
IMAGEDEF
  2
AcDbRasterImageDef
  3
ISM
 90
        0
280
           0
281
           0
  0
CLASS
  1
IMAGEDEF_REACTOR
  2
AcDbRasterImageDefReactor
  3
ISM
 90
        1
280
           0
281
           0
  0
CLASS
  1
IDBUFFER
  2
AcDbIdBuffer
  3
AutoCAD 2000
 90
        0
280
           0
281
           0
  0
CLASS
  1
SPATIAL_FILTER
  2
AcDbSpatialFilter
  3
AutoCAD 2000
 90
        0
280
           0
281
           0
  0
CLASS
  1
XRECORD
  2
AcDbXrecord
  3
AutoCAD 2000
 90
        0
280
           0
281
           0
  0
CLASS
  1
SORTENTSTABLE
  2
AcDbSortentsTable
  3
AutoCAD 2000
 90
        0
280
           0
281
           0
  0
CLASS
  1
LAYER_INDEX
  2
AcDbLayerIndex
  3
AutoCAD 2000
 90
        0
280
           0
281
           0
  0
CLASS
  1
SPATIAL_INDEX
  2
AcDbSpatialIndex
  3
AutoCAD 2000
 90
        0
280
           0
281
           0
  0
CLASS
  1
OBJECT_PTR
  2
CAseDLPNTableRecord
  3
"ASE-LPNTableRecord"
 90
        1
280
           0
281
           0
  0
CLASS
  1
PLOTSETTINGS
  2
AcDbPlotSettings
  3
AutoCAD 2000
 90
        0
280
           0
281
           0
  0
CLASS
  1
VBA_PROJECT
  2
AcDbVbaProject
  3
acadvba
 90
        0
280
           0
281
           0
  0
CLASS
  1
WIPEOUT
  2
AcDbWipeout
  3
WipeOut|AutoCAD Express Tool|expresstools@autodesk.com
 90
      127
280
           0
281
           1
  0
CLASS
  1
WIPEOUTVARIABLES
  2
AcDbWipeoutVariables
  3
WipeOut|AutoCAD Express Tool|expresstools@autodesk.com
 90
        0
280
           0
281
           0
  0
CLASS
  1
RTEXT
  2
RText
  3
RText|AutoCAD Express Tool|expresstools@autodesk.com
 90
        0
280
           0
281
           1
  0
CLASS
  1
ARCALIGNEDTEXT
  2
AcDbArcAlignedText
  3
ATEXT|AutoCAD Express Tool|expresstools@autodesk.com
 90
        0
280
           0
281
           1
  0
CLASS
  1
DIMASSOC
  2
AcDbDimAssoc
  3
AcDbDimAssoc|Product Desc:     AcDim ARX App For Dimension|Company:          Autodesk, Inc.|WEB Address:      www.autodesk.com
 90
        1
280
           0
281
           0
  0
ENDSEC
  0
SECTION
  2
TABLES
  0
TABLE
  2
VPORT
  5
8
100
AcDbSymbolTable
 70
           1
  0
VPORT
  5
29
100
AcDbSymbolTableRecord
100
AcDbViewportTableRecord
  2
*Active
 70
          64
 10
0.0
 20
0.0
 11
1.0
 21
1.0
 12
-362.597575674838
 22
341.632456562359
 13
0.0
 23
0.0
 14
10.0
 24
10.0
 15
10.0
 25
10.0
 16
0.0
 26
0.0
 36
1.0
 17
0.0
 27
0.0
 37
0.0
 40
951.292178736461
 41
1.97297297285
 42
50.0
 43
0.0
 44
0.0
 50
0.0
 51
0.0
 71
           0
 72
        2000
 73
           1
 74
           3
 75
           0
 76
           0
 77
           0
 78
           0
281
           0
 65
           0
110
0.0
120
0.0
130
0.0
111
1.0
121
0.0
131
0.0
112
0.0
122
1.0
132
0.0
345
0
346
0
 79
           0
146
0.0
  0
ENDTAB
  0
TABLE
  2
LTYPE
  5
5
100
AcDbSymbolTable
 70
           8
  0
LTYPE
  5
14
100
AcDbSymbolTableRecord
100
AcDbLinetypeTableRecord
  2
ByBlock
 70
          64
  3

 72
          65
 73
           0
 40
0.0
  0
LTYPE
  5
15
100
AcDbSymbolTableRecord
100
AcDbLinetypeTableRecord
  2
ByLayer
 70
          64
  3

 72
          65
 73
           0
 40
0.0
  0
LTYPE
  5
16
100
AcDbSymbolTableRecord
100
AcDbLinetypeTableRecord
  2
Continuous
 70
          64
  3
Solid line
 72
          65
 73
           0
 40
0.0
  0
LTYPE
  5
2A
100
AcDbSymbolTableRecord
100
AcDbLinetypeTableRecord
  2
HIDDEN
 70
          64
  3
Hidden __ __ __ __ __ __ __ __ __ __ __ __ __ __
 72
          65
 73
           2
 40
1.905
 49
1.27
 74
           0
 49
-0.635
 74
           0
  0
LTYPE
  5
2B
100
AcDbSymbolTableRecord
100
AcDbLinetypeTableRecord
  2
PHANTOM
 70
          64
  3
Phantom ______  __  __  ______  __  __  ______
 72
          65
 73
           6
 40
12.7
 49
6.35
 74
           0
 49
-1.27
 74
           0
 49
1.27
 74
           0
 49
-1.27
 74
           0
 49
1.27
 74
           0
 49
-1.27
 74
           0
  0
LTYPE
  5
2C
100
AcDbSymbolTableRecord
100
AcDbLinetypeTableRecord
  2
CENTER
 70
          64
  3
Center ____ _ ____ _ ____ _ ____ _ ____ _ ____
 72
          65
 73
           4
 40
10.16
 49
6.35
 74
           0
 49
-1.27
 74
           0
 49
1.27
 74
           0
 49
-1.27
 74
           0
  0
LTYPE
  5
2D
100
AcDbSymbolTableRecord
100
AcDbLinetypeTableRecord
  2
CENTERX2
 70
          64
  3
Center (2x) ________  __  ________  __  _____
 72
          65
 73
           4
 40
20.32
 49
12.7
 74
           0
 49
-2.54
 74
           0
 49
2.54
 74
           0
 49
-2.54
 74
           0
  0
LTYPE
  5
2E
100
AcDbSymbolTableRecord
100
AcDbLinetypeTableRecord
  2
DOT2
 70
          64
  3
Dot (.5x) ........................................
 72
          65
 73
           2
 40
0.635
 49
0.0
 74
           0
 49
-0.635
 74
           0
  0
ENDTAB
  0
TABLE
  2
LAYER
  5
2
100
AcDbSymbolTable
 70
           2
  0
LAYER
  5
10
100
AcDbSymbolTableRecord
100
AcDbLayerTableRecord
  2
0
 70
          64
 62
           7
  6
Continuous
290
           1
370
          -3
390
F
  0
LAYER
  5
154
100
AcDbSymbolTableRecord
100
AcDbLayerTableRecord
  2
DEFPOINTS
 70
           0
 62
           7
  6
Continuous
290
           0
370
          -3
390
F
  0
ENDTAB
  0
TABLE
  2
STYLE
  5
3
100
AcDbSymbolTable
 70
           1
  0
STYLE
  5
11
100
AcDbSymbolTableRecord
100
AcDbTextStyleTableRecord
  2
Standard
 70
          64
 40
0.0
 41
1.0
 50
0.0
 71
           0
 42
2.5
  3
TXT
  4

  0
ENDTAB
  0
TABLE
  2
VIEW
  5
6
100
AcDbSymbolTable
 70
           0
  0
ENDTAB
  0
TABLE
  2
UCS
  5
7
100
AcDbSymbolTable
 70
           0
  0
ENDTAB
  0
TABLE
  2
APPID
  5
9
100
AcDbSymbolTable
 70
           1
  0
APPID
  5
12
100
AcDbSymbolTableRecord
100
AcDbRegAppTableRecord
  2
ACAD
 70
          64
  0
ENDTAB
  0
TABLE
  2
DIMSTYLE
  5
A
100
AcDbSymbolTable
 70
           1
100
AcDbDimStyleTable
 71
           0
  0
DIMSTYLE
105
27
100
AcDbSymbolTableRecord
100
AcDbDimStyleTableRecord
  2
ISO-25
 70
          64
  3

  4

 40
1.0
 41
2.5
 42
0.625
 43
3.75
 44
1.25
 45
0.0
 46
0.0
 47
0.0
 48
0.0
 71
           0
 72
           0
 73
           0
 74
           0
 75
           0
 76
           0
 77
           1
 78
           8
 79
           0
140
2.5
141
2.5
142
0.0
143
0.03937007874
144
1.0
145
0.0
146
1.0
147
0.625
148
0.0
170
           0
171
           3
172
           1
173
           0
174
           0
175
           0
176
           0
177
           0
178
           0
179
           0
271
           2
272
           2
273
           2
274
           3
275
           0
276
           0
277
           2
278
          44
279
           0
280
           0
281
           0
282
           0
283
           0
284
           8
285
           0
286
           0
288
           0
289
           3
340
11
341
0
342
0
343
0
344
0
371
          -2
372
          -2
  0
ENDTAB
  0
TABLE
  2
BLOCK_RECORD
  5
1
100
AcDbSymbolTable
 70
           1
  0
BLOCK_RECORD
  5
1F
100
AcDbSymbolTableRecord
100
AcDbBlockTableRecord
  2
*MODEL_SPACE
340
22
  0
BLOCK_RECORD
  5
1B
100
AcDbSymbolTableRecord
100
AcDbBlockTableRecord
  2
*PAPER_SPACE
340
1E
  0
BLOCK_RECORD
  5
23
100
AcDbSymbolTableRecord
100
AcDbBlockTableRecord
  2
*Paper_Space0
340
26
  0
ENDTAB
  0
ENDSEC
  0
SECTION
  2
BLOCKS
  0
BLOCK
  5
20
100
AcDbEntity
  8
0
390
0
100
AcDbBlockBegin
  2
*MODEL_SPACE
 70
           0
 10
0.0
 20
0.0
 30
0.0
  3
*MODEL_SPACE
  1

  0
ENDBLK
  5
21
100
AcDbEntity
  8
0
390
0
100
AcDbBlockEnd
  0
BLOCK
  5
1C
100
AcDbEntity
 67
           1
  8
0
390
0
100
AcDbBlockBegin
  2
*PAPER_SPACE
 70
           0
 10
0.0
 20
0.0
 30
0.0
  3
*PAPER_SPACE
  1

  0
ENDBLK
  5
1D
100
AcDbEntity
 67
           1
  8
0
390
0
100
AcDbBlockEnd
  0
BLOCK
  5
24
100
AcDbEntity
  8
0
100
AcDbBlockBegin
  2
*Paper_Space0
 70
          64
 10
0.0
 20
0.0
 30
0.0
  3
*Paper_Space0
  1

  0
ENDBLK
  5
25
100
AcDbEntity
  8
0
100
AcDbBlockEnd
  0
ENDSEC
  0
SECTION
  2
ENTITIES
  0
LINE
  5
2F
100
AcDbEntity
  8
0
370
          15
  6
Continuous
 62
           7
100
AcDbLine
 10
-297.826860661712
 20
777.952152021409
 30
0.0
 11
-301.324728556278
 21
777.952152021409
 31
0.0
  0
LINE
  5
30
100
AcDbEntity
  8
0
370
          15
  6
Continuous
 62
           7
100
AcDbLine
 10
-301.324728556279
 20
777.952152021409
 30
0.0
 11
-300.395062654268
 21
804.574300259867
 31
0.0
  0
ARC
  5
31
100
AcDbEntity
  8
0
370
          15
  6
Continuous
 62
           7
100
AcDbCircle
 10
-298.887104469076
 20
776.036090166975
 30
0.0
 40
28.607502092241
100
AcDbArc
 50
86.011341016015
 51
93.02157456898
  0
LINE
  5
32
100
AcDbEntity
  8
0
370
          15
  6
Continuous
 62
           7
100
AcDbLine
 10
-296.897194759702
 20
804.574300259867
 30
0.0
 11
-297.826860661712
 21
777.952152021409
 31
0.0
  0
LINE
  5
33
100
AcDbEntity
  8
0
370
          15
  6
Continuous
 62
           7
100
AcDbLine
 10
308.577403549155
 20
777.952152021409
 30
0.0
 11
307.647737647144
 21
804.574300259867
 31
0.0
  0
ARC
  5
34
100
AcDbEntity
  8
0
370
          15
  6
Continuous
 62
           7
100
AcDbCircle
 10
309.637647356585
 20
776.036090162057
 30
0.0
 40
28.607502097151
100
AcDbArc
 50
86.97842543167
 51
93.988658983431
  0
LINE
  5
35
100
AcDbEntity
  8
0
370
          15
  6
Continuous
 62
           7
100
AcDbLine
 10
311.145605541711
 20
804.574300259867
 30
0.0
 11
312.075271443722
 21
777.952152021409
 31
0.0
  0
LINE
  5
36
100
AcDbEntity
  8
0
370
          15
  6
Continuous
 62
           7
100
AcDbLine
 10
312.075271443722
 20
777.952152021409
 30
0.0
 11
308.577403549155
 21
777.952152021409
 31
0.0
  0
LINE
  5
37
100
AcDbEntity
  8
0
370
          15
  6
Continuous
 62
           7
100
AcDbLine
 10
307.647737647144
 20
804.574300259867
 30
0.0
 11
-296.897194759702
 21
804.574300259867
 31
0.0
  0
LINE
  5
38
100
AcDbEntity
  8
0
370
          15
  6
Continuous
 62
           7
100
AcDbLine
 10
-297.826860661712
 20
777.952152021409
 30
0.0
 11
308.577403549155
 21
777.952152021409
 31
0.0
  0
LINE
  5
39
100
AcDbEntity
  8
0
370
          15
  6
Continuous
 62
           7
100
AcDbLine
 10
-296.897194759702
 20
807.952152021409
 30
0.0
 11
307.647737647144
 21
807.952152021409
 31
0.0
  0
LINE
  5
3A
100
AcDbEntity
  8
0
370
          15
  6
Continuous
 62
           7
100
AcDbLine
 10
307.647737647144
 20
807.952152021409
 30
0.0
 11
307.647737647144
 21
804.574300259867
 31
0.0
  0
LINE
  5
3B
100
AcDbEntity
  8
0
370
          15
  6
Continuous
 62
           7
100
AcDbLine
 10
-296.897194759702
 20
807.952152021409
 30
0.0
 11
-296.897194759702
 21
804.574300259867
 31
0.0
  0
ARC
  5
3C
100
AcDbEntity
  8
0
370
          15
  6
Continuous
 62
           7
100
AcDbCircle
 10
-296.897194759702
 20
804.452152021409
 30
0.0
 40
3.5
100
AcDbArc
 50
90.0
 51
177.999999999841
  0
ARC
  5
3D
100
AcDbEntity
  8
0
370
          15
  6
Continuous
 62
           7
100
AcDbCircle
 10
307.647737647144
 20
804.452152021409
 30
0.0
 40
3.5
100
AcDbArc
 50
2.000000000091
 51
89.999999999999
  0
LINE
  5
3E
100
AcDbEntity
  8
0
370
          15
  6
Continuous
 62
           7
100
AcDbLine
 10
311.145605541711
 20
519.029929905934
 30
0.0
 11
307.647737647144
 21
519.029929905934
 31
0.0
  0
LINE
  5
3F
100
AcDbEntity
  8
0
370
          15
  6
Continuous
 62
           7
100
AcDbLine
 10
307.647737647144
 20
522.527797800501
 30
0.0
 11
307.647737647144
 21
519.029929905934
 31
0.0
  0
ARC
  5
40
100
AcDbEntity
  8
0
370
          15
  6
Continuous
 62
           7
100
AcDbCircle
 10
307.642449429613
 20
519.024641688513
 30
0.0
 40
3.503160103531
100
AcDbArc
 50
0.086491238046
 51
89.91350876014
  0
LINE
  5
41
100
AcDbEntity
  8
0
370
          15
  6
Continuous
 62
           7
100
AcDbLine
 10
-296.897194759702
 20
522.527797800501
 30
0.0
 11
307.647737647144
 21
522.527797800501
 31
0.0
  0
LINE
  5
42
100
AcDbEntity
  8
0
370
          15
  6
Continuous
 62
           7
100
AcDbLine
 10
307.647737647144
 20
519.029929905934
 30
0.0
 11
-296.897194759702
 21
519.029929905934
 31
0.0
  0
LINE
  5
43
100
AcDbEntity
  8
0
370
          15
  6
Continuous
 62
           7
100
AcDbLine
 10
-296.897194759702
 20
522.527797800501
 30
0.0
 11
-296.897194759702
 21
519.029929905934
 31
0.0
  0
LINE
  5
44
100
AcDbEntity
  8
0
370
          15
  6
Continuous
 62
           7
100
AcDbLine
 10
-296.897194759702
 20
519.029929905934
 30
0.0
 11
-300.395062654268
 21
519.029929905934
 31
0.0
  0
ARC
  5
45
100
AcDbEntity
  8
0
370
          15
  6
Continuous
 62
           7
100
AcDbCircle
 10
-296.891906542148
 20
519.024641688362
 30
0.0
 40
3.503160103573
100
AcDbArc
 50
90.086491240222
 51
179.913508554998
  0
LINE
  5
46
100
AcDbEntity
  8
0
370
          15
  6
Continuous
 62
           7
100
AcDbLine
 10
-296.897194759702
 20
519.029929905934
 30
0.0
 11
-296.897194759702
 21
129.456423648237
 31
0.0
  0
LINE
  5
47
100
AcDbEntity
  8
0
370
          15
  6
Continuous
 62
           7
100
AcDbLine
 10
-296.897194759702
 20
129.456423648237
 30
0.0
 11
-300.395062654268
 21
129.456423648237
 31
0.0
  0
LINE
  5
48
100
AcDbEntity
  8
0
370
          15
  6
Continuous
 62
           7
100
AcDbLine
 10
-300.395062654268
 20
129.456423648237
 30
0.0
 11
-300.395062654268
 21
519.029929905934
 31
0.0
  0
LINE
  5
49
100
AcDbEntity
  8
0
370
          15
  6
Continuous
 62
           7
100
AcDbLine
 10
307.647737647144
 20
129.456423648237
 30
0.0
 11
307.647737647144
 21
519.029929905934
 31
0.0
  0
LINE
  5
4A
100
AcDbEntity
  8
0
370
          15
  6
Continuous
 62
           7
100
AcDbLine
 10
-296.897194759702
 20
129.456423648237
 30
0.0
 11
307.647737647144
 21
129.456423648237
 31
0.0
  0
LINE
  5
4B
100
AcDbEntity
  8
0
370
          15
  6
Continuous
 62
           7
100
AcDbLine
 10
311.145605541711
 20
519.029929905934
 30
0.0
 11
311.145605541711
 21
129.456423648237
 31
0.0
  0
LINE
  5
4C
100
AcDbEntity
  8
0
370
          15
  6
Continuous
 62
           7
100
AcDbLine
 10
311.145605541711
 20
129.456423648237
 30
0.0
 11
307.647737647144
 21
129.456423648237
 31
0.0
  0
LINE
  5
4D
100
AcDbEntity
  8
0
370
          15
  6
Continuous
 62
           7
100
AcDbLine
 10
307.647737647144
 20
129.456423648237
 30
0.0
 11
307.647737647144
 21
125.95855575367
 31
0.0
  0
LINE
  5
4E
100
AcDbEntity
  8
0
370
          15
  6
Continuous
 62
           7
100
AcDbLine
 10
307.647737647144
 20
125.95855575367
 30
0.0
 11
-296.897194759702
 21
125.95855575367
 31
0.0
  0
LINE
  5
4F
100
AcDbEntity
  8
0
370
          15
  6
Continuous
 62
           7
100
AcDbLine
 10
-296.897194759702
 20
129.456423648237
 30
0.0
 11
-296.897194759702
 21
125.95855575367
 31
0.0
  0
ARC
  5
50
100
AcDbEntity
  8
0
370
          15
  6
Continuous
 62
           7
100
AcDbCircle
 10
-296.891906542334
 20
129.461711865614
 30
0.0
 40
3.503160103377
100
AcDbArc
 50
180.086491348808
 51
269.913508762821
  0
ARC
  5
51
100
AcDbEntity
  8
0
370
          15
  6
Continuous
 62
           7
100
AcDbCircle
 10
307.642449429713
 20
129.461711865693
 30
0.0
 40
3.503160103456
100
AcDbArc
 50
270.086491238222
 51
359.913508496185
  0
ELLIPSE
  5
52
100
AcDbEntity
  8
0
370
          15
  6
Continuous
 62
           7
100
AcDbEllipse
 10
-297.316243993602
 20
519.448979139835
 30
0.0
 11
3.2560707462593541
 21
1.3487086631465672
 31
0.0
210
0.0
220
0.0
230
1.0
 40
0.951833291682
 41
1.1952460438234034
 42
2.7311357855784046
  0
ELLIPSE
  5
53
100
AcDbEntity
  8
0
370
          15
  6
Continuous
 62
           7
100
AcDbEllipse
 10
-297.194021300381
 20
519.326756446614
 30
0.0
 11
2.4778899060972321
 21
-2.4778899060969479
 31
0.0
210
0.0
220
0.0
230
1.0
 40
0.998782765959
 41
2.3568034777779845
 42
2.3904920876466202
  0
LINE
  5
54
100
AcDbEntity
  8
0
370
          15
  6
Continuous
 62
           7
100
AcDbLine
 10
-297.19828681086
 20
522.82888985166
 30
0.0
 11
-296.897194759702
 21
522.527797800501
 31
0.0
  0
LINE
  5
55
100
AcDbEntity
  8
0
370
          15
  6
Continuous
 62
           7
100
AcDbLine
 10
-300.395062654268
 20
519.029929905934
 30
0.0
 11
-300.814111888169
 21
519.448979139835
 31
0.0
  0
ELLIPSE
  5
56
100
AcDbEntity
  8
0
370
          15
  6
Continuous
 62
           7
100
AcDbEllipse
 10
307.944564187824
 20
519.326756446614
 30
0.0
 11
2.4778899060970616
 21
2.4778899060970616
 31
0.0
210
0.0
220
0.0
230
1.0
 40
0.998782765959
 41
0.7511005659429886
 42
0.7847891758118326
  0
ELLIPSE
  5
57
100
AcDbEntity
  8
0
370
          15
  6
Continuous
 62
           7
100
AcDbEllipse
 10
308.066786881045
 20
519.448979139835
 30
0.0
 11
3.2560707462590699
 21
-1.3487086631467946
 31
0.0
210
0.0
220
0.0
230
1.0
 40
0.951833291682
 41
0.4104568680114817
 42
1.9463466097663442
  0
LINE
  5
58
100
AcDbEntity
  8
0
370
          15
  6
Continuous
 62
           7
100
AcDbLine
 10
311.564654775612
 20
519.448979139835
 30
0.0
 11
311.145605541711
 21
519.029929905934
 31
0.0
  0
LINE
  5
59
100
AcDbEntity
  8
0
370
          15
  6
Continuous
 62
           7
100
AcDbLine
 10
307.647737647144
 20
522.527797800501
 30
0.0
 11
307.948829698303
 21
522.82888985166
 31
0.0
  0
ELLIPSE
  5
5A
100
AcDbEntity
  8
0
370
          15
  6
Continuous
 62
           7
100
AcDbEllipse
 10
-297.822595151232
 20
128.531023256705
 30
0.0
 11
2.4778899060971753
 21
2.4778899060969763
 31
0.0
210
0.0
220
0.0
230
1.0
 40
0.998782765959
 41
2.3568034777780098
 42
3.9263818294016564
  0
LINE
  5
5B
100
AcDbEntity
  8
0
370
          15
  6
Continuous
 62
           7
100
AcDbLine
 10
-301.324728556279
 20
128.526757746226
 30
0.0
 11
-300.395062654268
 21
129.456423648237
 31
0.0
  0
LINE
  5
5C
100
AcDbEntity
  8
0
370
          15
  6
Continuous
 62
           7
100
AcDbLine
 10
-296.897194759702
 20
125.95855575367
 30
0.0
 11
-297.826860661712
 21
125.02888985166
 31
0.0
  0
ELLIPSE
  5
5D
100
AcDbEntity
  8
0
370
          15
  6
Continuous
 62
           7
100
AcDbEllipse
 10
308.573138038675
 20
128.531023256706
 30
0.0
 11
2.4778899060973458
 21
-2.4778899060969906
 31
0.0
210
0.0
220
0.0
230
1.0
 40
0.998782765959
 41
5.4983961313678016
 42
7.0679744829912972
  0
LINE
  5
5E
100
AcDbEntity
  8
0
370
          15
  6
Continuous
 62
           7
100
AcDbLine
 10
308.577403549155
 20
125.02888985166
 30
0.0
 11
307.647737647144
 21
125.95855575367
 31
0.0
  0
LINE
  5
5F
100
AcDbEntity
  8
0
370
          15
  6
Continuous
 62
           7
100
AcDbLine
 10
311.145605541711
 20
129.456423648237
 30
0.0
 11
312.075271443722
 21
128.526757746226
 31
0.0
  0
LINE
  5
60
100
AcDbEntity
  8
0
370
          15
  6
Continuous
 62
           7
100
AcDbLine
 10
-301.324728556279
 20
534.931021957093
 30
0.0
 11
-301.324728556279
 21
128.526757746226
 31
0.0
  0
LINE
  5
61
100
AcDbEntity
  8
0
370
          15
  6
Continuous
 62
           7
100
AcDbLine
 10
-300.814111888169
 20
534.420405288984
 30
0.0
 11
-301.324728556279
 21
534.931021957093
 31
0.0
  0
LINE
  5
62
100
AcDbEntity
  8
0
370
          15
  6
Continuous
 62
           7
100
AcDbLine
 10
-300.814111888169
 20
519.448979139835
 30
0.0
 11
-300.814111888169
 21
534.420405288984
 31
0.0
  0
LINE
  5
63
100
AcDbEntity
  8
0
370
          15
  6
Continuous
 62
           7
100
AcDbLine
 10
312.075271443722
 20
128.526757746226
 30
0.0
 11
312.075271443722
 21
534.931021957093
 31
0.0
  0
LINE
  5
64
100
AcDbEntity
  8
0
370
          15
  6
Continuous
 62
           7
100
AcDbLine
 10
311.564654775612
 20
534.420405288984
 30
0.0
 11
311.564654775612
 21
519.448979139835
 31
0.0
  0
LINE
  5
65
100
AcDbEntity
  8
0
370
          15
  6
Continuous
 62
           7
100
AcDbLine
 10
312.075271443722
 20
534.931021957093
 30
0.0
 11
311.564654775612
 21
534.420405288984
 31
0.0
  0
LINE
  5
66
100
AcDbEntity
  8
0
370
          15
  6
Continuous
 62
           7
100
AcDbLine
 10
-232.249728556279
 20
522.82888985166
 30
0.0
 11
-297.19828681086
 21
522.82888985166
 31
0.0
  0
LINE
  5
67
100
AcDbEntity
  8
0
370
          15
  6
Continuous
 62
           7
100
AcDbLine
 10
-181.999728556279
 20
523.457463702511
 30
0.0
 11
-232.249728556279
 21
523.457463702511
 31
0.0
  0
LINE
  5
68
100
AcDbEntity
  8
0
370
          15
  6
Continuous
 62
           7
100
AcDbLine
 10
192.750271443721
 20
522.82888985166
 30
0.0
 11
-181.999728556279
 21
522.82888985166
 31
0.0
  0
LINE
  5
69
100
AcDbEntity
  8
0
370
          15
  6
Continuous
 62
           7
100
AcDbLine
 10
192.750271443696
 20
523.457463702511
 30
0.0
 11
243.000271443721
 21
523.457463702511
 31
0.0
  0
LINE
  5
6A
100
AcDbEntity
  8
0
370
          15
  6
Continuous
 62
           7
100
AcDbLine
 10
307.948829698303
 20
522.82888985166
 30
0.0
 11
243.000271443721
 21
522.82888985166
 31
0.0
  0
LINE
  5
6B
100
AcDbEntity
  8
0
370
          15
  6
Continuous
 62
           7
100
AcDbLine
 10
-297.826860661712
 20
125.02888985166
 30
0.0
 11
308.577403549155
 21
125.02888985166
 31
0.0
  0
LINE
  5
6C
100
AcDbEntity
  8
0
370
          15
  6
Continuous
 62
           7
100
AcDbLine
 10
-232.249728556279
 20
534.420405288984
 30
0.0
 11
-297.316243993602
 21
534.420405288984
 31
0.0
  0
LINE
  5
6D
100
AcDbEntity
  8
0
370
          15
  6
Continuous
 62
           7
100
AcDbLine
 10
-297.316243993602
 20
534.420405288984
 30
0.0
 11
-297.316243993602
 21
537.91827318355
 31
0.0
  0
LINE
  5
6E
100
AcDbEntity
  8
0
370
          15
  6
Continuous
 62
           7
100
AcDbLine
 10
-297.316243993602
 20
537.91827318355
 30
0.0
 11
-232.249728556279
 21
537.91827318355
 31
0.0
  0
LINE
  5
6F
100
AcDbEntity
  8
0
370
          15
  6
Continuous
 62
           7
100
AcDbLine
 10
-232.249728556279
 20
537.91827318355
 30
0.0
 11
-232.249728556279
 21
534.420405288984
 31
0.0
  0
LINE
  5
70
100
AcDbEntity
  8
0
370
          15
  6
Continuous
 62
           7
100
AcDbLine
 10
308.066786881046
 20
534.420405288984
 30
0.0
 11
243.000271443721
 21
534.420405288984
 31
0.0
  0
LINE
  5
71
100
AcDbEntity
  8
0
370
          15
  6
Continuous
 62
           7
100
AcDbLine
 10
243.000271443721
 20
537.91827318355
 30
0.0
 11
308.066786881046
 21
537.91827318355
 31
0.0
  0
LINE
  5
72
100
AcDbEntity
  8
0
370
          15
  6
Continuous
 62
           7
100
AcDbLine
 10
308.066786881046
 20
537.91827318355
 30
0.0
 11
308.066786881046
 21
534.420405288984
 31
0.0
  0
LINE
  5
73
100
AcDbEntity
  8
0
370
          15
  6
Continuous
 62
           7
100
AcDbLine
 10
243.000271443721
 20
534.420405288984
 30
0.0
 11
243.000271443721
 21
537.91827318355
 31
0.0
  0
LINE
  5
74
100
AcDbEntity
  8
0
370
          15
  6
Continuous
 62
           7
100
AcDbLine
 10
311.564654775612
 20
534.420405288984
 30
0.0
 11
308.066786881046
 21
534.420405288984
 31
0.0
  0
ARC
  5
75
100
AcDbEntity
  8
0
370
          15
  6
Continuous
 62
           7
100
AcDbCircle
 10
308.061498663584
 20
534.415117071588
 30
0.0
 40
3.503160103461
100
AcDbArc
 50
0.08649123764
 51
89.913508761285
  0
LINE
  5
76
100
AcDbEntity
  8
0
370
          15
  6
Continuous
 62
           7
100
AcDbLine
 10
192.750271443721
 20
534.420405288984
 30
0.0
 11
-181.999728556279
 21
534.420405288984
 31
0.0
  0
LINE
  5
77
100
AcDbEntity
  8
0
370
          15
  6
Continuous
 62
           7
100
AcDbLine
 10
-181.999728556279
 20
537.91827318355
 30
0.0
 11
192.750271443721
 21
537.91827318355
 31
0.0
  0
LINE
  5
78
100
AcDbEntity
  8
0
370
          15
  6
Continuous
 62
           7
100
AcDbLine
 10
-181.999728556279
 20
534.420405288984
 30
0.0
 11
-181.999728556279
 21
537.91827318355
 31
0.0
  0
LINE
  5
79
100
AcDbEntity
  8
0
370
          15
  6
Continuous
 62
           7
100
AcDbLine
 10
192.750271443721
 20
537.91827318355
 30
0.0
 11
192.750271443721
 21
534.420405288984
 31
0.0
  0
LINE
  5
7A
100
AcDbEntity
  8
0
370
          15
  6
Continuous
 62
           7
100
AcDbLine
 10
-297.316243993602
 20
534.420405288984
 30
0.0
 11
-300.814111888169
 21
534.420405288984
 31
0.0
  0
ARC
  5
7B
100
AcDbEntity
  8
0
370
          15
  6
Continuous
 62
           7
100
AcDbCircle
 10
-297.310955776248
 20
534.415117071619
 30
0.0
 40
3.503160103364
100
AcDbArc
 50
90.086491236961
 51
179.913508652178
  0
LINE
  5
7C
100
AcDbEntity
  8
0
370
          15
  6
Continuous
 62
           7
100
AcDbLine
 10
-297.316243993602
 20
534.420405288984
 30
0.0
 11
-297.316243993602
 21
522.826902714722
 31
0.0
  0
LINE
  5
7D
100
AcDbEntity
  8
0
370
          15
  6
Continuous
 62
           7
100
AcDbLine
 10
308.066786881046
 20
522.826902714722
 30
0.0
 11
308.066786881046
 21
534.420405288984
 31
0.0
  0
LINE
  5
7E
100
AcDbEntity
  8
0
370
          15
  6
Continuous
 62
           7
100
AcDbLine
 10
-181.999728556279
 20
534.420405288984
 30
0.0
 11
-181.999728556279
 21
522.82888985166
 31
0.0
  0
LINE
  5
7F
100
AcDbEntity
  8
0
370
          15
  6
Continuous
 62
           7
100
AcDbLine
 10
192.750271443721
 20
534.420405288984
 30
0.0
 11
192.750271443721
 21
522.82888985166
 31
0.0
  0
LINE
  5
80
100
AcDbEntity
  8
0
370
          15
  6
Continuous
 62
           7
100
AcDbLine
 10
-232.249728556279
 20
534.420405288984
 30
0.0
 11
-232.249728556279
 21
522.82888985166
 31
0.0
  0
LINE
  5
81
100
AcDbEntity
  8
0
370
          15
  6
Continuous
 62
           7
100
AcDbLine
 10
243.000271443721
 20
534.420405288984
 30
0.0
 11
243.000271443721
 21
522.82888985166
 31
0.0
  0
ELLIPSE
  5
82
100
AcDbEntity
  8
0
370
          15
  6
Continuous
 62
           7
100
AcDbEllipse
 10
308.573138038675
 20
534.926756446614
 30
0.0
 11
2.4778899060973458
 21
2.4778899060969479
 31
0.0
210
0.0
220
0.0
230
1.0
 40
0.998782765959
 41
5.4983961313680449
 42
7.0679744829913282
  0
LINE
  5
83
100
AcDbEntity
  8
0
370
          15
  6
Continuous
 62
           7
100
AcDbLine
 10
308.066786881046
 20
537.91827318355
 30
0.0
 11
308.577403549155
 21
538.42888985166
 31
0.0
  0
ELLIPSE
  5
84
100
AcDbEntity
  8
0
370
          15
  6
Continuous
 62
           7
100
AcDbEllipse
 10
-297.822595151232
 20
534.926756446614
 30
0.0
 11
2.4778899060971753
 21
-2.4778899060970616
 31
0.0
210
0.0
220
0.0
230
1.0
 40
0.998782765959
 41
2.3568034777779583
 42
3.9263818294016253
  0
LINE
  5
85
100
AcDbEntity
  8
0
370
          15
  6
Continuous
 62
           7
100
AcDbLine
 10
-297.826860661712
 20
538.42888985166
 30
0.0
 11
-297.316243993602
 21
537.91827318355
 31
0.0
  0
LINE
  5
86
100
AcDbEntity
  8
0
370
          15
  6
Continuous
 62
           7
100
AcDbLine
 10
308.577403549155
 20
538.42888985166
 30
0.0
 11
243.000271443721
 21
538.42888985166
 31
0.0
  0
LINE
  5
87
100
AcDbEntity
  8
0
370
          15
  6
Continuous
 62
           7
100
AcDbLine
 10
243.000271443721
 20
538.42888985166
 30
0.0
 11
243.000271443721
 21
537.91827318355
 31
0.0
  0
LINE
  5
88
100
AcDbEntity
  8
0
370
          15
  6
Continuous
 62
           7
100
AcDbLine
 10
192.750271443721
 20
538.42888985166
 30
0.0
 11
-181.999728556279
 21
538.42888985166
 31
0.0
  0
LINE
  5
89
100
AcDbEntity
  8
0
370
          15
  6
Continuous
 62
           7
100
AcDbLine
 10
-181.999728556279
 20
538.42888985166
 30
0.0
 11
-181.999728556279
 21
537.91827318355
 31
0.0
  0
LINE
  5
8A
100
AcDbEntity
  8
0
370
          15
  6
Continuous
 62
           7
100
AcDbLine
 10
192.750271443721
 20
538.42888985166
 30
0.0
 11
192.750271443721
 21
537.91827318355
 31
0.0
  0
LINE
  5
8B
100
AcDbEntity
  8
0
370
          15
  6
Continuous
 62
           7
100
AcDbLine
 10
-232.249728556279
 20
538.42888985166
 30
0.0
 11
-297.826860661712
 21
538.42888985166
 31
0.0
  0
LINE
  5
8C
100
AcDbEntity
  8
0
370
          15
  6
Continuous
 62
           7
100
AcDbLine
 10
-232.249728556279
 20
538.42888985166
 30
0.0
 11
-232.249728556279
 21
537.91827318355
 31
0.0
  0
LINE
  5
8D
100
AcDbEntity
  8
0
370
          15
  6
Continuous
 62
           7
100
AcDbLine
 10
-471.973486102514
 20
128.526757746226
 30
0.0
 11
-471.973486102515
 21
534.931021957093
 31
0.0
  0
LINE
  5
8E
100
AcDbEntity
  8
0
370
          15
  6
Continuous
 62
           7
100
AcDbLine
 10
-498.595634340973
 20
129.456423648237
 30
0.0
 11
-471.973486102514
 21
128.526757746226
 31
0.0
  0
LINE
  5
8F
100
AcDbEntity
  8
0
370
          15
  6
Continuous
 62
           7
100
AcDbLine
 10
-498.595634340974
 20
519.029929905934
 30
0.0
 11
-498.595634340973
 21
129.456423648237
 31
0.0
  0
LINE
  5
90
100
AcDbEntity
  8
0
370
          15
  6
Continuous
 62
           7
100
AcDbLine
 10
-486.595634340974
 20
519.448979139835
 30
0.0
 11
-498.595634340974
 21
519.029929905934
 31
0.0
  0
LINE
  5
91
100
AcDbEntity
  8
0
370
          15
  6
Continuous
 62
           7
100
AcDbLine
 10
-486.595634340974
 20
534.420405288984
 30
0.0
 11
-486.595634340974
 21
519.448979139835
 31
0.0
  0
LINE
  5
92
100
AcDbEntity
  8
0
370
          15
  6
Continuous
 62
           7
100
AcDbLine
 10
-471.973486102515
 20
534.931021957093
 30
0.0
 11
-486.595634340974
 21
534.420405288984
 31
0.0
  0
LINE
  5
93
100
AcDbEntity
  8
0
370
          15
  6
Continuous
 62
           7
100
AcDbLine
 10
-471.973486102515
 20
538.42888985166
 30
0.0
 11
-471.973486102515
 21
534.931021957093
 31
0.0
  0
ARC
  5
94
100
AcDbEntity
  8
0
370
          15
  6
Continuous
 62
           7
100
AcDbCircle
 10
-458.057424246945
 20
536.410314998368
 30
0.0
 40
28.607502093375
100
AcDbArc
 50
176.011341016154
 51
183.988658983847
  0
LINE
  5
95
100
AcDbEntity
  8
0
370
          15
  6
Continuous
 62
           7
100
AcDbLine
 10
-486.595634340974
 20
537.91827318355
 30
0.0
 11
-471.973486102515
 21
538.42888985166
 31
0.0
  0
LINE
  5
96
100
AcDbEntity
  8
0
370
          15
  6
Continuous
 62
           7
100
AcDbLine
 10
-471.973486102514
 20
128.526757746226
 30
0.0
 11
-471.973486102514
 21
125.02888985166
 31
0.0
  0
LINE
  5
97
100
AcDbEntity
  8
0
370
          15
  6
Continuous
 62
           7
100
AcDbLine
 10
-471.973486102514
 20
125.02888985166
 30
0.0
 11
-498.595634340973
 21
125.95855575367
 31
0.0
  0
ARC
  5
98
100
AcDbEntity
  8
0
370
          15
  6
Continuous
 62
           7
100
AcDbCircle
 10
-470.05742424646
 20
127.466513938842
 30
0.0
 40
28.607502093858
100
AcDbArc
 50
176.011341016201
 51
183.9886589838
  0
LINE
  5
99
100
AcDbEntity
  8
0
370
          15
  6
Continuous
 62
           7
100
AcDbLine
 10
-489.973486102515
 20
522.826902714722
 30
0.0
 11
-489.973486102515
 21
534.420405288984
 31
0.0
  0
LINE
  5
9A
100
AcDbEntity
  8
0
370
          15
  6
Continuous
 62
           7
100
AcDbLine
 10
-486.595634340974
 20
534.420405288984
 30
0.0
 11
-489.973486102515
 21
534.420405288984
 31
0.0
  0
ELLIPSE
  5
9B
100
AcDbEntity
  8
0
370
          15
  6
Continuous
 62
           7
100
AcDbEllipse
 10
-486.473486102515
 20
519.448979139835
 30
0.0
 11
3.4995034831748058
 21
-3.3794312311001704
 31
0.0
210
0.0
220
0.0
230
1.0
 40
0.017444438246
 41
3.1584369585288101
 42
4.6943267002791185
  0
ARC
  5
9C
100
AcDbEntity
  8
0
370
          15
  6
Continuous
 62
           7
100
AcDbCircle
 10
-486.473486102515
 20
534.420405288984
 30
0.0
 40
3.5
100
AcDbArc
 50
91.999999999998
 51
180.0
  0
ARC
  5
9D
100
AcDbEntity
  8
0
370
          15
  6
Continuous
 62
           7
100
AcDbCircle
 10
-470.057424245573
 20
521.019839615318
 30
0.0
 40
28.607502094744
100
AcDbArc
 50
176.011341016346
 51
183.988658983655
  0
LINE
  5
9E
100
AcDbEntity
  8
0
370
          15
  6
Continuous
 62
           7
100
AcDbLine
 10
-498.595634340974
 20
522.527797800501
 30
0.0
 11
-489.973486102515
 21
522.82888985166
 31
0.0
  0
LINE
  5
9F
100
AcDbEntity
  8
0
370
          15
  6
Continuous
 62
           7
100
AcDbLine
 10
-498.595634340973
 20
129.456423648237
 30
0.0
 11
-501.973486102514
 21
129.456423648237
 31
0.0
  0
ARC
  5
A0
100
AcDbEntity
  8
0
370
          15
  6
Continuous
 62
           7
100
AcDbCircle
 10
-498.473486102514
 20
129.456423648237
 30
0.0
 40
3.5
100
AcDbArc
 50
180.0
 51
268.0
  0
LINE
  5
A1
100
AcDbEntity
  8
0
370
          15
  6
Continuous
 62
           7
100
AcDbLine
 10
-501.973486102514
 20
129.456423648237
 30
0.0
 11
-501.973486102515
 21
519.029929905934
 31
0.0
  0
LINE
  5
A2
100
AcDbEntity
  8
0
370
          15
  6
Continuous
 62
           7
100
AcDbLine
 10
-498.595634340974
 20
519.029929905934
 30
0.0
 11
-501.973486102515
 21
519.029929905934
 31
0.0
  0
ARC
  5
A3
100
AcDbEntity
  8
0
370
          15
  6
Continuous
 62
           7
100
AcDbCircle
 10
-498.473486102515
 20
519.029929905934
 30
0.0
 40
3.5
100
AcDbArc
 50
92.0
 51
179.999999999999
  0
LINE
  5
A4
100
AcDbEntity
  8
0
370
          15
  6
Continuous
 62
           7
100
AcDbLine
 10
496.871981433816
 20
534.931021957093
 30
0.0
 11
496.871981433816
 21
538.42888985166
 31
0.0
  0
LINE
  5
A5
100
AcDbEntity
  8
0
370
          15
  6
Continuous
 62
           7
100
AcDbLine
 10
496.871981433816
 20
538.42888985166
 30
0.0
 11
511.494129672274
 21
537.91827318355
 31
0.0
  0
ARC
  5
A6
100
AcDbEntity
  8
0
370
          15
  6
Continuous
 62
           7
100
AcDbCircle
 10
482.955919581162
 20
536.410314998364
 30
0.0
 40
28.607502090465
100
AcDbArc
 50
356.011341015757
 51
3.988658984244
  0
LINE
  5
A7
100
AcDbEntity
  8
0
370
          15
  6
Continuous
 62
           7
100
AcDbLine
 10
511.494129672274
 20
534.420405288984
 30
0.0
 11
496.871981433816
 21
534.931021957093
 31
0.0
  0
LINE
  5
A8
100
AcDbEntity
  8
0
370
          15
  6
Continuous
 62
           7
100
AcDbLine
 10
496.871981433814
 20
128.526757746226
 30
0.0
 11
523.494129672273
 21
129.456423648237
 31
0.0
  0
ARC
  5
A9
100
AcDbEntity
  8
0
370
          15
  6
Continuous
 62
           7
100
AcDbCircle
 10
494.955919578558
 20
127.466513938864
 30
0.0
 40
28.607502093061
100
AcDbArc
 50
356.011341016126
 51
3.988658983867
  0
LINE
  5
AA
100
AcDbEntity
  8
0
370
          15
  6
Continuous
 62
           7
100
AcDbLine
 10
523.494129672273
 20
125.95855575367
 30
0.0
 11
496.871981433814
 21
125.02888985166
 31
0.0
  0
LINE
  5
AB
100
AcDbEntity
  8
0
370
          15
  6
Continuous
 62
           7
100
AcDbLine
 10
496.871981433814
 20
125.028889851659
 30
0.0
 11
496.871981433814
 21
128.526757746226
 31
0.0
  0
LINE
  5
AC
100
AcDbEntity
  8
0
370
          15
  6
Continuous
 62
           7
100
AcDbLine
 10
523.494129672273
 20
129.456423648237
 30
0.0
 11
523.494129672274
 21
519.029929905934
 31
0.0
  0
LINE
  5
AD
100
AcDbEntity
  8
0
370
          15
  6
Continuous
 62
           7
100
AcDbLine
 10
511.494129672274
 20
519.448979139835
 30
0.0
 11
511.494129672274
 21
534.420405288984
 31
0.0
  0
LINE
  5
AE
100
AcDbEntity
  8
0
370
          15
  6
Continuous
 62
           7
100
AcDbLine
 10
523.494129672274
 20
519.029929905934
 30
0.0
 11
511.494129672274
 21
519.448979139835
 31
0.0
  0
LINE
  5
AF
100
AcDbEntity
  8
0
370
          15
  6
Continuous
 62
           7
100
AcDbLine
 10
496.871981433816
 20
534.931021957093
 30
0.0
 11
496.871981433814
 21
128.526757746226
 31
0.0
  0
ELLIPSE
  5
B0
100
AcDbEntity
  8
0
370
          15
  6
Continuous
 62
           7
100
AcDbEllipse
 10
511.371981433816
 20
519.448979139835
 30
0.0
 11
3.4995034831746921
 21
3.379431231099943
 31
0.0
210
0.0
220
0.0
230
1.0
 40
0.017444438246
 41
4.730451260490284
 42
6.2663410022447676
  0
LINE
  5
B1
100
AcDbEntity
  8
0
370
          15
  6
Continuous
 62
           7
100
AcDbLine
 10
514.871981433816
 20
522.82888985166
 30
0.0
 11
523.494129672274
 21
522.527797800501
 31
0.0
  0
ARC
  5
B2
100
AcDbEntity
  8
0
370
          15
  6
Continuous
 62
           7
100
AcDbCircle
 10
494.955919578301
 20
521.019839615333
 30
0.0
 40
28.60750209332
100
AcDbArc
 50
356.011341016118
 51
3.988658983883
  0
LINE
  5
B3
100
AcDbEntity
  8
0
370
          15
  6
Continuous
 62
           7
100
AcDbLine
 10
514.871981433816
 20
534.420405288984
 30
0.0
 11
514.871981433816
 21
522.826902714722
 31
0.0
  0
LINE
  5
B4
100
AcDbEntity
  8
0
370
          15
  6
Continuous
 62
           7
100
AcDbLine
 10
514.871981433816
 20
534.420405288984
 30
0.0
 11
511.494129672274
 21
534.420405288984
 31
0.0
  0
ARC
  5
B5
100
AcDbEntity
  8
0
370
          15
  6
Continuous
 62
           7
100
AcDbCircle
 10
511.371981433816
 20
534.420405288984
 30
0.0
 40
3.5
100
AcDbArc
 50
0.0
 51
87.999999999999
  0
LINE
  5
B6
100
AcDbEntity
  8
0
370
          15
  6
Continuous
 62
           7
100
AcDbLine
 10
526.871981433815
 20
519.029929905934
 30
0.0
 11
526.871981433814
 21
129.456423648237
 31
0.0
  0
LINE
  5
B7
100
AcDbEntity
  8
0
370
          15
  6
Continuous
 62
           7
100
AcDbLine
 10
526.871981433814
 20
129.456423648237
 30
0.0
 11
523.494129672273
 21
129.456423648237
 31
0.0
  0
LINE
  5
B8
100
AcDbEntity
  8
0
370
          15
  6
Continuous
 62
           7
100
AcDbLine
 10
526.871981433815
 20
519.029929905934
 30
0.0
 11
523.494129672274
 21
519.029929905934
 31
0.0
  0
ARC
  5
B9
100
AcDbEntity
  8
0
370
          15
  6
Continuous
 62
           7
100
AcDbCircle
 10
523.371981433816
 20
519.029929905934
 30
0.0
 40
3.5
100
AcDbArc
 50
0.0
 51
88.000000000004
  0
ARC
  5
BA
100
AcDbEntity
  8
0
370
          15
  6
Continuous
 62
           7
100
AcDbCircle
 10
523.371981433814
 20
129.456423648237
 30
0.0
 40
3.5
100
AcDbArc
 50
271.999999999996
 51
359.999999999999
  0
LINE
  5
BB
100
AcDbEntity
  8
0
370
          15
  6
Continuous
 62
           7
100
AcDbLine
 10
-232.249728556279
 20
-94.687238896691
 30
0.0
 11
-297.826860661712
 21
-94.687238896691
 31
0.0
  0
LINE
  5
BC
100
AcDbEntity
  8
0
370
          15
  6
Continuous
 62
           7
100
AcDbLine
 10
-232.249728556279
 20
-94.687238896691
 30
0.0
 11
-232.249728556279
 21
-109.309387135149
 31
0.0
  0
LINE
  5
BD
100
AcDbEntity
  8
0
370
          15
  6
Continuous
 62
           7
100
AcDbLine
 10
-297.316243993602
 20
-109.309387135149
 30
0.0
 11
-232.249728556279
 21
-109.309387135149
 31
0.0
  0
LINE
  5
BE
100
AcDbEntity
  8
0
370
          15
  6
Continuous
 62
           7
100
AcDbLine
 10
-297.826860661712
 20
-94.687238896691
 30
0.0
 11
-297.316243993602
 21
-109.309387135149
 31
0.0
  0
LINE
  5
BF
100
AcDbEntity
  8
0
370
          15
  6
Continuous
 62
           7
100
AcDbLine
 10
308.577403549155
 20
-94.687238896691
 30
0.0
 11
243.000271443721
 21
-94.687238896691
 31
0.0
  0
LINE
  5
C0
100
AcDbEntity
  8
0
370
          15
  6
Continuous
 62
           7
100
AcDbLine
 10
308.066786881046
 20
-109.309387135149
 30
0.0
 11
308.577403549155
 21
-94.687238896691
 31
0.0
  0
LINE
  5
C1
100
AcDbEntity
  8
0
370
          15
  6
Continuous
 62
           7
100
AcDbLine
 10
243.000271443721
 20
-109.309387135149
 30
0.0
 11
308.066786881046
 21
-109.309387135149
 31
0.0
  0
LINE
  5
C2
100
AcDbEntity
  8
0
370
          15
  6
Continuous
 62
           7
100
AcDbLine
 10
243.000271443721
 20
-94.687238896691
 30
0.0
 11
243.000271443721
 21
-109.309387135149
 31
0.0
  0
LINE
  5
C3
100
AcDbEntity
  8
0
370
          15
  6
Continuous
 62
           7
100
AcDbLine
 10
312.075271443722
 20
-94.687238896691
 30
0.0
 11
311.564654775612
 21
-109.309387135149
 31
0.0
  0
ARC
  5
C4
100
AcDbEntity
  8
0
370
          15
  6
Continuous
 62
           7
100
AcDbCircle
 10
310.056696590434
 20
-80.771177040741
 30
0.0
 40
28.607502093753
100
AcDbArc
 50
266.011341016198
 51
273.021574568793
  0
LINE
  5
C5
100
AcDbEntity
  8
0
370
          15
  6
Continuous
 62
           7
100
AcDbLine
 10
308.577403549155
 20
-94.687238896691
 30
0.0
 11
312.075271443722
 21
-94.687238896691
 31
0.0
  0
ARC
  5
C6
100
AcDbEntity
  8
0
370
          15
  6
Continuous
 62
           7
100
AcDbCircle
 10
-299.30615370299
 20
-80.771177040142
 30
0.0
 40
28.607502094351
100
AcDbArc
 50
266.97842543127
 51
273.988658983718
  0
LINE
  5
C7
100
AcDbEntity
  8
0
370
          15
  6
Continuous
 62
           7
100
AcDbLine
 10
-300.814111888169
 20
-109.309387135149
 30
0.0
 11
-301.324728556279
 21
-94.687238896691
 31
0.0
  0
LINE
  5
C8
100
AcDbEntity
  8
0
370
          15
  6
Continuous
 62
           7
100
AcDbLine
 10
-301.324728556278
 20
-94.687238896691
 30
0.0
 11
-297.826860661712
 21
-94.687238896691
 31
0.0
  0
LINE
  5
C9
100
AcDbEntity
  8
0
370
          15
  6
Continuous
 62
           7
100
AcDbLine
 10
-181.999728556279
 20
-109.309387135149
 30
0.0
 11
192.750271443721
 21
-109.309387135149
 31
0.0
  0
LINE
  5
CA
100
AcDbEntity
  8
0
370
          15
  6
Continuous
 62
           7
100
AcDbLine
 10
192.750271443721
 20
-94.687238896691
 30
0.0
 11
192.750271443721
 21
-109.309387135149
 31
0.0
  0
LINE
  5
CB
100
AcDbEntity
  8
0
370
          15
  6
Continuous
 62
           7
100
AcDbLine
 10
192.750271443721
 20
-94.687238896691
 30
0.0
 11
-181.999728556279
 21
-94.687238896691
 31
0.0
  0
LINE
  5
CC
100
AcDbEntity
  8
0
370
          15
  6
Continuous
 62
           7
100
AcDbLine
 10
-181.999728556279
 20
-94.687238896691
 30
0.0
 11
-181.999728556279
 21
-109.309387135149
 31
0.0
  0
ARC
  5
CD
100
AcDbEntity
  8
0
370
          15
  6
Continuous
 62
           7
100
AcDbCircle
 10
308.066786881046
 20
-109.187238896691
 30
0.0
 40
3.5
100
AcDbArc
 50
270.0
 51
357.999999999775
  0
LINE
  5
CE
100
AcDbEntity
  8
0
370
          15
  6
Continuous
 62
           7
100
AcDbLine
 10
308.066786881046
 20
-109.309387135149
 30
0.0
 11
308.066786881046
 21
-112.687238896691
 31
0.0
  0
ARC
  5
CF
100
AcDbEntity
  8
0
370
          15
  6
Continuous
 62
           7
100
AcDbCircle
 10
-297.316243993602
 20
-109.187238896691
 30
0.0
 40
3.5
100
AcDbArc
 50
182.000000000026
 51
270.000000000001
  0
LINE
  5
D0
100
AcDbEntity
  8
0
370
          15
  6
Continuous
 62
           7
100
AcDbLine
 10
-297.316243993602
 20
-112.687238896691
 30
0.0
 11
-297.316243993602
 21
-109.309387135149
 31
0.0
  0
LINE
  5
D1
100
AcDbEntity
  8
0
370
          15
  6
Continuous
 62
           7
100
AcDbLine
 10
192.750271443721
 20
-112.687238896691
 30
0.0
 11
-181.999728556279
 21
-112.687238896691
 31
0.0
  0
LINE
  5
D2
100
AcDbEntity
  8
0
370
          15
  6
Continuous
 62
           7
100
AcDbLine
 10
192.750271443721
 20
-109.309387135149
 30
0.0
 11
192.750271443721
 21
-112.687238896691
 31
0.0
  0
LINE
  5
D3
100
AcDbEntity
  8
0
370
          15
  6
Continuous
 62
           7
100
AcDbLine
 10
-181.999728556279
 20
-112.687238896691
 30
0.0
 11
-181.999728556279
 21
-109.309387135149
 31
0.0
  0
LINE
  5
D4
100
AcDbEntity
  8
0
370
          15
  6
Continuous
 62
           7
100
AcDbLine
 10
308.066786881046
 20
-112.687238896691
 30
0.0
 11
243.000271443721
 21
-112.687238896691
 31
0.0
  0
LINE
  5
D5
100
AcDbEntity
  8
0
370
          15
  6
Continuous
 62
           7
100
AcDbLine
 10
243.000271443721
 20
-112.687238896691
 30
0.0
 11
243.000271443721
 21
-109.309387135149
 31
0.0
  0
LINE
  5
D6
100
AcDbEntity
  8
0
370
          15
  6
Continuous
 62
           7
100
AcDbLine
 10
-232.249728556279
 20
-112.687238896691
 30
0.0
 11
-297.316243993602
 21
-112.687238896691
 31
0.0
  0
LINE
  5
D7
100
AcDbEntity
  8
0
370
          15
  6
Continuous
 62
           7
100
AcDbLine
 10
-232.249728556279
 20
-109.309387135149
 30
0.0
 11
-232.249728556279
 21
-112.687238896691
 31
0.0
  0
LINE
  5
D8
100
AcDbEntity
  8
0
370
          15
  6
Continuous
 62
           7
100
AcDbLine
 10
307.647737647144
 20
-121.309387135149
 30
0.0
 11
307.948829698303
 21
-112.68723889669
 31
0.0
  0
LINE
  5
D9
100
AcDbEntity
  8
0
370
          15
  6
Continuous
 62
           7
100
AcDbLine
 10
-296.897194759702
 20
-121.309387135149
 30
0.0
 11
307.647737647144
 21
-121.309387135149
 31
0.0
  0
LINE
  5
DA
100
AcDbEntity
  8
0
370
          15
  6
Continuous
 62
           7
100
AcDbLine
 10
-297.19828681086
 20
-112.68723889669
 30
0.0
 11
-296.897194759702
 21
-121.309387135149
 31
0.0
  0
LINE
  5
DB
100
AcDbEntity
  8
0
370
          15
  6
Continuous
 62
           7
100
AcDbLine
 10
192.750271443696
 20
-94.68723889669
 30
0.0
 11
243.000271443721
 21
-94.68723889669
 31
0.0
  0
LINE
  5
DC
100
AcDbEntity
  8
0
370
          15
  6
Continuous
 62
           7
100
AcDbLine
 10
-181.999728556279
 20
-94.68723889669
 30
0.0
 11
-232.249728556279
 21
-94.68723889669
 31
0.0
  0
ARC
  5
DD
100
AcDbEntity
  8
0
370
          15
  6
Continuous
 62
           7
100
AcDbCircle
 10
-298.887104469077
 20
-92.771177038812
 30
0.0
 40
28.607502095677
100
AcDbArc
 50
266.978425431386
 51
273.988658983508
  0
LINE
  5
DE
100
AcDbEntity
  8
0
370
          15
  6
Continuous
 62
           7
100
AcDbLine
 10
-300.395062654268
 20
-121.309387135149
 30
0.0
 11
-300.814111888169
 21
-109.309387135149
 31
0.0
  0
ARC
  5
DF
100
AcDbEntity
  8
0
370
          15
  6
Continuous
 62
           7
100
AcDbCircle
 10
309.63764735652
 20
-92.771177037013
 30
0.0
 40
28.607502097471
100
AcDbArc
 50
266.011341016744
 51
273.021574568426
  0
LINE
  5
E0
100
AcDbEntity
  8
0
370
          15
  6
Continuous
 62
           7
100
AcDbLine
 10
311.564654775612
 20
-109.309387135149
 30
0.0
 11
311.145605541711
 21
-121.309387135149
 31
0.0
  0
ARC
  5
E1
100
AcDbEntity
  8
0
370
          15
  6
Continuous
 62
           7
100
AcDbCircle
 10
307.647737647144
 20
-121.18723889669
 30
0.0
 40
3.5
100
AcDbArc
 50
270.000000000005
 51
358.0
  0
LINE
  5
E2
100
AcDbEntity
  8
0
370
          15
  6
Continuous
 62
           7
100
AcDbLine
 10
307.647737647144
 20
-121.309387135149
 30
0.0
 11
307.647737647144
 21
-124.68723889669
 31
0.0
  0
LINE
  5
E3
100
AcDbEntity
  8
0
370
          15
  6
Continuous
 62
           7
100
AcDbLine
 10
307.647737647144
 20
-124.68723889669
 30
0.0
 11
-296.897194759702
 21
-124.68723889669
 31
0.0
  0
LINE
  5
E4
100
AcDbEntity
  8
0
370
          15
  6
Continuous
 62
           7
100
AcDbLine
 10
-296.897194759702
 20
-121.309387135149
 30
0.0
 11
-296.897194759702
 21
-124.68723889669
 31
0.0
  0
ARC
  5
E5
100
AcDbEntity
  8
0
370
          15
  6
Continuous
 62
           7
100
AcDbCircle
 10
-296.897194759702
 20
-121.18723889669
 30
0.0
 40
3.5
100
AcDbArc
 50
182.000000000176
 51
270.000000000001
  0
LINE
  5
E6
100
AcDbEntity
  8
0
370
          15
  6
Continuous
 62
           7
100
AcDbLine
 10
-1248.73855893264
 20
128.357463702511
 30
0.0
 11
-1249.367132783491
 21
127.72888985166
 31
0.0
  0
LINE
  5
E7
100
AcDbEntity
  8
0
370
          15
  6
Continuous
 62
           7
100
AcDbLine
 10
-641.995706634342
 20
128.357463702511
 30
0.0
 11
-1248.73855893264
 21
128.357463702511
 31
0.0
  0
LINE
  5
E8
100
AcDbEntity
  8
0
370
          15
  6
Continuous
 62
           7
100
AcDbLine
 10
-641.995706634342
 20
128.357463702511
 30
0.0
 11
-641.367132783491
 21
127.72888985166
 31
0.0
  0
LINE
  5
E9
100
AcDbEntity
  8
0
370
          15
  6
Continuous
 62
           7
100
AcDbLine
 10
-641.367132783491
 20
127.72888985166
 30
0.0
 11
-1249.367132783491
 21
127.72888985166
 31
0.0
  0
LINE
  5
EA
100
AcDbEntity
  8
0
370
          15
  6
Continuous
 62
           7
100
AcDbLine
 10
-641.908404710613
 20
535.187617924538
 30
0.0
 11
-641.908404710613
 21
520.216191775389
 31
0.0
  0
LINE
  5
EB
100
AcDbEntity
  8
0
370
          15
  6
Continuous
 62
           7
100
AcDbLine
 10
-641.908404710613
 20
535.187617924538
 30
0.0
 11
-641.367132783491
 21
535.72888985166
 31
0.0
  0
LINE
  5
EC
100
AcDbEntity
  8
0
370
          15
  6
Continuous
 62
           7
100
AcDbLine
 10
-641.367132783491
 20
535.72888985166
 30
0.0
 11
-641.367132783491
 21
127.72888985166
 31
0.0
  0
LINE
  5
ED
100
AcDbEntity
  8
0
370
          15
  6
Continuous
 62
           7
100
AcDbLine
 10
-641.995706634342
 20
520.12888985166
 30
0.0
 11
-641.995706634342
 21
128.357463702511
 31
0.0
  0
LINE
  5
EE
100
AcDbEntity
  8
0
370
          15
  6
Continuous
 62
           7
100
AcDbLine
 10
-641.995706634342
 20
520.12888985166
 30
0.0
 11
-641.908404710613
 21
520.216191775389
 31
0.0
  0
LINE
  5
EF
100
AcDbEntity
  8
0
370
          15
  6
Continuous
 62
           7
100
AcDbLine
 10
-1248.73855893264
 20
128.357463702511
 30
0.0
 11
-1248.73855893264
 21
520.12888985166
 31
0.0
  0
LINE
  5
F0
100
AcDbEntity
  8
0
370
          15
  6
Continuous
 62
           7
100
AcDbLine
 10
-1249.367132783491
 20
127.72888985166
 30
0.0
 11
-1249.367132783491
 21
535.72888985166
 31
0.0
  0
LINE
  5
F1
100
AcDbEntity
  8
0
370
          15
  6
Continuous
 62
           7
100
AcDbLine
 10
-1248.825860856369
 20
535.187617924538
 30
0.0
 11
-1249.367132783491
 21
535.72888985166
 31
0.0
  0
LINE
  5
F2
100
AcDbEntity
  8
0
370
          15
  6
Continuous
 62
           7
100
AcDbLine
 10
-1248.825860856369
 20
520.216191775389
 30
0.0
 11
-1248.825860856369
 21
535.187617924538
 31
0.0
  0
LINE
  5
F3
100
AcDbEntity
  8
0
370
          15
  6
Continuous
 62
           7
100
AcDbLine
 10
-1248.825860856369
 20
520.216191775389
 30
0.0
 11
-1248.73855893264
 21
520.12888985166
 31
0.0
  0
LINE
  5
F4
100
AcDbEntity
  8
0
370
          15
  6
Continuous
 62
           7
100
AcDbLine
 10
-1249.367132783491
 20
535.72888985166
 30
0.0
 11
-1185.992132783491
 21
535.72888985166
 31
0.0
  0
LINE
  5
F5
100
AcDbEntity
  8
0
370
          15
  6
Continuous
 62
           7
100
AcDbLine
 10
-704.742132783491
 20
535.72888985166
 30
0.0
 11
-641.367132783491
 21
535.72888985166
 31
0.0
  0
LINE
  5
F6
100
AcDbEntity
  8
0
370
          15
  6
Continuous
 62
           7
100
AcDbLine
 10
-704.742132783491
 20
520.757463702511
 30
0.0
 11
-704.742132783491
 21
535.72888985166
 31
0.0
  0
LINE
  5
F7
100
AcDbEntity
  8
0
370
          15
  6
Continuous
 62
           7
100
AcDbLine
 10
-760.992132783491
 20
520.757463702511
 30
0.0
 11
-704.742132783491
 21
520.757463702511
 31
0.0
  0
LINE
  5
F8
100
AcDbEntity
  8
0
370
          15
  6
Continuous
 62
           7
100
AcDbLine
 10
-760.992132783491
 20
535.72888985166
 30
0.0
 11
-760.992132783491
 21
520.757463702511
 31
0.0
  0
LINE
  5
F9
100
AcDbEntity
  8
0
370
          15
  6
Continuous
 62
           7
100
AcDbLine
 10
-1129.742132783491
 20
535.72888985166
 30
0.0
 11
-760.992132783491
 21
535.72888985166
 31
0.0
  0
LINE
  5
FA
100
AcDbEntity
  8
0
370
          15
  6
Continuous
 62
           7
100
AcDbLine
 10
-1129.742132783491
 20
535.72888985166
 30
0.0
 11
-1129.742132783491
 21
520.757463702511
 31
0.0
  0
LINE
  5
FB
100
AcDbEntity
  8
0
370
          15
  6
Continuous
 62
           7
100
AcDbLine
 10
-1129.742132783491
 20
520.757463702511
 30
0.0
 11
-1185.992132783491
 21
520.757463702511
 31
0.0
  0
LINE
  5
FC
100
AcDbEntity
  8
0
370
          15
  6
Continuous
 62
           7
100
AcDbLine
 10
-1185.992132783491
 20
520.757463702511
 30
0.0
 11
-1185.992132783491
 21
535.72888985166
 31
0.0
  0
ELLIPSE
  5
FD
100
AcDbEntity
  8
0
370
          15
  6
Continuous
 62
           7
100
AcDbEllipse
 10
-1248.564999378445
 20
128.531023256706
 30
0.0
 11
2.477889906097289
 21
2.4778899060971185
 31
0.0
210
0.0
220
0.0
230
1.0
 40
0.998782765959
 41
2.3568034777780769
 42
3.9263818294016626
  0
LINE
  5
FE
100
AcDbEntity
  8
0
370
          15
  6
Continuous
 62
           7
100
AcDbLine
 10
-1252.067132783491
 20
128.526757746226
 30
0.0
 11
-1252.067132783491
 21
534.931021957093
 31
0.0
  0
ELLIPSE
  5
FF
100
AcDbEntity
  8
0
370
          15
  6
Continuous
 62
           7
100
AcDbEllipse
 10
-1248.564999378445
 20
534.926756446614
 30
0.0
 11
2.477889906097289
 21
-2.4778899060970616
 31
0.0
210
0.0
220
0.0
230
1.0
 40
0.998782765959
 41
2.3568034777779236
 42
3.9263818294014685
  0
LINE
  5
100
100
AcDbEntity
  8
0
370
          15
  6
Continuous
 62
           7
100
AcDbLine
 10
-1248.569264888924
 20
538.42888985166
 30
0.0
 11
-1182.992132783491
 21
538.42888985166
 31
0.0
  0
LINE
  5
101
100
AcDbEntity
  8
0
370
          15
  6
Continuous
 62
           7
100
AcDbLine
 10
-1182.992132783491
 20
523.457463702511
 30
0.0
 11
-1182.992132783491
 21
538.42888985166
 31
0.0
  0
LINE
  5
102
100
AcDbEntity
  8
0
370
          15
  6
Continuous
 62
           7
100
AcDbLine
 10
-1132.742132783466
 20
523.457463702511
 30
0.0
 11
-1182.992132783491
 21
523.457463702511
 31
0.0
  0
LINE
  5
103
100
AcDbEntity
  8
0
370
          15
  6
Continuous
 62
           7
100
AcDbLine
 10
-1132.742132783466
 20
523.457463702511
 30
0.0
 11
-1132.742132783491
 21
538.42888985166
 31
0.0
  0
LINE
  5
104
100
AcDbEntity
  8
0
370
          15
  6
Continuous
 62
           7
100
AcDbLine
 10
-1132.742132783491
 20
538.42888985166
 30
0.0
 11
-757.992132783491
 21
538.42888985166
 31
0.0
  0
LINE
  5
105
100
AcDbEntity
  8
0
370
          15
  6
Continuous
 62
           7
100
AcDbLine
 10
-757.992132783491
 20
523.457463702511
 30
0.0
 11
-757.992132783491
 21
538.42888985166
 31
0.0
  0
LINE
  5
106
100
AcDbEntity
  8
0
370
          15
  6
Continuous
 62
           7
100
AcDbLine
 10
-757.992132783491
 20
523.457463702511
 30
0.0
 11
-707.742132783491
 21
523.457463702511
 31
0.0
  0
LINE
  5
107
100
AcDbEntity
  8
0
370
          15
  6
Continuous
 62
           7
100
AcDbLine
 10
-707.742132783491
 20
523.457463702511
 30
0.0
 11
-707.742132783491
 21
538.42888985166
 31
0.0
  0
LINE
  5
108
100
AcDbEntity
  8
0
370
          15
  6
Continuous
 62
           7
100
AcDbLine
 10
-707.742132783491
 20
538.42888985166
 30
0.0
 11
-642.165000678058
 21
538.42888985166
 31
0.0
  0
ELLIPSE
  5
109
100
AcDbEntity
  8
0
370
          15
  6
Continuous
 62
           7
100
AcDbEllipse
 10
-642.169266188537
 20
534.926756446614
 30
0.0
 11
2.4778899060971753
 21
2.4778899060969479
 31
0.0
210
0.0
220
0.0
230
1.0
 40
0.998782765959
 41
5.4983961313678247
 42
7.067974482991449
  0
LINE
  5
10A
100
AcDbEntity
  8
0
370
          15
  6
Continuous
 62
           7
100
AcDbLine
 10
-638.667132783491
 20
534.931021957093
 30
0.0
 11
-638.667132783491
 21
128.526757746226
 31
0.0
  0
ELLIPSE
  5
10B
100
AcDbEntity
  8
0
370
          15
  6
Continuous
 62
           7
100
AcDbEllipse
 10
-642.169266188537
 20
128.531023256705
 30
0.0
 11
2.4778899060971753
 21
-2.4778899060971469
 31
0.0
210
0.0
220
0.0
230
1.0
 40
0.998782765959
 41
5.498396131367751
 42
7.0679744829914419
  0
LINE
  5
10C
100
AcDbEntity
  8
0
370
          15
  6
Continuous
 62
           7
100
AcDbLine
 10
-642.165000678058
 20
125.02888985166
 30
0.0
 11
-1248.569264888924
 21
125.02888985166
 31
0.0
  0
LINE
  5
10D
100
AcDbEntity
  8
0
370
          15
  6
Continuous
 62
           7
100
AcDbLine
 10
-704.742132783491
 20
535.187617924538
 30
0.0
 11
-641.908404710613
 21
535.187617924538
 31
0.0
  0
LINE
  5
10E
100
AcDbEntity
  8
0
370
          15
  6
Continuous
 62
           7
100
AcDbLine
 10
-1185.992132783491
 20
520.216191775389
 30
0.0
 11
-1234.423953361764
 21
520.216191775389
 31
0.0
  0
LINE
  5
10F
100
AcDbEntity
  8
0
370
          15
  6
Continuous
 62
           7
100
AcDbLine
 10
-1185.992132783491
 20
520.216191775389
 30
0.0
 11
-1185.992132783491
 21
520.757463702511
 31
0.0
  0
LINE
  5
110
100
AcDbEntity
  8
0
370
          15
  6
Continuous
 62
           7
100
AcDbLine
 10
-1129.742132783491
 20
520.757463702511
 30
0.0
 11
-1129.742132783491
 21
520.216191775389
 31
0.0
  0
LINE
  5
111
100
AcDbEntity
  8
0
370
          15
  6
Continuous
 62
           7
100
AcDbLine
 10
-760.992132783491
 20
520.216191775389
 30
0.0
 11
-1129.742132783491
 21
520.216191775389
 31
0.0
  0
LINE
  5
112
100
AcDbEntity
  8
0
370
          15
  6
Continuous
 62
           7
100
AcDbLine
 10
-760.992132783491
 20
520.757463702511
 30
0.0
 11
-760.992132783491
 21
520.216191775389
 31
0.0
  0
LINE
  5
113
100
AcDbEntity
  8
0
370
          15
  6
Continuous
 62
           7
100
AcDbLine
 10
-704.742132783491
 20
520.216191775389
 30
0.0
 11
-704.742132783491
 21
520.757463702511
 31
0.0
  0
LINE
  5
114
100
AcDbEntity
  8
0
370
          15
  6
Continuous
 62
           7
100
AcDbLine
 10
-656.310312205219
 20
520.216191775389
 30
0.0
 11
-704.742132783491
 21
520.216191775389
 31
0.0
  0
LINE
  5
115
100
AcDbEntity
  8
0
370
          15
  6
Continuous
 62
           7
100
AcDbLine
 10
-1235.28502581783
 20
519.797142541488
 30
0.0
 11
-655.449239749153
 21
519.797142541488
 31
0.0
  0
LINE
  5
116
100
AcDbEntity
  8
0
370
          15
  6
Continuous
 62
           7
100
AcDbLine
 10
-1129.742132783491
 20
535.187617924538
 30
0.0
 11
-760.992132783491
 21
535.187617924538
 31
0.0
  0
LINE
  5
117
100
AcDbEntity
  8
0
370
          15
  6
Continuous
 62
           7
100
AcDbLine
 10
-1248.825860856369
 20
535.187617924538
 30
0.0
 11
-1185.992132783491
 21
535.187617924538
 31
0.0
  0
LINE
  5
118
100
AcDbEntity
  8
0
370
          15
  6
Continuous
 62
           7
100
AcDbLine
 10
-641.908404710613
 20
520.216191775389
 30
0.0
 11
-652.812101462624
 21
520.216191775389
 31
0.0
  0
ARC
  5
119
100
AcDbEntity
  8
0
370
          15
  6
Continuous
 62
           7
100
AcDbCircle
 10
-658.27739232318
 20
515.079987358748
 30
0.0
 40
7.5
100
AcDbArc
 50
0.999999999998
 51
43.222023291939
  0
LINE
  5
11A
100
AcDbEntity
  8
0
370
          15
  6
Continuous
 62
           7
100
AcDbLine
 10
-650.778534609507
 20
515.210880407028
 30
0.0
 11
-647.532936208222
 21
329.270672528569
 31
0.0
  0
LINE
  5
11B
100
AcDbEntity
  8
0
370
          15
  6
Continuous
 62
           7
100
AcDbLine
 10
-647.532936208222
 20
329.270672528569
 30
0.0
 11
-650.779263928846
 21
143.288681973196
 31
0.0
  0
ARC
  5
11C
100
AcDbEntity
  8
0
370
          15
  6
Continuous
 62
           7
100
AcDbCircle
 10
-658.278121642519
 20
143.419575021476
 30
0.0
 40
7.5
100
AcDbArc
 50
270.0
 51
359.000000000001
  0
LINE
  5
11D
100
AcDbEntity
  8
0
370
          15
  6
Continuous
 62
           7
100
AcDbLine
 10
-658.278121642519
 20
135.919575021476
 30
0.0
 11
-1232.457602563141
 21
135.919575021476
 31
0.0
  0
ARC
  5
11E
100
AcDbEntity
  8
0
370
          15
  6
Continuous
 62
           7
100
AcDbCircle
 10
-1232.457602563141
 20
143.419575021476
 30
0.0
 40
7.5
100
AcDbArc
 50
181.0
 51
270.000000000001
  0
LINE
  5
11F
100
AcDbEntity
  8
0
370
          15
  6
Continuous
 62
           7
100
AcDbLine
 10
-1239.956460276814
 20
143.288681973196
 30
0.0
 11
-1243.202058678099
 21
329.228889851659
 31
0.0
  0
LINE
  5
120
100
AcDbEntity
  8
0
370
          15
  6
Continuous
 62
           7
100
AcDbLine
 10
-1243.202058678099
 20
329.228889851659
 30
0.0
 11
-1239.955730957476
 21
515.210880407028
 31
0.0
  0
ARC
  5
121
100
AcDbEntity
  8
0
370
          15
  6
Continuous
 62
           7
100
AcDbCircle
 10
-1232.456873243803
 20
515.079987358748
 30
0.0
 40
7.5
100
AcDbArc
 50
136.777976708062
 51
179.000000000001
  0
LINE
  5
122
100
AcDbEntity
  8
0
370
          15
  6
Continuous
 62
           7
100
AcDbLine
 10
-1237.922164104359
 20
520.216191775389
 30
0.0
 11
-1248.825860856369
 21
520.216191775389
 31
0.0
  0
ARC
  5
123
100
AcDbEntity
  8
0
370
          15
  6
Continuous
 62
           7
100
AcDbCircle
 10
-1232.456873243803
 20
515.079987358748
 30
0.0
 40
5.5
100
AcDbArc
 50
110.956001527376
 51
179.0
  0
LINE
  5
124
100
AcDbEntity
  8
0
370
          15
  6
Continuous
 62
           7
100
AcDbLine
 10
-1241.201754022011
 20
329.22888985166
 30
0.0
 11
-1237.956035567163
 21
515.175975594153
 31
0.0
  0
LINE
  5
125
100
AcDbEntity
  8
0
370
          15
  6
Continuous
 62
           7
100
AcDbLine
 10
-1237.956764886501
 20
143.323586786071
 30
0.0
 11
-1241.201754022011
 21
329.22888985166
 31
0.0
  0
ARC
  5
126
100
AcDbEntity
  8
0
370
          15
  6
Continuous
 62
           7
100
AcDbCircle
 10
-1232.457602563141
 20
143.419575021476
 30
0.0
 40
5.5
100
AcDbArc
 50
181.000000000102
 51
270.000000000001
  0
LINE
  5
127
100
AcDbEntity
  8
0
370
          15
  6
Continuous
 62
           7
100
AcDbLine
 10
-658.278121642519
 20
137.919575021476
 30
0.0
 11
-1232.457602563141
 21
137.919575021476
 31
0.0
  0
ARC
  5
128
100
AcDbEntity
  8
0
370
          15
  6
Continuous
 62
           7
100
AcDbCircle
 10
-658.278121642519
 20
143.419575021476
 30
0.0
 40
5.5
100
AcDbArc
 50
270.0
 51
358.999999999984
  0
LINE
  5
129
100
AcDbEntity
  8
0
370
          15
  6
Continuous
 62
           7
100
AcDbLine
 10
-649.53324086431
 20
329.270672528564
 30
0.0
 11
-652.778959319159
 21
143.323586786071
 31
0.0
  0
LINE
  5
12A
100
AcDbEntity
  8
0
370
          15
  6
Continuous
 62
           7
100
AcDbLine
 10
-652.778229999819
 20
515.175975594153
 30
0.0
 11
-649.53324086431
 21
329.270672528564
 31
0.0
  0
ARC
  5
12B
100
AcDbEntity
  8
0
370
          15
  6
Continuous
 62
           7
100
AcDbCircle
 10
-658.27739232318
 20
515.079987358748
 30
0.0
 40
5.5
100
AcDbArc
 50
0.999999999999
 51
69.043998472623
  0
LINE
  5
12C
100
AcDbEntity
  8
0
370
          15
  6
Continuous
 62
           7
100
AcDbLine
 10
-663.190677057419
 20
510.062984167671
 30
0.0
 11
-660.034206199898
 21
329.22888985166
 31
0.0
  0
LINE
  5
12D
100
AcDbEntity
  8
0
370
          15
  6
Continuous
 62
           7
100
AcDbLine
 10
-1227.543588509564
 20
510.062984167671
 30
0.0
 11
-663.190677057419
 21
510.062984167671
 31
0.0
  0
LINE
  5
12E
100
AcDbEntity
  8
0
370
          15
  6
Continuous
 62
           7
100
AcDbLine
 10
-1230.700059367085
 20
329.22888985166
 30
0.0
 11
-1227.543588509564
 21
510.062984167671
 31
0.0
  0
LINE
  5
12F
100
AcDbEntity
  8
0
370
          15
  6
Continuous
 62
           7
100
AcDbLine
 10
-1227.543588509563
 20
148.394795535648
 30
0.0
 11
-1230.700059367085
 21
329.22888985166
 31
0.0
  0
LINE
  5
130
100
AcDbEntity
  8
0
370
          15
  6
Continuous
 62
           7
100
AcDbLine
 10
-663.190677057419
 20
148.394795535648
 30
0.0
 11
-1227.543588509563
 21
148.394795535648
 31
0.0
  0
LINE
  5
131
100
AcDbEntity
  8
0
370
          15
  6
Continuous
 62
           7
100
AcDbLine
 10
-660.034206199898
 20
329.22888985166
 30
0.0
 11
-663.190677057419
 21
148.394795535648
 31
0.0
  0
LINE
  5
132
100
AcDbEntity
  8
0
370
          15
  6
Continuous
 62
           7
100
AcDbLine
 10
-1229.508983035795
 20
146.394795535648
 30
0.0
 11
-1232.700364023173
 21
329.22888985166
 31
0.0
  0
LINE
  5
133
100
AcDbEntity
  8
0
370
          15
  6
Continuous
 62
           7
100
AcDbLine
 10
-1232.700364023173
 20
329.22888985166
 30
0.0
 11
-1229.508983035795
 21
512.062984167671
 31
0.0
  0
LINE
  5
134
100
AcDbEntity
  8
0
370
          15
  6
Continuous
 62
           7
100
AcDbLine
 10
-1229.508983035795
 20
512.062984167671
 30
0.0
 11
-661.225282531188
 21
512.062984167671
 31
0.0
  0
LINE
  5
135
100
AcDbEntity
  8
0
370
          15
  6
Continuous
 62
           7
100
AcDbLine
 10
-661.225282531188
 20
512.062984167671
 30
0.0
 11
-658.03390154381
 21
329.22888985166
 31
0.0
  0
LINE
  5
136
100
AcDbEntity
  8
0
370
          15
  6
Continuous
 62
           7
100
AcDbLine
 10
-658.03390154381
 20
329.22888985166
 30
0.0
 11
-661.225282531188
 21
146.394795535648
 31
0.0
  0
LINE
  5
137
100
AcDbEntity
  8
0
370
          15
  6
Continuous
 62
           7
100
AcDbLine
 10
-661.225282531188
 20
146.394795535648
 30
0.0
 11
-1229.508983035795
 21
146.394795535648
 31
0.0
  0
CIRCLE
  5
138
100
AcDbEntity
  8
0
370
          15
  6
Continuous
 62
           7
100
AcDbCircle
 10
-682.667132783491
 20
249.42888985166
 30
0.0
 40
6.209460779138
  0
CIRCLE
  5
139
100
AcDbEntity
  8
0
370
          15
  6
Continuous
 62
           7
100
AcDbCircle
 10
-682.667132783491
 20
249.42888985166
 30
0.0
 40
6.0
  0
CIRCLE
  5
13A
100
AcDbEntity
  8
0
370
          15
  6
Continuous
 62
           7
100
AcDbCircle
 10
-682.667132783491
 20
249.42888985166
 30
0.0
 40
1.75
  0
CIRCLE
  5
13B
100
AcDbEntity
  8
0
370
          15
  6
Continuous
 62
           7
100
AcDbCircle
 10
-682.667132783491
 20
249.42888985166
 30
0.0
 40
1.540539220861
  0
LINE
  5
13C
100
AcDbEntity
  8
0
370
          15
  6
Continuous
 62
           7
100
AcDbLine
 10
-642.327453944514
 20
519.797142541488
 30
0.0
 11
-641.995706634342
 21
520.12888985166
 31
0.0
  0
LINE
  5
13D
100
AcDbEntity
  8
0
370
          15
  6
Continuous
 62
           7
100
AcDbLine
 10
-652.446573600052
 20
519.797142541488
 30
0.0
 11
-642.327453944514
 21
519.797142541488
 31
0.0
  0
CIRCLE
  5
13E
100
AcDbEntity
  8
0
370
          15
  6
Continuous
 62
           7
100
AcDbCircle
 10
-682.667132783491
 20
494.42888985166
 30
0.0
 40
6.209460779139
  0
CIRCLE
  5
13F
100
AcDbEntity
  8
0
370
          15
  6
Continuous
 62
           7
100
AcDbCircle
 10
-682.667132783491
 20
494.42888985166
 30
0.0
 40
6.0
  0
CIRCLE
  5
140
100
AcDbEntity
  8
0
370
          15
  6
Continuous
 62
           7
100
AcDbCircle
 10
-682.667132783491
 20
494.42888985166
 30
0.0
 40
1.75
  0
CIRCLE
  5
141
100
AcDbEntity
  8
0
370
          15
  6
Continuous
 62
           7
100
AcDbCircle
 10
-682.667132783491
 20
494.42888985166
 30
0.0
 40
1.540539220861
  0
CIRCLE
  5
142
100
AcDbEntity
  8
0
370
          15
  6
Continuous
 62
           7
100
AcDbCircle
 10
-1207.667132783491
 20
249.42888985166
 30
0.0
 40
6.209460779139
  0
CIRCLE
  5
143
100
AcDbEntity
  8
0
370
          15
  6
Continuous
 62
           7
100
AcDbCircle
 10
-1207.667132783491
 20
249.42888985166
 30
0.0
 40
6.0
  0
CIRCLE
  5
144
100
AcDbEntity
  8
0
370
          15
  6
Continuous
 62
           7
100
AcDbCircle
 10
-1207.667132783491
 20
249.42888985166
 30
0.0
 40
1.75
  0
CIRCLE
  5
145
100
AcDbEntity
  8
0
370
          15
  6
Continuous
 62
           7
100
AcDbCircle
 10
-1207.667132783491
 20
249.42888985166
 30
0.0
 40
1.540539220862
  0
CIRCLE
  5
146
100
AcDbEntity
  8
0
370
          15
  6
Continuous
 62
           7
100
AcDbCircle
 10
-1207.667132783491
 20
494.42888985166
 30
0.0
 40
6.209460779139
  0
CIRCLE
  5
147
100
AcDbEntity
  8
0
370
          15
  6
Continuous
 62
           7
100
AcDbCircle
 10
-1207.667132783491
 20
494.42888985166
 30
0.0
 40
6.0
  0
CIRCLE
  5
148
100
AcDbEntity
  8
0
370
          15
  6
Continuous
 62
           7
100
AcDbCircle
 10
-1207.667132783491
 20
494.42888985166
 30
0.0
 40
1.75
  0
CIRCLE
  5
149
100
AcDbEntity
  8
0
370
          15
  6
Continuous
 62
           7
100
AcDbCircle
 10
-1207.667132783491
 20
494.42888985166
 30
0.0
 40
1.540539220862
  0
LINE
  5
14A
100
AcDbEntity
  8
0
370
          15
  6
Continuous
 62
           7
100
AcDbLine
 10
-1248.406811622468
 20
519.797142541488
 30
0.0
 11
-1238.28769196693
 21
519.797142541488
 31
0.0
  0
LINE
  5
14B
100
AcDbEntity
  8
0
370
          15
  6
Continuous
 62
           7
100
AcDbLine
 10
-1248.406811622468
 20
519.797142541488
 30
0.0
 11
-1248.73855893264
 21
520.12888985166
 31
0.0
  0
LINE
  5
14C
100
AcDbEntity
  8
0
370
          15
  6
Continuous
 62
           7
100
AcDbLine
 10
-1248.406811622468
 20
128.689211012683
 30
0.0
 11
-1248.73855893264
 21
128.357463702511
 31
0.0
  0
LINE
  5
14D
100
AcDbEntity
  8
0
370
          15
  6
Continuous
 62
           7
100
AcDbLine
 10
-642.327453944514
 20
128.689211012683
 30
0.0
 11
-1248.406811622468
 21
128.689211012683
 31
0.0
  0
LINE
  5
14E
100
AcDbEntity
  8
0
370
          15
  6
Continuous
 62
           7
100
AcDbLine
 10
-642.327453944514
 20
128.689211012683
 30
0.0
 11
-641.995706634342
 21
128.357463702511
 31
0.0
  0
LINE
  5
14F
100
AcDbEntity
  8
0
370
          15
  6
Continuous
 62
           7
100
AcDbLine
 10
-642.327453944514
 20
519.797142541488
 30
0.0
 11
-642.327453944514
 21
128.689211012683
 31
0.0
  0
LINE
  5
150
100
AcDbEntity
  8
0
370
          15
  6
Continuous
 62
           7
100
AcDbLine
 10
-1248.406811622468
 20
128.689211012683
 30
0.0
 11
-1248.406811622468
 21
519.797142541488
 31
0.0
  0
ENDSEC
  0
SECTION
  2
OBJECTS
  0
DICTIONARY
  5
C
100
AcDbDictionary
280
           0
281
           1
  3
ACAD_GROUP
350
D
  3
ACAD_PLOTSTYLENAME
350
E
  3
ACAD_MLINESTYLE
350
17
  3
ACAD_PLOTSETTINGS
350
19
  3
ACAD_LAYOUT
350
1A
  3
ACAD_WIPEOUT_VARS
350
153
  0
DICTIONARY
  5
D
102
{ACAD_REACTORS
330
C
102
}
100
AcDbDictionary
280
           0
281
           1
  0
DICTIONARY
  5
17
102
{ACAD_REACTORS
330
C
102
}
100
AcDbDictionary
280
           0
281
           1
  3
STANDARD
350
18
  0
MLINESTYLE
  5
18
102
{ACAD_REACTORS
330
17
102
}
100
AcDbMlineStyle
  2
Standard
 70
           0
  3

 62
         256
 51
90.0
 52
90.0
 71
           2
 49
0.5
 62
         256
  6
ByLayer
 49
-0.5
 62
         256
  6
ByLayer
  0
ACDBDICTIONARYWDFLT
  5
E
102
{ACAD_REACTORS
330
C
102
}
100
AcDbDictionary
281
           1
  3
NORMAL
350
F
100
AcDbDictionaryWithDefault
340
F
  0
ACDBPLACEHOLDER
  5
F
102
{ACAD_REACTORS
330
E
102
}
  0
LAYOUT
  5
22
102
{ACAD_REACTORS
330
1A
102
}
100
AcDbPlotSettings
  1

  2

  4

  6

 40
0.0
 41
0.0
 42
0.0
 43
0.0
 44
0.0
 45
0.0
 46
0.0
 47
0.0
 48
0.0
 49
0.0
140
0.0
141
0.0
142
1.0
143
1.0
 70
        1712
 72
           0
 73
           0
 74
           0
  7

 75
           0
147
1.0
148
0.0
149
0.0
100
AcDbLayout
  1
MODEL
 70
           1
 71
           0
 10
0.0
 20
0.0
 11
0.0
 21
0.0
 12
0.0
 22
0.0
 32
0.0
 14
0.0
 24
0.0
 34
0.0
 15
420.0
 25
297.0
 35
0.0
146
0.0
 13
0.0
 23
0.0
 33
0.0
 16
1.0
 26
0.0
 36
0.0
 17
0.0
 27
1.0
 37
0.0
 76
           0
330
1F
331
0
345
0
346
0
  0
LAYOUT
  5
1E
102
{ACAD_REACTORS
330
1A
102
}
100
AcDbPlotSettings
  1

  2

  4

  6

 40
0.0
 41
0.0
 42
0.0
 43
0.0
 44
0.0
 45
0.0
 46
0.0
 47
0.0
 48
0.0
 49
0.0
140
0.0
141
0.0
142
1.0
143
1.0
 70
         688
 72
           0
 73
           0
 74
           5
  7

 75
          16
147
1.0
148
0.0
149
0.0
100
AcDbLayout
  1
LAYOUT1
 70
           1
 71
           1
 10
0.0
 20
0.0
 11
0.0
 21
0.0
 12
0.0
 22
0.0
 32
0.0
 14
0.0
 24
0.0
 34
0.0
 15
0.0
 25
0.0
 35
0.0
146
0.0
 13
0.0
 23
0.0
 33
0.0
 16
1.0
 26
0.0
 36
0.0
 17
0.0
 27
1.0
 37
0.0
 76
           0
330
1B
331
0
345
0
346
0
  0
DICTIONARY
  5
1A
102
{ACAD_REACTORS
330
C
102
}
100
AcDbDictionary
280
           0
281
           1
  3
MODEL
350
22
  3
LAYOUT1
350
1E
  3
LAYOUT2
350
26
  0
DICTIONARY
  5
19
102
{ACAD_REACTORS
330
C
102
}
100
AcDbDictionary
280
           0
281
           1
  0
WIPEOUTVARIABLES
  5
153
100
AcDbWipeoutVariables
 70
           1
  0
LAYOUT
  5
26
102
{ACAD_REACTORS
330
1A
102
}
100
AcDbPlotSettings
  1

  2

  4

  6

 40
0.0
 41
0.0
 42
0.0
 43
0.0
 44
0.0
 45
0.0
 46
0.0
 47
0.0
 48
0.0
 49
0.0
140
0.0
141
0.0
142
1.0
143
1.0
 70
         688
 72
           0
 73
           0
 74
           5
  7

 75
          16
147
1.0
148
0.0
149
0.0
100
AcDbLayout
  1
LAYOUT2
 70
           1
 71
           2
 10
0.0
 20
0.0
 11
0.0
 21
0.0
 12
0.0
 22
0.0
 32
0.0
 14
0.0
 24
0.0
 34
0.0
 15
0.0
 25
0.0
 35
0.0
146
0.0
 13
0.0
 23
0.0
 33
0.0
 16
1.0
 26
0.0
 36
0.0
 17
0.0
 27
1.0
 37
0.0
 76
           0
330
23
331
0
345
0
346
0
  0
ENDSEC
  0
EOF
