  0
SECTION
  2
HEADER
  9
$ACADVER
  1
AC1015
  9
$ACADMAINTVER
 70
           6
  9
$DWGCODEPAGE
  3
ANSI_1252
  9
$INSBASE
 10
0.0
 20
0.0
 30
0.0
  9
$EXTMIN
 10
-1868.487073814086
 20
-352.668955326362
 30
0.0
  9
$EXTMAX
 10
800.366960016374
 20
1082.054954279126
 30
0.0
  9
$LIMMIN
 10
0.0
 20
0.0
  9
$LIMMAX
 10
0.0
 20
0.0
  9
$ORTHOMODE
 70
           0
  9
$REGENMODE
 70
           1
  9
$FILLMODE
 70
           1
  9
$QTEXTMODE
 70
           0
  9
$MIRRTEXT
 70
           1
  9
$LTSCALE
 40
1.0
  9
$ATTMODE
 70
           1
  9
$TEXTSIZE
 40
3.5
  9
$TRACEWID
 40
1.0
  9
$TEXTSTYLE
  7
Standard
  9
$CLAYER
  8
0
  9
$CELTYPE
  6
ByLayer
  9
$CECOLOR
 62
         256
  9
$CELTSCALE
 40
1.0
  9
$DISPSILH
 70
           0
  9
$DIMSCALE
 40
1.0
  9
$DIMASZ
 40
6.0
  9
$DIMEXO
 40
1.0
  9
$DIMDLI
 40
3.75
  9
$DIMRND
 40
0.0
  9
$DIMDLE
 40
0.0
  9
$DIMEXE
 40
1.0
  9
$DIMTP
 40
0.0
  9
$DIMTM
 40
0.0
  9
$DIMTXT
 40
3.5
  9
$DIMCEN
 40
2.5
  9
$DIMTSZ
 40
0.0
  9
$DIMTOL
 70
           0
  9
$DIMLIM
 70
           0
  9
$DIMTIH
 70
           1
  9
$DIMTOH
 70
           1
  9
$DIMSE1
 70
           0
  9
$DIMSE2
 70
           0
  9
$DIMTAD
 70
           1
  9
$DIMZIN
 70
           0
  9
$DIMBLK
  1

  9
$DIMASO
 70
           1
  9
$DIMSHO
 70
           1
  9
$DIMPOST
  1

  9
$DIMAPOST
  1

  9
$DIMALT
 70
           0
  9
$DIMALTD
 70
           3
  9
$DIMALTF
 40
0.03937007874
  9
$DIMLFAC
 40
1.0
  9
$DIMTOFL
 70
           1
  9
$DIMTVP
 40
0.0
  9
$DIMTIX
 70
           0
  9
$DIMSOXD
 70
           0
  9
$DIMSAH
 70
           0
  9
$DIMBLK1
  1

  9
$DIMBLK2
  1

  9
$DIMSTYLE
  2
ISO-25
  9
$DIMCLRD
 70
           0
  9
$DIMCLRE
 70
           0
  9
$DIMCLRT
 70
           0
  9
$DIMTFAC
 40
1.0
  9
$DIMGAP
 40
1.524
  9
$DIMJUST
 70
           0
  9
$DIMSD1
 70
           0
  9
$DIMSD2
 70
           0
  9
$DIMTOLJ
 70
           0
  9
$DIMTZIN
 70
           0
  9
$DIMALTZ
 70
           0
  9
$DIMALTTZ
 70
           0
  9
$DIMUPT
 70
           0
  9
$DIMDEC
 70
           2
  9
$DIMTDEC
 70
           2
  9
$DIMALTU
 70
           2
  9
$DIMALTTD
 70
           3
  9
$DIMTXSTY
  7
Standard
  9
$DIMAUNIT
 70
           0
  9
$DIMADEC
 70
           0
  9
$DIMALTRND
 40
0.0
  9
$DIMAZIN
 70
           0
  9
$DIMDSEP
 70
          44
  9
$DIMATFIT
 70
           3
  9
$DIMFRAC
 70
           0
  9
$DIMLDRBLK
  1

  9
$DIMLUNIT
 70
           2
  9
$DIMLWD
 70
          -2
  9
$DIMLWE
 70
          -2
  9
$DIMTMOVE
 70
           0
  9
$LUNITS
 70
           2
  9
$LUPREC
 70
           2
  9
$SKETCHINC
 40
1.0
  9
$FILLETRAD
 40
10.0
  9
$AUNITS
 70
           0
  9
$AUPREC
 70
           0
  9
$MENU
  1
.
  9
$ELEVATION
 40
0.0
  9
$PELEVATION
 40
0.0
  9
$THICKNESS
 40
0.0
  9
$LIMCHECK
 70
           0
  9
$CHAMFERA
 40
10.0
  9
$CHAMFERB
 40
10.0
  9
$CHAMFERC
 40
20.0
  9
$CHAMFERD
 40
0.0
  9
$SKPOLY
 70
           0
  9
$TDCREATE
 40
2453845.367884757
  9
$TDUCREATE
 40
0.000000000
  9
$TDUPDATE
 40
2453845.590492153
  9
$TDUUPDATE
 40
2453845.507158820
  9
$TDINDWG
 40
0.0009027546
  9
$TDUSRTIMER
 40
0.0009027546
  9
$USRTIMER
 70
           1
  9
$ANGBASE
 50
0.0
  9
$ANGDIR
 70
           0
  9
$PDMODE
 70
           0
  9
$PDSIZE
 40
-1.0
  9
$PLINEWID
 40
0.0
  9
$SPLFRAME
 70
           0
  9
$SPLINETYPE
 70
           6
  9
$SPLINESEGS
 70
           8
  9
$HANDSEED
  5
28A
  9
$SURFTAB1
 70
           6
  9
$SURFTAB2
 70
           6
  9
$SURFTYPE
 70
           6
  9
$SURFU
 70
           6
  9
$SURFV
 70
           6
  9
$UCSBASE
  2

  9
$UCSNAME
  2

  9
$UCSORG
 10
0.0
 20
0.0
 30
0.0
  9
$UCSXDIR
 10
1.0
 20
0.0
 30
0.0
  9
$UCSYDIR
 10
0.0
 20
1.0
 30
0.0
  9
$UCSORTHOREF
  2

  9
$UCSORTHOVIEW
 70
           0
  9
$UCSORGTOP
 10
0.0
 20
0.0
 30
0.0
  9
$UCSORGBOTTOM
 10
0.0
 20
0.0
 30
0.0
  9
$UCSORGLEFT
 10
0.0
 20
0.0
 30
0.0
  9
$UCSORGRIGHT
 10
0.0
 20
0.0
 30
0.0
  9
$UCSORGFRONT
 10
0.0
 20
0.0
 30
0.0
  9
$UCSORGBACK
 10
0.0
 20
0.0
 30
0.0
  9
$PUCSBASE
  2

  9
$PUCSNAME
  2

  9
$PUCSORG
 10
0.0
 20
0.0
 30
0.0
  9
$PUCSXDIR
 10
1.0
 20
0.0
 30
0.0
  9
$PUCSYDIR
 10
0.0
 20
1.0
 30
0.0
  9
$PUCSORTHOREF
  2

  9
$PUCSORTHOVIEW
 70
           0
  9
$PUCSORGTOP
 10
0.0
 20
0.0
 30
0.0
  9
$PUCSORGBOTTOM
 10
0.0
 20
0.0
 30
0.0
  9
$PUCSORGLEFT
 10
0.0
 20
0.0
 30
0.0
  9
$PUCSORGRIGHT
 10
0.0
 20
0.0
 30
0.0
  9
$PUCSORGFRONT
 10
0.0
 20
0.0
 30
0.0
  9
$PUCSORGBACK
 10
0.0
 20
0.0
 30
0.0
  9
$USERI1
 70
           0
  9
$USERI2
 70
           0
  9
$USERI3
 70
           0
  9
$USERI4
 70
           0
  9
$USERI5
 70
           0
  9
$USERR1
 40
0.0
  9
$USERR2
 40
0.0
  9
$USERR3
 40
0.0
  9
$USERR4
 40
0.0
  9
$USERR5
 40
0.0
  9
$WORLDVIEW
 70
           1
  9
$SHADEDGE
 70
           3
  9
$SHADEDIF
 70
          70
  9
$TILEMODE
 70
           1
  9
$MAXACTVP
 70
          64
  9
$PINSBASE
 10
0.0
 20
0.0
 30
0.0
  9
$PLIMCHECK
 70
           0
  9
$PEXTMIN
 10
1.000000000000E+20
 20
1.000000000000E+20
 30
1.000000000000E+20
  9
$PEXTMAX
 10
-1.000000000000E+20
 20
-1.000000000000E+20
 30
-1.000000000000E+20
  9
$PLIMMIN
 10
0.0
 20
0.0
  9
$PLIMMAX
 10
420.0
 20
297.0
  9
$UNITMODE
 70
           0
  9
$VISRETAIN
 70
           1
  9
$PLINEGEN
 70
           0
  9
$PSLTSCALE
 70
           1
  9
$TREEDEPTH
 70
        3020
  9
$CMLSTYLE
  2
Standard
  9
$CMLJUST
 70
           0
  9
$CMLSCALE
 40
20.0
  9
$PROXYGRAPHICS
 70
           1
  9
$MEASUREMENT
 70
           1
  9
$CELWEIGHT
370
          -1
  9
$ENDCAPS
280
           0
  9
$JOINSTYLE
280
           0
  9
$LWDISPLAY
290
           1
  9
$INSUNITS
 70
           4
  9
$HYPERLINKBASE
  1

  9
$STYLESHEET
  1

  9
$XEDIT
290
           0
  9
$CEPSNTYPE
380
           0
  9
$PSTYLEMODE
290
           1
  9
$FINGERPRINTGUID
  2
{7F1A6843-7DDE-4CA5-BF6F-DFD35631FB61}
  9
$VERSIONGUID
  2
{FAEB1C32-E019-11D5-929B-00C0DF256EC4}
  9
$EXTNAMES
290
           1
  9
$PSVPSCALE
 40
0.0
  0
ENDSEC
  0
SECTION
  2
CLASSES
  0
CLASS
  1
ACDBDICTIONARYWDFLT
  2
AcDbDictionaryWithDefault
  3
ObjectDBX Classes
 90
        0
280
           0
281
           0
  0
CLASS
  1
ACDBPLACEHOLDER
  2
AcDbPlaceHolder
  3
ObjectDBX Classes
 90
        0
280
           0
281
           0
  0
CLASS
  1
LAYOUT
  2
AcDbLayout
  3
ObjectDBX Classes
 90
        0
280
           0
281
           0
  0
CLASS
  1
LWPOLYLINE
  2
AcDbPolyline
  3
AutoCAD 2000
 90
        0
280
           0
281
           1
  0
CLASS
  1
IMAGE
  2
AcDbRasterImage
  3
ISM
 90
      127
280
           0
281
           1
  0
CLASS
  1
OLE2FRAME
  2
AcDbOle2Frame
  3
AutoCAD 2000
 90
        0
280
           0
281
           1
  0
CLASS
  1
HATCH
  2
AcDbHatch
  3
AutoCAD 2000
 90
        0
280
           0
281
           1
  0
CLASS
  1
DICTIONARYVAR
  2
AcDbDictionaryVar
  3
AutoCAD 2000
 90
        0
280
           0
281
           0
  0
CLASS
  1
RASTERVARIABLES
  2
AcDbRasterVariables
  3
ISM
 90
        0
280
           0
281
           0
  0
CLASS
  1
IMAGEDEF
  2
AcDbRasterImageDef
  3
ISM
 90
        0
280
           0
281
           0
  0
CLASS
  1
IMAGEDEF_REACTOR
  2
AcDbRasterImageDefReactor
  3
ISM
 90
        1
280
           0
281
           0
  0
CLASS
  1
IDBUFFER
  2
AcDbIdBuffer
  3
AutoCAD 2000
 90
        0
280
           0
281
           0
  0
CLASS
  1
SPATIAL_FILTER
  2
AcDbSpatialFilter
  3
AutoCAD 2000
 90
        0
280
           0
281
           0
  0
CLASS
  1
XRECORD
  2
AcDbXrecord
  3
AutoCAD 2000
 90
        0
280
           0
281
           0
  0
CLASS
  1
SORTENTSTABLE
  2
AcDbSortentsTable
  3
AutoCAD 2000
 90
        0
280
           0
281
           0
  0
CLASS
  1
LAYER_INDEX
  2
AcDbLayerIndex
  3
AutoCAD 2000
 90
        0
280
           0
281
           0
  0
CLASS
  1
SPATIAL_INDEX
  2
AcDbSpatialIndex
  3
AutoCAD 2000
 90
        0
280
           0
281
           0
  0
CLASS
  1
OBJECT_PTR
  2
CAseDLPNTableRecord
  3
"ASE-LPNTableRecord"
 90
        1
280
           0
281
           0
  0
CLASS
  1
PLOTSETTINGS
  2
AcDbPlotSettings
  3
AutoCAD 2000
 90
        0
280
           0
281
           0
  0
CLASS
  1
VBA_PROJECT
  2
AcDbVbaProject
  3
acadvba
 90
        0
280
           0
281
           0
  0
CLASS
  1
WIPEOUT
  2
AcDbWipeout
  3
WipeOut|AutoCAD Express Tool|expresstools@autodesk.com
 90
      127
280
           0
281
           1
  0
CLASS
  1
WIPEOUTVARIABLES
  2
AcDbWipeoutVariables
  3
WipeOut|AutoCAD Express Tool|expresstools@autodesk.com
 90
        0
280
           0
281
           0
  0
CLASS
  1
RTEXT
  2
RText
  3
RText|AutoCAD Express Tool|expresstools@autodesk.com
 90
        0
280
           0
281
           1
  0
CLASS
  1
ARCALIGNEDTEXT
  2
AcDbArcAlignedText
  3
ATEXT|AutoCAD Express Tool|expresstools@autodesk.com
 90
        0
280
           0
281
           1
  0
CLASS
  1
DIMASSOC
  2
AcDbDimAssoc
  3
AcDbDimAssoc|Product Desc:     AcDim ARX App For Dimension|Company:          Autodesk, Inc.|WEB Address:      www.autodesk.com
 90
        1
280
           0
281
           0
  0
ENDSEC
  0
SECTION
  2
TABLES
  0
TABLE
  2
VPORT
  5
8
100
AcDbSymbolTable
 70
           1
  0
VPORT
  5
29
100
AcDbSymbolTableRecord
100
AcDbViewportTableRecord
  2
*Active
 70
          64
 10
0.0
 20
0.0
 11
1.0
 21
1.0
 12
-534.060056898856
 22
364.692999476382
 13
0.0
 23
0.0
 14
10.0
 24
10.0
 15
10.0
 25
10.0
 16
0.0
 26
0.0
 36
1.0
 17
0.0
 27
0.0
 37
0.0
 40
1463.418387797598
 41
1.97297297285
 42
50.0
 43
0.0
 44
0.0
 50
0.0
 51
0.0
 71
           0
 72
        2000
 73
           1
 74
           3
 75
           0
 76
           0
 77
           0
 78
           0
281
           0
 65
           0
110
0.0
120
0.0
130
0.0
111
1.0
121
0.0
131
0.0
112
0.0
122
1.0
132
0.0
345
0
346
0
 79
           0
146
0.0
  0
ENDTAB
  0
TABLE
  2
LTYPE
  5
5
100
AcDbSymbolTable
 70
           8
  0
LTYPE
  5
14
100
AcDbSymbolTableRecord
100
AcDbLinetypeTableRecord
  2
ByBlock
 70
          64
  3

 72
          65
 73
           0
 40
0.0
  0
LTYPE
  5
15
100
AcDbSymbolTableRecord
100
AcDbLinetypeTableRecord
  2
ByLayer
 70
          64
  3

 72
          65
 73
           0
 40
0.0
  0
LTYPE
  5
16
100
AcDbSymbolTableRecord
100
AcDbLinetypeTableRecord
  2
Continuous
 70
          64
  3
Solid line
 72
          65
 73
           0
 40
0.0
  0
LTYPE
  5
2A
100
AcDbSymbolTableRecord
100
AcDbLinetypeTableRecord
  2
HIDDEN
 70
          64
  3
Hidden __ __ __ __ __ __ __ __ __ __ __ __ __ __
 72
          65
 73
           2
 40
1.905
 49
1.27
 74
           0
 49
-0.635
 74
           0
  0
LTYPE
  5
2B
100
AcDbSymbolTableRecord
100
AcDbLinetypeTableRecord
  2
PHANTOM
 70
          64
  3
Phantom ______  __  __  ______  __  __  ______
 72
          65
 73
           6
 40
12.7
 49
6.35
 74
           0
 49
-1.27
 74
           0
 49
1.27
 74
           0
 49
-1.27
 74
           0
 49
1.27
 74
           0
 49
-1.27
 74
           0
  0
LTYPE
  5
2C
100
AcDbSymbolTableRecord
100
AcDbLinetypeTableRecord
  2
CENTER
 70
          64
  3
Center ____ _ ____ _ ____ _ ____ _ ____ _ ____
 72
          65
 73
           4
 40
10.16
 49
6.35
 74
           0
 49
-1.27
 74
           0
 49
1.27
 74
           0
 49
-1.27
 74
           0
  0
LTYPE
  5
2D
100
AcDbSymbolTableRecord
100
AcDbLinetypeTableRecord
  2
CENTERX2
 70
          64
  3
Center (2x) ________  __  ________  __  _____
 72
          65
 73
           4
 40
20.32
 49
12.7
 74
           0
 49
-2.54
 74
           0
 49
2.54
 74
           0
 49
-2.54
 74
           0
  0
LTYPE
  5
2E
100
AcDbSymbolTableRecord
100
AcDbLinetypeTableRecord
  2
DOT2
 70
          64
  3
Dot (.5x) ........................................
 72
          65
 73
           2
 40
0.635
 49
0.0
 74
           0
 49
-0.635
 74
           0
  0
ENDTAB
  0
TABLE
  2
LAYER
  5
2
100
AcDbSymbolTable
 70
           2
  0
LAYER
  5
10
100
AcDbSymbolTableRecord
100
AcDbLayerTableRecord
  2
0
 70
          64
 62
           7
  6
Continuous
290
           1
370
          -3
390
F
  0
LAYER
  5
27C
100
AcDbSymbolTableRecord
100
AcDbLayerTableRecord
  2
DEFPOINTS
 70
           0
 62
           7
  6
Continuous
290
           0
370
          -3
390
F
  0
ENDTAB
  0
TABLE
  2
STYLE
  5
3
100
AcDbSymbolTable
 70
           1
  0
STYLE
  5
11
100
AcDbSymbolTableRecord
100
AcDbTextStyleTableRecord
  2
Standard
 70
          64
 40
0.0
 41
1.0
 50
0.0
 71
           0
 42
2.5
  3
TXT
  4

  0
ENDTAB
  0
TABLE
  2
VIEW
  5
6
100
AcDbSymbolTable
 70
           0
  0
ENDTAB
  0
TABLE
  2
UCS
  5
7
100
AcDbSymbolTable
 70
           0
  0
ENDTAB
  0
TABLE
  2
APPID
  5
9
100
AcDbSymbolTable
 70
           1
  0
APPID
  5
12
100
AcDbSymbolTableRecord
100
AcDbRegAppTableRecord
  2
ACAD
 70
          64
  0
ENDTAB
  0
TABLE
  2
DIMSTYLE
  5
A
100
AcDbSymbolTable
 70
           1
100
AcDbDimStyleTable
 71
           0
  0
DIMSTYLE
105
27
100
AcDbSymbolTableRecord
100
AcDbDimStyleTableRecord
  2
ISO-25
 70
          64
  3

  4

 40
1.0
 41
2.5
 42
0.625
 43
3.75
 44
1.25
 45
0.0
 46
0.0
 47
0.0
 48
0.0
 71
           0
 72
           0
 73
           0
 74
           0
 75
           0
 76
           0
 77
           1
 78
           8
 79
           0
140
2.5
141
2.5
142
0.0
143
0.03937007874
144
1.0
145
0.0
146
1.0
147
0.625
148
0.0
170
           0
171
           3
172
           1
173
           0
174
           0
175
           0
176
           0
177
           0
178
           0
179
           0
271
           2
272
           2
273
           2
274
           3
275
           0
276
           0
277
           2
278
          44
279
           0
280
           0
281
           0
282
           0
283
           0
284
           8
285
           0
286
           0
288
           0
289
           3
340
11
341
0
342
0
343
0
344
0
371
          -2
372
          -2
  0
ENDTAB
  0
TABLE
  2
BLOCK_RECORD
  5
1
100
AcDbSymbolTable
 70
           1
  0
BLOCK_RECORD
  5
1F
100
AcDbSymbolTableRecord
100
AcDbBlockTableRecord
  2
*MODEL_SPACE
340
22
  0
BLOCK_RECORD
  5
1B
100
AcDbSymbolTableRecord
100
AcDbBlockTableRecord
  2
*PAPER_SPACE
340
1E
  0
BLOCK_RECORD
  5
23
100
AcDbSymbolTableRecord
100
AcDbBlockTableRecord
  2
*Paper_Space0
340
26
  0
ENDTAB
  0
ENDSEC
  0
SECTION
  2
BLOCKS
  0
BLOCK
  5
20
100
AcDbEntity
  8
0
390
0
100
AcDbBlockBegin
  2
*MODEL_SPACE
 70
           0
 10
0.0
 20
0.0
 30
0.0
  3
*MODEL_SPACE
  1

  0
ENDBLK
  5
21
100
AcDbEntity
  8
0
390
0
100
AcDbBlockEnd
  0
BLOCK
  5
1C
100
AcDbEntity
 67
           1
  8
0
390
0
100
AcDbBlockBegin
  2
*PAPER_SPACE
 70
           0
 10
0.0
 20
0.0
 30
0.0
  3
*PAPER_SPACE
  1

  0
ENDBLK
  5
1D
100
AcDbEntity
 67
           1
  8
0
390
0
100
AcDbBlockEnd
  0
BLOCK
  5
24
100
AcDbEntity
  8
0
100
AcDbBlockBegin
  2
*Paper_Space0
 70
          64
 10
0.0
 20
0.0
 30
0.0
  3
*Paper_Space0
  1

  0
ENDBLK
  5
25
100
AcDbEntity
  8
0
100
AcDbBlockEnd
  0
ENDSEC
  0
SECTION
  2
ENTITIES
  0
LINE
  5
2F
100
AcDbEntity
  8
0
370
          15
  6
Continuous
 62
           7
100
AcDbLine
 10
-331.304120725673
 20
866.054961714805
 30
0.0
 11
-331.304120725673
 21
864.05495766169
 31
0.0
  0
LINE
  5
30
100
AcDbEntity
  8
0
370
          15
  6
Continuous
 62
           7
100
AcDbLine
 10
-321.304100460094
 20
864.05495766169
 30
0.0
 11
-321.304100460094
 21
866.054961714805
 31
0.0
  0
LINE
  5
31
100
AcDbEntity
  8
0
370
          15
  6
Continuous
 62
           7
100
AcDbLine
 10
198.69588046642
 20
866.054961714805
 30
0.0
 11
198.69588046642
 21
864.05495766169
 31
0.0
  0
LINE
  5
32
100
AcDbEntity
  8
0
370
          15
  6
Continuous
 62
           7
100
AcDbLine
 10
208.695900731999
 20
864.05495766169
 30
0.0
 11
208.695900731999
 21
866.054961714805
 31
0.0
  0
LINE
  5
33
100
AcDbEntity
  8
0
370
          15
  6
Continuous
 62
           7
100
AcDbLine
 10
-343.804108804745
 20
864.05495766169
 30
0.0
 11
-343.804108804745
 21
866.054961714805
 31
0.0
  0
LINE
  5
34
100
AcDbEntity
  8
0
370
          15
  6
Continuous
 62
           7
100
AcDbLine
 10
221.19588881107
 20
866.054961714805
 30
0.0
 11
221.19588881107
 21
864.05495766169
 31
0.0
  0
LINE
  5
35
100
AcDbEntity
  8
0
370
          15
  6
Continuous
 62
           7
100
AcDbLine
 10
-368.804114765209
 20
1061.054954562248
 30
0.0
 11
-366.204219764751
 21
1061.054954562248
 31
0.0
  0
LINE
  5
36
100
AcDbEntity
  8
0
370
          15
  6
Continuous
 62
           7
100
AcDbLine
 10
-366.204219764751
 20
1061.054954562248
 30
0.0
 11
-364.524948305171
 21
868.632266554893
 31
0.0
  0
ARC
  5
37
100
AcDbEntity
  8
0
370
          15
  6
Continuous
 62
           7
100
AcDbCircle
 10
-366.004371538979
 20
953.35012462751
 30
0.0
 40
84.73077463069
100
AcDbArc
 50
269.242283780672
 51
271.0004513152
  0
LINE
  5
38
100
AcDbEntity
  8
0
370
          15
  6
Continuous
 62
           7
100
AcDbLine
 10
-367.124873107951
 20
868.632266554893
 30
0.0
 11
-368.804114765209
 21
1061.054954562248
 31
0.0
  0
LINE
  5
39
100
AcDbEntity
  8
0
370
          15
  6
Continuous
 62
           7
100
AcDbLine
 10
241.916728311497
 20
868.632266554893
 30
0.0
 11
243.595999771077
 21
1061.054954562248
 31
0.0
  0
LINE
  5
3A
100
AcDbEntity
  8
0
370
          15
  6
Continuous
 62
           7
100
AcDbLine
 10
-364.524948305171
 20
868.632266554893
 30
0.0
 11
241.916728311497
 21
868.632266554893
 31
0.0
  0
LINE
  5
3B
100
AcDbEntity
  8
0
370
          15
  6
Continuous
 62
           7
100
AcDbLine
 10
-366.204219764751
 20
1061.054954562248
 30
0.0
 11
243.595999771077
 21
1061.054954562248
 31
0.0
  0
LINE
  5
3C
100
AcDbEntity
  8
0
370
          15
  6
Continuous
 62
           7
100
AcDbLine
 10
246.195894771535
 20
1061.054954562248
 30
0.0
 11
244.516653114278
 21
868.632266554893
 31
0.0
  0
ARC
  5
3D
100
AcDbEntity
  8
0
370
          15
  6
Continuous
 62
           7
100
AcDbCircle
 10
243.396151545373
 20
953.350124690864
 30
0.0
 40
84.730774694035
100
AcDbArc
 50
268.999548685504
 51
270.757716218718
  0
LINE
  5
3E
100
AcDbEntity
  8
0
370
          15
  6
Continuous
 62
           7
100
AcDbLine
 10
243.595999771077
 20
1061.054954562248
 30
0.0
 11
246.195894771535
 21
1061.054954562248
 31
0.0
  0
LINE
  5
3F
100
AcDbEntity
  8
0
370
          15
  6
Continuous
 62
           7
100
AcDbLine
 10
241.916728311497
 20
868.632266554893
 30
0.0
 11
241.916728311497
 21
866.054961714805
 31
0.0
  0
LINE
  5
40
100
AcDbEntity
  8
0
370
          15
  6
Continuous
 62
           7
100
AcDbLine
 10
241.916728311497
 20
866.054961714805
 30
0.0
 11
-364.524948305171
 21
866.054961714805
 31
0.0
  0
LINE
  5
41
100
AcDbEntity
  8
0
370
          15
  6
Continuous
 62
           7
100
AcDbLine
 10
-364.524948305171
 20
868.632266554893
 30
0.0
 11
-364.524948305171
 21
866.054961714805
 31
0.0
  0
ARC
  5
42
100
AcDbEntity
  8
0
370
          15
  6
Continuous
 62
           7
100
AcDbCircle
 10
-364.524961630092
 20
868.654954562248
 30
0.0
 40
2.6
100
AcDbArc
 50
180.500000000011
 51
270.000000000001
  0
ARC
  5
43
100
AcDbEntity
  8
0
370
          15
  6
Continuous
 62
           7
100
AcDbCircle
 10
241.916741636418
 20
868.654954562248
 30
0.0
 40
2.600000000001
100
AcDbArc
 50
270.0
 51
359.49999999999
  0
LINE
  5
44
100
AcDbEntity
  8
0
370
          15
  6
Continuous
 62
           7
100
AcDbLine
 10
-321.304100460094
 20
864.05495766169
 30
0.0
 11
-331.304120725673
 21
864.05495766169
 31
0.0
  0
LINE
  5
45
100
AcDbEntity
  8
0
370
          15
  6
Continuous
 62
           7
100
AcDbLine
 10
208.695900731999
 20
864.05495766169
 30
0.0
 11
198.69588046642
 21
864.05495766169
 31
0.0
  0
LINE
  5
46
100
AcDbEntity
  8
0
370
          15
  6
Continuous
 62
           7
100
AcDbLine
 10
-302.577200240176
 20
1074.054954830469
 30
0.0
 11
-302.804115122836
 21
1061.054954562248
 31
0.0
  0
LINE
  5
47
100
AcDbEntity
  8
0
370
          15
  6
Continuous
 62
           7
100
AcDbLine
 10
-302.577200240176
 20
1074.054954830469
 30
0.0
 11
179.968980246503
 21
1074.054954830469
 31
0.0
  0
LINE
  5
48
100
AcDbEntity
  8
0
370
          15
  6
Continuous
 62
           7
100
AcDbLine
 10
179.968980246503
 20
1074.054954830469
 30
0.0
 11
180.195895129163
 21
1061.054954562248
 31
0.0
  0
LINE
  5
49
100
AcDbEntity
  8
0
370
          15
  6
Continuous
 62
           7
100
AcDbLine
 10
-350.945222085994
 20
1080.054953951301
 30
0.0
 11
-345.446246570628
 21
1080.054953951301
 31
0.0
  0
LINE
  5
4A
100
AcDbEntity
  8
0
370
          15
  6
Continuous
 62
           7
100
AcDbLine
 10
-345.446246570628
 20
1080.054953951301
 30
0.0
 11
222.838026576955
 21
1080.054953951301
 31
0.0
  0
LINE
  5
4B
100
AcDbEntity
  8
0
370
          15
  6
Continuous
 62
           7
100
AcDbLine
 10
222.838026576955
 20
1080.054953951301
 30
0.0
 11
228.33700209232
 21
1080.054953951301
 31
0.0
  0
LINE
  5
4C
100
AcDbEntity
  8
0
370
          15
  6
Continuous
 62
           7
100
AcDbLine
 10
-354.138272708935
 20
1080.054953951301
 30
0.0
 11
-354.304122633022
 21
1061.054954562248
 31
0.0
  0
LINE
  5
4D
100
AcDbEntity
  8
0
370
          15
  6
Continuous
 62
           7
100
AcDbLine
 10
-354.138272708935
 20
1080.054953951301
 30
0.0
 11
-350.945222085994
 21
1080.054953951301
 31
0.0
  0
LINE
  5
4E
100
AcDbEntity
  8
0
370
          15
  6
Continuous
 62
           7
100
AcDbLine
 10
231.530052715259
 20
1080.054953951301
 30
0.0
 11
231.695902639347
 21
1061.054954562248
 31
0.0
  0
LINE
  5
4F
100
AcDbEntity
  8
0
370
          15
  6
Continuous
 62
           7
100
AcDbLine
 10
228.33700209232
 20
1080.054953951301
 30
0.0
 11
231.530052715259
 21
1080.054953951301
 31
0.0
  0
LINE
  5
50
100
AcDbEntity
  8
0
370
          15
  6
Continuous
 62
           7
100
AcDbLine
 10
-353.804099268001
 20
864.05495766169
 30
0.0
 11
-353.804099268001
 21
866.054961714805
 31
0.0
  0
LINE
  5
51
100
AcDbEntity
  8
0
370
          15
  6
Continuous
 62
           7
100
AcDbLine
 10
-363.80411953358
 20
864.05495766169
 30
0.0
 11
-363.80411953358
 21
866.054961714805
 31
0.0
  0
LINE
  5
52
100
AcDbEntity
  8
0
370
          15
  6
Continuous
 62
           7
100
AcDbLine
 10
-353.804099268001
 20
864.05495766169
 30
0.0
 11
-363.80411953358
 21
864.05495766169
 31
0.0
  0
LINE
  5
53
100
AcDbEntity
  8
0
370
          15
  6
Continuous
 62
           7
100
AcDbLine
 10
241.195899539906
 20
864.05495766169
 30
0.0
 11
241.195899539906
 21
866.054961714805
 31
0.0
  0
LINE
  5
54
100
AcDbEntity
  8
0
370
          15
  6
Continuous
 62
           7
100
AcDbLine
 10
241.195899539906
 20
864.05495766169
 30
0.0
 11
231.195879274327
 21
864.05495766169
 31
0.0
  0
LINE
  5
55
100
AcDbEntity
  8
0
370
          15
  6
Continuous
 62
           7
100
AcDbLine
 10
231.195879274327
 20
864.05495766169
 30
0.0
 11
231.195879274327
 21
866.054961714805
 31
0.0
  0
LINE
  5
56
100
AcDbEntity
  8
0
370
          15
  6
Continuous
 62
           7
100
AcDbLine
 10
-343.804108804745
 20
864.05495766169
 30
0.0
 11
-353.804099268001
 21
864.05495766169
 31
0.0
  0
LINE
  5
57
100
AcDbEntity
  8
0
370
          15
  6
Continuous
 62
           7
100
AcDbLine
 10
231.195879274326
 20
864.05495766169
 30
0.0
 11
221.19588881107
 21
864.05495766169
 31
0.0
  0
LINE
  5
58
100
AcDbEntity
  8
0
370
          15
  6
Continuous
 62
           7
100
AcDbLine
 10
126.195890003161
 20
1080.056172121228
 30
0.0
 11
126.195890003161
 21
1080.054953951301
 31
0.0
  0
LINE
  5
59
100
AcDbEntity
  8
0
370
          15
  6
Continuous
 62
           7
100
AcDbLine
 10
176.195887022929
 20
1080.056172121228
 30
0.0
 11
126.195890003161
 21
1080.056172121228
 31
0.0
  0
LINE
  5
5A
100
AcDbEntity
  8
0
370
          15
  6
Continuous
 62
           7
100
AcDbLine
 10
176.195887022929
 20
1080.056172121228
 30
0.0
 11
176.195887022929
 21
1080.054953951301
 31
0.0
  0
LINE
  5
5B
100
AcDbEntity
  8
0
370
          15
  6
Continuous
 62
           7
100
AcDbLine
 10
-298.804107016606
 20
1082.054954279126
 30
0.0
 11
-248.804109996838
 21
1082.054954279126
 31
0.0
  0
LINE
  5
5C
100
AcDbEntity
  8
0
370
          15
  6
Continuous
 62
           7
100
AcDbLine
 10
-248.804109996838
 20
1082.054954279126
 30
0.0
 11
-248.804109996838
 21
1080.054953951301
 31
0.0
  0
LINE
  5
5D
100
AcDbEntity
  8
0
370
          15
  6
Continuous
 62
           7
100
AcDbLine
 10
-298.804107016606
 20
1080.054953951301
 30
0.0
 11
-298.804107016606
 21
1082.054954279126
 31
0.0
  0
LINE
  5
5E
100
AcDbEntity
  8
0
370
          15
  6
Continuous
 62
           7
100
AcDbLine
 10
126.195890003161
 20
1082.054954279126
 30
0.0
 11
176.195887022929
 21
1082.054954279126
 31
0.0
  0
LINE
  5
5F
100
AcDbEntity
  8
0
370
          15
  6
Continuous
 62
           7
100
AcDbLine
 10
176.195887022929
 20
1082.054954279126
 30
0.0
 11
176.195887022929
 21
1080.056172121228
 31
0.0
  0
LINE
  5
60
100
AcDbEntity
  8
0
370
          15
  6
Continuous
 62
           7
100
AcDbLine
 10
126.195890003161
 20
1080.056172121228
 30
0.0
 11
126.195890003161
 21
1082.054954279126
 31
0.0
  0
LINE
  5
61
100
AcDbEntity
  8
0
370
          15
  6
Continuous
 62
           7
100
AcDbLine
 10
-345.446246570628
 20
1080.054953951301
 30
0.0
 11
-345.609205669444
 21
1061.054954562248
 31
0.0
  0
LINE
  5
62
100
AcDbEntity
  8
0
370
          15
  6
Continuous
 62
           7
100
AcDbLine
 10
-351.108151382488
 20
1061.054954562248
 30
0.0
 11
-350.945222085994
 21
1080.054953951301
 31
0.0
  0
LINE
  5
63
100
AcDbEntity
  8
0
370
          15
  6
Continuous
 62
           7
100
AcDbLine
 10
223.00098567577
 20
1061.054954562248
 30
0.0
 11
222.838026576955
 21
1080.054953951301
 31
0.0
  0
LINE
  5
64
100
AcDbEntity
  8
0
370
          15
  6
Continuous
 62
           7
100
AcDbLine
 10
228.33700209232
 20
1080.054953951301
 30
0.0
 11
228.499931388814
 21
1061.054954562248
 31
0.0
  0
LINE
  5
65
100
AcDbEntity
  8
0
370
          15
  6
Continuous
 62
           7
100
AcDbLine
 10
-248.804109996838
 20
587.157698372292
 30
0.0
 11
-298.804107016606
 21
587.157698372292
 31
0.0
  0
LINE
  5
66
100
AcDbEntity
  8
0
370
          15
  6
Continuous
 62
           7
100
AcDbLine
 10
-298.804107016606
 20
590.655567148613
 30
0.0
 11
-248.804109996838
 21
590.655567148614
 31
0.0
  0
LINE
  5
67
100
AcDbEntity
  8
0
370
          15
  6
Continuous
 62
           7
100
AcDbLine
 10
-298.804107016606
 20
587.157698372292
 30
0.0
 11
-298.804107016606
 21
590.655567148613
 31
0.0
  0
LINE
  5
68
100
AcDbEntity
  8
0
370
          15
  6
Continuous
 62
           7
100
AcDbLine
 10
-248.804109996838
 20
590.655567148614
 30
0.0
 11
-248.804109996838
 21
587.157698372292
 31
0.0
  0
LINE
  5
69
100
AcDbEntity
  8
0
370
          15
  6
Continuous
 62
           7
100
AcDbLine
 10
126.195890003161
 20
590.655567148615
 30
0.0
 11
176.195887022929
 21
590.655567148615
 31
0.0
  0
LINE
  5
6A
100
AcDbEntity
  8
0
370
          15
  6
Continuous
 62
           7
100
AcDbLine
 10
176.195887022929
 20
587.157698372294
 30
0.0
 11
126.195890003161
 21
587.157698372294
 31
0.0
  0
LINE
  5
6B
100
AcDbEntity
  8
0
370
          15
  6
Continuous
 62
           7
100
AcDbLine
 10
176.195887022929
 20
590.655567148615
 30
0.0
 11
176.195887022929
 21
587.157698372294
 31
0.0
  0
LINE
  5
6C
100
AcDbEntity
  8
0
370
          15
  6
Continuous
 62
           7
100
AcDbLine
 10
126.195890003161
 20
587.157698372294
 30
0.0
 11
126.195890003161
 21
590.655567148615
 31
0.0
  0
LINE
  5
6D
100
AcDbEntity
  8
0
370
          15
  6
Continuous
 62
           7
100
AcDbLine
 10
-298.804107016606
 20
580.033468106675
 30
0.0
 11
-248.804109996838
 21
580.033468106675
 31
0.0
  0
LINE
  5
6E
100
AcDbEntity
  8
0
370
          15
  6
Continuous
 62
           7
100
AcDbLine
 10
-298.804107016606
 20
587.157698372292
 30
0.0
 11
-298.804107016606
 21
580.033468106675
 31
0.0
  0
LINE
  5
6F
100
AcDbEntity
  8
0
370
          15
  6
Continuous
 62
           7
100
AcDbLine
 10
-248.804109996838
 20
587.157698372292
 30
0.0
 11
-248.804109996838
 21
580.033468106675
 31
0.0
  0
LINE
  5
70
100
AcDbEntity
  8
0
370
          15
  6
Continuous
 62
           7
100
AcDbLine
 10
126.195890003161
 20
580.107094744135
 30
0.0
 11
176.195887022929
 21
580.107094744135
 31
0.0
  0
LINE
  5
71
100
AcDbEntity
  8
0
370
          15
  6
Continuous
 62
           7
100
AcDbLine
 10
176.195887022929
 20
587.157698372294
 30
0.0
 11
176.195887022929
 21
580.107094744135
 31
0.0
  0
LINE
  5
72
100
AcDbEntity
  8
0
370
          15
  6
Continuous
 62
           7
100
AcDbLine
 10
126.195890003161
 20
587.157698372294
 30
0.0
 11
126.195890003161
 21
580.107094744135
 31
0.0
  0
LINE
  5
73
100
AcDbEntity
  8
0
370
          15
  6
Continuous
 62
           7
100
AcDbLine
 10
-248.804109996838
 20
577.961104014802
 30
0.0
 11
-298.804107016606
 21
577.961104014802
 31
0.0
  0
LINE
  5
74
100
AcDbEntity
  8
0
370
          15
  6
Continuous
 62
           7
100
AcDbLine
 10
-298.804107016606
 20
577.961104014802
 30
0.0
 11
-298.804107016606
 21
580.033468106675
 31
0.0
  0
LINE
  5
75
100
AcDbEntity
  8
0
370
          15
  6
Continuous
 62
           7
100
AcDbLine
 10
-248.804109996838
 20
580.033468106675
 30
0.0
 11
-248.804109996838
 21
577.961104014802
 31
0.0
  0
LINE
  5
76
100
AcDbEntity
  8
0
370
          15
  6
Continuous
 62
           7
100
AcDbLine
 10
176.195887022929
 20
577.963667014528
 30
0.0
 11
126.195890003161
 21
577.963667014528
 31
0.0
  0
LINE
  5
77
100
AcDbEntity
  8
0
370
          15
  6
Continuous
 62
           7
100
AcDbLine
 10
176.195887022929
 20
580.107094744135
 30
0.0
 11
176.195887022929
 21
577.963667014528
 31
0.0
  0
LINE
  5
78
100
AcDbEntity
  8
0
370
          15
  6
Continuous
 62
           7
100
AcDbLine
 10
126.195890003161
 20
577.963667014528
 30
0.0
 11
126.195890003161
 21
580.107094744135
 31
0.0
  0
LINE
  5
79
100
AcDbEntity
  8
0
370
          15
  6
Continuous
 62
           7
100
AcDbLine
 10
126.195890003161
 20
577.300133207728
 30
0.0
 11
176.195887022929
 21
577.300133207728
 31
0.0
  0
LINE
  5
7A
100
AcDbEntity
  8
0
370
          15
  6
Continuous
 62
           7
100
AcDbLine
 10
176.195887022929
 20
577.963667014528
 30
0.0
 11
176.195887022929
 21
577.300133207728
 31
0.0
  0
LINE
  5
7B
100
AcDbEntity
  8
0
370
          15
  6
Continuous
 62
           7
100
AcDbLine
 10
126.195890003161
 20
577.963667014528
 30
0.0
 11
126.195890003161
 21
577.300133207728
 31
0.0
  0
LINE
  5
7C
100
AcDbEntity
  8
0
370
          15
  6
Continuous
 62
           7
100
AcDbLine
 10
222.838026576953
 20
570.334317186762
 30
0.0
 11
224.65182571979
 21
572.180049518039
 31
0.0
  0
ELLIPSE
  5
7D
100
AcDbEntity
  8
0
370
          15
  6
Continuous
 62
           7
100
AcDbEllipse
 10
224.651424310175
 20
566.679845516384
 30
0.0
 11
3.8552894969126328
 21
3.9231710940890707
 31
0.0
210
0.0
220
0.0
230
1.0
 40
0.999925156527
 41
5.8082176283527458
 42
7.0598194069065849
  0
ELLIPSE
  5
7E
100
AcDbEntity
  8
0
370
          15
  6
Continuous
 62
           7
100
AcDbEllipse
 10
224.60511461707
 20
566.632720430314
 30
0.0
 11
3.8552894969126328
 21
3.9231710940892981
 31
0.0
210
0.0
220
0.0
230
1.0
 40
0.999925156527
 41
5.5065512074570284
 42
5.8083741448914203
  0
LINE
  5
7F
100
AcDbEntity
  8
0
370
          15
  6
Continuous
 62
           7
100
AcDbLine
 10
230.104488426166
 20
566.729130247523
 30
0.0
 11
228.337002092319
 21
564.930515387942
 31
0.0
  0
ELLIPSE
  5
80
100
AcDbEntity
  8
0
370
          15
  6
Continuous
 62
           7
100
AcDbEllipse
 10
222.837627996889
 20
564.834112978638
 30
0.0
 11
3.8552894969126328
 21
3.9231710940892981
 31
0.0
210
0.0
220
0.0
230
1.0
 40
0.999925156527
 41
5.5065512074570835
 42
7.0598194069064091
  0
LINE
  5
81
100
AcDbEntity
  8
0
370
          15
  6
Continuous
 62
           7
100
AcDbLine
 10
-350.945222085995
 20
564.93051538794
 30
0.0
 11
-352.712708419842
 21
566.729130247522
 31
0.0
  0
ELLIPSE
  5
82
100
AcDbEntity
  8
0
370
          15
  6
Continuous
 62
           7
100
AcDbEllipse
 10
-347.213334610746
 20
566.632720430312
 30
0.0
 11
-3.8552894969072327
 21
3.9231710940948687
 31
0.0
210
0.0
220
0.0
230
1.0
 40
0.999925156527
 41
0.474811162289681
 42
0.7766340997240309
  0
ELLIPSE
  5
83
100
AcDbEntity
  8
0
370
          15
  6
Continuous
 62
           7
100
AcDbEllipse
 10
-347.259644303852
 20
566.679845516382
 30
0.0
 11
-3.8552894969072327
 21
3.9231710940948687
 31
0.0
210
0.0
220
0.0
230
1.0
 40
0.999925156527
 41
5.5065512074540033
 42
6.758152986007941
  0
LINE
  5
84
100
AcDbEntity
  8
0
370
          15
  6
Continuous
 62
           7
100
AcDbLine
 10
-347.260045713467
 20
572.180049518037
 30
0.0
 11
-345.44624657063
 21
570.33431718676
 31
0.0
  0
ELLIPSE
  5
85
100
AcDbEntity
  8
0
370
          15
  6
Continuous
 62
           7
100
AcDbEllipse
 10
-345.445847990565
 20
564.834112978636
 30
0.0
 11
-3.8552894969069484
 21
3.9231710940950961
 31
0.0
210
0.0
220
0.0
230
1.0
 40
0.999925156527
 41
5.5065512074542156
 42
7.0598194069036158
  0
LINE
  5
86
100
AcDbEntity
  8
0
370
          15
  6
Continuous
 62
           7
100
AcDbLine
 10
-304.484027332349
 20
572.180049518037
 30
0.0
 11
-302.804115122838
 21
570.500137308526
 31
0.0
  0
LINE
  5
87
100
AcDbEntity
  8
0
370
          15
  6
Continuous
 62
           7
100
AcDbLine
 10
180.195895129161
 20
570.500137308527
 30
0.0
 11
-302.804115122838
 21
570.500137308526
 31
0.0
  0
LINE
  5
88
100
AcDbEntity
  8
0
370
          15
  6
Continuous
 62
           7
100
AcDbLine
 10
181.875807338672
 20
572.180049518039
 30
0.0
 11
180.195895129161
 21
570.500137308527
 31
0.0
  0
LINE
  5
89
100
AcDbEntity
  8
0
370
          15
  6
Continuous
 62
           7
100
AcDbLine
 10
224.65182571979
 20
572.180049518039
 30
0.0
 11
181.875807338672
 21
572.180049518039
 31
0.0
  0
LINE
  5
8A
100
AcDbEntity
  8
0
370
          15
  6
Continuous
 62
           7
100
AcDbLine
 10
222.838026576953
 20
570.334317186762
 30
0.0
 11
-345.44624657063
 21
570.33431718676
 31
0.0
  0
LINE
  5
8B
100
AcDbEntity
  8
0
370
          15
  6
Continuous
 62
           7
100
AcDbLine
 10
-304.484027332349
 20
572.180049518037
 30
0.0
 11
-347.260045713467
 21
572.180049518037
 31
0.0
  0
ELLIPSE
  5
8C
100
AcDbEntity
  8
0
370
          15
  6
Continuous
 62
           7
100
AcDbEllipse
 10
-345.445847990564
 20
199.166152816927
 30
0.0
 11
3.8552894969126328
 21
3.9231710940893549
 31
0.0
210
0.0
220
0.0
230
1.0
 40
0.999925156527
 41
2.3649585538670652
 42
3.918226753316723
  0
LINE
  5
8D
100
AcDbEntity
  8
0
370
          15
  6
Continuous
 62
           7
100
AcDbLine
 10
-354.138272708935
 20
382.000132953661
 30
0.0
 11
-350.945222085994
 21
199.069755175995
 31
0.0
  0
LINE
  5
8E
100
AcDbEntity
  8
0
370
          15
  6
Continuous
 62
           7
100
AcDbLine
 10
-350.945222085995
 20
564.93051538794
 30
0.0
 11
-354.138272708935
 21
382.000132953661
 31
0.0
  0
LINE
  5
8F
100
AcDbEntity
  8
0
370
          15
  6
Continuous
 62
           7
100
AcDbLine
 10
231.530052715259
 20
382.000132953663
 30
0.0
 11
228.337002092319
 21
564.930515387942
 31
0.0
  0
LINE
  5
90
100
AcDbEntity
  8
0
370
          15
  6
Continuous
 62
           7
100
AcDbLine
 10
228.33700209232
 20
199.069755175997
 30
0.0
 11
231.530052715259
 21
382.000132953663
 31
0.0
  0
ELLIPSE
  5
91
100
AcDbEntity
  8
0
370
          15
  6
Continuous
 62
           7
100
AcDbEllipse
 10
222.83762799689
 20
199.16615281693
 30
0.0
 11
-3.8552894969069484
 21
3.9231710940947551
 31
0.0
210
0.0
220
0.0
230
1.0
 40
0.999925156527
 41
2.3649585538643363
 42
3.9182267533138759
  0
LINE
  5
92
100
AcDbEntity
  8
0
370
          15
  6
Continuous
 62
           7
100
AcDbLine
 10
-345.446246570628
 20
193.665938476014
 30
0.0
 11
222.838026576955
 21
193.665938476016
 31
0.0
  0
ELLIPSE
  5
93
100
AcDbEntity
  8
0
370
          15
  6
Continuous
 62
           7
100
AcDbEllipse
 10
223.820138133879
 20
198.16634323786
 30
0.0
 11
-1.4022382446904658
 21
1.4269280045053279
 31
0.0
210
0.0
220
0.0
230
1.0
 40
0.999700681327
 41
2.3650707950004439
 42
3.9181145121791507
  0
LINE
  5
94
100
AcDbEntity
  8
0
370
          15
  6
Continuous
 62
           7
100
AcDbLine
 10
225.820136362035
 20
198.130833009173
 30
0.0
 11
229.029578262287
 21
382.000132953663
 31
0.0
  0
LINE
  5
95
100
AcDbEntity
  8
0
370
          15
  6
Continuous
 62
           7
100
AcDbLine
 10
229.029578262287
 20
382.000132953663
 30
0.0
 11
225.820136362033
 21
565.869437554766
 31
0.0
  0
ELLIPSE
  5
96
100
AcDbEntity
  8
0
370
          15
  6
Continuous
 62
           7
100
AcDbEllipse
 10
223.820138133878
 20
565.833922557707
 30
0.0
 11
1.4022382446904658
 21
1.426928004505271
 31
0.0
210
0.0
220
0.0
230
1.0
 40
0.999700681327
 41
5.5066634485905395
 42
7.0597071657689492
  0
LINE
  5
97
100
AcDbEntity
  8
0
370
          15
  6
Continuous
 62
           7
100
AcDbLine
 10
223.820728355365
 20
567.834230163981
 30
0.0
 11
-346.428948349042
 21
567.834230163979
 31
0.0
  0
ELLIPSE
  5
98
100
AcDbEntity
  8
0
370
          15
  6
Continuous
 62
           7
100
AcDbEllipse
 10
-346.428358127554
 20
565.833922557705
 30
0.0
 11
-1.4022382446901815
 21
1.426928004505271
 31
0.0
210
0.0
220
0.0
230
1.0
 40
0.999700681327
 41
5.5066634485906452
 42
7.0597071657686108
  0
LINE
  5
99
100
AcDbEntity
  8
0
370
          15
  6
Continuous
 62
           7
100
AcDbLine
 10
-348.42835635571
 20
565.869437554764
 30
0.0
 11
-351.637798255963
 21
382.000132953661
 31
0.0
  0
LINE
  5
9A
100
AcDbEntity
  8
0
370
          15
  6
Continuous
 62
           7
100
AcDbLine
 10
-351.637798255963
 20
382.000132953661
 30
0.0
 11
-348.428356355708
 21
198.130833009171
 31
0.0
  0
ELLIPSE
  5
9B
100
AcDbEntity
  8
0
370
          15
  6
Continuous
 62
           7
100
AcDbEllipse
 10
-346.428358127553
 20
198.166343237858
 30
0.0
 11
1.4022382446901815
 21
1.4269280045053279
 31
0.0
210
0.0
220
0.0
230
1.0
 40
0.999700681327
 41
2.3650707950006407
 42
3.9181145121786196
  0
LINE
  5
9C
100
AcDbEntity
  8
0
370
          15
  6
Continuous
 62
           7
100
AcDbLine
 10
-346.428948349041
 20
196.166040399956
 30
0.0
 11
223.820728355366
 21
196.166040399958
 31
0.0
  0
LINE
  5
9D
100
AcDbEntity
  8
0
370
          15
  6
Continuous
 62
           7
100
AcDbLine
 10
220.436436229663
 20
564.390348294666
 30
0.0
 11
223.820728355365
 21
567.834230163981
 31
0.0
  0
LINE
  5
9E
100
AcDbEntity
  8
0
370
          15
  6
Continuous
 62
           7
100
AcDbLine
 10
220.436436229663
 20
564.390348294666
 30
0.0
 11
190.995884233432
 21
564.390348294666
 31
0.0
  0
LINE
  5
9F
100
AcDbEntity
  8
0
370
          15
  6
Continuous
 62
           7
100
AcDbLine
 10
179.37572031589
 20
564.142482379367
 30
0.0
 11
190.995884233432
 21
564.142482379367
 31
0.0
  0
LINE
  5
A0
100
AcDbEntity
  8
0
370
          15
  6
Continuous
 62
           7
100
AcDbLine
 10
179.37572031589
 20
564.142482379367
 30
0.0
 11
177.717608505207
 21
567.458944419314
 31
0.0
  0
LINE
  5
A1
100
AcDbEntity
  8
0
370
          15
  6
Continuous
 62
           7
100
AcDbLine
 10
177.717608505207
 20
567.458944419314
 30
0.0
 11
-300.325828498883
 21
567.458944419312
 31
0.0
  0
LINE
  5
A2
100
AcDbEntity
  8
0
370
          15
  6
Continuous
 62
           7
100
AcDbLine
 10
-301.983940309567
 20
564.142482379365
 30
0.0
 11
-300.325828498883
 21
567.458944419312
 31
0.0
  0
LINE
  5
A3
100
AcDbEntity
  8
0
370
          15
  6
Continuous
 62
           7
100
AcDbLine
 10
-313.604104227108
 20
564.142482379365
 30
0.0
 11
-301.983940309567
 21
564.142482379365
 31
0.0
  0
LINE
  5
A4
100
AcDbEntity
  8
0
370
          15
  6
Continuous
 62
           7
100
AcDbLine
 10
-313.604104227108
 20
564.390348294663
 30
0.0
 11
-343.04465622334
 21
564.390348294663
 31
0.0
  0
LINE
  5
A5
100
AcDbEntity
  8
0
370
          15
  6
Continuous
 62
           7
100
AcDbLine
 10
-346.428948349042
 20
567.834230163979
 30
0.0
 11
-343.04465622334
 21
564.390348294663
 31
0.0
  0
ELLIPSE
  5
A6
100
AcDbEntity
  8
0
370
          15
  6
Continuous
 62
           7
100
AcDbEllipse
 10
-343.044062441298
 20
562.390038247368
 30
0.0
 11
-1.4022382446904658
 21
1.4269280045053847
 31
0.0
210
0.0
220
0.0
230
1.0
 40
0.999700681327
 41
5.5066634485905865
 42
7.0597071657686037
  0
LINE
  5
A7
100
AcDbEntity
  8
0
370
          15
  6
Continuous
 62
           7
100
AcDbLine
 10
-345.044064230008
 20
562.425540784287
 30
0.0
 11
-348.42835635571
 21
565.869437554764
 31
0.0
  0
LINE
  5
A8
100
AcDbEntity
  8
0
370
          15
  6
Continuous
 62
           7
100
AcDbLine
 10
225.820136362033
 20
565.869437554766
 30
0.0
 11
222.435844236331
 21
562.42554078429
 31
0.0
  0
ELLIPSE
  5
A9
100
AcDbEntity
  8
0
370
          15
  6
Continuous
 62
           7
100
AcDbEllipse
 10
220.435842447622
 20
562.39003824737
 30
0.0
 11
1.4022382446904658
 21
1.4269280045053847
 31
0.0
210
0.0
220
0.0
230
1.0
 40
0.999700681327
 41
5.5066634485906869
 42
7.059707165768665
  0
LINE
  5
AA
100
AcDbEntity
  8
0
370
          15
  6
Continuous
 62
           7
100
AcDbLine
 10
230.794799619632
 20
529.880048731258
 30
0.0
 11
230.35366564365
 21
555.154087046077
 31
0.0
  0
LINE
  5
AB
100
AcDbEntity
  8
0
370
          15
  6
Continuous
 62
           7
100
AcDbLine
 10
230.794799619632
 20
529.880048731258
 30
0.0
 11
229.143959575611
 21
528.200136521746
 31
0.0
  0
LINE
  5
AC
100
AcDbEntity
  8
0
370
          15
  6
Continuous
 62
           7
100
AcDbLine
 10
231.695902639347
 20
382.000132953663
 30
0.0
 11
229.143959575611
 21
528.200136521746
 31
0.0
  0
LINE
  5
AD
100
AcDbEntity
  8
0
370
          15
  6
Continuous
 62
           7
100
AcDbLine
 10
231.530052715259
 20
382.000132953663
 30
0.0
 11
231.695902639347
 21
382.000132953663
 31
0.0
  0
LINE
  5
AE
100
AcDbEntity
  8
0
370
          15
  6
Continuous
 62
           7
100
AcDbLine
 10
230.305803113894
 20
555.195214250972
 30
0.0
 11
230.104488426166
 21
566.729130247523
 31
0.0
  0
LINE
  5
AF
100
AcDbEntity
  8
0
370
          15
  6
Continuous
 62
           7
100
AcDbLine
 10
-354.138272708935
 20
382.000132953661
 30
0.0
 11
-354.304122633022
 21
382.000132953661
 31
0.0
  0
LINE
  5
B0
100
AcDbEntity
  8
0
370
          15
  6
Continuous
 62
           7
100
AcDbLine
 10
-351.752179569287
 20
528.200136521744
 30
0.0
 11
-354.304122633022
 21
382.000132953661
 31
0.0
  0
LINE
  5
B1
100
AcDbEntity
  8
0
370
          15
  6
Continuous
 62
           7
100
AcDbLine
 10
-353.403019613308
 20
529.880048731256
 30
0.0
 11
-351.752179569287
 21
528.200136521744
 31
0.0
  0
LINE
  5
B2
100
AcDbEntity
  8
0
370
          15
  6
Continuous
 62
           7
100
AcDbLine
 10
-352.961885637326
 20
555.154087046075
 30
0.0
 11
-353.403019613308
 21
529.880048731256
 31
0.0
  0
LINE
  5
B3
100
AcDbEntity
  8
0
370
          15
  6
Continuous
 62
           7
100
AcDbLine
 10
-352.914023107571
 20
555.19521425097
 30
0.0
 11
-352.712708419842
 21
566.729130247522
 31
0.0
  0
LINE
  5
B4
100
AcDbEntity
  8
0
370
          15
  6
Continuous
 62
           7
100
AcDbLine
 10
229.029578262287
 20
382.000132953663
 30
0.0
 11
228.654247814137
 21
382.000132953663
 31
0.0
  0
LINE
  5
B5
100
AcDbEntity
  8
0
370
          15
  6
Continuous
 62
           7
100
AcDbLine
 10
228.654247814137
 20
382.000132953663
 30
0.0
 11
226.145577722507
 21
525.721849897791
 31
0.0
  0
LINE
  5
B6
100
AcDbEntity
  8
0
370
          15
  6
Continuous
 62
           7
100
AcDbLine
 10
222.799641185718
 20
527.379961708476
 30
0.0
 11
226.145577722507
 21
525.721849897791
 31
0.0
  0
LINE
  5
B7
100
AcDbEntity
  8
0
370
          15
  6
Continuous
 62
           7
100
AcDbLine
 10
222.678852373081
 20
534.300135472705
 30
0.0
 11
222.799641185718
 21
527.379961708476
 31
0.0
  0
LINE
  5
B8
100
AcDbEntity
  8
0
370
          15
  6
Continuous
 62
           7
100
AcDbLine
 10
222.926748090702
 20
534.300135472705
 30
0.0
 11
222.435844236331
 21
562.42554078429
 31
0.0
  0
LINE
  5
B9
100
AcDbEntity
  8
0
370
          15
  6
Continuous
 62
           7
100
AcDbLine
 10
-345.407861179394
 20
527.379961708474
 30
0.0
 11
-345.287072366757
 21
534.300135472703
 31
0.0
  0
LINE
  5
BA
100
AcDbEntity
  8
0
370
          15
  6
Continuous
 62
           7
100
AcDbLine
 10
-345.407861179394
 20
527.379961708474
 30
0.0
 11
-348.753797716183
 21
525.721849897789
 31
0.0
  0
LINE
  5
BB
100
AcDbEntity
  8
0
370
          15
  6
Continuous
 62
           7
100
AcDbLine
 10
-348.753797716183
 20
525.721849897789
 30
0.0
 11
-351.262467807812
 21
382.000132953661
 31
0.0
  0
LINE
  5
BC
100
AcDbEntity
  8
0
370
          15
  6
Continuous
 62
           7
100
AcDbLine
 10
-351.637798255963
 20
382.000132953661
 30
0.0
 11
-351.262467807812
 21
382.000132953661
 31
0.0
  0
LINE
  5
BD
100
AcDbEntity
  8
0
370
          15
  6
Continuous
 62
           7
100
AcDbLine
 10
-345.044064230008
 20
562.425540784287
 30
0.0
 11
-345.534968084378
 21
534.300135472703
 31
0.0
  0
LINE
  5
BE
100
AcDbEntity
  8
0
370
          15
  6
Continuous
 62
           7
100
AcDbLine
 10
222.965491109806
 20
246.120305756023
 30
0.0
 11
222.678852373082
 21
229.700135091236
 31
0.0
  0
LINE
  5
BF
100
AcDbEntity
  8
0
370
          15
  6
Continuous
 62
           7
100
AcDbLine
 10
222.965491109806
 20
246.120305756023
 30
0.0
 11
226.311397844273
 21
247.778417566706
 31
0.0
  0
LINE
  5
C0
100
AcDbEntity
  8
0
370
          15
  6
Continuous
 62
           7
100
AcDbLine
 10
226.311397844273
 20
247.778417566706
 30
0.0
 11
228.654247814137
 21
382.000132953663
 31
0.0
  0
LINE
  5
C1
100
AcDbEntity
  8
0
370
          15
  6
Continuous
 62
           7
100
AcDbLine
 10
222.435844236333
 20
201.57471487849
 30
0.0
 11
225.820136362035
 21
198.130833009173
 31
0.0
  0
LINE
  5
C2
100
AcDbEntity
  8
0
370
          15
  6
Continuous
 62
           7
100
AcDbLine
 10
222.435844236333
 20
201.57471487849
 30
0.0
 11
222.926748090703
 21
229.700135091235
 31
0.0
  0
LINE
  5
C3
100
AcDbEntity
  8
0
370
          15
  6
Continuous
 62
           7
100
AcDbLine
 10
-351.262467807812
 20
382.000132953661
 30
0.0
 11
-348.919617837947
 21
247.778417566704
 31
0.0
  0
LINE
  5
C4
100
AcDbEntity
  8
0
370
          15
  6
Continuous
 62
           7
100
AcDbLine
 10
-345.573711103481
 20
246.120305756021
 30
0.0
 11
-348.919617837947
 21
247.778417566704
 31
0.0
  0
LINE
  5
C5
100
AcDbEntity
  8
0
370
          15
  6
Continuous
 62
           7
100
AcDbLine
 10
-345.287072366756
 20
229.700135091233
 30
0.0
 11
-345.573711103481
 21
246.120305756021
 31
0.0
  0
LINE
  5
C6
100
AcDbEntity
  8
0
370
          15
  6
Continuous
 62
           7
100
AcDbLine
 10
-345.534968084377
 20
229.700135091233
 30
0.0
 11
-345.044064230006
 21
201.574714878488
 31
0.0
  0
LINE
  5
C7
100
AcDbEntity
  8
0
370
          15
  6
Continuous
 62
           7
100
AcDbLine
 10
-348.428356355708
 20
198.130833009171
 30
0.0
 11
-345.044064230006
 21
201.574714878488
 31
0.0
  0
LINE
  5
C8
100
AcDbEntity
  8
0
370
          15
  6
Continuous
 62
           7
100
AcDbLine
 10
229.309779697376
 20
245.300130942751
 30
0.0
 11
231.695902639347
 21
382.000132953663
 31
0.0
  0
LINE
  5
C9
100
AcDbEntity
  8
0
370
          15
  6
Continuous
 62
           7
100
AcDbLine
 10
230.960649543721
 20
243.62020383208
 30
0.0
 11
229.309779697376
 21
245.300130942751
 31
0.0
  0
LINE
  5
CA
100
AcDbEntity
  8
0
370
          15
  6
Continuous
 62
           7
100
AcDbLine
 10
230.442238145787
 20
213.92078886359
 30
0.0
 11
230.960649543721
 21
243.62020383208
 31
0.0
  0
LINE
  5
CB
100
AcDbEntity
  8
0
370
          15
  6
Continuous
 62
           7
100
AcDbLine
 10
230.394405418355
 20
213.8807345423
 30
0.0
 11
230.157804780918
 21
200.326191285541
 31
0.0
  0
LINE
  5
CC
100
AcDbEntity
  8
0
370
          15
  6
Continuous
 62
           7
100
AcDbLine
 10
230.150801235157
 20
197.224022844722
 30
0.0
 11
230.204206996876
 21
200.284497836521
 31
0.0
  0
LINE
  5
CD
100
AcDbEntity
  8
0
370
          15
  6
Continuous
 62
           7
100
AcDbLine
 10
228.33700209232
 20
199.069755175997
 30
0.0
 11
230.150801235157
 21
197.224022844722
 31
0.0
  0
LINE
  5
CE
100
AcDbEntity
  8
0
370
          15
  6
Continuous
 62
           7
100
AcDbLine
 10
-353.002625412029
 20
213.880734542299
 30
0.0
 11
-352.766024774593
 21
200.326191285539
 31
0.0
  0
LINE
  5
CF
100
AcDbEntity
  8
0
370
          15
  6
Continuous
 62
           7
100
AcDbLine
 10
-353.568869537395
 20
243.620203832078
 30
0.0
 11
-353.050458139461
 21
213.920788863587
 31
0.0
  0
LINE
  5
D0
100
AcDbEntity
  8
0
370
          15
  6
Continuous
 62
           7
100
AcDbLine
 10
-353.568869537395
 20
243.620203832078
 30
0.0
 11
-351.917999691051
 21
245.300130942749
 31
0.0
  0
LINE
  5
D1
100
AcDbEntity
  8
0
370
          15
  6
Continuous
 62
           7
100
AcDbLine
 10
-354.304122633022
 20
382.000132953661
 30
0.0
 11
-351.917999691051
 21
245.300130942749
 31
0.0
  0
LINE
  5
D2
100
AcDbEntity
  8
0
370
          15
  6
Continuous
 62
           7
100
AcDbLine
 10
-352.759021228832
 20
197.22402284472
 30
0.0
 11
-350.945222085994
 21
199.069755175995
 31
0.0
  0
LINE
  5
D3
100
AcDbEntity
  8
0
370
          15
  6
Continuous
 62
           7
100
AcDbLine
 10
-352.81242699055
 20
200.284497836518
 30
0.0
 11
-352.759021228832
 21
197.22402284472
 31
0.0
  0
ELLIPSE
  5
D4
100
AcDbEntity
  8
0
370
          15
  6
Continuous
 62
           7
100
AcDbEllipse
 10
-343.044062441297
 20
201.610227548196
 30
0.0
 11
1.4022382446904658
 21
1.4269280045056121
 31
0.0
210
0.0
220
0.0
230
1.0
 40
0.999700681327
 41
2.3650707950004941
 42
3.9181145121789145
  0
LINE
  5
D5
100
AcDbEntity
  8
0
370
          15
  6
Continuous
 62
           7
100
AcDbLine
 10
-343.044656223338
 20
199.609922269273
 30
0.0
 11
-346.428948349041
 21
196.166040399956
 31
0.0
  0
LINE
  5
D6
100
AcDbEntity
  8
0
370
          15
  6
Continuous
 62
           7
100
AcDbLine
 10
223.820728355366
 20
196.166040399958
 30
0.0
 11
220.436436229664
 21
199.609922269275
 31
0.0
  0
ELLIPSE
  5
D7
100
AcDbEntity
  8
0
370
          15
  6
Continuous
 62
           7
100
AcDbEllipse
 10
220.435842447623
 20
201.610227548198
 30
0.0
 11
-1.4022382446898973
 21
1.4269280045053279
 31
0.0
210
0.0
220
0.0
230
1.0
 40
0.999700681327
 41
2.3650707950010301
 42
3.91811451217897
  0
LINE
  5
D8
100
AcDbEntity
  8
0
370
          15
  6
Continuous
 62
           7
100
AcDbLine
 10
-301.983940309566
 20
199.857788184572
 30
0.0
 11
-313.604104227107
 21
199.857788184572
 31
0.0
  0
LINE
  5
D9
100
AcDbEntity
  8
0
370
          15
  6
Continuous
 62
           7
100
AcDbLine
 10
-301.983940309566
 20
199.857788184572
 30
0.0
 11
-300.304296320957
 21
196.498261788773
 31
0.0
  0
LINE
  5
DA
100
AcDbEntity
  8
0
370
          15
  6
Continuous
 62
           7
100
AcDbLine
 10
-300.120445794147
 20
196.314411261964
 30
0.0
 11
-300.304296320957
 21
196.498261788773
 31
0.0
  0
LINE
  5
DB
100
AcDbEntity
  8
0
370
          15
  6
Continuous
 62
           7
100
AcDbLine
 10
-300.120445794147
 20
196.314411261964
 30
0.0
 11
177.512225800472
 21
196.314411261965
 31
0.0
  0
LINE
  5
DC
100
AcDbEntity
  8
0
370
          15
  6
Continuous
 62
           7
100
AcDbLine
 10
177.696076327283
 20
196.498261788775
 30
0.0
 11
177.512225800472
 21
196.314411261965
 31
0.0
  0
LINE
  5
DD
100
AcDbEntity
  8
0
370
          15
  6
Continuous
 62
           7
100
AcDbLine
 10
179.375720315892
 20
199.857788184573
 30
0.0
 11
177.696076327283
 21
196.498261788775
 31
0.0
  0
LINE
  5
DE
100
AcDbEntity
  8
0
370
          15
  6
Continuous
 62
           7
100
AcDbLine
 10
190.995884233433
 20
199.857788184573
 30
0.0
 11
179.375720315892
 21
199.857788184573
 31
0.0
  0
LINE
  5
DF
100
AcDbEntity
  8
0
370
          15
  6
Continuous
 62
           7
100
AcDbLine
 10
190.995884233433
 20
199.609922269275
 30
0.0
 11
220.436436229664
 21
199.609922269275
 31
0.0
  0
LINE
  5
E0
100
AcDbEntity
  8
0
370
          15
  6
Continuous
 62
           7
100
AcDbLine
 10
-343.044656223338
 20
199.609922269273
 30
0.0
 11
-313.604104227107
 21
199.609922269273
 31
0.0
  0
LINE
  5
E1
100
AcDbEntity
  8
0
370
          15
  6
Continuous
 62
           7
100
AcDbLine
 10
-345.446246570628
 20
193.665938476014
 30
0.0
 11
-347.260045713466
 21
191.820206144739
 31
0.0
  0
ELLIPSE
  5
E2
100
AcDbEntity
  8
0
370
          15
  6
Continuous
 62
           7
100
AcDbEllipse
 10
-347.259644303851
 20
197.320420279182
 30
0.0
 11
3.8552894969126328
 21
3.9231710940890707
 31
0.0
210
0.0
220
0.0
230
1.0
 40
0.999925156527
 41
2.3649585538671722
 42
3.9182267533168438
  0
ELLIPSE
  5
E3
100
AcDbEntity
  8
0
370
          15
  6
Continuous
 62
           7
100
AcDbEllipse
 10
224.651424310176
 20
197.320420279185
 30
0.0
 11
-3.8552894969075169
 21
3.9231710940947551
 31
0.0
210
0.0
220
0.0
230
1.0
 40
0.999925156527
 41
2.3649585538642444
 42
3.9182267533138186
  0
LINE
  5
E4
100
AcDbEntity
  8
0
370
          15
  6
Continuous
 62
           7
100
AcDbLine
 10
224.651825719792
 20
191.820206144741
 30
0.0
 11
222.838026576955
 21
193.665938476016
 31
0.0
  0
LINE
  5
E5
100
AcDbEntity
  8
0
370
          15
  6
Continuous
 62
           7
100
AcDbLine
 10
219.866675430257
 20
191.82020614474
 30
0.0
 11
222.525131994206
 21
191.820206144741
 31
0.0
  0
LINE
  5
E6
100
AcDbEntity
  8
0
370
          15
  6
Continuous
 62
           7
100
AcDbLine
 10
206.344825321156
 20
191.82020614474
 30
0.0
 11
219.866675430257
 21
191.82020614474
 31
0.0
  0
LINE
  5
E7
100
AcDbEntity
  8
0
370
          15
  6
Continuous
 62
           7
100
AcDbLine
 10
205.690634542424
 20
192.125650146892
 30
0.0
 11
201.701116853673
 21
192.125650146892
 31
0.0
  0
LINE
  5
E8
100
AcDbEntity
  8
0
370
          15
  6
Continuous
 62
           7
100
AcDbLine
 10
181.875807338673
 20
191.82020614474
 30
0.0
 11
201.046955877263
 21
191.82020614474
 31
0.0
  0
LINE
  5
E9
100
AcDbEntity
  8
0
370
          15
  6
Continuous
 62
           7
100
AcDbLine
 10
181.875807338673
 20
191.82020614474
 30
0.0
 11
180.195895129163
 21
193.500133255411
 31
0.0
  0
LINE
  5
EA
100
AcDbEntity
  8
0
370
          15
  6
Continuous
 62
           7
100
AcDbLine
 10
180.195895129163
 20
193.500133255411
 30
0.0
 11
179.968980246502
 21
193.61357579558
 31
0.0
  0
LINE
  5
EB
100
AcDbEntity
  8
0
370
          15
  6
Continuous
 62
           7
100
AcDbLine
 10
-302.577200240176
 20
193.613575795579
 30
0.0
 11
179.968980246502
 21
193.61357579558
 31
0.0
  0
LINE
  5
EC
100
AcDbEntity
  8
0
370
          15
  6
Continuous
 62
           7
100
AcDbLine
 10
-302.577200240176
 20
193.613575795579
 30
0.0
 11
-302.804115122836
 21
193.50013325541
 31
0.0
  0
LINE
  5
ED
100
AcDbEntity
  8
0
370
          15
  6
Continuous
 62
           7
100
AcDbLine
 10
-304.484027332347
 20
191.820206144739
 30
0.0
 11
-302.804115122836
 21
193.50013325541
 31
0.0
  0
LINE
  5
EE
100
AcDbEntity
  8
0
370
          15
  6
Continuous
 62
           7
100
AcDbLine
 10
-323.655175870937
 20
191.820206144739
 30
0.0
 11
-304.484027332347
 21
191.820206144739
 31
0.0
  0
LINE
  5
EF
100
AcDbEntity
  8
0
370
          15
  6
Continuous
 62
           7
100
AcDbLine
 10
-328.298854536098
 20
192.12565014689
 30
0.0
 11
-324.309336847347
 21
192.12565014689
 31
0.0
  0
LINE
  5
F0
100
AcDbEntity
  8
0
370
          15
  6
Continuous
 62
           7
100
AcDbLine
 10
-342.47489542393
 20
191.820206144739
 30
0.0
 11
-328.95304531483
 21
191.820206144739
 31
0.0
  0
LINE
  5
F1
100
AcDbEntity
  8
0
370
          15
  6
Continuous
 62
           7
100
AcDbLine
 10
-345.13335198788
 20
191.820206144739
 30
0.0
 11
-342.47489542393
 21
191.820206144739
 31
0.0
  0
LINE
  5
F2
100
AcDbEntity
  8
0
370
          15
  6
Continuous
 62
           7
100
AcDbLine
 10
-347.260045713466
 20
191.820206144739
 30
0.0
 11
-345.13335198788
 21
191.820206144739
 31
0.0
  0
LINE
  5
F3
100
AcDbEntity
  8
0
370
          15
  6
Continuous
 62
           7
100
AcDbLine
 10
222.525131994206
 20
191.820206144741
 30
0.0
 11
224.651825719792
 21
191.820206144741
 31
0.0
  0
LINE
  5
F4
100
AcDbEntity
  8
0
370
          15
  6
Continuous
 62
           7
100
AcDbLine
 10
-248.804109996838
 20
577.300133207726
 30
0.0
 11
-298.804107016606
 21
577.300133207726
 31
0.0
  0
LINE
  5
F5
100
AcDbEntity
  8
0
370
          15
  6
Continuous
 62
           7
100
AcDbLine
 10
-298.804107016606
 20
577.961104014802
 30
0.0
 11
-298.804107016606
 21
577.300133207726
 31
0.0
  0
LINE
  5
F6
100
AcDbEntity
  8
0
370
          15
  6
Continuous
 62
           7
100
AcDbLine
 10
-248.804109996838
 20
577.961104014802
 30
0.0
 11
-248.804109996838
 21
577.300133207726
 31
0.0
  0
LINE
  5
F7
100
AcDbEntity
  8
0
370
          15
  6
Continuous
 62
           7
100
AcDbLine
 10
-248.804109996838
 20
591.270955303597
 30
0.0
 11
-298.804107016606
 21
591.270955303597
 31
0.0
  0
LINE
  5
F8
100
AcDbEntity
  8
0
370
          15
  6
Continuous
 62
           7
100
AcDbLine
 10
-298.804107016606
 20
591.270955303597
 30
0.0
 11
-298.804107016606
 21
590.655567148613
 31
0.0
  0
LINE
  5
F9
100
AcDbEntity
  8
0
370
          15
  6
Continuous
 62
           7
100
AcDbLine
 10
-248.804109996838
 20
591.270955303597
 30
0.0
 11
-248.804109996838
 21
590.655567148614
 31
0.0
  0
LINE
  5
FA
100
AcDbEntity
  8
0
370
          15
  6
Continuous
 62
           7
100
AcDbLine
 10
126.195890003161
 20
591.270955303599
 30
0.0
 11
176.195887022929
 21
591.270955303599
 31
0.0
  0
LINE
  5
FB
100
AcDbEntity
  8
0
370
          15
  6
Continuous
 62
           7
100
AcDbLine
 10
176.195887022929
 20
591.270955303599
 30
0.0
 11
176.195887022929
 21
590.655567148615
 31
0.0
  0
LINE
  5
FC
100
AcDbEntity
  8
0
370
          15
  6
Continuous
 62
           7
100
AcDbLine
 10
126.195890003161
 20
591.270955303599
 30
0.0
 11
126.195890003161
 21
590.655567148615
 31
0.0
  0
LINE
  5
FD
100
AcDbEntity
  8
0
370
          15
  6
Continuous
 62
           7
100
AcDbLine
 10
-302.577200240176
 20
183.892862895417
 30
0.0
 11
-302.804115122836
 21
183.665948012757
 31
0.0
  0
LINE
  5
FE
100
AcDbEntity
  8
0
370
          15
  6
Continuous
 62
           7
100
AcDbLine
 10
-302.804115122836
 20
193.50013325541
 30
0.0
 11
-302.804115122836
 21
183.665948012757
 31
0.0
  0
LINE
  5
FF
100
AcDbEntity
  8
0
370
          15
  6
Continuous
 62
           7
100
AcDbLine
 10
-302.577200240176
 20
193.613575795579
 30
0.0
 11
-302.577200240176
 21
183.892862895417
 31
0.0
  0
LINE
  5
100
100
AcDbEntity
  8
0
370
          15
  6
Continuous
 62
           7
100
AcDbLine
 10
179.968980246503
 20
183.892862895419
 30
0.0
 11
180.195895129163
 21
183.665948012758
 31
0.0
  0
LINE
  5
101
100
AcDbEntity
  8
0
370
          15
  6
Continuous
 62
           7
100
AcDbLine
 10
179.968980246503
 20
183.892862895419
 30
0.0
 11
179.968980246502
 21
193.61357579558
 31
0.0
  0
LINE
  5
102
100
AcDbEntity
  8
0
370
          15
  6
Continuous
 62
           7
100
AcDbLine
 10
180.195895129163
 20
193.500133255411
 30
0.0
 11
180.195895129163
 21
183.665948012758
 31
0.0
  0
LINE
  5
103
100
AcDbEntity
  8
0
370
          15
  6
Continuous
 62
           7
100
AcDbLine
 10
-302.577200240176
 20
183.892862895417
 30
0.0
 11
179.968980246503
 21
183.892862895419
 31
0.0
  0
LINE
  5
104
100
AcDbEntity
  8
0
370
          15
  6
Continuous
 62
           7
100
AcDbLine
 10
-302.804115122836
 20
183.665948012757
 30
0.0
 11
180.195895129163
 21
183.665948012758
 31
0.0
  0
LINE
  5
105
100
AcDbEntity
  8
0
370
          15
  6
Continuous
 62
           7
100
AcDbLine
 10
180.195895129163
 20
179.500134685923
 30
0.0
 11
243.69589715572
 21
179.500134685923
 31
0.0
  0
LINE
  5
106
100
AcDbEntity
  8
0
370
          15
  6
Continuous
 62
           7
100
AcDbLine
 10
243.69589715572
 20
179.500134685923
 30
0.0
 11
243.69589715572
 21
245.300130942751
 31
0.0
  0
LINE
  5
107
100
AcDbEntity
  8
0
370
          15
  6
Continuous
 62
           7
100
AcDbLine
 10
243.69589715572
 20
245.300130942751
 30
0.0
 11
229.309779697376
 21
245.300130942751
 31
0.0
  0
LINE
  5
108
100
AcDbEntity
  8
0
370
          15
  6
Continuous
 62
           7
100
AcDbLine
 10
229.143959575611
 20
528.200136521746
 30
0.0
 11
243.695897155719
 21
528.200136521746
 31
0.0
  0
LINE
  5
109
100
AcDbEntity
  8
0
370
          15
  6
Continuous
 62
           7
100
AcDbLine
 10
243.695897155719
 20
528.200136521746
 30
0.0
 11
243.695897155719
 21
589.500131109644
 31
0.0
  0
LINE
  5
10A
100
AcDbEntity
  8
0
370
          15
  6
Continuous
 62
           7
100
AcDbLine
 10
243.695897155719
 20
589.500131109644
 30
0.0
 11
180.195895129161
 21
589.500131109644
 31
0.0
  0
LINE
  5
10B
100
AcDbEntity
  8
0
370
          15
  6
Continuous
 62
           7
100
AcDbLine
 10
180.195895129161
 20
589.500131109644
 30
0.0
 11
180.195895129161
 21
570.500137308527
 31
0.0
  0
LINE
  5
10C
100
AcDbEntity
  8
0
370
          15
  6
Continuous
 62
           7
100
AcDbLine
 10
-302.804115122838
 20
570.500137308526
 30
0.0
 11
-302.804115122838
 21
589.500131109642
 31
0.0
  0
LINE
  5
10D
100
AcDbEntity
  8
0
370
          15
  6
Continuous
 62
           7
100
AcDbLine
 10
-302.804115122838
 20
589.500131109642
 30
0.0
 11
-366.304117149396
 21
589.500131109642
 31
0.0
  0
LINE
  5
10E
100
AcDbEntity
  8
0
370
          15
  6
Continuous
 62
           7
100
AcDbLine
 10
-366.304117149396
 20
589.500131109642
 30
0.0
 11
-366.304117149396
 21
528.200136521744
 31
0.0
  0
LINE
  5
10F
100
AcDbEntity
  8
0
370
          15
  6
Continuous
 62
           7
100
AcDbLine
 10
-366.304117149396
 20
528.200136521744
 30
0.0
 11
-351.752179569287
 21
528.200136521744
 31
0.0
  0
LINE
  5
110
100
AcDbEntity
  8
0
370
          15
  6
Continuous
 62
           7
100
AcDbLine
 10
-351.917999691051
 20
245.300130942749
 30
0.0
 11
-366.304117149395
 21
245.300130942749
 31
0.0
  0
LINE
  5
111
100
AcDbEntity
  8
0
370
          15
  6
Continuous
 62
           7
100
AcDbLine
 10
-366.304117149395
 20
245.300130942749
 30
0.0
 11
-366.304117149394
 21
179.500134685921
 31
0.0
  0
LINE
  5
112
100
AcDbEntity
  8
0
370
          15
  6
Continuous
 62
           7
100
AcDbLine
 10
-366.304117149394
 20
179.500134685921
 30
0.0
 11
-302.804115122836
 21
179.500134685921
 31
0.0
  0
LINE
  5
113
100
AcDbEntity
  8
0
370
          15
  6
Continuous
 62
           7
100
AcDbLine
 10
-302.804115122836
 20
179.500134685921
 30
0.0
 11
-302.804115122836
 21
183.665948012757
 31
0.0
  0
LINE
  5
114
100
AcDbEntity
  8
0
370
          15
  6
Continuous
 62
           7
100
AcDbLine
 10
180.195895129163
 20
183.665948012758
 30
0.0
 11
180.195895129163
 21
179.500134685923
 31
0.0
  0
ELLIPSE
  5
115
100
AcDbEntity
  8
0
370
          15
  6
Continuous
 62
           7
100
AcDbEllipse
 10
-366.204010993034
 20
179.600231901585
 30
0.0
 11
1.8386176409390487
 21
1.8386176409416066
 31
0.0
210
0.0
220
0.0
230
1.0
 40
0.999923850477
 41
2.3562325664026189
 42
3.9269527407758082
  0
LINE
  5
116
100
AcDbEntity
  8
0
370
          15
  6
Continuous
 62
           7
100
AcDbLine
 10
-368.80411476521
 20
589.400233724999
 30
0.0
 11
-368.804114765209
 21
179.600032070564
 31
0.0
  0
ELLIPSE
  5
117
100
AcDbEntity
  8
0
370
          15
  6
Continuous
 62
           7
100
AcDbEllipse
 10
-366.204010993036
 20
589.400033893979
 30
0.0
 11
1.8386176409390487
 21
-1.8386176409416066
 31
0.0
210
0.0
220
0.0
230
1.0
 40
0.999923850477
 41
2.3562325664037918
 42
3.9269527407771996
  0
LINE
  5
118
100
AcDbEntity
  8
0
370
          15
  6
Continuous
 62
           7
100
AcDbLine
 10
243.595999771075
 20
592.000128725459
 30
0.0
 11
-366.204219764752
 21
592.000128725457
 31
0.0
  0
ELLIPSE
  5
119
100
AcDbEntity
  8
0
370
          15
  6
Continuous
 62
           7
100
AcDbEllipse
 10
243.595790999359
 20
589.400033893981
 30
0.0
 11
1.8386176409393329
 21
1.8386176409413792
 31
0.0
210
0.0
220
0.0
230
1.0
 40
0.999923850478
 41
5.4978252199925484
 42
7.0685453943653505
  0
LINE
  5
11A
100
AcDbEntity
  8
0
370
          15
  6
Continuous
 62
           7
100
AcDbLine
 10
246.195894771535
 20
179.600032070567
 30
0.0
 11
246.195894771534
 21
589.400233725001
 31
0.0
  0
ELLIPSE
  5
11B
100
AcDbEntity
  8
0
370
          15
  6
Continuous
 62
           7
100
AcDbEllipse
 10
243.59579099936
 20
179.600231901587
 30
0.0
 11
1.8386176409399013
 21
-1.8386176409413224
 31
0.0
210
0.0
220
0.0
230
1.0
 40
0.999923850477
 41
5.4978252199936177
 42
7.0685453943665735
  0
LINE
  5
11C
100
AcDbEntity
  8
0
370
          15
  6
Continuous
 62
           7
100
AcDbLine
 10
-366.204219764751
 20
177.000137070107
 30
0.0
 11
243.595999771077
 21
177.000137070109
 31
0.0
  0
LINE
  5
11D
100
AcDbEntity
  8
0
370
          15
  6
Continuous
 62
           7
100
AcDbLine
 10
-364.624190038724
 20
587.820203998971
 30
0.0
 11
-366.304117149396
 21
589.500131109642
 31
0.0
  0
LINE
  5
11E
100
AcDbEntity
  8
0
370
          15
  6
Continuous
 62
           7
100
AcDbLine
 10
-304.484027332349
 20
587.820203998971
 30
0.0
 11
-302.804115122838
 21
589.500131109642
 31
0.0
  0
LINE
  5
11F
100
AcDbEntity
  8
0
370
          15
  6
Continuous
 62
           7
100
AcDbLine
 10
-364.624190038724
 20
587.820203998971
 30
0.0
 11
-304.484027332349
 21
587.820203998971
 31
0.0
  0
LINE
  5
120
100
AcDbEntity
  8
0
370
          15
  6
Continuous
 62
           7
100
AcDbLine
 10
181.875807338672
 20
587.820203998973
 30
0.0
 11
180.195895129161
 21
589.500131109644
 31
0.0
  0
LINE
  5
121
100
AcDbEntity
  8
0
370
          15
  6
Continuous
 62
           7
100
AcDbLine
 10
242.015970045047
 20
587.820203998973
 30
0.0
 11
243.695897155719
 21
589.500131109644
 31
0.0
  0
LINE
  5
122
100
AcDbEntity
  8
0
370
          15
  6
Continuous
 62
           7
100
AcDbLine
 10
181.875807338672
 20
587.820203998973
 30
0.0
 11
242.015970045047
 21
587.820203998973
 31
0.0
  0
LINE
  5
123
100
AcDbEntity
  8
0
370
          15
  6
Continuous
 62
           7
100
AcDbLine
 10
181.875807338672
 20
572.180049518039
 30
0.0
 11
181.875807338672
 21
587.820203998973
 31
0.0
  0
LINE
  5
124
100
AcDbEntity
  8
0
370
          15
  6
Continuous
 62
           7
100
AcDbLine
 10
-304.484027332349
 20
587.820203998971
 30
0.0
 11
-304.484027332349
 21
572.180049518037
 31
0.0
  0
LINE
  5
125
100
AcDbEntity
  8
0
370
          15
  6
Continuous
 62
           7
100
AcDbLine
 10
-364.624190038723
 20
529.880048731256
 30
0.0
 11
-364.624190038723
 21
555.135237077165
 31
0.0
  0
LINE
  5
126
100
AcDbEntity
  8
0
370
          15
  6
Continuous
 62
           7
100
AcDbLine
 10
-364.624190038723
 20
529.880048731256
 30
0.0
 11
-366.304117149396
 21
528.200136521744
 31
0.0
  0
LINE
  5
127
100
AcDbEntity
  8
0
370
          15
  6
Continuous
 62
           7
100
AcDbLine
 10
-364.624190038724
 20
568.865017989564
 30
0.0
 11
-364.624190038724
 21
587.820203998971
 31
0.0
  0
LINE
  5
128
100
AcDbEntity
  8
0
370
          15
  6
Continuous
 62
           7
100
AcDbLine
 10
-364.671307510419
 20
568.824784854341
 30
0.0
 11
-364.671307510419
 21
555.175470212388
 31
0.0
  0
LINE
  5
129
100
AcDbEntity
  8
0
370
          15
  6
Continuous
 62
           7
100
AcDbLine
 10
242.063087516742
 20
568.824784854343
 30
0.0
 11
242.063087516742
 21
555.17547021239
 31
0.0
  0
LINE
  5
12A
100
AcDbEntity
  8
0
370
          15
  6
Continuous
 62
           7
100
AcDbLine
 10
242.015970045047
 20
587.820203998973
 30
0.0
 11
242.015970045047
 21
568.865017989566
 31
0.0
  0
LINE
  5
12B
100
AcDbEntity
  8
0
370
          15
  6
Continuous
 62
           7
100
AcDbLine
 10
242.015970045047
 20
529.880048731258
 30
0.0
 11
243.695897155719
 21
528.200136521746
 31
0.0
  0
LINE
  5
12C
100
AcDbEntity
  8
0
370
          15
  6
Continuous
 62
           7
100
AcDbLine
 10
242.015970045047
 20
555.135237077167
 30
0.0
 11
242.015970045047
 21
529.880048731258
 31
0.0
  0
LINE
  5
12D
100
AcDbEntity
  8
0
370
          15
  6
Continuous
 62
           7
100
AcDbLine
 10
-353.403019613308
 20
529.880048731256
 30
0.0
 11
-364.624190038723
 21
529.880048731256
 31
0.0
  0
LINE
  5
12E
100
AcDbEntity
  8
0
370
          15
  6
Continuous
 62
           7
100
AcDbLine
 10
242.015970045047
 20
529.880048731258
 30
0.0
 11
230.794799619632
 21
529.880048731258
 31
0.0
  0
LINE
  5
12F
100
AcDbEntity
  8
0
370
          15
  6
Continuous
 62
           7
100
AcDbLine
 10
242.015970045048
 20
243.62020383208
 30
0.0
 11
243.69589715572
 21
245.300130942751
 31
0.0
  0
LINE
  5
130
100
AcDbEntity
  8
0
370
          15
  6
Continuous
 62
           7
100
AcDbLine
 10
230.960649543721
 20
243.62020383208
 30
0.0
 11
242.015970045048
 21
243.62020383208
 31
0.0
  0
LINE
  5
131
100
AcDbEntity
  8
0
370
          15
  6
Continuous
 62
           7
100
AcDbLine
 10
-364.624190038722
 20
243.620203832078
 30
0.0
 11
-366.304117149395
 21
245.300130942749
 31
0.0
  0
LINE
  5
132
100
AcDbEntity
  8
0
370
          15
  6
Continuous
 62
           7
100
AcDbLine
 10
-364.624190038722
 20
243.620203832078
 30
0.0
 11
-353.568869537395
 21
243.620203832078
 31
0.0
  0
LINE
  5
133
100
AcDbEntity
  8
0
370
          15
  6
Continuous
 62
           7
100
AcDbLine
 10
242.063087516743
 20
200.175480941226
 30
0.0
 11
242.063087516743
 21
213.824795583179
 31
0.0
  0
LINE
  5
134
100
AcDbEntity
  8
0
370
          15
  6
Continuous
 62
           7
100
AcDbLine
 10
242.015970045048
 20
243.62020383208
 30
0.0
 11
242.015970045048
 21
213.865028718402
 31
0.0
  0
LINE
  5
135
100
AcDbEntity
  8
0
370
          15
  6
Continuous
 62
           7
100
AcDbLine
 10
242.015970045048
 20
181.180061796596
 30
0.0
 11
243.69589715572
 21
179.500134685923
 31
0.0
  0
LINE
  5
136
100
AcDbEntity
  8
0
370
          15
  6
Continuous
 62
           7
100
AcDbLine
 10
242.015970045048
 20
200.135247806003
 30
0.0
 11
242.015970045048
 21
181.180061796596
 31
0.0
  0
LINE
  5
137
100
AcDbEntity
  8
0
370
          15
  6
Continuous
 62
           7
100
AcDbLine
 10
-364.624190038722
 20
181.180061796594
 30
0.0
 11
-364.624190038722
 21
200.135247806001
 31
0.0
  0
LINE
  5
138
100
AcDbEntity
  8
0
370
          15
  6
Continuous
 62
           7
100
AcDbLine
 10
-364.624190038722
 20
181.180061796594
 30
0.0
 11
-366.304117149394
 21
179.500134685921
 31
0.0
  0
LINE
  5
139
100
AcDbEntity
  8
0
370
          15
  6
Continuous
 62
           7
100
AcDbLine
 10
-364.624190038722
 20
213.8650287184
 30
0.0
 11
-364.624190038722
 21
243.620203832078
 31
0.0
  0
LINE
  5
13A
100
AcDbEntity
  8
0
370
          15
  6
Continuous
 62
           7
100
AcDbLine
 10
-364.671307510417
 20
200.175480941224
 30
0.0
 11
-364.671307510417
 21
213.824795583177
 31
0.0
  0
LINE
  5
13B
100
AcDbEntity
  8
0
370
          15
  6
Continuous
 62
           7
100
AcDbLine
 10
181.875807338673
 20
181.180061796595
 30
0.0
 11
180.195895129163
 21
179.500134685923
 31
0.0
  0
LINE
  5
13C
100
AcDbEntity
  8
0
370
          15
  6
Continuous
 62
           7
100
AcDbLine
 10
181.875807338673
 20
181.180061796595
 30
0.0
 11
181.875807338673
 21
191.82020614474
 31
0.0
  0
LINE
  5
13D
100
AcDbEntity
  8
0
370
          15
  6
Continuous
 62
           7
100
AcDbLine
 10
-304.484027332347
 20
181.180061796594
 30
0.0
 11
-302.804115122836
 21
179.500134685921
 31
0.0
  0
LINE
  5
13E
100
AcDbEntity
  8
0
370
          15
  6
Continuous
 62
           7
100
AcDbLine
 10
-304.484027332347
 20
191.820206144739
 30
0.0
 11
-304.484027332347
 21
181.180061796594
 31
0.0
  0
LINE
  5
13F
100
AcDbEntity
  8
0
370
          15
  6
Continuous
 62
           7
100
AcDbLine
 10
-304.484027332347
 20
181.180061796594
 30
0.0
 11
-364.624190038722
 21
181.180061796594
 31
0.0
  0
LINE
  5
140
100
AcDbEntity
  8
0
370
          15
  6
Continuous
 62
           7
100
AcDbLine
 10
242.015970045048
 20
181.180061796596
 30
0.0
 11
181.875807338673
 21
181.180061796595
 31
0.0
  0
CIRCLE
  5
141
100
AcDbEntity
  8
0
370
          15
  6
Continuous
 62
           7
100
AcDbCircle
 10
203.695890003162
 20
582.000132897784
 30
0.0
 40
5.5
  0
CIRCLE
  5
142
100
AcDbEntity
  8
0
370
          15
  6
Continuous
 62
           7
100
AcDbCircle
 10
-326.304109996838
 20
582.000132897782
 30
0.0
 40
5.5
  0
CIRCLE
  5
143
100
AcDbEntity
  8
0
370
          15
  6
Continuous
 62
           7
100
AcDbCircle
 10
-358.804109996838
 20
549.500132897782
 30
0.0
 40
5.5
  0
CIRCLE
  5
144
100
AcDbEntity
  8
0
370
          15
  6
Continuous
 62
           7
100
AcDbCircle
 10
236.195890003161
 20
549.500132897784
 30
0.0
 40
5.500000000001
  0
CIRCLE
  5
145
100
AcDbEntity
  8
0
370
          15
  6
Continuous
 62
           7
100
AcDbCircle
 10
-358.804109996837
 20
219.500132897782
 30
0.0
 40
5.5
  0
CIRCLE
  5
146
100
AcDbEntity
  8
0
370
          15
  6
Continuous
 62
           7
100
AcDbCircle
 10
236.195890003163
 20
219.500132897784
 30
0.0
 40
5.500000000001
  0
ARC
  5
147
100
AcDbEntity
  8
0
370
          15
  6
Continuous
 62
           7
100
AcDbCircle
 10
203.695890003163
 20
187.000132897784
 30
0.0
 40
5.5
100
AcDbArc
 50
111.265083559529
 51
68.734916440472
  0
ARC
  5
148
100
AcDbEntity
  8
0
370
          15
  6
Continuous
 62
           7
100
AcDbCircle
 10
-326.304109996837
 20
187.000132897782
 30
0.0
 40
5.5
100
AcDbArc
 50
111.26508355953
 51
68.73491644047
  0
CIRCLE
  5
149
100
AcDbEntity
  8
0
370
          15
  6
Continuous
 62
           7
100
AcDbCircle
 10
-323.804109996838
 20
544.500132897782
 30
0.0
 40
3.0
  0
LINE
  5
14A
100
AcDbEntity
  8
0
370
          15
  6
Continuous
 62
           7
100
AcDbLine
 10
-313.604104227108
 20
544.500129321504
 30
0.0
 11
-313.604104227108
 21
564.390348294663
 31
0.0
  0
ARC
  5
14B
100
AcDbEntity
  8
0
370
          15
  6
Continuous
 62
           7
100
AcDbCircle
 10
-323.804109996838
 20
544.500132897782
 30
0.0
 40
10.2
100
AcDbArc
 50
270.000000000002
 51
360.000000000001
  0
LINE
  5
14C
100
AcDbEntity
  8
0
370
          15
  6
Continuous
 62
           7
100
AcDbLine
 10
-345.534968084378
 20
534.300135472703
 30
0.0
 11
-323.804098075909
 21
534.300135472703
 31
0.0
  0
CIRCLE
  5
14D
100
AcDbEntity
  8
0
370
          15
  6
Continuous
 62
           7
100
AcDbCircle
 10
201.195890003162
 20
544.500132897784
 30
0.0
 40
3.0
  0
LINE
  5
14E
100
AcDbEntity
  8
0
370
          15
  6
Continuous
 62
           7
100
AcDbLine
 10
201.195878082233
 20
534.300135472705
 30
0.0
 11
222.926748090702
 21
534.300135472705
 31
0.0
  0
ARC
  5
14F
100
AcDbEntity
  8
0
370
          15
  6
Continuous
 62
           7
100
AcDbCircle
 10
201.195890003162
 20
544.500132897784
 30
0.0
 40
10.2
100
AcDbArc
 50
180.0
 51
270.0
  0
LINE
  5
150
100
AcDbEntity
  8
0
370
          15
  6
Continuous
 62
           7
100
AcDbLine
 10
190.995884233432
 20
564.390348294666
 30
0.0
 11
190.995884233432
 21
544.500129321506
 31
0.0
  0
CIRCLE
  5
151
100
AcDbEntity
  8
0
370
          15
  6
Continuous
 62
           7
100
AcDbCircle
 10
-323.804109996837
 20
219.500132897782
 30
0.0
 40
3.0
  0
LINE
  5
152
100
AcDbEntity
  8
0
370
          15
  6
Continuous
 62
           7
100
AcDbLine
 10
-323.804098075908
 20
229.700135091233
 30
0.0
 11
-345.534968084377
 21
229.700135091233
 31
0.0
  0
LINE
  5
153
100
AcDbEntity
  8
0
370
          15
  6
Continuous
 62
           7
100
AcDbLine
 10
-313.604104227107
 20
199.609922269273
 30
0.0
 11
-313.604104227107
 21
219.500126341271
 31
0.0
  0
ARC
  5
154
100
AcDbEntity
  8
0
370
          15
  6
Continuous
 62
           7
100
AcDbCircle
 10
-323.804109996837
 20
219.500132897782
 30
0.0
 40
10.2
100
AcDbArc
 50
0.0
 51
90.0
  0
CIRCLE
  5
155
100
AcDbEntity
  8
0
370
          15
  6
Continuous
 62
           7
100
AcDbCircle
 10
201.195890003163
 20
219.500132897784
 30
0.0
 40
3.0
  0
LINE
  5
156
100
AcDbEntity
  8
0
370
          15
  6
Continuous
 62
           7
100
AcDbLine
 10
190.995884233433
 20
219.500126341273
 30
0.0
 11
190.995884233433
 21
199.609922269275
 31
0.0
  0
LINE
  5
157
100
AcDbEntity
  8
0
370
          15
  6
Continuous
 62
           7
100
AcDbLine
 10
222.926748090703
 20
229.700135091235
 30
0.0
 11
201.195878082234
 21
229.700135091235
 31
0.0
  0
ARC
  5
158
100
AcDbEntity
  8
0
370
          15
  6
Continuous
 62
           7
100
AcDbCircle
 10
201.195890003163
 20
219.500132897784
 30
0.0
 40
10.2
100
AcDbArc
 50
90.0
 51
180.0
  0
ARC
  5
159
100
AcDbEntity
  8
0
370
          15
  6
Continuous
 62
           7
100
AcDbCircle
 10
-358.804109996838
 20
562.000132897782
 30
0.0
 40
9.0
100
AcDbArc
 50
229.314127597392
 51
246.926081934365
  0
ARC
  5
15A
100
AcDbEntity
  8
0
370
          15
  6
Continuous
 62
           7
100
AcDbCircle
 10
-358.804109996838
 20
562.000132897782
 30
0.0
 40
9.0
100
AcDbArc
 50
293.073918065628
 51
310.878260123781
  0
ARC
  5
15B
100
AcDbEntity
  8
0
370
          15
  6
Continuous
 62
           7
100
AcDbCircle
 10
-358.804109996838
 20
562.000132897782
 30
0.0
 40
9.0
100
AcDbArc
 50
44.958780467341
 51
130.685872402607
  0
CIRCLE
  5
15C
100
AcDbEntity
  8
0
370
          15
  6
Continuous
 62
           7
100
AcDbCircle
 10
-358.804109996838
 20
562.000132897782
 30
0.0
 40
3.1
  0
ARC
  5
15D
100
AcDbEntity
  8
0
370
          15
  6
Continuous
 62
           7
100
AcDbCircle
 10
236.195890003161
 20
562.000132897784
 30
0.0
 40
9.0
100
AcDbArc
 50
293.073918065634
 51
310.685872402609
  0
ARC
  5
15E
100
AcDbEntity
  8
0
370
          15
  6
Continuous
 62
           7
100
AcDbCircle
 10
236.195890003161
 20
562.000132897784
 30
0.0
 40
9.0
100
AcDbArc
 50
229.121739876223
 51
246.926081934377
  0
ARC
  5
15F
100
AcDbEntity
  8
0
370
          15
  6
Continuous
 62
           7
100
AcDbCircle
 10
236.195890003161
 20
562.000132897784
 30
0.0
 40
9.000000000001
100
AcDbArc
 50
49.314127597393
 51
135.041219532652
  0
CIRCLE
  5
160
100
AcDbEntity
  8
0
370
          15
  6
Continuous
 62
           7
100
AcDbCircle
 10
236.195890003161
 20
562.000132897784
 30
0.0
 40
3.100000000001
  0
ARC
  5
161
100
AcDbEntity
  8
0
370
          15
  6
Continuous
 62
           7
100
AcDbCircle
 10
236.195890003163
 20
207.000132897785
 30
0.0
 40
9.0
100
AcDbArc
 50
49.314127597395
 51
66.926081934369
  0
ARC
  5
162
100
AcDbEntity
  8
0
370
          15
  6
Continuous
 62
           7
100
AcDbCircle
 10
236.195890003163
 20
207.000132897785
 30
0.0
 40
9.0
100
AcDbArc
 50
227.863565133945
 51
310.685872402605
  0
ARC
  5
163
100
AcDbEntity
  8
0
370
          15
  6
Continuous
 62
           7
100
AcDbCircle
 10
236.195890003163
 20
207.000132897785
 30
0.0
 40
9.0
100
AcDbArc
 50
113.073918065628
 51
130.136434866058
  0
CIRCLE
  5
164
100
AcDbEntity
  8
0
370
          15
  6
Continuous
 62
           7
100
AcDbCircle
 10
236.195890003163
 20
207.000132897785
 30
0.0
 40
3.1
  0
ARC
  5
165
100
AcDbEntity
  8
0
370
          15
  6
Continuous
 62
           7
100
AcDbCircle
 10
-358.804109996837
 20
207.000132897782
 30
0.0
 40
9.0
100
AcDbArc
 50
229.314127597392
 51
312.136434866057
  0
ARC
  5
166
100
AcDbEntity
  8
0
370
          15
  6
Continuous
 62
           7
100
AcDbCircle
 10
-358.804109996837
 20
207.000132897782
 30
0.0
 40
9.0
100
AcDbArc
 50
113.07391806563
 51
130.685872402609
  0
ARC
  5
167
100
AcDbEntity
  8
0
370
          15
  6
Continuous
 62
           7
100
AcDbCircle
 10
-358.804109996837
 20
207.000132897782
 30
0.0
 40
9.0
100
AcDbArc
 50
49.863565133944
 51
66.926081934371
  0
CIRCLE
  5
168
100
AcDbEntity
  8
0
370
          15
  6
Continuous
 62
           7
100
AcDbCircle
 10
-358.804109996837
 20
207.000132897782
 30
0.0
 40
3.1
  0
CIRCLE
  5
169
100
AcDbEntity
  8
0
370
          15
  6
Continuous
 62
           7
100
AcDbCircle
 10
221.195890003161
 20
582.000132897784
 30
0.0
 40
5.0
  0
CIRCLE
  5
16A
100
AcDbEntity
  8
0
370
          15
  6
Continuous
 62
           7
100
AcDbCircle
 10
-343.804109996838
 20
582.000132897782
 30
0.0
 40
5.0
  0
ARC
  5
16B
100
AcDbEntity
  8
0
370
          15
  6
Continuous
 62
           7
100
AcDbCircle
 10
-343.804109996837
 20
187.000132897782
 30
0.0
 40
5.0
100
AcDbArc
 50
105.417211139609
 51
74.582788860388
  0
ARC
  5
16C
100
AcDbEntity
  8
0
370
          15
  6
Continuous
 62
           7
100
AcDbCircle
 10
221.195890003163
 20
187.000132897785
 30
0.0
 40
5.0
100
AcDbArc
 50
105.417211139609
 51
74.582788860391
  0
LINE
  5
16D
100
AcDbEntity
  8
0
370
          15
  6
Continuous
 62
           7
100
AcDbLine
 10
208.695900731998
 20
-136.668962762041
 30
0.0
 11
208.695900731998
 21
-134.668958708925
 31
0.0
  0
LINE
  5
16E
100
AcDbEntity
  8
0
370
          15
  6
Continuous
 62
           7
100
AcDbLine
 10
198.695880466419
 20
-134.668958708925
 30
0.0
 11
198.695880466419
 21
-136.668962762041
 31
0.0
  0
LINE
  5
16F
100
AcDbEntity
  8
0
370
          15
  6
Continuous
 62
           7
100
AcDbLine
 10
-321.304100460095
 20
-136.668962762041
 30
0.0
 11
-321.304100460095
 21
-134.668958708925
 31
0.0
  0
LINE
  5
170
100
AcDbEntity
  8
0
370
          15
  6
Continuous
 62
           7
100
AcDbLine
 10
-331.304120725674
 20
-134.668958708925
 30
0.0
 11
-331.304120725674
 21
-136.668962762041
 31
0.0
  0
LINE
  5
171
100
AcDbEntity
  8
0
370
          15
  6
Continuous
 62
           7
100
AcDbLine
 10
221.195888811069
 20
-134.668958708924
 30
0.0
 11
221.195888811069
 21
-136.66896276204
 31
0.0
  0
LINE
  5
172
100
AcDbEntity
  8
0
370
          15
  6
Continuous
 62
           7
100
AcDbLine
 10
-343.804108804745
 20
-136.66896276204
 30
0.0
 11
-343.804108804745
 21
-134.668958708924
 31
0.0
  0
LINE
  5
173
100
AcDbEntity
  8
0
370
          15
  6
Continuous
 62
           7
100
AcDbLine
 10
246.195894771534
 20
-331.668955609484
 30
0.0
 11
243.595999771075
 21
-331.668955609484
 31
0.0
  0
LINE
  5
174
100
AcDbEntity
  8
0
370
          15
  6
Continuous
 62
           7
100
AcDbLine
 10
243.595999771075
 20
-331.668955609484
 30
0.0
 11
241.916728311496
 21
-139.246267602129
 31
0.0
  0
ARC
  5
175
100
AcDbEntity
  8
0
370
          15
  6
Continuous
 62
           7
100
AcDbCircle
 10
243.396151545558
 20
-223.964125654083
 30
0.0
 40
84.730774610035
100
AcDbArc
 50
89.242283780658
 51
91.000451315614
  0
LINE
  5
176
100
AcDbEntity
  8
0
370
          15
  6
Continuous
 62
           7
100
AcDbLine
 10
244.516653114276
 20
-139.246267602129
 30
0.0
 11
246.195894771534
 21
-331.668955609484
 31
0.0
  0
LINE
  5
177
100
AcDbEntity
  8
0
370
          15
  6
Continuous
 62
           7
100
AcDbLine
 10
243.595999771075
 20
-331.668955609484
 30
0.0
 11
-366.204219764752
 21
-331.668955609484
 31
0.0
  0
LINE
  5
178
100
AcDbEntity
  8
0
370
          15
  6
Continuous
 62
           7
100
AcDbLine
 10
-364.524948305173
 20
-139.246267602129
 30
0.0
 11
-366.204219764752
 21
-331.668955609484
 31
0.0
  0
LINE
  5
179
100
AcDbEntity
  8
0
370
          15
  6
Continuous
 62
           7
100
AcDbLine
 10
241.916728311496
 20
-139.246267602129
 30
0.0
 11
-364.524948305173
 21
-139.246267602129
 31
0.0
  0
LINE
  5
17A
100
AcDbEntity
  8
0
370
          15
  6
Continuous
 62
           7
100
AcDbLine
 10
-368.80411476521
 20
-331.668955609484
 30
0.0
 11
-367.124873107953
 21
-139.246267602129
 31
0.0
  0
ARC
  5
17B
100
AcDbEntity
  8
0
370
          15
  6
Continuous
 62
           7
100
AcDbCircle
 10
-366.004371538863
 20
-223.964125615437
 30
0.0
 40
84.730774571388
100
AcDbArc
 50
88.999548684181
 51
90.757716219939
  0
LINE
  5
17C
100
AcDbEntity
  8
0
370
          15
  6
Continuous
 62
           7
100
AcDbLine
 10
-366.204219764752
 20
-331.668955609484
 30
0.0
 11
-368.80411476521
 21
-331.668955609484
 31
0.0
  0
LINE
  5
17D
100
AcDbEntity
  8
0
370
          15
  6
Continuous
 62
           7
100
AcDbLine
 10
176.195887022929
 20
-331.668955609484
 30
0.0
 11
176.195887022929
 21
-349.291104227586
 31
0.0
  0
LINE
  5
17E
100
AcDbEntity
  8
0
370
          15
  6
Continuous
 62
           7
100
AcDbLine
 10
126.195890003161
 20
-349.291104227586
 30
0.0
 11
176.195887022929
 21
-349.291104227586
 31
0.0
  0
LINE
  5
17F
100
AcDbEntity
  8
0
370
          15
  6
Continuous
 62
           7
100
AcDbLine
 10
126.195890003161
 20
-331.668955609484
 30
0.0
 11
126.195890003161
 21
-349.291104227586
 31
0.0
  0
LINE
  5
180
100
AcDbEntity
  8
0
370
          15
  6
Continuous
 62
           7
100
AcDbLine
 10
-298.804107016606
 20
-349.291104227586
 30
0.0
 11
-248.804109996838
 21
-349.291104227586
 31
0.0
  0
LINE
  5
181
100
AcDbEntity
  8
0
370
          15
  6
Continuous
 62
           7
100
AcDbLine
 10
-298.804107016606
 20
-331.668955609484
 30
0.0
 11
-298.804107016606
 21
-349.291104227586
 31
0.0
  0
LINE
  5
182
100
AcDbEntity
  8
0
370
          15
  6
Continuous
 62
           7
100
AcDbLine
 10
-248.804109996838
 20
-331.668955609484
 30
0.0
 11
-248.804109996838
 21
-349.291104227586
 31
0.0
  0
LINE
  5
183
100
AcDbEntity
  8
0
370
          15
  6
Continuous
 62
           7
100
AcDbLine
 10
176.195887022929
 20
-352.668955326362
 30
0.0
 11
126.195890003161
 21
-352.668955326362
 31
0.0
  0
LINE
  5
184
100
AcDbEntity
  8
0
370
          15
  6
Continuous
 62
           7
100
AcDbLine
 10
126.195890003161
 20
-352.668955326362
 30
0.0
 11
126.195890003161
 21
-349.291104227586
 31
0.0
  0
LINE
  5
185
100
AcDbEntity
  8
0
370
          15
  6
Continuous
 62
           7
100
AcDbLine
 10
176.195887022929
 20
-349.291104227586
 30
0.0
 11
176.195887022929
 21
-352.668955326362
 31
0.0
  0
LINE
  5
186
100
AcDbEntity
  8
0
370
          15
  6
Continuous
 62
           7
100
AcDbLine
 10
-248.804109996838
 20
-352.668955326362
 30
0.0
 11
-298.804107016606
 21
-352.668955326362
 31
0.0
  0
LINE
  5
187
100
AcDbEntity
  8
0
370
          15
  6
Continuous
 62
           7
100
AcDbLine
 10
-298.804107016606
 20
-352.668955326362
 30
0.0
 11
-298.804107016606
 21
-349.291104227586
 31
0.0
  0
LINE
  5
188
100
AcDbEntity
  8
0
370
          15
  6
Continuous
 62
           7
100
AcDbLine
 10
-248.804109996838
 20
-349.291104227586
 30
0.0
 11
-248.804109996838
 21
-352.668955326362
 31
0.0
  0
ARC
  5
189
100
AcDbEntity
  8
0
370
          15
  6
Continuous
 62
           7
100
AcDbCircle
 10
241.916741636417
 20
-139.268955609484
 30
0.0
 40
2.6
100
AcDbArc
 50
0.500000000122
 51
90.000000000001
  0
LINE
  5
18A
100
AcDbEntity
  8
0
370
          15
  6
Continuous
 62
           7
100
AcDbLine
 10
241.916728311496
 20
-136.668962762041
 30
0.0
 11
241.916728311496
 21
-139.246267602129
 31
0.0
  0
LINE
  5
18B
100
AcDbEntity
  8
0
370
          15
  6
Continuous
 62
           7
100
AcDbLine
 10
-364.524948305173
 20
-136.668962762041
 30
0.0
 11
241.916728311496
 21
-136.668962762041
 31
0.0
  0
LINE
  5
18C
100
AcDbEntity
  8
0
370
          15
  6
Continuous
 62
           7
100
AcDbLine
 10
-364.524948305173
 20
-136.668962762041
 30
0.0
 11
-364.524948305173
 21
-139.246267602129
 31
0.0
  0
ARC
  5
18D
100
AcDbEntity
  8
0
370
          15
  6
Continuous
 62
           7
100
AcDbCircle
 10
-364.524961630093
 20
-139.268955609484
 30
0.0
 40
2.6
100
AcDbArc
 50
90.0
 51
179.499999999879
  0
LINE
  5
18E
100
AcDbEntity
  8
0
370
          15
  6
Continuous
 62
           7
100
AcDbLine
 10
198.695880466419
 20
-134.668958708925
 30
0.0
 11
208.695900731998
 21
-134.668958708925
 31
0.0
  0
LINE
  5
18F
100
AcDbEntity
  8
0
370
          15
  6
Continuous
 62
           7
100
AcDbLine
 10
-331.304120725674
 20
-134.668958708925
 30
0.0
 11
-321.304100460095
 21
-134.668958708925
 31
0.0
  0
LINE
  5
190
100
AcDbEntity
  8
0
370
          15
  6
Continuous
 62
           7
100
AcDbLine
 10
228.337002092319
 20
-350.668954998536
 30
0.0
 11
222.838026576953
 21
-350.668954998536
 31
0.0
  0
LINE
  5
191
100
AcDbEntity
  8
0
370
          15
  6
Continuous
 62
           7
100
AcDbLine
 10
222.838026576953
 20
-350.668954998536
 30
0.0
 11
176.195887022929
 21
-350.668954998536
 31
0.0
  0
LINE
  5
192
100
AcDbEntity
  8
0
370
          15
  6
Continuous
 62
           7
100
AcDbLine
 10
126.195890003162
 20
-350.668954998536
 30
0.0
 11
-248.804109996838
 21
-350.668954998536
 31
0.0
  0
LINE
  5
193
100
AcDbEntity
  8
0
370
          15
  6
Continuous
 62
           7
100
AcDbLine
 10
-298.804107016606
 20
-350.668954998536
 30
0.0
 11
-345.44624657063
 21
-350.668954998536
 31
0.0
  0
LINE
  5
194
100
AcDbEntity
  8
0
370
          15
  6
Continuous
 62
           7
100
AcDbLine
 10
-345.44624657063
 20
-350.668954998536
 30
0.0
 11
-350.945222085995
 21
-350.668954998536
 31
0.0
  0
LINE
  5
195
100
AcDbEntity
  8
0
370
          15
  6
Continuous
 62
           7
100
AcDbLine
 10
231.195879274326
 20
-134.668958708925
 30
0.0
 11
231.195879274326
 21
-136.668962762041
 31
0.0
  0
LINE
  5
196
100
AcDbEntity
  8
0
370
          15
  6
Continuous
 62
           7
100
AcDbLine
 10
231.195879274326
 20
-134.668958708925
 30
0.0
 11
241.195899539905
 21
-134.668958708925
 31
0.0
  0
LINE
  5
197
100
AcDbEntity
  8
0
370
          15
  6
Continuous
 62
           7
100
AcDbLine
 10
241.195899539905
 20
-134.668958708925
 30
0.0
 11
241.195899539905
 21
-136.668962762041
 31
0.0
  0
LINE
  5
198
100
AcDbEntity
  8
0
370
          15
  6
Continuous
 62
           7
100
AcDbLine
 10
-363.804119533582
 20
-134.668958708925
 30
0.0
 11
-363.804119533582
 21
-136.668962762041
 31
0.0
  0
LINE
  5
199
100
AcDbEntity
  8
0
370
          15
  6
Continuous
 62
           7
100
AcDbLine
 10
-353.804099268002
 20
-134.668958708925
 30
0.0
 11
-353.804099268002
 21
-136.668962762041
 31
0.0
  0
LINE
  5
19A
100
AcDbEntity
  8
0
370
          15
  6
Continuous
 62
           7
100
AcDbLine
 10
-363.804119533582
 20
-134.668958708925
 30
0.0
 11
-353.804099268002
 21
-134.668958708925
 31
0.0
  0
LINE
  5
19B
100
AcDbEntity
  8
0
370
          15
  6
Continuous
 62
           7
100
AcDbLine
 10
231.530052715259
 20
-350.668954998535
 30
0.0
 11
231.695902639347
 21
-331.668955609482
 31
0.0
  0
LINE
  5
19C
100
AcDbEntity
  8
0
370
          15
  6
Continuous
 62
           7
100
AcDbLine
 10
231.530052715259
 20
-350.668954998535
 30
0.0
 11
228.337002092319
 21
-350.668954998536
 31
0.0
  0
LINE
  5
19D
100
AcDbEntity
  8
0
370
          15
  6
Continuous
 62
           7
100
AcDbLine
 10
-354.138272708935
 20
-350.668954998535
 30
0.0
 11
-354.304122633022
 21
-331.668955609482
 31
0.0
  0
LINE
  5
19E
100
AcDbEntity
  8
0
370
          15
  6
Continuous
 62
           7
100
AcDbLine
 10
-350.945222085995
 20
-350.668954998536
 30
0.0
 11
-354.138272708935
 21
-350.668954998535
 31
0.0
  0
LINE
  5
19F
100
AcDbEntity
  8
0
370
          15
  6
Continuous
 62
           7
100
AcDbLine
 10
221.195888811069
 20
-134.668958708924
 30
0.0
 11
231.195879274326
 21
-134.668958708925
 31
0.0
  0
LINE
  5
1A0
100
AcDbEntity
  8
0
370
          15
  6
Continuous
 62
           7
100
AcDbLine
 10
-353.804099268002
 20
-134.668958708925
 30
0.0
 11
-343.804108804745
 21
-134.668958708924
 31
0.0
  0
LINE
  5
1A1
100
AcDbEntity
  8
0
370
          15
  6
Continuous
 62
           7
100
AcDbLine
 10
222.838026576953
 20
-350.668954998536
 30
0.0
 11
223.000985675769
 21
-331.668955609484
 31
0.0
  0
LINE
  5
1A2
100
AcDbEntity
  8
0
370
          15
  6
Continuous
 62
           7
100
AcDbLine
 10
228.499931388812
 20
-331.668955609484
 30
0.0
 11
228.337002092319
 21
-350.668954998536
 31
0.0
  0
LINE
  5
1A3
100
AcDbEntity
  8
0
370
          15
  6
Continuous
 62
           7
100
AcDbLine
 10
-345.609205669446
 20
-331.668955609484
 30
0.0
 11
-345.44624657063
 21
-350.668954998536
 31
0.0
  0
LINE
  5
1A4
100
AcDbEntity
  8
0
370
          15
  6
Continuous
 62
           7
100
AcDbLine
 10
-350.945222085995
 20
-350.668954998536
 30
0.0
 11
-351.108151382489
 21
-331.668955609484
 31
0.0
  0
LINE
  5
1A5
100
AcDbEntity
  8
0
370
          15
  6
Continuous
 62
           7
100
AcDbLine
 10
-665.360916266689
 20
224.500136474063
 30
0.0
 11
-667.360920319805
 21
224.500136474063
 31
0.0
  0
LINE
  5
1A6
100
AcDbEntity
  8
0
370
          15
  6
Continuous
 62
           7
100
AcDbLine
 10
-667.360920319805
 20
202.000128129413
 30
0.0
 11
-665.360916266689
 21
202.000128129413
 31
0.0
  0
LINE
  5
1A7
100
AcDbEntity
  8
0
370
          15
  6
Continuous
 62
           7
100
AcDbLine
 10
-667.360920319806
 20
544.500129321506
 30
0.0
 11
-665.36091626669
 21
544.500129321506
 31
0.0
  0
LINE
  5
1A8
100
AcDbEntity
  8
0
370
          15
  6
Continuous
 62
           7
100
AcDbLine
 10
-665.36091626669
 20
567.000137666156
 30
0.0
 11
-667.360920319806
 21
567.000137666156
 31
0.0
  0
LINE
  5
1A9
100
AcDbEntity
  8
0
370
          15
  6
Continuous
 62
           7
100
AcDbLine
 10
-667.360920319805
 20
277.000131109645
 30
0.0
 11
-665.36091626669
 21
277.000131109645
 31
0.0
  0
LINE
  5
1AA
100
AcDbEntity
  8
0
370
          15
  6
Continuous
 62
           7
100
AcDbLine
 10
-665.36091626669
 20
292.000131705692
 30
0.0
 11
-667.360920319805
 21
292.000131705692
 31
0.0
  0
LINE
  5
1AB
100
AcDbEntity
  8
0
370
          15
  6
Continuous
 62
           7
100
AcDbLine
 10
-667.360920319806
 20
477.000134089878
 30
0.0
 11
-665.36091626669
 21
477.000134089878
 31
0.0
  0
LINE
  5
1AC
100
AcDbEntity
  8
0
370
          15
  6
Continuous
 62
           7
100
AcDbLine
 10
-665.36091626669
 20
492.000134685924
 30
0.0
 11
-667.360920319806
 21
492.000134685924
 31
0.0
  0
LINE
  5
1AD
100
AcDbEntity
  8
0
370
          15
  6
Continuous
 62
           7
100
AcDbLine
 10
-667.360920319805
 20
182.000132301738
 30
0.0
 11
-665.360916266689
 21
182.000132301738
 31
0.0
  0
LINE
  5
1AE
100
AcDbEntity
  8
0
370
          15
  6
Continuous
 62
           7
100
AcDbLine
 10
-665.360916266689
 20
192.000137666156
 30
0.0
 11
-667.360920319805
 21
192.000137666156
 31
0.0
  0
LINE
  5
1AF
100
AcDbEntity
  8
0
370
          15
  6
Continuous
 62
           7
100
AcDbLine
 10
-667.360920319806
 20
577.000128129413
 30
0.0
 11
-665.36091626669
 21
577.000128129413
 31
0.0
  0
LINE
  5
1B0
100
AcDbEntity
  8
0
370
          15
  6
Continuous
 62
           7
100
AcDbLine
 10
-665.36091626669
 20
587.000133493831
 30
0.0
 11
-667.360920319806
 21
587.000133493831
 31
0.0
  0
LINE
  5
1B1
100
AcDbEntity
  8
0
370
          15
  6
Continuous
 62
           7
100
AcDbLine
 10
-862.360913167247
 20
177.000137070109
 30
0.0
 11
-862.360913167247
 21
179.600032070567
 31
0.0
  0
LINE
  5
1B2
100
AcDbEntity
  8
0
370
          15
  6
Continuous
 62
           7
100
AcDbLine
 10
-862.360913167247
 20
179.600032070567
 30
0.0
 11
-669.938225159893
 21
181.279288628986
 31
0.0
  0
ARC
  5
1B3
100
AcDbEntity
  8
0
370
          15
  6
Continuous
 62
           7
100
AcDbCircle
 10
-754.656210041216
 20
179.799871895468
 30
0.0
 40
84.730901306569
100
AcDbArc
 50
358.99955457689
 51
1.000445423111
  0
LINE
  5
1B4
100
AcDbEntity
  8
0
370
          15
  6
Continuous
 62
           7
100
AcDbLine
 10
-669.938225159893
 20
178.679378727367
 30
0.0
 11
-862.360913167247
 21
177.000137070109
 31
0.0
  0
LINE
  5
1B5
100
AcDbEntity
  8
0
370
          15
  6
Continuous
 62
           7
100
AcDbLine
 10
-862.360913167247
 20
179.600032070567
 30
0.0
 11
-862.360913167249
 21
589.400233725001
 31
0.0
  0
LINE
  5
1B6
100
AcDbEntity
  8
0
370
          15
  6
Continuous
 62
           7
100
AcDbLine
 10
-669.938225159894
 20
587.720977166583
 30
0.0
 11
-862.360913167249
 21
589.400233725001
 31
0.0
  0
LINE
  5
1B7
100
AcDbEntity
  8
0
370
          15
  6
Continuous
 62
           7
100
AcDbLine
 10
-669.938225159893
 20
181.279288628986
 30
0.0
 11
-669.938225159894
 21
587.720977166583
 31
0.0
  0
LINE
  5
1B8
100
AcDbEntity
  8
0
370
          15
  6
Continuous
 62
           7
100
AcDbLine
 10
-862.360913167249
 20
592.000128725459
 30
0.0
 11
-669.938225159894
 21
590.320887068202
 31
0.0
  0
ARC
  5
1B9
100
AcDbEntity
  8
0
370
          15
  6
Continuous
 62
           7
100
AcDbCircle
 10
-754.656210085054
 20
589.200393899873
 30
0.0
 40
84.730901350395
100
AcDbArc
 50
358.999554577562
 51
1.000445422438
  0
LINE
  5
1BA
100
AcDbEntity
  8
0
370
          15
  6
Continuous
 62
           7
100
AcDbLine
 10
-862.360913167249
 20
589.400233725001
 30
0.0
 11
-862.360913167249
 21
592.000128725459
 31
0.0
  0
LINE
  5
1BB
100
AcDbEntity
  8
0
370
          15
  6
Continuous
 62
           7
100
AcDbLine
 10
-669.938225159893
 20
181.279288628986
 30
0.0
 11
-667.360920319805
 21
181.279288628986
 31
0.0
  0
ARC
  5
1BC
100
AcDbEntity
  8
0
370
          15
  6
Continuous
 62
           7
100
AcDbCircle
 10
-669.960913167247
 20
181.27928126453
 30
0.0
 40
2.6
100
AcDbArc
 50
270.499999999996
 51
359.999999999998
  0
LINE
  5
1BD
100
AcDbEntity
  8
0
370
          15
  6
Continuous
 62
           7
100
AcDbLine
 10
-669.938225159894
 20
587.720977166583
 30
0.0
 11
-667.360920319807
 21
587.720977166583
 31
0.0
  0
LINE
  5
1BE
100
AcDbEntity
  8
0
370
          15
  6
Continuous
 62
           7
100
AcDbLine
 10
-667.360920319807
 20
587.720977166583
 30
0.0
 11
-667.360920319805
 21
181.279288628986
 31
0.0
  0
ARC
  5
1BF
100
AcDbEntity
  8
0
370
          15
  6
Continuous
 62
           7
100
AcDbCircle
 10
-669.960913167249
 20
587.720984531039
 30
0.0
 40
2.6
100
AcDbArc
 50
0.0
 51
89.499999999997
  0
LINE
  5
1C0
100
AcDbEntity
  8
0
370
          15
  6
Continuous
 62
           7
100
AcDbLine
 10
-665.360916266689
 20
219.500126341274
 30
0.0
 11
-667.360920319805
 21
219.500126341274
 31
0.0
  0
LINE
  5
1C1
100
AcDbEntity
  8
0
370
          15
  6
Continuous
 62
           7
100
AcDbLine
 10
-665.360916266689
 20
224.500136474063
 30
0.0
 11
-665.360916266689
 21
219.500126341274
 31
0.0
  0
LINE
  5
1C2
100
AcDbEntity
  8
0
370
          15
  6
Continuous
 62
           7
100
AcDbLine
 10
-665.360916266689
 20
207.000138262203
 30
0.0
 11
-667.360920319805
 21
207.000138262203
 31
0.0
  0
LINE
  5
1C3
100
AcDbEntity
  8
0
370
          15
  6
Continuous
 62
           7
100
AcDbLine
 10
-665.360916266689
 20
219.500126341274
 30
0.0
 11
-665.360916266689
 21
207.000138262203
 31
0.0
  0
LINE
  5
1C4
100
AcDbEntity
  8
0
370
          15
  6
Continuous
 62
           7
100
AcDbLine
 10
-665.360916266689
 20
207.000138262203
 30
0.0
 11
-665.360916266689
 21
202.000128129413
 31
0.0
  0
LINE
  5
1C5
100
AcDbEntity
  8
0
370
          15
  6
Continuous
 62
           7
100
AcDbLine
 10
-665.36091626669
 20
549.500139454296
 30
0.0
 11
-667.360920319806
 21
549.500139454296
 31
0.0
  0
LINE
  5
1C6
100
AcDbEntity
  8
0
370
          15
  6
Continuous
 62
           7
100
AcDbLine
 10
-665.36091626669
 20
549.500139454296
 30
0.0
 11
-665.36091626669
 21
544.500129321506
 31
0.0
  0
LINE
  5
1C7
100
AcDbEntity
  8
0
370
          15
  6
Continuous
 62
           7
100
AcDbLine
 10
-665.36091626669
 20
562.000127533367
 30
0.0
 11
-667.360920319806
 21
562.000127533367
 31
0.0
  0
LINE
  5
1C8
100
AcDbEntity
  8
0
370
          15
  6
Continuous
 62
           7
100
AcDbLine
 10
-665.36091626669
 20
562.000127533367
 30
0.0
 11
-665.36091626669
 21
549.500139454296
 31
0.0
  0
LINE
  5
1C9
100
AcDbEntity
  8
0
370
          15
  6
Continuous
 62
           7
100
AcDbLine
 10
-665.36091626669
 20
567.000137666156
 30
0.0
 11
-665.36091626669
 21
562.000127533367
 31
0.0
  0
LINE
  5
1CA
100
AcDbEntity
  8
0
370
          15
  6
Continuous
 62
           7
100
AcDbLine
 10
-665.36091626669
 20
292.000131705692
 30
0.0
 11
-665.36091626669
 21
277.000131109645
 31
0.0
  0
LINE
  5
1CB
100
AcDbEntity
  8
0
370
          15
  6
Continuous
 62
           7
100
AcDbLine
 10
-665.36091626669
 20
492.000134685924
 30
0.0
 11
-665.36091626669
 21
477.000134089878
 31
0.0
  0
LINE
  5
1CC
100
AcDbEntity
  8
0
370
          15
  6
Continuous
 62
           7
100
AcDbLine
 10
-881.360912556301
 20
382.000132953663
 30
0.0
 11
-862.360913167248
 21
382.000132953663
 31
0.0
  0
LINE
  5
1CD
100
AcDbEntity
  8
0
370
          15
  6
Continuous
 62
           7
100
AcDbLine
 10
-881.3609125563
 20
199.069755175997
 30
0.0
 11
-881.360912556301
 21
382.000132953663
 31
0.0
  0
LINE
  5
1CE
100
AcDbEntity
  8
0
370
          15
  6
Continuous
 62
           7
100
AcDbLine
 10
-881.360912556301
 20
382.000132953663
 30
0.0
 11
-881.360912556301
 21
564.930515387942
 31
0.0
  0
LINE
  5
1CF
100
AcDbEntity
  8
0
370
          15
  6
Continuous
 62
           7
100
AcDbLine
 10
-862.360913167247
 20
193.500133255412
 30
0.0
 11
-881.3609125563
 21
193.665938476016
 31
0.0
  0
LINE
  5
1D0
100
AcDbEntity
  8
0
370
          15
  6
Continuous
 62
           7
100
AcDbLine
 10
-881.3609125563
 20
193.665938476016
 30
0.0
 11
-881.3609125563
 21
199.069755175997
 31
0.0
  0
LINE
  5
1D1
100
AcDbEntity
  8
0
370
          15
  6
Continuous
 62
           7
100
AcDbLine
 10
-881.360912556301
 20
570.334317186762
 30
0.0
 11
-862.360913167249
 21
570.500137308527
 31
0.0
  0
LINE
  5
1D2
100
AcDbEntity
  8
0
370
          15
  6
Continuous
 62
           7
100
AcDbLine
 10
-881.360912556301
 20
564.930515387942
 30
0.0
 11
-881.360912556301
 21
570.334317186762
 31
0.0
  0
LINE
  5
1D3
100
AcDbEntity
  8
0
370
          15
  6
Continuous
 62
           7
100
AcDbLine
 10
-665.360916266689
 20
192.000137666156
 30
0.0
 11
-665.360916266689
 21
182.000132301738
 31
0.0
  0
LINE
  5
1D4
100
AcDbEntity
  8
0
370
          15
  6
Continuous
 62
           7
100
AcDbLine
 10
-665.36091626669
 20
582.000138262202
 30
0.0
 11
-665.36091626669
 21
577.000128129413
 31
0.0
  0
LINE
  5
1D5
100
AcDbEntity
  8
0
370
          15
  6
Continuous
 62
           7
100
AcDbLine
 10
-665.36091626669
 20
587.000133493831
 30
0.0
 11
-665.36091626669
 21
582.000138262202
 31
0.0
  0
LINE
  5
1D6
100
AcDbEntity
  8
0
370
          15
  6
Continuous
 62
           7
100
AcDbLine
 10
-875.360913435468
 20
183.892862895419
 30
0.0
 11
-875.360913435468
 21
193.61357579558
 31
0.0
  0
LINE
  5
1D7
100
AcDbEntity
  8
0
370
          15
  6
Continuous
 62
           7
100
AcDbLine
 10
-875.360913435468
 20
183.892862895419
 30
0.0
 11
-862.360913167247
 21
183.665948012758
 31
0.0
  0
ARC
  5
1D8
100
AcDbEntity
  8
0
370
          15
  6
Continuous
 62
           7
100
AcDbCircle
 10
-879.860913167249
 20
587.157702631482
 30
0.0
 40
3.5
100
AcDbArc
 50
92.000000000002
 51
180.000000000001
  0
LINE
  5
1D9
100
AcDbEntity
  8
0
370
          15
  6
Continuous
 62
           7
100
AcDbLine
 10
-862.360913167249
 20
591.270955303599
 30
0.0
 11
-879.983061785351
 21
590.655567148615
 31
0.0
  0
LINE
  5
1DA
100
AcDbEntity
  8
0
370
          15
  6
Continuous
 62
           7
100
AcDbLine
 10
-881.362130726229
 20
577.963667014528
 30
0.0
 11
-862.360913167249
 21
577.300133207728
 31
0.0
  0
LINE
  5
1DB
100
AcDbEntity
  8
0
370
          15
  6
Continuous
 62
           7
100
AcDbLine
 10
-883.360912884127
 20
580.107094744135
 30
0.0
 11
-881.362130726229
 21
577.963667014528
 31
0.0
  0
LINE
  5
1DC
100
AcDbEntity
  8
0
370
          15
  6
Continuous
 62
           7
100
AcDbLine
 10
-883.360912884127
 20
587.157698372294
 30
0.0
 11
-883.360912884127
 21
580.107094744135
 31
0.0
  0
LINE
  5
1DD
100
AcDbEntity
  8
0
370
          15
  6
Continuous
 62
           7
100
AcDbLine
 10
-883.360912884125
 20
580.033468106675
 30
0.0
 11
-882.343457872519
 21
579.016016820359
 31
0.0
  0
LINE
  5
1DE
100
AcDbEntity
  8
0
370
          15
  6
Continuous
 62
           7
100
AcDbLine
 10
-883.360912884125
 20
580.107094744134
 30
0.0
 11
-883.360912884125
 21
580.033468106675
 31
0.0
  0
LINE
  5
1DF
100
AcDbEntity
  8
0
370
          15
  6
Continuous
 62
           7
100
AcDbLine
 10
-881.3609125563
 20
199.069755175997
 30
0.0
 11
-862.360913167247
 21
198.903935054232
 31
0.0
  0
LINE
  5
1E0
100
AcDbEntity
  8
0
370
          15
  6
Continuous
 62
           7
100
AcDbLine
 10
-862.360913167249
 20
565.096320608546
 30
0.0
 11
-881.360912556301
 21
564.930515387942
 31
0.0
  0
CIRCLE
  5
1E1
100
AcDbEntity
  8
0
370
          15
  6
Continuous
 62
           7
100
AcDbCircle
 10
-1263.487069045716
 20
219.500132897782
 30
0.0
 40
2.6
  0
LINE
  5
1E2
100
AcDbEntity
  8
0
370
          15
  6
Continuous
 62
           7
100
AcDbLine
 10
-1258.487059508973
 20
207.0001382622
 30
0.0
 11
-1258.487059508973
 21
219.500126341271
 31
0.0
  0
ARC
  5
1E3
100
AcDbEntity
  8
0
370
          15
  6
Continuous
 62
           7
100
AcDbCircle
 10
-1263.487069045716
 20
207.000132897782
 30
0.0
 40
5.0
100
AcDbArc
 50
180.0
 51
360.0
  0
LINE
  5
1E4
100
AcDbEntity
  8
0
370
          15
  6
Continuous
 62
           7
100
AcDbLine
 10
-1268.487079774552
 20
219.500126341271
 30
0.0
 11
-1268.487079774552
 21
207.0001382622
 31
0.0
  0
ARC
  5
1E5
100
AcDbEntity
  8
0
370
          15
  6
Continuous
 62
           7
100
AcDbCircle
 10
-1263.487069045716
 20
219.500132897782
 30
0.0
 40
5.0
100
AcDbArc
 50
0.0
 51
180.0
  0
CIRCLE
  5
1E6
100
AcDbEntity
  8
0
370
          15
  6
Continuous
 62
           7
100
AcDbCircle
 10
-1263.487069045716
 20
207.000132897782
 30
0.0
 40
3.1
  0
CIRCLE
  5
1E7
100
AcDbEntity
  8
0
370
          15
  6
Continuous
 62
           7
100
AcDbCircle
 10
-1295.987069045716
 20
187.000132897783
 30
0.0
 40
5.0
  0
CIRCLE
  5
1E8
100
AcDbEntity
  8
0
370
          15
  6
Continuous
 62
           7
100
AcDbCircle
 10
-1295.987069045716
 20
187.000132897783
 30
0.0
 40
3.6
  0
CIRCLE
  5
1E9
100
AcDbEntity
  8
0
370
          15
  6
Continuous
 62
           7
100
AcDbCircle
 10
-1270.987069045716
 20
284.500132897782
 30
0.0
 40
3.0
  0
CIRCLE
  5
1EA
100
AcDbEntity
  8
0
370
          15
  6
Continuous
 62
           7
100
AcDbCircle
 10
-1270.987069045716
 20
284.500132897782
 30
0.0
 40
7.5
  0
CIRCLE
  5
1EB
100
AcDbEntity
  8
0
370
          15
  6
Continuous
 62
           7
100
AcDbCircle
 10
-1270.987069045715
 20
484.500132897782
 30
0.0
 40
3.0
  0
CIRCLE
  5
1EC
100
AcDbEntity
  8
0
370
          15
  6
Continuous
 62
           7
100
AcDbCircle
 10
-1270.987069045715
 20
484.500132897782
 30
0.0
 40
7.5
  0
CIRCLE
  5
1ED
100
AcDbEntity
  8
0
370
          15
  6
Continuous
 62
           7
100
AcDbCircle
 10
-1263.487069045715
 20
562.000132897782
 30
0.0
 40
3.1
  0
LINE
  5
1EE
100
AcDbEntity
  8
0
370
          15
  6
Continuous
 62
           7
100
AcDbLine
 10
-1258.487059508972
 20
549.500139454293
 30
0.0
 11
-1258.487059508972
 21
562.000127533364
 31
0.0
  0
ARC
  5
1EF
100
AcDbEntity
  8
0
370
          15
  6
Continuous
 62
           7
100
AcDbCircle
 10
-1263.487069045715
 20
549.500132897782
 30
0.0
 40
5.0
100
AcDbArc
 50
180.0
 51
360.0
  0
LINE
  5
1F0
100
AcDbEntity
  8
0
370
          15
  6
Continuous
 62
           7
100
AcDbLine
 10
-1268.487079774551
 20
562.000127533364
 30
0.0
 11
-1268.487079774551
 21
549.500139454293
 31
0.0
  0
ARC
  5
1F1
100
AcDbEntity
  8
0
370
          15
  6
Continuous
 62
           7
100
AcDbCircle
 10
-1263.487069045715
 20
562.000132897782
 30
0.0
 40
5.0
100
AcDbArc
 50
0.0
 51
180.0
  0
CIRCLE
  5
1F2
100
AcDbEntity
  8
0
370
          15
  6
Continuous
 62
           7
100
AcDbCircle
 10
-1263.487069045715
 20
549.500132897782
 30
0.0
 40
2.6
  0
CIRCLE
  5
1F3
100
AcDbEntity
  8
0
370
          15
  6
Continuous
 62
           7
100
AcDbCircle
 10
-1295.987069045715
 20
582.000132897783
 30
0.0
 40
3.6
  0
CIRCLE
  5
1F4
100
AcDbEntity
  8
0
370
          15
  6
Continuous
 62
           7
100
AcDbCircle
 10
-1295.987069045715
 20
582.000132897783
 30
0.0
 40
5.0
  0
CIRCLE
  5
1F5
100
AcDbEntity
  8
0
370
          15
  6
Continuous
 62
           7
100
AcDbCircle
 10
-1825.987069045716
 20
187.000132897784
 30
0.0
 40
3.6
  0
CIRCLE
  5
1F6
100
AcDbEntity
  8
0
370
          15
  6
Continuous
 62
           7
100
AcDbCircle
 10
-1825.987069045716
 20
187.000132897784
 30
0.0
 40
5.0
  0
LINE
  5
1F7
100
AcDbEntity
  8
0
370
          15
  6
Continuous
 62
           7
100
AcDbLine
 10
-1863.487078582459
 20
219.500126341274
 30
0.0
 11
-1863.487078582459
 21
207.000138262203
 31
0.0
  0
ARC
  5
1F8
100
AcDbEntity
  8
0
370
          15
  6
Continuous
 62
           7
100
AcDbCircle
 10
-1858.487069045716
 20
219.500132897785
 30
0.0
 40
5.0
100
AcDbArc
 50
0.0
 51
180.0
  0
LINE
  5
1F9
100
AcDbEntity
  8
0
370
          15
  6
Continuous
 62
           7
100
AcDbLine
 10
-1853.48705831688
 20
207.000138262202
 30
0.0
 11
-1853.48705831688
 21
219.500126341273
 31
0.0
  0
CIRCLE
  5
1FA
100
AcDbEntity
  8
0
370
          15
  6
Continuous
 62
           7
100
AcDbCircle
 10
-1858.487069045716
 20
219.500132897785
 30
0.0
 40
2.6
  0
CIRCLE
  5
1FB
100
AcDbEntity
  8
0
370
          15
  6
Continuous
 62
           7
100
AcDbCircle
 10
-1858.487069045716
 20
207.000132897785
 30
0.0
 40
3.1
  0
ARC
  5
1FC
100
AcDbEntity
  8
0
370
          15
  6
Continuous
 62
           7
100
AcDbCircle
 10
-1858.487069045716
 20
207.000132897785
 30
0.0
 40
5.0
100
AcDbArc
 50
180.0
 51
360.0
  0
CIRCLE
  5
1FD
100
AcDbEntity
  8
0
370
          15
  6
Continuous
 62
           7
100
AcDbCircle
 10
-1850.987069045716
 20
284.500132897784
 30
0.0
 40
3.0
  0
CIRCLE
  5
1FE
100
AcDbEntity
  8
0
370
          15
  6
Continuous
 62
           7
100
AcDbCircle
 10
-1850.987069045716
 20
284.500132897784
 30
0.0
 40
7.5
  0
CIRCLE
  5
1FF
100
AcDbEntity
  8
0
370
          15
  6
Continuous
 62
           7
100
AcDbCircle
 10
-1850.987069045715
 20
484.500132897785
 30
0.0
 40
3.0
  0
CIRCLE
  5
200
100
AcDbEntity
  8
0
370
          15
  6
Continuous
 62
           7
100
AcDbCircle
 10
-1850.987069045715
 20
484.500132897785
 30
0.0
 40
7.5
  0
CIRCLE
  5
201
100
AcDbEntity
  8
0
370
          15
  6
Continuous
 62
           7
100
AcDbCircle
 10
-1825.987069045715
 20
582.000132897784
 30
0.0
 40
3.6
  0
CIRCLE
  5
202
100
AcDbEntity
  8
0
370
          15
  6
Continuous
 62
           7
100
AcDbCircle
 10
-1825.987069045715
 20
582.000132897784
 30
0.0
 40
5.0
  0
CIRCLE
  5
203
100
AcDbEntity
  8
0
370
          15
  6
Continuous
 62
           7
100
AcDbCircle
 10
-1858.487069045715
 20
549.500132897785
 30
0.0
 40
2.6
  0
LINE
  5
204
100
AcDbEntity
  8
0
370
          15
  6
Continuous
 62
           7
100
AcDbLine
 10
-1863.487078582458
 20
562.000127533367
 30
0.0
 11
-1863.487078582458
 21
549.500139454296
 31
0.0
  0
ARC
  5
205
100
AcDbEntity
  8
0
370
          15
  6
Continuous
 62
           7
100
AcDbCircle
 10
-1858.487069045715
 20
562.000132897784
 30
0.0
 40
5.0
100
AcDbArc
 50
0.0
 51
180.0
  0
LINE
  5
206
100
AcDbEntity
  8
0
370
          15
  6
Continuous
 62
           7
100
AcDbLine
 10
-1853.487058316879
 20
549.500139454296
 30
0.0
 11
-1853.487058316879
 21
562.000127533367
 31
0.0
  0
CIRCLE
  5
207
100
AcDbEntity
  8
0
370
          15
  6
Continuous
 62
           7
100
AcDbCircle
 10
-1858.487069045715
 20
562.000132897784
 30
0.0
 40
3.1
  0
ARC
  5
208
100
AcDbEntity
  8
0
370
          15
  6
Continuous
 62
           7
100
AcDbCircle
 10
-1858.487069045715
 20
549.500132897785
 30
0.0
 40
5.0
100
AcDbArc
 50
180.0
 51
360.0
  0
LINE
  5
209
100
AcDbEntity
  8
0
370
          15
  6
Continuous
 62
           7
100
AcDbLine
 10
-1257.766230737382
 20
181.279288628984
 30
0.0
 11
-1257.766230737381
 21
587.720977166581
 31
0.0
  0
LINE
  5
20A
100
AcDbEntity
  8
0
370
          15
  6
Continuous
 62
           7
100
AcDbLine
 10
-1257.766230737381
 20
587.720977166581
 30
0.0
 11
-1255.1663059346
 21
587.720977166581
 31
0.0
  0
LINE
  5
20B
100
AcDbEntity
  8
0
370
          15
  6
Continuous
 62
           7
100
AcDbLine
 10
-1255.1663059346
 20
587.720977166581
 30
0.0
 11
-1255.166305934602
 21
181.279288628984
 31
0.0
  0
LINE
  5
20C
100
AcDbEntity
  8
0
370
          15
  6
Continuous
 62
           7
100
AcDbLine
 10
-1257.766230737382
 20
181.279288628984
 30
0.0
 11
-1255.166305934602
 21
181.279288628984
 31
0.0
  0
ARC
  5
20D
100
AcDbEntity
  8
0
370
          15
  6
Continuous
 62
           7
100
AcDbCircle
 10
-1257.766476822271
 20
181.279538157701
 30
0.0
 40
2.600170899642
100
AcDbArc
 50
270.005422576482
 51
360.000000000003
  0
LINE
  5
20E
100
AcDbEntity
  8
0
370
          15
  6
Continuous
 62
           7
100
AcDbLine
 10
-1257.766230737382
 20
178.679378727365
 30
0.0
 11
-1257.766230737382
 21
181.279288628984
 31
0.0
  0
LINE
  5
20F
100
AcDbEntity
  8
0
370
          15
  6
Continuous
 62
           7
100
AcDbLine
 10
-1257.766230737382
 20
178.679378727365
 30
0.0
 11
-1864.207907354051
 21
178.679378727367
 31
0.0
  0
LINE
  5
210
100
AcDbEntity
  8
0
370
          15
  6
Continuous
 62
           7
100
AcDbLine
 10
-1864.207907354051
 20
178.679378727367
 30
0.0
 11
-1864.207907354051
 21
181.279288628986
 31
0.0
  0
LINE
  5
211
100
AcDbEntity
  8
0
370
          15
  6
Continuous
 62
           7
100
AcDbLine
 10
-1864.207907354051
 20
181.279288628986
 30
0.0
 11
-1257.766230737382
 21
181.279288628984
 31
0.0
  0
CIRCLE
  5
212
100
AcDbEntity
  8
0
370
          15
  6
Continuous
 62
           7
100
AcDbCircle
 10
-1843.487069045715
 20
582.000132897784
 30
0.0
 40
5.0
  0
CIRCLE
  5
213
100
AcDbEntity
  8
0
370
          15
  6
Continuous
 62
           7
100
AcDbCircle
 10
-1843.487069045716
 20
187.000132897785
 30
0.0
 40
5.0
  0
CIRCLE
  5
214
100
AcDbEntity
  8
0
370
          15
  6
Continuous
 62
           7
100
AcDbCircle
 10
-1278.487069045716
 20
187.000132897782
 30
0.0
 40
5.0
  0
CIRCLE
  5
215
100
AcDbEntity
  8
0
370
          15
  6
Continuous
 62
           7
100
AcDbCircle
 10
-1278.487069045715
 20
582.000132897782
 30
0.0
 40
5.0
  0
LINE
  5
216
100
AcDbEntity
  8
0
370
          15
  6
Continuous
 62
           7
100
AcDbLine
 10
-1864.207907354049
 20
587.720977166583
 30
0.0
 11
-1864.207907354051
 21
181.279288628986
 31
0.0
  0
LINE
  5
217
100
AcDbEntity
  8
0
370
          15
  6
Continuous
 62
           7
100
AcDbLine
 10
-1257.766230737381
 20
587.720977166581
 30
0.0
 11
-1864.207907354049
 21
587.720977166583
 31
0.0
  0
LINE
  5
218
100
AcDbEntity
  8
0
370
          15
  6
Continuous
 62
           7
100
AcDbLine
 10
-1864.207907354049
 20
587.720977166583
 30
0.0
 11
-1864.207907354049
 21
590.320887068202
 31
0.0
  0
LINE
  5
219
100
AcDbEntity
  8
0
370
          15
  6
Continuous
 62
           7
100
AcDbLine
 10
-1864.207907354049
 20
590.320887068202
 30
0.0
 11
-1257.766230737381
 21
590.3208870682
 31
0.0
  0
LINE
  5
21A
100
AcDbEntity
  8
0
370
          15
  6
Continuous
 62
           7
100
AcDbLine
 10
-1257.766230737381
 20
587.720977166581
 30
0.0
 11
-1257.766230737381
 21
590.3208870682
 31
0.0
  0
ARC
  5
21B
100
AcDbEntity
  8
0
370
          15
  6
Continuous
 62
           7
100
AcDbCircle
 10
-1257.766476822294
 20
587.720727637947
 30
0.0
 40
2.600170899667
100
AcDbArc
 50
0.0
 51
89.994577422979
  0
LINE
  5
21C
100
AcDbEntity
  8
0
370
          15
  6
Continuous
 62
           7
100
AcDbLine
 10
-1866.807832156831
 20
181.279288628986
 30
0.0
 11
-1866.807832156829
 21
587.720977166583
 31
0.0
  0
LINE
  5
21D
100
AcDbEntity
  8
0
370
          15
  6
Continuous
 62
           7
100
AcDbLine
 10
-1866.807832156829
 20
587.720977166583
 30
0.0
 11
-1864.207907354049
 21
587.720977166583
 31
0.0
  0
LINE
  5
21E
100
AcDbEntity
  8
0
370
          15
  6
Continuous
 62
           7
100
AcDbLine
 10
-1866.807832156831
 20
181.279288628986
 30
0.0
 11
-1864.207907354051
 21
181.279288628986
 31
0.0
  0
ARC
  5
21F
100
AcDbEntity
  8
0
370
          15
  6
Continuous
 62
           7
100
AcDbCircle
 10
-1864.207661269221
 20
181.279538157788
 30
0.0
 40
2.600170899583
100
AcDbArc
 50
180.0
 51
269.99457742483
  0
ARC
  5
220
100
AcDbEntity
  8
0
370
          15
  6
Continuous
 62
           7
100
AcDbCircle
 10
-1864.207661269162
 20
587.720727637665
 30
0.0
 40
2.600170899641
100
AcDbArc
 50
90.005422576447
 51
180.000000000004
  0
LINE
  5
221
100
AcDbEntity
  8
0
370
          15
  6
Continuous
 62
           7
100
AcDbLine
 10
-1277.157827054673
 20
191.820206144739
 30
0.0
 11
-1279.816283618623
 21
191.820206144739
 31
0.0
  0
LINE
  5
222
100
AcDbEntity
  8
0
370
          15
  6
Continuous
 62
           7
100
AcDbLine
 10
-1842.15785447281
 20
191.82020614474
 30
0.0
 11
-1844.816311036759
 21
191.820206144741
 31
0.0
  0
ELLIPSE
  5
223
100
AcDbEntity
  8
0
370
          15
  6
Continuous
 62
           7
100
AcDbEllipse
 10
-1256.087168049518
 20
179.600231901585
 30
0.0
 11
1.8386176409389918
 21
-1.8386176409416066
 31
0.0
210
0.0
220
0.0
230
1.0
 40
0.999923850478
 41
5.4978252199936914
 42
7.0685453943667351
  0
LINE
  5
224
100
AcDbEntity
  8
0
370
          15
  6
Continuous
 62
           7
100
AcDbLine
 10
-1256.086959277801
 20
177.000137070107
 30
0.0
 11
-1257.766230737382
 21
178.679378727365
 31
0.0
  0
LINE
  5
225
100
AcDbEntity
  8
0
370
          15
  6
Continuous
 62
           7
100
AcDbLine
 10
-1255.166305934602
 20
181.279288628984
 30
0.0
 11
-1253.487064277343
 21
179.600032070564
 31
0.0
  0
ELLIPSE
  5
226
100
AcDbEntity
  8
0
370
          15
  6
Continuous
 62
           7
100
AcDbEllipse
 10
-1256.087168049517
 20
589.400033893979
 30
0.0
 11
1.8386176409392192
 21
1.8386176409413792
 31
0.0
210
0.0
220
0.0
230
1.0
 40
0.999923850478
 41
5.4978252199924
 42
7.0685453943655085
  0
LINE
  5
227
100
AcDbEntity
  8
0
370
          15
  6
Continuous
 62
           7
100
AcDbLine
 10
-1253.487064277342
 20
589.400233724999
 30
0.0
 11
-1255.1663059346
 21
587.720977166581
 31
0.0
  0
LINE
  5
228
100
AcDbEntity
  8
0
370
          15
  6
Continuous
 62
           7
100
AcDbLine
 10
-1257.766230737381
 20
590.3208870682
 30
0.0
 11
-1256.0869592778
 21
592.000128725457
 31
0.0
  0
ELLIPSE
  5
229
100
AcDbEntity
  8
0
370
          15
  6
Continuous
 62
           7
100
AcDbEllipse
 10
-1865.886970041912
 20
179.600231901587
 30
0.0
 11
1.8386176409389918
 21
1.8386176409416066
 31
0.0
210
0.0
220
0.0
230
1.0
 40
0.999923850478
 41
2.3562325664025483
 42
3.9269527407756604
  0
LINE
  5
22A
100
AcDbEntity
  8
0
370
          15
  6
Continuous
 62
           7
100
AcDbLine
 10
-1868.487073814086
 20
179.600032070567
 30
0.0
 11
-1866.807832156831
 21
181.279288628986
 31
0.0
  0
LINE
  5
22B
100
AcDbEntity
  8
0
370
          15
  6
Continuous
 62
           7
100
AcDbLine
 10
-1864.207907354051
 20
178.679378727367
 30
0.0
 11
-1865.887178813629
 21
177.000137070109
 31
0.0
  0
ELLIPSE
  5
22C
100
AcDbEntity
  8
0
370
          15
  6
Continuous
 62
           7
100
AcDbEllipse
 10
-1865.886970041911
 20
589.400033893981
 30
0.0
 11
1.8386176409392192
 21
-1.8386176409414929
 31
0.0
210
0.0
220
0.0
230
1.0
 40
0.999923850478
 41
2.3562325664038819
 42
3.9269527407770326
  0
LINE
  5
22D
100
AcDbEntity
  8
0
370
          15
  6
Continuous
 62
           7
100
AcDbLine
 10
-1865.887178813627
 20
592.000128725459
 30
0.0
 11
-1864.207907354049
 21
590.320887068202
 31
0.0
  0
LINE
  5
22E
100
AcDbEntity
  8
0
370
          15
  6
Continuous
 62
           7
100
AcDbLine
 10
-1866.807832156829
 20
587.720977166583
 30
0.0
 11
-1868.487073814085
 21
589.400233725001
 31
0.0
  0
LINE
  5
22F
100
AcDbEntity
  8
0
370
          15
  6
Continuous
 62
           7
100
AcDbLine
 10
-1253.487064277342
 20
589.400233724999
 30
0.0
 11
-1253.487064277343
 21
179.600032070564
 31
0.0
  0
LINE
  5
230
100
AcDbEntity
  8
0
370
          15
  6
Continuous
 62
           7
100
AcDbLine
 10
-1256.086959277801
 20
177.000137070107
 30
0.0
 11
-1865.887178813629
 21
177.000137070109
 31
0.0
  0
LINE
  5
231
100
AcDbEntity
  8
0
370
          15
  6
Continuous
 62
           7
100
AcDbLine
 10
-1865.887178813627
 20
592.000128725459
 30
0.0
 11
-1256.0869592778
 21
592.000128725457
 31
0.0
  0
LINE
  5
232
100
AcDbEntity
  8
0
370
          15
  6
Continuous
 62
           7
100
AcDbLine
 10
-1868.487073814086
 20
179.600032070567
 30
0.0
 11
-1868.487073814085
 21
589.400233725001
 31
0.0
  0
CIRCLE
  5
233
100
AcDbEntity
  8
0
370
          15
  6
Continuous
 62
           7
100
AcDbCircle
 10
-1263.487069045716
 20
219.500132897782
 30
0.0
 40
1.65
  0
CIRCLE
  5
234
100
AcDbEntity
  8
0
370
          15
  6
Continuous
 62
           7
100
AcDbCircle
 10
-1295.987069045716
 20
187.000132897782
 30
0.0
 40
3.0
  0
CIRCLE
  5
235
100
AcDbEntity
  8
0
370
          15
  6
Continuous
 62
           7
100
AcDbCircle
 10
-1263.487069045715
 20
549.500132897782
 30
0.0
 40
1.65
  0
CIRCLE
  5
236
100
AcDbEntity
  8
0
370
          15
  6
Continuous
 62
           7
100
AcDbCircle
 10
-1295.987069045715
 20
582.000132897783
 30
0.0
 40
3.0
  0
CIRCLE
  5
237
100
AcDbEntity
  8
0
370
          15
  6
Continuous
 62
           7
100
AcDbCircle
 10
-1825.987069045716
 20
187.000132897784
 30
0.0
 40
3.0
  0
CIRCLE
  5
238
100
AcDbEntity
  8
0
370
          15
  6
Continuous
 62
           7
100
AcDbCircle
 10
-1858.487069045716
 20
219.500132897784
 30
0.0
 40
1.65
  0
CIRCLE
  5
239
100
AcDbEntity
  8
0
370
          15
  6
Continuous
 62
           7
100
AcDbCircle
 10
-1825.987069045715
 20
582.000132897784
 30
0.0
 40
3.0
  0
CIRCLE
  5
23A
100
AcDbEntity
  8
0
370
          15
  6
Continuous
 62
           7
100
AcDbCircle
 10
-1858.487069045715
 20
549.500132897785
 30
0.0
 40
1.65
  0
LINE
  5
23B
100
AcDbEntity
  8
0
370
          15
  6
Continuous
 62
           7
100
AcDbLine
 10
584.366967168932
 20
567.000137666154
 30
0.0
 11
582.366963115816
 21
567.000137666154
 31
0.0
  0
LINE
  5
23C
100
AcDbEntity
  8
0
370
          15
  6
Continuous
 62
           7
100
AcDbLine
 10
582.366963115816
 20
544.500129321504
 30
0.0
 11
584.366967168931
 21
544.500129321504
 31
0.0
  0
LINE
  5
23D
100
AcDbEntity
  8
0
370
          15
  6
Continuous
 62
           7
100
AcDbLine
 10
584.36696716893
 20
224.500136474061
 30
0.0
 11
582.366963115815
 21
224.500136474061
 31
0.0
  0
LINE
  5
23E
100
AcDbEntity
  8
0
370
          15
  6
Continuous
 62
           7
100
AcDbLine
 10
582.366963115815
 20
202.000128129411
 30
0.0
 11
584.36696716893
 21
202.000128129411
 31
0.0
  0
LINE
  5
23F
100
AcDbEntity
  8
0
370
          15
  6
Continuous
 62
           7
100
AcDbLine
 10
584.366967168931
 20
492.000134685922
 30
0.0
 11
582.366963115815
 21
492.000134685922
 31
0.0
  0
LINE
  5
240
100
AcDbEntity
  8
0
370
          15
  6
Continuous
 62
           7
100
AcDbLine
 10
582.366963115815
 20
477.000134089876
 30
0.0
 11
584.366967168931
 21
477.000134089876
 31
0.0
  0
LINE
  5
241
100
AcDbEntity
  8
0
370
          15
  6
Continuous
 62
           7
100
AcDbLine
 10
584.366967168931
 20
292.00013170569
 30
0.0
 11
582.366963115815
 21
292.00013170569
 31
0.0
  0
LINE
  5
242
100
AcDbEntity
  8
0
370
          15
  6
Continuous
 62
           7
100
AcDbLine
 10
582.366963115815
 20
277.000131109643
 30
0.0
 11
584.366967168931
 21
277.000131109643
 31
0.0
  0
LINE
  5
243
100
AcDbEntity
  8
0
370
          15
  6
Continuous
 62
           7
100
AcDbLine
 10
584.366967168932
 20
587.000133493829
 30
0.0
 11
582.366963115816
 21
587.000133493829
 31
0.0
  0
LINE
  5
244
100
AcDbEntity
  8
0
370
          15
  6
Continuous
 62
           7
100
AcDbLine
 10
582.366963115816
 20
577.000128129411
 30
0.0
 11
584.366967168931
 21
577.000128129411
 31
0.0
  0
LINE
  5
245
100
AcDbEntity
  8
0
370
          15
  6
Continuous
 62
           7
100
AcDbLine
 10
584.36696716893
 20
192.000137666154
 30
0.0
 11
582.366963115814
 21
192.000137666154
 31
0.0
  0
LINE
  5
246
100
AcDbEntity
  8
0
370
          15
  6
Continuous
 62
           7
100
AcDbLine
 10
582.366963115814
 20
182.000132301736
 30
0.0
 11
584.36696716893
 21
182.000132301736
 31
0.0
  0
LINE
  5
247
100
AcDbEntity
  8
0
370
          15
  6
Continuous
 62
           7
100
AcDbLine
 10
779.366960016375
 20
592.000128725457
 30
0.0
 11
779.366960016375
 21
589.400233724999
 31
0.0
  0
LINE
  5
248
100
AcDbEntity
  8
0
370
          15
  6
Continuous
 62
           7
100
AcDbLine
 10
779.366960016375
 20
589.400233724999
 30
0.0
 11
586.94427200902
 21
587.720977166581
 31
0.0
  0
ARC
  5
249
100
AcDbEntity
  8
0
370
          15
  6
Continuous
 62
           7
100
AcDbCircle
 10
671.662256903094
 20
589.20039390013
 30
0.0
 40
84.730901319319
100
AcDbArc
 50
178.999554577018
 51
181.000445422982
  0
LINE
  5
24A
100
AcDbEntity
  8
0
370
          15
  6
Continuous
 62
           7
100
AcDbLine
 10
586.94427200902
 20
590.3208870682
 30
0.0
 11
779.366960016375
 21
592.000128725457
 31
0.0
  0
LINE
  5
24B
100
AcDbEntity
  8
0
370
          15
  6
Continuous
 62
           7
100
AcDbLine
 10
779.366960016375
 20
589.400233724999
 30
0.0
 11
779.366960016373
 21
179.600032070564
 31
0.0
  0
LINE
  5
24C
100
AcDbEntity
  8
0
370
          15
  6
Continuous
 62
           7
100
AcDbLine
 10
586.944272009018
 20
181.279288628984
 30
0.0
 11
779.366960016373
 21
179.600032070564
 31
0.0
  0
LINE
  5
24D
100
AcDbEntity
  8
0
370
          15
  6
Continuous
 62
           7
100
AcDbLine
 10
586.94427200902
 20
587.720977166581
 30
0.0
 11
586.944272009018
 21
181.279288628984
 31
0.0
  0
LINE
  5
24E
100
AcDbEntity
  8
0
370
          15
  6
Continuous
 62
           7
100
AcDbLine
 10
779.366960016373
 20
177.000137070107
 30
0.0
 11
586.944272009018
 21
178.679378727365
 31
0.0
  0
ARC
  5
24F
100
AcDbEntity
  8
0
370
          15
  6
Continuous
 62
           7
100
AcDbCircle
 10
671.662256892955
 20
179.799871895316
 30
0.0
 40
84.730901309185
100
AcDbArc
 50
178.999554576819
 51
181.000445423182
  0
LINE
  5
250
100
AcDbEntity
  8
0
370
          15
  6
Continuous
 62
           7
100
AcDbLine
 10
779.366960016373
 20
179.600032070564
 30
0.0
 11
779.366960016373
 21
177.000137070107
 31
0.0
  0
LINE
  5
251
100
AcDbEntity
  8
0
370
          15
  6
Continuous
 62
           7
100
AcDbLine
 10
584.36696716893
 20
181.279288628984
 30
0.0
 11
584.366967168932
 21
587.720977166581
 31
0.0
  0
LINE
  5
252
100
AcDbEntity
  8
0
370
          15
  6
Continuous
 62
           7
100
AcDbLine
 10
584.366967168932
 20
587.720977166581
 30
0.0
 11
586.94427200902
 21
587.720977166581
 31
0.0
  0
LINE
  5
253
100
AcDbEntity
  8
0
370
          15
  6
Continuous
 62
           7
100
AcDbLine
 10
584.36696716893
 20
181.279288628984
 30
0.0
 11
586.944272009018
 21
181.279288628984
 31
0.0
  0
ARC
  5
254
100
AcDbEntity
  8
0
370
          15
  6
Continuous
 62
           7
100
AcDbCircle
 10
586.966960016374
 20
587.720984531037
 30
0.0
 40
2.6
100
AcDbArc
 50
90.500000000003
 51
180.0
  0
ARC
  5
255
100
AcDbEntity
  8
0
370
          15
  6
Continuous
 62
           7
100
AcDbCircle
 10
586.966960016373
 20
181.279281264528
 30
0.0
 40
2.6
100
AcDbArc
 50
180.0
 51
269.499999999997
  0
LINE
  5
256
100
AcDbEntity
  8
0
370
          15
  6
Continuous
 62
           7
100
AcDbLine
 10
582.366963115816
 20
562.000127533364
 30
0.0
 11
584.366967168932
 21
562.000127533364
 31
0.0
  0
LINE
  5
257
100
AcDbEntity
  8
0
370
          15
  6
Continuous
 62
           7
100
AcDbLine
 10
582.366963115816
 20
562.000127533364
 30
0.0
 11
582.366963115816
 21
567.000137666154
 31
0.0
  0
LINE
  5
258
100
AcDbEntity
  8
0
370
          15
  6
Continuous
 62
           7
100
AcDbLine
 10
582.366963115816
 20
549.500139454293
 30
0.0
 11
584.366967168932
 21
549.500139454293
 31
0.0
  0
LINE
  5
259
100
AcDbEntity
  8
0
370
          15
  6
Continuous
 62
           7
100
AcDbLine
 10
582.366963115816
 20
544.500129321504
 30
0.0
 11
582.366963115816
 21
549.500139454293
 31
0.0
  0
LINE
  5
25A
100
AcDbEntity
  8
0
370
          15
  6
Continuous
 62
           7
100
AcDbLine
 10
582.366963115816
 20
549.500139454293
 30
0.0
 11
582.366963115816
 21
562.000127533364
 31
0.0
  0
LINE
  5
25B
100
AcDbEntity
  8
0
370
          15
  6
Continuous
 62
           7
100
AcDbLine
 10
582.366963115815
 20
219.500126341271
 30
0.0
 11
584.36696716893
 21
219.500126341271
 31
0.0
  0
LINE
  5
25C
100
AcDbEntity
  8
0
370
          15
  6
Continuous
 62
           7
100
AcDbLine
 10
582.366963115815
 20
219.500126341271
 30
0.0
 11
582.366963115815
 21
224.500136474061
 31
0.0
  0
LINE
  5
25D
100
AcDbEntity
  8
0
370
          15
  6
Continuous
 62
           7
100
AcDbLine
 10
582.366963115815
 20
207.0001382622
 30
0.0
 11
584.36696716893
 21
207.0001382622
 31
0.0
  0
LINE
  5
25E
100
AcDbEntity
  8
0
370
          15
  6
Continuous
 62
           7
100
AcDbLine
 10
582.366963115815
 20
202.000128129411
 30
0.0
 11
582.366963115815
 21
207.0001382622
 31
0.0
  0
LINE
  5
25F
100
AcDbEntity
  8
0
370
          15
  6
Continuous
 62
           7
100
AcDbLine
 10
582.366963115815
 20
207.0001382622
 30
0.0
 11
582.366963115815
 21
219.500126341271
 31
0.0
  0
LINE
  5
260
100
AcDbEntity
  8
0
370
          15
  6
Continuous
 62
           7
100
AcDbLine
 10
582.366963115815
 20
484.500134387899
 30
0.0
 11
582.366963115815
 21
492.000134685922
 31
0.0
  0
LINE
  5
261
100
AcDbEntity
  8
0
370
          15
  6
Continuous
 62
           7
100
AcDbLine
 10
582.366963115815
 20
477.000134089876
 30
0.0
 11
582.366963115815
 21
484.500134387899
 31
0.0
  0
LINE
  5
262
100
AcDbEntity
  8
0
370
          15
  6
Continuous
 62
           7
100
AcDbLine
 10
582.366963115815
 20
284.500131407667
 30
0.0
 11
582.366963115815
 21
292.00013170569
 31
0.0
  0
LINE
  5
263
100
AcDbEntity
  8
0
370
          15
  6
Continuous
 62
           7
100
AcDbLine
 10
582.366963115815
 20
277.000131109643
 30
0.0
 11
582.366963115815
 21
284.500131407667
 31
0.0
  0
LINE
  5
264
100
AcDbEntity
  8
0
370
          15
  6
Continuous
 62
           7
100
AcDbLine
 10
798.366959405426
 20
382.000132953661
 30
0.0
 11
779.366960016374
 21
382.000132953661
 31
0.0
  0
LINE
  5
265
100
AcDbEntity
  8
0
370
          15
  6
Continuous
 62
           7
100
AcDbLine
 10
798.366959405427
 20
564.93051538794
 30
0.0
 11
798.366959405426
 21
382.000132953661
 31
0.0
  0
LINE
  5
266
100
AcDbEntity
  8
0
370
          15
  6
Continuous
 62
           7
100
AcDbLine
 10
798.366959405426
 20
382.000132953661
 30
0.0
 11
798.366959405426
 21
199.069755175995
 31
0.0
  0
LINE
  5
267
100
AcDbEntity
  8
0
370
          15
  6
Continuous
 62
           7
100
AcDbLine
 10
798.366959405425
 20
193.665938476014
 30
0.0
 11
779.366960016373
 21
193.50013325541
 31
0.0
  0
LINE
  5
268
100
AcDbEntity
  8
0
370
          15
  6
Continuous
 62
           7
100
AcDbLine
 10
798.366959405426
 20
199.069755175995
 30
0.0
 11
798.366959405425
 21
193.665938476014
 31
0.0
  0
LINE
  5
269
100
AcDbEntity
  8
0
370
          15
  6
Continuous
 62
           7
100
AcDbLine
 10
779.366960016375
 20
570.500137308526
 30
0.0
 11
798.366959405427
 21
570.33431718676
 31
0.0
  0
LINE
  5
26A
100
AcDbEntity
  8
0
370
          15
  6
Continuous
 62
           7
100
AcDbLine
 10
798.366959405427
 20
570.33431718676
 30
0.0
 11
798.366959405427
 21
564.93051538794
 31
0.0
  0
LINE
  5
26B
100
AcDbEntity
  8
0
370
          15
  6
Continuous
 62
           7
100
AcDbLine
 10
582.366963115816
 20
582.000138262201
 30
0.0
 11
582.366963115816
 21
587.000133493829
 31
0.0
  0
LINE
  5
26C
100
AcDbEntity
  8
0
370
          15
  6
Continuous
 62
           7
100
AcDbLine
 10
582.366963115816
 20
577.000128129411
 30
0.0
 11
582.366963115816
 21
582.000138262201
 31
0.0
  0
LINE
  5
26D
100
AcDbEntity
  8
0
370
          15
  6
Continuous
 62
           7
100
AcDbLine
 10
582.366963115814
 20
182.000132301736
 30
0.0
 11
582.366963115814
 21
192.000137666154
 31
0.0
  0
LINE
  5
26E
100
AcDbEntity
  8
0
370
          15
  6
Continuous
 62
           7
100
AcDbLine
 10
792.366960284593
 20
183.892862895417
 30
0.0
 11
779.366960016373
 21
183.665948012757
 31
0.0
  0
LINE
  5
26F
100
AcDbEntity
  8
0
370
          15
  6
Continuous
 62
           7
100
AcDbLine
 10
792.366960284593
 20
193.613575795579
 30
0.0
 11
792.366960284593
 21
183.892862895417
 31
0.0
  0
ARC
  5
270
100
AcDbEntity
  8
0
370
          15
  6
Continuous
 62
           7
100
AcDbCircle
 10
796.866960016374
 20
587.15770263148
 30
0.0
 40
3.5
100
AcDbArc
 50
0.0
 51
88.000000000003
  0
LINE
  5
271
100
AcDbEntity
  8
0
370
          15
  6
Continuous
 62
           7
100
AcDbLine
 10
800.366959733252
 20
587.157698372292
 30
0.0
 11
800.366959733252
 21
580.033468106675
 31
0.0
  0
LINE
  5
272
100
AcDbEntity
  8
0
370
          15
  6
Continuous
 62
           7
100
AcDbLine
 10
798.294591916089
 20
577.961104014802
 30
0.0
 11
800.366959733252
 21
580.033468106675
 31
0.0
  0
LINE
  5
273
100
AcDbEntity
  8
0
370
          15
  6
Continuous
 62
           7
100
AcDbLine
 10
798.294591916089
 20
577.961104014802
 30
0.0
 11
779.366960016374
 21
577.300133207726
 31
0.0
  0
LINE
  5
274
100
AcDbEntity
  8
0
370
          15
  6
Continuous
 62
           7
100
AcDbLine
 10
779.366960016374
 20
591.270955303597
 30
0.0
 11
796.989108634476
 21
590.655567148613
 31
0.0
  0
LINE
  5
275
100
AcDbEntity
  8
0
370
          15
  6
Continuous
 62
           7
100
AcDbLine
 10
798.368177575353
 20
577.963667014528
 30
0.0
 11
799.349504721644
 21
579.01601682036
 31
0.0
  0
LINE
  5
276
100
AcDbEntity
  8
0
370
          15
  6
Continuous
 62
           7
100
AcDbLine
 10
798.368177575353
 20
577.963667014528
 30
0.0
 11
798.294591916087
 21
577.961104014803
 31
0.0
  0
LINE
  5
277
100
AcDbEntity
  8
0
370
          15
  6
Continuous
 62
           7
100
AcDbLine
 10
798.366959405427
 20
564.93051538794
 30
0.0
 11
779.366960016375
 21
565.096320608544
 31
0.0
  0
LINE
  5
278
100
AcDbEntity
  8
0
370
          15
  6
Continuous
 62
           7
100
AcDbLine
 10
779.366960016373
 20
198.90393505423
 30
0.0
 11
798.366959405426
 21
199.069755175995
 31
0.0
  0
ENDSEC
  0
SECTION
  2
OBJECTS
  0
DICTIONARY
  5
C
100
AcDbDictionary
280
           0
281
           1
  3
ACAD_GROUP
350
D
  3
ACAD_PLOTSTYLENAME
350
E
  3
ACAD_MLINESTYLE
350
17
  3
ACAD_PLOTSETTINGS
350
19
  3
ACAD_LAYOUT
350
1A
  3
ACAD_WIPEOUT_VARS
350
27B
  0
DICTIONARY
  5
D
102
{ACAD_REACTORS
330
C
102
}
100
AcDbDictionary
280
           0
281
           1
  0
DICTIONARY
  5
17
102
{ACAD_REACTORS
330
C
102
}
100
AcDbDictionary
280
           0
281
           1
  3
STANDARD
350
18
  0
MLINESTYLE
  5
18
102
{ACAD_REACTORS
330
17
102
}
100
AcDbMlineStyle
  2
Standard
 70
           0
  3

 62
         256
 51
90.0
 52
90.0
 71
           2
 49
0.5
 62
         256
  6
ByLayer
 49
-0.5
 62
         256
  6
ByLayer
  0
ACDBDICTIONARYWDFLT
  5
E
102
{ACAD_REACTORS
330
C
102
}
100
AcDbDictionary
281
           1
  3
NORMAL
350
F
100
AcDbDictionaryWithDefault
340
F
  0
ACDBPLACEHOLDER
  5
F
102
{ACAD_REACTORS
330
E
102
}
  0
LAYOUT
  5
22
102
{ACAD_REACTORS
330
1A
102
}
100
AcDbPlotSettings
  1

  2

  4

  6

 40
0.0
 41
0.0
 42
0.0
 43
0.0
 44
0.0
 45
0.0
 46
0.0
 47
0.0
 48
0.0
 49
0.0
140
0.0
141
0.0
142
1.0
143
1.0
 70
        1712
 72
           0
 73
           0
 74
           0
  7

 75
           0
147
1.0
148
0.0
149
0.0
100
AcDbLayout
  1
MODEL
 70
           1
 71
           0
 10
0.0
 20
0.0
 11
0.0
 21
0.0
 12
0.0
 22
0.0
 32
0.0
 14
0.0
 24
0.0
 34
0.0
 15
420.0
 25
297.0
 35
0.0
146
0.0
 13
0.0
 23
0.0
 33
0.0
 16
1.0
 26
0.0
 36
0.0
 17
0.0
 27
1.0
 37
0.0
 76
           0
330
1F
331
0
345
0
346
0
  0
LAYOUT
  5
1E
102
{ACAD_REACTORS
330
1A
102
}
100
AcDbPlotSettings
  1

  2

  4

  6

 40
0.0
 41
0.0
 42
0.0
 43
0.0
 44
0.0
 45
0.0
 46
0.0
 47
0.0
 48
0.0
 49
0.0
140
0.0
141
0.0
142
1.0
143
1.0
 70
         688
 72
           0
 73
           0
 74
           5
  7

 75
          16
147
1.0
148
0.0
149
0.0
100
AcDbLayout
  1
LAYOUT1
 70
           1
 71
           1
 10
0.0
 20
0.0
 11
0.0
 21
0.0
 12
0.0
 22
0.0
 32
0.0
 14
0.0
 24
0.0
 34
0.0
 15
0.0
 25
0.0
 35
0.0
146
0.0
 13
0.0
 23
0.0
 33
0.0
 16
1.0
 26
0.0
 36
0.0
 17
0.0
 27
1.0
 37
0.0
 76
           0
330
1B
331
0
345
0
346
0
  0
DICTIONARY
  5
1A
102
{ACAD_REACTORS
330
C
102
}
100
AcDbDictionary
280
           0
281
           1
  3
MODEL
350
22
  3
LAYOUT1
350
1E
  3
LAYOUT2
350
26
  0
DICTIONARY
  5
19
102
{ACAD_REACTORS
330
C
102
}
100
AcDbDictionary
280
           0
281
           1
  0
WIPEOUTVARIABLES
  5
27B
100
AcDbWipeoutVariables
 70
           1
  0
LAYOUT
  5
26
102
{ACAD_REACTORS
330
1A
102
}
100
AcDbPlotSettings
  1

  2

  4

  6

 40
0.0
 41
0.0
 42
0.0
 43
0.0
 44
0.0
 45
0.0
 46
0.0
 47
0.0
 48
0.0
 49
0.0
140
0.0
141
0.0
142
1.0
143
1.0
 70
         688
 72
           0
 73
           0
 74
           5
  7

 75
          16
147
1.0
148
0.0
149
0.0
100
AcDbLayout
  1
LAYOUT2
 70
           1
 71
           2
 10
0.0
 20
0.0
 11
0.0
 21
0.0
 12
0.0
 22
0.0
 32
0.0
 14
0.0
 24
0.0
 34
0.0
 15
0.0
 25
0.0
 35
0.0
146
0.0
 13
0.0
 23
0.0
 33
0.0
 16
1.0
 26
0.0
 36
0.0
 17
0.0
 27
1.0
 37
0.0
 76
           0
330
23
331
0
345
0
346
0
  0
ENDSEC
  0
EOF
