  0
SECTION
  2
HEADER
  9
$ACADVER
  1
AC1015
  9
$ACADMAINTVER
 70
           6
  9
$DWGCODEPAGE
  3
ANSI_1252
  9
$INSBASE
 10
0.0
 20
0.0
 30
0.0
  9
$EXTMIN
 10
-1075.951208705337
 20
-71.752467786542
 30
0.0
  9
$EXTMAX
 10
511.508381073397
 20
727.896170159298
 30
0.0
  9
$LIMMIN
 10
0.0
 20
0.0
  9
$LIMMAX
 10
0.0
 20
0.0
  9
$ORTHOMODE
 70
           0
  9
$REGENMODE
 70
           1
  9
$FILLMODE
 70
           1
  9
$QTEXTMODE
 70
           0
  9
$MIRRTEXT
 70
           1
  9
$LTSCALE
 40
1.0
  9
$ATTMODE
 70
           1
  9
$TEXTSIZE
 40
3.5
  9
$TRACEWID
 40
1.0
  9
$TEXTSTYLE
  7
Standard
  9
$CLAYER
  8
0
  9
$CELTYPE
  6
ByLayer
  9
$CECOLOR
 62
         256
  9
$CELTSCALE
 40
1.0
  9
$DISPSILH
 70
           0
  9
$DIMSCALE
 40
1.0
  9
$DIMASZ
 40
6.0
  9
$DIMEXO
 40
1.0
  9
$DIMDLI
 40
3.75
  9
$DIMRND
 40
0.0
  9
$DIMDLE
 40
0.0
  9
$DIMEXE
 40
1.0
  9
$DIMTP
 40
0.0
  9
$DIMTM
 40
0.0
  9
$DIMTXT
 40
3.5
  9
$DIMCEN
 40
2.5
  9
$DIMTSZ
 40
0.0
  9
$DIMTOL
 70
           0
  9
$DIMLIM
 70
           0
  9
$DIMTIH
 70
           1
  9
$DIMTOH
 70
           1
  9
$DIMSE1
 70
           0
  9
$DIMSE2
 70
           0
  9
$DIMTAD
 70
           1
  9
$DIMZIN
 70
           0
  9
$DIMBLK
  1

  9
$DIMASO
 70
           1
  9
$DIMSHO
 70
           1
  9
$DIMPOST
  1

  9
$DIMAPOST
  1

  9
$DIMALT
 70
           0
  9
$DIMALTD
 70
           3
  9
$DIMALTF
 40
0.03937007874
  9
$DIMLFAC
 40
1.0
  9
$DIMTOFL
 70
           1
  9
$DIMTVP
 40
0.0
  9
$DIMTIX
 70
           0
  9
$DIMSOXD
 70
           0
  9
$DIMSAH
 70
           0
  9
$DIMBLK1
  1

  9
$DIMBLK2
  1

  9
$DIMSTYLE
  2
ISO-25
  9
$DIMCLRD
 70
           0
  9
$DIMCLRE
 70
           0
  9
$DIMCLRT
 70
           0
  9
$DIMTFAC
 40
1.0
  9
$DIMGAP
 40
1.524
  9
$DIMJUST
 70
           0
  9
$DIMSD1
 70
           0
  9
$DIMSD2
 70
           0
  9
$DIMTOLJ
 70
           0
  9
$DIMTZIN
 70
           0
  9
$DIMALTZ
 70
           0
  9
$DIMALTTZ
 70
           0
  9
$DIMUPT
 70
           0
  9
$DIMDEC
 70
           2
  9
$DIMTDEC
 70
           2
  9
$DIMALTU
 70
           2
  9
$DIMALTTD
 70
           3
  9
$DIMTXSTY
  7
Standard
  9
$DIMAUNIT
 70
           0
  9
$DIMADEC
 70
           0
  9
$DIMALTRND
 40
0.0
  9
$DIMAZIN
 70
           0
  9
$DIMDSEP
 70
          44
  9
$DIMATFIT
 70
           3
  9
$DIMFRAC
 70
           0
  9
$DIMLDRBLK
  1

  9
$DIMLUNIT
 70
           2
  9
$DIMLWD
 70
          -2
  9
$DIMLWE
 70
          -2
  9
$DIMTMOVE
 70
           0
  9
$LUNITS
 70
           2
  9
$LUPREC
 70
           2
  9
$SKETCHINC
 40
1.0
  9
$FILLETRAD
 40
10.0
  9
$AUNITS
 70
           0
  9
$AUPREC
 70
           0
  9
$MENU
  1
.
  9
$ELEVATION
 40
0.0
  9
$PELEVATION
 40
0.0
  9
$THICKNESS
 40
0.0
  9
$LIMCHECK
 70
           0
  9
$CHAMFERA
 40
10.0
  9
$CHAMFERB
 40
10.0
  9
$CHAMFERC
 40
20.0
  9
$CHAMFERD
 40
0.0
  9
$SKPOLY
 70
           0
  9
$TDCREATE
 40
2453845.438307049
  9
$TDUCREATE
 40
0.000000000
  9
$TDUPDATE
 40
2453845.590276204
  9
$TDUUPDATE
 40
2453845.506942871
  9
$TDINDWG
 40
0.0009953472
  9
$TDUSRTIMER
 40
0.0009953472
  9
$USRTIMER
 70
           1
  9
$ANGBASE
 50
0.0
  9
$ANGDIR
 70
           0
  9
$PDMODE
 70
           0
  9
$PDSIZE
 40
-1.0
  9
$PLINEWID
 40
0.0
  9
$SPLFRAME
 70
           0
  9
$SPLINETYPE
 70
           6
  9
$SPLINESEGS
 70
           8
  9
$HANDSEED
  5
162
  9
$SURFTAB1
 70
           6
  9
$SURFTAB2
 70
           6
  9
$SURFTYPE
 70
           6
  9
$SURFU
 70
           6
  9
$SURFV
 70
           6
  9
$UCSBASE
  2

  9
$UCSNAME
  2

  9
$UCSORG
 10
0.0
 20
0.0
 30
0.0
  9
$UCSXDIR
 10
1.0
 20
0.0
 30
0.0
  9
$UCSYDIR
 10
0.0
 20
1.0
 30
0.0
  9
$UCSORTHOREF
  2

  9
$UCSORTHOVIEW
 70
           0
  9
$UCSORGTOP
 10
0.0
 20
0.0
 30
0.0
  9
$UCSORGBOTTOM
 10
0.0
 20
0.0
 30
0.0
  9
$UCSORGLEFT
 10
0.0
 20
0.0
 30
0.0
  9
$UCSORGRIGHT
 10
0.0
 20
0.0
 30
0.0
  9
$UCSORGFRONT
 10
0.0
 20
0.0
 30
0.0
  9
$UCSORGBACK
 10
0.0
 20
0.0
 30
0.0
  9
$PUCSBASE
  2

  9
$PUCSNAME
  2

  9
$PUCSORG
 10
0.0
 20
0.0
 30
0.0
  9
$PUCSXDIR
 10
1.0
 20
0.0
 30
0.0
  9
$PUCSYDIR
 10
0.0
 20
1.0
 30
0.0
  9
$PUCSORTHOREF
  2

  9
$PUCSORTHOVIEW
 70
           0
  9
$PUCSORGTOP
 10
0.0
 20
0.0
 30
0.0
  9
$PUCSORGBOTTOM
 10
0.0
 20
0.0
 30
0.0
  9
$PUCSORGLEFT
 10
0.0
 20
0.0
 30
0.0
  9
$PUCSORGRIGHT
 10
0.0
 20
0.0
 30
0.0
  9
$PUCSORGFRONT
 10
0.0
 20
0.0
 30
0.0
  9
$PUCSORGBACK
 10
0.0
 20
0.0
 30
0.0
  9
$USERI1
 70
           0
  9
$USERI2
 70
           0
  9
$USERI3
 70
           0
  9
$USERI4
 70
           0
  9
$USERI5
 70
           0
  9
$USERR1
 40
0.0
  9
$USERR2
 40
0.0
  9
$USERR3
 40
0.0
  9
$USERR4
 40
0.0
  9
$USERR5
 40
0.0
  9
$WORLDVIEW
 70
           1
  9
$SHADEDGE
 70
           3
  9
$SHADEDIF
 70
          70
  9
$TILEMODE
 70
           1
  9
$MAXACTVP
 70
          64
  9
$PINSBASE
 10
0.0
 20
0.0
 30
0.0
  9
$PLIMCHECK
 70
           0
  9
$PEXTMIN
 10
1.000000000000E+20
 20
1.000000000000E+20
 30
1.000000000000E+20
  9
$PEXTMAX
 10
-1.000000000000E+20
 20
-1.000000000000E+20
 30
-1.000000000000E+20
  9
$PLIMMIN
 10
0.0
 20
0.0
  9
$PLIMMAX
 10
420.0
 20
297.0
  9
$UNITMODE
 70
           0
  9
$VISRETAIN
 70
           1
  9
$PLINEGEN
 70
           0
  9
$PSLTSCALE
 70
           1
  9
$TREEDEPTH
 70
        3020
  9
$CMLSTYLE
  2
Standard
  9
$CMLJUST
 70
           0
  9
$CMLSCALE
 40
20.0
  9
$PROXYGRAPHICS
 70
           1
  9
$MEASUREMENT
 70
           1
  9
$CELWEIGHT
370
          -1
  9
$ENDCAPS
280
           0
  9
$JOINSTYLE
280
           0
  9
$LWDISPLAY
290
           1
  9
$INSUNITS
 70
           4
  9
$HYPERLINKBASE
  1

  9
$STYLESHEET
  1

  9
$XEDIT
290
           0
  9
$CEPSNTYPE
380
           0
  9
$PSTYLEMODE
290
           1
  9
$FINGERPRINTGUID
  2
{274668B3-7220-4EF0-926E-C1BA2F99A530}
  9
$VERSIONGUID
  2
{FAEB1C32-E019-11D5-929B-00C0DF256EC4}
  9
$EXTNAMES
290
           1
  9
$PSVPSCALE
 40
0.0
  0
ENDSEC
  0
SECTION
  2
CLASSES
  0
CLASS
  1
ACDBDICTIONARYWDFLT
  2
AcDbDictionaryWithDefault
  3
ObjectDBX Classes
 90
        0
280
           0
281
           0
  0
CLASS
  1
ACDBPLACEHOLDER
  2
AcDbPlaceHolder
  3
ObjectDBX Classes
 90
        0
280
           0
281
           0
  0
CLASS
  1
LAYOUT
  2
AcDbLayout
  3
ObjectDBX Classes
 90
        0
280
           0
281
           0
  0
CLASS
  1
LWPOLYLINE
  2
AcDbPolyline
  3
AutoCAD 2000
 90
        0
280
           0
281
           1
  0
CLASS
  1
IMAGE
  2
AcDbRasterImage
  3
ISM
 90
      127
280
           0
281
           1
  0
CLASS
  1
OLE2FRAME
  2
AcDbOle2Frame
  3
AutoCAD 2000
 90
        0
280
           0
281
           1
  0
CLASS
  1
HATCH
  2
AcDbHatch
  3
AutoCAD 2000
 90
        0
280
           0
281
           1
  0
CLASS
  1
DICTIONARYVAR
  2
AcDbDictionaryVar
  3
AutoCAD 2000
 90
        0
280
           0
281
           0
  0
CLASS
  1
RASTERVARIABLES
  2
AcDbRasterVariables
  3
ISM
 90
        0
280
           0
281
           0
  0
CLASS
  1
IMAGEDEF
  2
AcDbRasterImageDef
  3
ISM
 90
        0
280
           0
281
           0
  0
CLASS
  1
IMAGEDEF_REACTOR
  2
AcDbRasterImageDefReactor
  3
ISM
 90
        1
280
           0
281
           0
  0
CLASS
  1
IDBUFFER
  2
AcDbIdBuffer
  3
AutoCAD 2000
 90
        0
280
           0
281
           0
  0
CLASS
  1
SPATIAL_FILTER
  2
AcDbSpatialFilter
  3
AutoCAD 2000
 90
        0
280
           0
281
           0
  0
CLASS
  1
XRECORD
  2
AcDbXrecord
  3
AutoCAD 2000
 90
        0
280
           0
281
           0
  0
CLASS
  1
SORTENTSTABLE
  2
AcDbSortentsTable
  3
AutoCAD 2000
 90
        0
280
           0
281
           0
  0
CLASS
  1
LAYER_INDEX
  2
AcDbLayerIndex
  3
AutoCAD 2000
 90
        0
280
           0
281
           0
  0
CLASS
  1
SPATIAL_INDEX
  2
AcDbSpatialIndex
  3
AutoCAD 2000
 90
        0
280
           0
281
           0
  0
CLASS
  1
OBJECT_PTR
  2
CAseDLPNTableRecord
  3
"ASE-LPNTableRecord"
 90
        1
280
           0
281
           0
  0
CLASS
  1
PLOTSETTINGS
  2
AcDbPlotSettings
  3
AutoCAD 2000
 90
        0
280
           0
281
           0
  0
CLASS
  1
VBA_PROJECT
  2
AcDbVbaProject
  3
acadvba
 90
        0
280
           0
281
           0
  0
CLASS
  1
WIPEOUT
  2
AcDbWipeout
  3
WipeOut|AutoCAD Express Tool|expresstools@autodesk.com
 90
      127
280
           0
281
           1
  0
CLASS
  1
WIPEOUTVARIABLES
  2
AcDbWipeoutVariables
  3
WipeOut|AutoCAD Express Tool|expresstools@autodesk.com
 90
        0
280
           0
281
           0
  0
CLASS
  1
RTEXT
  2
RText
  3
RText|AutoCAD Express Tool|expresstools@autodesk.com
 90
        0
280
           0
281
           1
  0
CLASS
  1
ARCALIGNEDTEXT
  2
AcDbArcAlignedText
  3
ATEXT|AutoCAD Express Tool|expresstools@autodesk.com
 90
        0
280
           0
281
           1
  0
CLASS
  1
DIMASSOC
  2
AcDbDimAssoc
  3
AcDbDimAssoc|Product Desc:     AcDim ARX App For Dimension|Company:          Autodesk, Inc.|WEB Address:      www.autodesk.com
 90
        1
280
           0
281
           0
  0
ENDSEC
  0
SECTION
  2
TABLES
  0
TABLE
  2
VPORT
  5
8
100
AcDbSymbolTable
 70
           1
  0
VPORT
  5
29
100
AcDbSymbolTableRecord
100
AcDbViewportTableRecord
  2
*Active
 70
          64
 10
0.0
 20
0.0
 11
1.0
 21
1.0
 12
-282.22141381597
 22
328.071851186378
 13
0.0
 23
0.0
 14
10.0
 24
10.0
 15
10.0
 25
10.0
 16
0.0
 26
0.0
 36
1.0
 17
0.0
 27
0.0
 37
0.0
 40
815.641610704757
 41
1.97297297285
 42
50.0
 43
0.0
 44
0.0
 50
0.0
 51
0.0
 71
           0
 72
        2000
 73
           1
 74
           3
 75
           0
 76
           0
 77
           0
 78
           0
281
           0
 65
           0
110
0.0
120
0.0
130
0.0
111
1.0
121
0.0
131
0.0
112
0.0
122
1.0
132
0.0
345
0
346
0
 79
           0
146
0.0
  0
ENDTAB
  0
TABLE
  2
LTYPE
  5
5
100
AcDbSymbolTable
 70
           8
  0
LTYPE
  5
14
100
AcDbSymbolTableRecord
100
AcDbLinetypeTableRecord
  2
ByBlock
 70
          64
  3

 72
          65
 73
           0
 40
0.0
  0
LTYPE
  5
15
100
AcDbSymbolTableRecord
100
AcDbLinetypeTableRecord
  2
ByLayer
 70
          64
  3

 72
          65
 73
           0
 40
0.0
  0
LTYPE
  5
16
100
AcDbSymbolTableRecord
100
AcDbLinetypeTableRecord
  2
Continuous
 70
          64
  3
Solid line
 72
          65
 73
           0
 40
0.0
  0
LTYPE
  5
2A
100
AcDbSymbolTableRecord
100
AcDbLinetypeTableRecord
  2
HIDDEN
 70
          64
  3
Hidden __ __ __ __ __ __ __ __ __ __ __ __ __ __
 72
          65
 73
           2
 40
1.905
 49
1.27
 74
           0
 49
-0.635
 74
           0
  0
LTYPE
  5
2B
100
AcDbSymbolTableRecord
100
AcDbLinetypeTableRecord
  2
PHANTOM
 70
          64
  3
Phantom ______  __  __  ______  __  __  ______
 72
          65
 73
           6
 40
12.7
 49
6.35
 74
           0
 49
-1.27
 74
           0
 49
1.27
 74
           0
 49
-1.27
 74
           0
 49
1.27
 74
           0
 49
-1.27
 74
           0
  0
LTYPE
  5
2C
100
AcDbSymbolTableRecord
100
AcDbLinetypeTableRecord
  2
CENTER
 70
          64
  3
Center ____ _ ____ _ ____ _ ____ _ ____ _ ____
 72
          65
 73
           4
 40
10.16
 49
6.35
 74
           0
 49
-1.27
 74
           0
 49
1.27
 74
           0
 49
-1.27
 74
           0
  0
LTYPE
  5
2D
100
AcDbSymbolTableRecord
100
AcDbLinetypeTableRecord
  2
CENTERX2
 70
          64
  3
Center (2x) ________  __  ________  __  _____
 72
          65
 73
           4
 40
20.32
 49
12.7
 74
           0
 49
-2.54
 74
           0
 49
2.54
 74
           0
 49
-2.54
 74
           0
  0
LTYPE
  5
2E
100
AcDbSymbolTableRecord
100
AcDbLinetypeTableRecord
  2
DOT2
 70
          64
  3
Dot (.5x) ........................................
 72
          65
 73
           2
 40
0.635
 49
0.0
 74
           0
 49
-0.635
 74
           0
  0
ENDTAB
  0
TABLE
  2
LAYER
  5
2
100
AcDbSymbolTable
 70
           2
  0
LAYER
  5
10
100
AcDbSymbolTableRecord
100
AcDbLayerTableRecord
  2
0
 70
          64
 62
           7
  6
Continuous
290
           1
370
          -3
390
F
  0
LAYER
  5
154
100
AcDbSymbolTableRecord
100
AcDbLayerTableRecord
  2
DEFPOINTS
 70
           0
 62
           7
  6
Continuous
290
           0
370
          -3
390
F
  0
ENDTAB
  0
TABLE
  2
STYLE
  5
3
100
AcDbSymbolTable
 70
           1
  0
STYLE
  5
11
100
AcDbSymbolTableRecord
100
AcDbTextStyleTableRecord
  2
Standard
 70
          64
 40
0.0
 41
1.0
 50
0.0
 71
           0
 42
2.5
  3
TXT
  4

  0
ENDTAB
  0
TABLE
  2
VIEW
  5
6
100
AcDbSymbolTable
 70
           0
  0
ENDTAB
  0
TABLE
  2
UCS
  5
7
100
AcDbSymbolTable
 70
           0
  0
ENDTAB
  0
TABLE
  2
APPID
  5
9
100
AcDbSymbolTable
 70
           1
  0
APPID
  5
12
100
AcDbSymbolTableRecord
100
AcDbRegAppTableRecord
  2
ACAD
 70
          64
  0
ENDTAB
  0
TABLE
  2
DIMSTYLE
  5
A
100
AcDbSymbolTable
 70
           1
100
AcDbDimStyleTable
 71
           0
  0
DIMSTYLE
105
27
100
AcDbSymbolTableRecord
100
AcDbDimStyleTableRecord
  2
ISO-25
 70
          64
  3

  4

 40
1.0
 41
2.5
 42
0.625
 43
3.75
 44
1.25
 45
0.0
 46
0.0
 47
0.0
 48
0.0
 71
           0
 72
           0
 73
           0
 74
           0
 75
           0
 76
           0
 77
           1
 78
           8
 79
           0
140
2.5
141
2.5
142
0.0
143
0.03937007874
144
1.0
145
0.0
146
1.0
147
0.625
148
0.0
170
           0
171
           3
172
           1
173
           0
174
           0
175
           0
176
           0
177
           0
178
           0
179
           0
271
           2
272
           2
273
           2
274
           3
275
           0
276
           0
277
           2
278
          44
279
           0
280
           0
281
           0
282
           0
283
           0
284
           8
285
           0
286
           0
288
           0
289
           3
340
11
341
0
342
0
343
0
344
0
371
          -2
372
          -2
  0
ENDTAB
  0
TABLE
  2
BLOCK_RECORD
  5
1
100
AcDbSymbolTable
 70
           1
  0
BLOCK_RECORD
  5
1F
100
AcDbSymbolTableRecord
100
AcDbBlockTableRecord
  2
*MODEL_SPACE
340
22
  0
BLOCK_RECORD
  5
1B
100
AcDbSymbolTableRecord
100
AcDbBlockTableRecord
  2
*PAPER_SPACE
340
1E
  0
BLOCK_RECORD
  5
23
100
AcDbSymbolTableRecord
100
AcDbBlockTableRecord
  2
*Paper_Space0
340
26
  0
ENDTAB
  0
ENDSEC
  0
SECTION
  2
BLOCKS
  0
BLOCK
  5
20
100
AcDbEntity
  8
0
390
0
100
AcDbBlockBegin
  2
*MODEL_SPACE
 70
           0
 10
0.0
 20
0.0
 30
0.0
  3
*MODEL_SPACE
  1

  0
ENDBLK
  5
21
100
AcDbEntity
  8
0
390
0
100
AcDbBlockEnd
  0
BLOCK
  5
1C
100
AcDbEntity
 67
           1
  8
0
390
0
100
AcDbBlockBegin
  2
*PAPER_SPACE
 70
           0
 10
0.0
 20
0.0
 30
0.0
  3
*PAPER_SPACE
  1

  0
ENDBLK
  5
1D
100
AcDbEntity
 67
           1
  8
0
390
0
100
AcDbBlockEnd
  0
BLOCK
  5
24
100
AcDbEntity
  8
0
100
AcDbBlockBegin
  2
*Paper_Space0
 70
          64
 10
0.0
 20
0.0
 30
0.0
  3
*Paper_Space0
  1

  0
ENDBLK
  5
25
100
AcDbEntity
  8
0
100
AcDbBlockEnd
  0
ENDSEC
  0
SECTION
  2
ENTITIES
  0
LINE
  5
2F
100
AcDbEntity
  8
0
370
          15
  6
Continuous
 62
           7
100
AcDbLine
 10
-185.86185192329
 20
724.518318397757
 30
0.0
 11
-186.7915178253
 21
697.896170159298
 31
0.0
  0
LINE
  5
30
100
AcDbEntity
  8
0
370
          15
  6
Continuous
 62
           7
100
AcDbLine
 10
318.683080483556
 20
724.518318397757
 30
0.0
 11
-185.86185192329
 21
724.518318397757
 31
0.0
  0
LINE
  5
31
100
AcDbEntity
  8
0
370
          15
  6
Continuous
 62
           7
100
AcDbLine
 10
319.612746385566
 20
697.896170159298
 30
0.0
 11
318.683080483556
 21
724.518318397757
 31
0.0
  0
LINE
  5
32
100
AcDbEntity
  8
0
370
          15
  6
Continuous
 62
           7
100
AcDbLine
 10
-186.7915178253
 20
697.896170159298
 30
0.0
 11
319.612746385566
 21
697.896170159298
 31
0.0
  0
LINE
  5
33
100
AcDbEntity
  8
0
370
          15
  6
Continuous
 62
           7
100
AcDbLine
 10
-190.289385719867
 20
697.896170159298
 30
0.0
 11
-189.359719817856
 21
724.518318397757
 31
0.0
  0
ARC
  5
34
100
AcDbEntity
  8
0
370
          15
  6
Continuous
 62
           7
100
AcDbCircle
 10
-187.851761632641
 20
695.980108303925
 30
0.0
 40
28.607502093176
100
AcDbArc
 50
86.011341016193
 51
93.021574568929
  0
LINE
  5
35
100
AcDbEntity
  8
0
370
          15
  6
Continuous
 62
           7
100
AcDbLine
 10
-186.7915178253
 20
697.896170159298
 30
0.0
 11
-190.289385719867
 21
697.896170159298
 31
0.0
  0
ARC
  5
36
100
AcDbEntity
  8
0
370
          15
  6
Continuous
 62
           7
100
AcDbCircle
 10
320.672990192983
 20
695.980108302028
 30
0.0
 40
28.607502095074
100
AcDbArc
 50
86.978425431423
 51
93.988658983693
  0
LINE
  5
37
100
AcDbEntity
  8
0
370
          15
  6
Continuous
 62
           7
100
AcDbLine
 10
322.180948378123
 20
724.518318397757
 30
0.0
 11
323.110614280133
 21
697.896170159298
 31
0.0
  0
LINE
  5
38
100
AcDbEntity
  8
0
370
          15
  6
Continuous
 62
           7
100
AcDbLine
 10
323.110614280133
 20
697.896170159298
 30
0.0
 11
319.612746385566
 21
697.896170159298
 31
0.0
  0
LINE
  5
39
100
AcDbEntity
  8
0
370
          15
  6
Continuous
 62
           7
100
AcDbLine
 10
-185.86185192329
 20
727.896170159298
 30
0.0
 11
-185.86185192329
 21
724.518318397757
 31
0.0
  0
ARC
  5
3A
100
AcDbEntity
  8
0
370
          15
  6
Continuous
 62
           7
100
AcDbCircle
 10
-185.86185192329
 20
724.396170159298
 30
0.0
 40
3.5
100
AcDbArc
 50
90.0
 51
177.999999999841
  0
LINE
  5
3B
100
AcDbEntity
  8
0
370
          15
  6
Continuous
 62
           7
100
AcDbLine
 10
-185.86185192329
 20
727.896170159298
 30
0.0
 11
318.683080483556
 21
727.896170159298
 31
0.0
  0
LINE
  5
3C
100
AcDbEntity
  8
0
370
          15
  6
Continuous
 62
           7
100
AcDbLine
 10
318.683080483556
 20
727.896170159298
 30
0.0
 11
318.683080483556
 21
724.518318397757
 31
0.0
  0
ARC
  5
3D
100
AcDbEntity
  8
0
370
          15
  6
Continuous
 62
           7
100
AcDbCircle
 10
318.683080483556
 20
724.396170159298
 30
0.0
 40
3.5
100
AcDbArc
 50
2.000000000093
 51
90.000000000001
  0
LINE
  5
3E
100
AcDbEntity
  8
0
370
          15
  6
Continuous
 62
           7
100
AcDbLine
 10
322.180948378121
 20
523.861662706968
 30
0.0
 11
318.683080483555
 21
523.861662706968
 31
0.0
  0
LINE
  5
3F
100
AcDbEntity
  8
0
370
          15
  6
Continuous
 62
           7
100
AcDbLine
 10
318.683080483555
 20
527.359530601535
 30
0.0
 11
318.683080483555
 21
523.861662706968
 31
0.0
  0
ARC
  5
40
100
AcDbEntity
  8
0
370
          15
  6
Continuous
 62
           7
100
AcDbCircle
 10
318.677792266061
 20
523.856374489555
 30
0.0
 40
3.503160103494
100
AcDbArc
 50
0.086491237917
 51
89.91350876075
  0
LINE
  5
41
100
AcDbEntity
  8
0
370
          15
  6
Continuous
 62
           7
100
AcDbLine
 10
-185.861851923291
 20
527.359530601533
 30
0.0
 11
318.683080483555
 21
527.359530601535
 31
0.0
  0
LINE
  5
42
100
AcDbEntity
  8
0
370
          15
  6
Continuous
 62
           7
100
AcDbLine
 10
318.683080483555
 20
523.861662706968
 30
0.0
 11
-185.861851923291
 21
523.861662706967
 31
0.0
  0
LINE
  5
43
100
AcDbEntity
  8
0
370
          15
  6
Continuous
 62
           7
100
AcDbLine
 10
-185.861851923291
 20
527.359530601533
 30
0.0
 11
-185.861851923291
 21
523.861662706967
 31
0.0
  0
LINE
  5
44
100
AcDbEntity
  8
0
370
          15
  6
Continuous
 62
           7
100
AcDbLine
 10
-185.861851923291
 20
523.861662706967
 30
0.0
 11
-189.359719817858
 21
523.861662706967
 31
0.0
  0
ARC
  5
45
100
AcDbEntity
  8
0
370
          15
  6
Continuous
 62
           7
100
AcDbCircle
 10
-185.856563705897
 20
523.85637448955
 30
0.0
 40
3.503160103417
100
AcDbArc
 50
90.086491237625
 51
179.913508522184
  0
LINE
  5
46
100
AcDbEntity
  8
0
370
          15
  6
Continuous
 62
           7
100
AcDbLine
 10
318.683080483556
 20
134.288156449271
 30
0.0
 11
318.683080483555
 21
523.861662706968
 31
0.0
  0
LINE
  5
47
100
AcDbEntity
  8
0
370
          15
  6
Continuous
 62
           7
100
AcDbLine
 10
-185.86185192329
 20
134.288156449269
 30
0.0
 11
318.683080483556
 21
134.288156449271
 31
0.0
  0
LINE
  5
48
100
AcDbEntity
  8
0
370
          15
  6
Continuous
 62
           7
100
AcDbLine
 10
-185.861851923291
 20
523.861662706967
 30
0.0
 11
-185.86185192329
 21
134.288156449269
 31
0.0
  0
LINE
  5
49
100
AcDbEntity
  8
0
370
          15
  6
Continuous
 62
           7
100
AcDbLine
 10
-185.86185192329
 20
134.288156449269
 30
0.0
 11
-189.359719817856
 21
134.288156449269
 31
0.0
  0
LINE
  5
4A
100
AcDbEntity
  8
0
370
          15
  6
Continuous
 62
           7
100
AcDbLine
 10
-189.359719817856
 20
134.288156449269
 30
0.0
 11
-189.359719817858
 21
523.861662706967
 31
0.0
  0
LINE
  5
4B
100
AcDbEntity
  8
0
370
          15
  6
Continuous
 62
           7
100
AcDbLine
 10
322.180948378121
 20
523.861662706968
 30
0.0
 11
322.180948378123
 21
134.288156449271
 31
0.0
  0
LINE
  5
4C
100
AcDbEntity
  8
0
370
          15
  6
Continuous
 62
           7
100
AcDbLine
 10
322.180948378123
 20
134.288156449271
 30
0.0
 11
318.683080483556
 21
134.288156449271
 31
0.0
  0
LINE
  5
4D
100
AcDbEntity
  8
0
370
          15
  6
Continuous
 62
           7
100
AcDbLine
 10
-185.86185192329
 20
134.288156449269
 30
0.0
 11
-185.86185192329
 21
130.790288554702
 31
0.0
  0
ARC
  5
4E
100
AcDbEntity
  8
0
370
          15
  6
Continuous
 62
           7
100
AcDbCircle
 10
-185.8565637058
 20
134.293444666704
 30
0.0
 40
3.50316010349
100
AcDbArc
 50
180.086491238274
 51
269.91350876082
  0
LINE
  5
4F
100
AcDbEntity
  8
0
370
          15
  6
Continuous
 62
           7
100
AcDbLine
 10
318.683080483556
 20
134.288156449271
 30
0.0
 11
318.683080483556
 21
130.790288554704
 31
0.0
  0
LINE
  5
50
100
AcDbEntity
  8
0
370
          15
  6
Continuous
 62
           7
100
AcDbLine
 10
318.683080483556
 20
130.790288554704
 30
0.0
 11
-185.86185192329
 21
130.790288554702
 31
0.0
  0
ARC
  5
51
100
AcDbEntity
  8
0
370
          15
  6
Continuous
 62
           7
100
AcDbCircle
 10
318.677792266104
 20
134.293444666706
 30
0.0
 40
3.503160103452
100
AcDbArc
 50
270.086491238561
 51
359.913508761719
  0
ELLIPSE
  5
52
100
AcDbEntity
  8
0
370
          15
  6
Continuous
 62
           7
100
AcDbEllipse
 10
-186.280901157192
 20
524.280711940868
 30
0.0
 11
3.256070746259212
 21
1.3487086631469083
 31
0.0
210
0.0
220
0.0
230
1.0
 40
0.951833291682
 41
1.1952460438233088
 42
2.7311357855783198
  0
ELLIPSE
  5
53
100
AcDbEntity
  8
0
370
          15
  6
Continuous
 62
           7
100
AcDbEllipse
 10
-186.158678463971
 20
524.158489247646
 30
0.0
 11
2.4778899060972037
 21
-2.4778899060970616
 31
0.0
210
0.0
220
0.0
230
1.0
 40
0.998782765959
 41
2.3568034777780653
 42
2.3904920876467068
  0
LINE
  5
54
100
AcDbEntity
  8
0
370
          15
  6
Continuous
 62
           7
100
AcDbLine
 10
-186.16294397445
 20
527.660622652692
 30
0.0
 11
-185.861851923291
 21
527.359530601533
 31
0.0
  0
LINE
  5
55
100
AcDbEntity
  8
0
370
          15
  6
Continuous
 62
           7
100
AcDbLine
 10
-189.359719817858
 20
523.861662706967
 30
0.0
 11
-189.778769051759
 21
524.280711940868
 31
0.0
  0
ELLIPSE
  5
56
100
AcDbEntity
  8
0
370
          15
  6
Continuous
 62
           7
100
AcDbEllipse
 10
318.979907024234
 20
524.158489247648
 30
0.0
 11
2.4778899060970616
 21
2.4778899060970616
 31
0.0
210
0.0
220
0.0
230
1.0
 40
0.998782765959
 41
0.7511005659432448
 42
0.7847891758119281
  0
ELLIPSE
  5
57
100
AcDbEntity
  8
0
370
          15
  6
Continuous
 62
           7
100
AcDbEllipse
 10
319.102129717455
 20
524.280711940869
 30
0.0
 11
3.2560707462593541
 21
-1.3487086631467946
 31
0.0
210
0.0
220
0.0
230
1.0
 40
0.951833291682
 41
0.4104568680113088
 42
1.9463466097664512
  0
LINE
  5
58
100
AcDbEntity
  8
0
370
          15
  6
Continuous
 62
           7
100
AcDbLine
 10
322.599997612022
 20
524.280711940869
 30
0.0
 11
322.180948378121
 21
523.861662706968
 31
0.0
  0
LINE
  5
59
100
AcDbEntity
  8
0
370
          15
  6
Continuous
 62
           7
100
AcDbLine
 10
318.683080483555
 20
527.359530601535
 30
0.0
 11
318.984172534713
 21
527.660622652694
 31
0.0
  0
ELLIPSE
  5
5A
100
AcDbEntity
  8
0
370
          15
  6
Continuous
 62
           7
100
AcDbEllipse
 10
319.608480875087
 20
133.36275605774
 30
0.0
 11
2.4778899060973458
 21
-2.4778899060970616
 31
0.0
210
0.0
220
0.0
230
1.0
 40
0.998782765959
 41
5.4983961313676533
 42
7.067974482991433
  0
LINE
  5
5B
100
AcDbEntity
  8
0
370
          15
  6
Continuous
 62
           7
100
AcDbLine
 10
319.612746385566
 20
129.860622652694
 30
0.0
 11
318.683080483556
 21
130.790288554704
 31
0.0
  0
LINE
  5
5C
100
AcDbEntity
  8
0
370
          15
  6
Continuous
 62
           7
100
AcDbLine
 10
322.180948378123
 20
134.288156449271
 30
0.0
 11
323.110614280133
 21
133.358490547261
 31
0.0
  0
ELLIPSE
  5
5D
100
AcDbEntity
  8
0
370
          15
  6
Continuous
 62
           7
100
AcDbEllipse
 10
-186.787252314821
 20
133.362756057738
 30
0.0
 11
2.4778899060973458
 21
2.4778899060970616
 31
0.0
210
0.0
220
0.0
230
1.0
 40
0.998782765959
 41
2.3568034777781794
 42
3.9263818294017185
  0
LINE
  5
5E
100
AcDbEntity
  8
0
370
          15
  6
Continuous
 62
           7
100
AcDbLine
 10
-190.289385719867
 20
133.358490547259
 30
0.0
 11
-189.359719817856
 21
134.288156449269
 31
0.0
  0
LINE
  5
5F
100
AcDbEntity
  8
0
370
          15
  6
Continuous
 62
           7
100
AcDbLine
 10
-185.86185192329
 20
130.790288554702
 30
0.0
 11
-186.7915178253
 21
129.860622652692
 31
0.0
  0
LINE
  5
60
100
AcDbEntity
  8
0
370
          15
  6
Continuous
 62
           7
100
AcDbLine
 10
-190.289385719868
 20
539.762754758125
 30
0.0
 11
-190.289385719867
 21
133.358490547259
 31
0.0
  0
LINE
  5
61
100
AcDbEntity
  8
0
370
          15
  6
Continuous
 62
           7
100
AcDbLine
 10
-189.778769051759
 20
539.252138090016
 30
0.0
 11
-190.289385719868
 21
539.762754758125
 31
0.0
  0
LINE
  5
62
100
AcDbEntity
  8
0
370
          15
  6
Continuous
 62
           7
100
AcDbLine
 10
-189.778769051759
 20
524.280711940868
 30
0.0
 11
-189.778769051759
 21
539.252138090016
 31
0.0
  0
LINE
  5
63
100
AcDbEntity
  8
0
370
          15
  6
Continuous
 62
           7
100
AcDbLine
 10
323.110614280133
 20
133.358490547261
 30
0.0
 11
323.110614280132
 21
539.762754758127
 31
0.0
  0
LINE
  5
64
100
AcDbEntity
  8
0
370
          15
  6
Continuous
 62
           7
100
AcDbLine
 10
322.599997612022
 20
539.252138090018
 30
0.0
 11
322.599997612022
 21
524.280711940869
 31
0.0
  0
LINE
  5
65
100
AcDbEntity
  8
0
370
          15
  6
Continuous
 62
           7
100
AcDbLine
 10
323.110614280132
 20
539.762754758127
 30
0.0
 11
322.599997612022
 21
539.252138090018
 31
0.0
  0
LINE
  5
66
100
AcDbEntity
  8
0
370
          15
  6
Continuous
 62
           7
100
AcDbLine
 10
-121.214385719868
 20
527.660622652692
 30
0.0
 11
-186.16294397445
 21
527.660622652692
 31
0.0
  0
LINE
  5
67
100
AcDbEntity
  8
0
370
          15
  6
Continuous
 62
           7
100
AcDbLine
 10
-70.964385719868
 20
528.289196503544
 30
0.0
 11
-121.214385719868
 21
528.289196503544
 31
0.0
  0
LINE
  5
68
100
AcDbEntity
  8
0
370
          15
  6
Continuous
 62
           7
100
AcDbLine
 10
203.785614280132
 20
527.660622652694
 30
0.0
 11
-70.964385719868
 21
527.660622652693
 31
0.0
  0
LINE
  5
69
100
AcDbEntity
  8
0
370
          15
  6
Continuous
 62
           7
100
AcDbLine
 10
203.785614280038
 20
528.289196503545
 30
0.0
 11
254.035614280132
 21
528.289196503545
 31
0.0
  0
LINE
  5
6A
100
AcDbEntity
  8
0
370
          15
  6
Continuous
 62
           7
100
AcDbLine
 10
318.984172534713
 20
527.660622652694
 30
0.0
 11
254.035614280132
 21
527.660622652694
 31
0.0
  0
LINE
  5
6B
100
AcDbEntity
  8
0
370
          15
  6
Continuous
 62
           7
100
AcDbLine
 10
-186.7915178253
 20
129.860622652692
 30
0.0
 11
319.612746385566
 21
129.860622652694
 31
0.0
  0
LINE
  5
6C
100
AcDbEntity
  8
0
370
          15
  6
Continuous
 62
           7
100
AcDbLine
 10
-121.214385719868
 20
539.252138090016
 30
0.0
 11
-186.280901157192
 21
539.252138090016
 31
0.0
  0
LINE
  5
6D
100
AcDbEntity
  8
0
370
          15
  6
Continuous
 62
           7
100
AcDbLine
 10
-186.280901157192
 20
539.252138090016
 30
0.0
 11
-186.280901157192
 21
542.750005984583
 31
0.0
  0
LINE
  5
6E
100
AcDbEntity
  8
0
370
          15
  6
Continuous
 62
           7
100
AcDbLine
 10
-186.280901157192
 20
542.750005984583
 30
0.0
 11
-121.214385719868
 21
542.750005984583
 31
0.0
  0
LINE
  5
6F
100
AcDbEntity
  8
0
370
          15
  6
Continuous
 62
           7
100
AcDbLine
 10
-121.214385719868
 20
542.750005984583
 30
0.0
 11
-121.214385719868
 21
539.252138090016
 31
0.0
  0
LINE
  5
70
100
AcDbEntity
  8
0
370
          15
  6
Continuous
 62
           7
100
AcDbLine
 10
322.599997612022
 20
539.252138090018
 30
0.0
 11
319.102129717456
 21
539.252138090018
 31
0.0
  0
LINE
  5
71
100
AcDbEntity
  8
0
370
          15
  6
Continuous
 62
           7
100
AcDbLine
 10
319.102129717456
 20
542.750005984584
 30
0.0
 11
319.102129717456
 21
539.252138090018
 31
0.0
  0
ARC
  5
72
100
AcDbEntity
  8
0
370
          15
  6
Continuous
 62
           7
100
AcDbCircle
 10
319.09684150007
 20
539.246849872609
 30
0.0
 40
3.503160103409
100
AcDbArc
 50
0.08649149306
 51
89.913508762525
  0
LINE
  5
73
100
AcDbEntity
  8
0
370
          15
  6
Continuous
 62
           7
100
AcDbLine
 10
319.102129717456
 20
539.252138090018
 30
0.0
 11
254.035614280132
 21
539.252138090018
 31
0.0
  0
LINE
  5
74
100
AcDbEntity
  8
0
370
          15
  6
Continuous
 62
           7
100
AcDbLine
 10
254.035614280132
 20
542.750005984584
 30
0.0
 11
319.102129717456
 21
542.750005984584
 31
0.0
  0
LINE
  5
75
100
AcDbEntity
  8
0
370
          15
  6
Continuous
 62
           7
100
AcDbLine
 10
254.035614280132
 20
539.252138090018
 30
0.0
 11
254.035614280132
 21
542.750005984584
 31
0.0
  0
LINE
  5
76
100
AcDbEntity
  8
0
370
          15
  6
Continuous
 62
           7
100
AcDbLine
 10
203.785614280132
 20
539.252138090018
 30
0.0
 11
-70.964385719868
 21
539.252138090017
 31
0.0
  0
LINE
  5
77
100
AcDbEntity
  8
0
370
          15
  6
Continuous
 62
           7
100
AcDbLine
 10
-70.964385719868
 20
542.750005984583
 30
0.0
 11
203.785614280132
 21
542.750005984584
 31
0.0
  0
LINE
  5
78
100
AcDbEntity
  8
0
370
          15
  6
Continuous
 62
           7
100
AcDbLine
 10
-70.964385719868
 20
539.252138090017
 30
0.0
 11
-70.964385719868
 21
542.750005984583
 31
0.0
  0
LINE
  5
79
100
AcDbEntity
  8
0
370
          15
  6
Continuous
 62
           7
100
AcDbLine
 10
203.785614280132
 20
542.750005984584
 30
0.0
 11
203.785614280132
 21
539.252138090018
 31
0.0
  0
LINE
  5
7A
100
AcDbEntity
  8
0
370
          15
  6
Continuous
 62
           7
100
AcDbLine
 10
-186.280901157192
 20
539.252138090016
 30
0.0
 11
-189.778769051759
 21
539.252138090016
 31
0.0
  0
ARC
  5
7B
100
AcDbEntity
  8
0
370
          15
  6
Continuous
 62
           7
100
AcDbCircle
 10
-186.275612939686
 20
539.246849872528
 30
0.0
 40
3.503160103506
100
AcDbArc
 50
90.086491239434
 51
179.913508760846
  0
LINE
  5
7C
100
AcDbEntity
  8
0
370
          15
  6
Continuous
 62
           7
100
AcDbLine
 10
319.102129717455
 20
527.658635515756
 30
0.0
 11
319.102129717456
 21
539.252138090018
 31
0.0
  0
LINE
  5
7D
100
AcDbEntity
  8
0
370
          15
  6
Continuous
 62
           7
100
AcDbLine
 10
-186.280901157192
 20
539.252138090016
 30
0.0
 11
-186.280901157192
 21
527.658635515754
 31
0.0
  0
LINE
  5
7E
100
AcDbEntity
  8
0
370
          15
  6
Continuous
 62
           7
100
AcDbLine
 10
254.035614280132
 20
539.252138090018
 30
0.0
 11
254.035614280132
 21
527.660622652694
 31
0.0
  0
LINE
  5
7F
100
AcDbEntity
  8
0
370
          15
  6
Continuous
 62
           7
100
AcDbLine
 10
-121.214385719868
 20
539.252138090016
 30
0.0
 11
-121.214385719868
 21
527.660622652692
 31
0.0
  0
LINE
  5
80
100
AcDbEntity
  8
0
370
          15
  6
Continuous
 62
           7
100
AcDbLine
 10
-70.964385719868
 20
539.252138090017
 30
0.0
 11
-70.964385719868
 21
527.660622652693
 31
0.0
  0
LINE
  5
81
100
AcDbEntity
  8
0
370
          15
  6
Continuous
 62
           7
100
AcDbLine
 10
203.785614280132
 20
539.252138090018
 30
0.0
 11
203.785614280132
 21
527.660622652694
 31
0.0
  0
ELLIPSE
  5
82
100
AcDbEntity
  8
0
370
          15
  6
Continuous
 62
           7
100
AcDbEllipse
 10
319.608480875085
 20
539.758489247648
 30
0.0
 11
2.4778899060973458
 21
2.4778899060970616
 31
0.0
210
0.0
220
0.0
230
1.0
 40
0.998782765959
 41
5.498396131367782
 42
7.0679744829914526
  0
LINE
  5
83
100
AcDbEntity
  8
0
370
          15
  6
Continuous
 62
           7
100
AcDbLine
 10
319.102129717456
 20
542.750005984584
 30
0.0
 11
319.612746385565
 21
543.260622652694
 31
0.0
  0
ELLIPSE
  5
84
100
AcDbEntity
  8
0
370
          15
  6
Continuous
 62
           7
100
AcDbEllipse
 10
-186.787252314822
 20
539.758489247646
 30
0.0
 11
2.4778899060973458
 21
-2.4778899060969479
 31
0.0
210
0.0
220
0.0
230
1.0
 40
0.998782765959
 41
2.3568034777778863
 42
3.9263818294015418
  0
LINE
  5
85
100
AcDbEntity
  8
0
370
          15
  6
Continuous
 62
           7
100
AcDbLine
 10
-186.791517825301
 20
543.260622652692
 30
0.0
 11
-186.280901157192
 21
542.750005984583
 31
0.0
  0
LINE
  5
86
100
AcDbEntity
  8
0
370
          15
  6
Continuous
 62
           7
100
AcDbLine
 10
-121.214385719868
 20
543.260622652693
 30
0.0
 11
-186.791517825301
 21
543.260622652692
 31
0.0
  0
LINE
  5
87
100
AcDbEntity
  8
0
370
          15
  6
Continuous
 62
           7
100
AcDbLine
 10
-121.214385719868
 20
543.260622652693
 30
0.0
 11
-121.214385719868
 21
542.750005984583
 31
0.0
  0
LINE
  5
88
100
AcDbEntity
  8
0
370
          15
  6
Continuous
 62
           7
100
AcDbLine
 10
203.785614280132
 20
543.260622652693
 30
0.0
 11
-70.964385719868
 21
543.260622652693
 31
0.0
  0
LINE
  5
89
100
AcDbEntity
  8
0
370
          15
  6
Continuous
 62
           7
100
AcDbLine
 10
-70.964385719868
 20
543.260622652693
 30
0.0
 11
-70.964385719868
 21
542.750005984583
 31
0.0
  0
LINE
  5
8A
100
AcDbEntity
  8
0
370
          15
  6
Continuous
 62
           7
100
AcDbLine
 10
203.785614280132
 20
543.260622652693
 30
0.0
 11
203.785614280132
 21
542.750005984584
 31
0.0
  0
LINE
  5
8B
100
AcDbEntity
  8
0
370
          15
  6
Continuous
 62
           7
100
AcDbLine
 10
319.612746385565
 20
543.260622652694
 30
0.0
 11
254.035614280132
 21
543.260622652694
 31
0.0
  0
LINE
  5
8C
100
AcDbEntity
  8
0
370
          15
  6
Continuous
 62
           7
100
AcDbLine
 10
254.035614280132
 20
543.260622652694
 30
0.0
 11
254.035614280132
 21
542.750005984584
 31
0.0
  0
LINE
  5
8D
100
AcDbEntity
  8
0
370
          15
  6
Continuous
 62
           7
100
AcDbLine
 10
-395.11643417299
 20
134.288156449271
 30
0.0
 11
-368.494285934531
 21
133.358490547261
 31
0.0
  0
LINE
  5
8E
100
AcDbEntity
  8
0
370
          15
  6
Continuous
 62
           7
100
AcDbLine
 10
-395.116434172991
 20
523.861662706968
 30
0.0
 11
-395.11643417299
 21
134.288156449271
 31
0.0
  0
LINE
  5
8F
100
AcDbEntity
  8
0
370
          15
  6
Continuous
 62
           7
100
AcDbLine
 10
-383.116434172991
 20
524.280711940869
 30
0.0
 11
-395.116434172991
 21
523.861662706968
 31
0.0
  0
LINE
  5
90
100
AcDbEntity
  8
0
370
          15
  6
Continuous
 62
           7
100
AcDbLine
 10
-383.116434172991
 20
539.252138090018
 30
0.0
 11
-383.116434172991
 21
524.280711940869
 31
0.0
  0
LINE
  5
91
100
AcDbEntity
  8
0
370
          15
  6
Continuous
 62
           7
100
AcDbLine
 10
-368.494285934532
 20
539.762754758127
 30
0.0
 11
-383.116434172991
 21
539.252138090018
 31
0.0
  0
LINE
  5
92
100
AcDbEntity
  8
0
370
          15
  6
Continuous
 62
           7
100
AcDbLine
 10
-368.494285934531
 20
133.358490547261
 30
0.0
 11
-368.494285934532
 21
539.762754758127
 31
0.0
  0
LINE
  5
93
100
AcDbEntity
  8
0
370
          15
  6
Continuous
 62
           7
100
AcDbLine
 10
-368.494285934531
 20
129.860622652694
 30
0.0
 11
-395.11643417299
 21
130.790288554704
 31
0.0
  0
ARC
  5
94
100
AcDbEntity
  8
0
370
          15
  6
Continuous
 62
           7
100
AcDbCircle
 10
-366.578224079552
 20
132.298246739892
 30
0.0
 40
28.607502092785
100
AcDbArc
 50
176.011341016082
 51
183.988658983918
  0
LINE
  5
95
100
AcDbEntity
  8
0
370
          15
  6
Continuous
 62
           7
100
AcDbLine
 10
-368.494285934531
 20
133.358490547261
 30
0.0
 11
-368.494285934531
 21
129.860622652694
 31
0.0
  0
ARC
  5
96
100
AcDbEntity
  8
0
370
          15
  6
Continuous
 62
           7
100
AcDbCircle
 10
-354.578224077512
 20
541.242047799427
 30
0.0
 40
28.607502094823
100
AcDbArc
 50
176.011341016307
 51
183.988658983695
  0
LINE
  5
97
100
AcDbEntity
  8
0
370
          15
  6
Continuous
 62
           7
100
AcDbLine
 10
-383.116434172991
 20
542.750005984584
 30
0.0
 11
-368.494285934532
 21
543.260622652694
 31
0.0
  0
LINE
  5
98
100
AcDbEntity
  8
0
370
          15
  6
Continuous
 62
           7
100
AcDbLine
 10
-368.494285934532
 20
543.260622652694
 30
0.0
 11
-368.494285934532
 21
539.762754758127
 31
0.0
  0
LINE
  5
99
100
AcDbEntity
  8
0
370
          15
  6
Continuous
 62
           7
100
AcDbLine
 10
-386.494285934532
 20
527.658635515756
 30
0.0
 11
-386.494285934532
 21
539.252138090018
 31
0.0
  0
LINE
  5
9A
100
AcDbEntity
  8
0
370
          15
  6
Continuous
 62
           7
100
AcDbLine
 10
-383.116434172991
 20
539.252138090018
 30
0.0
 11
-386.494285934532
 21
539.252138090018
 31
0.0
  0
ELLIPSE
  5
9B
100
AcDbEntity
  8
0
370
          15
  6
Continuous
 62
           7
100
AcDbEllipse
 10
-382.994285934532
 20
524.280711940869
 30
0.0
 11
3.4995034831746352
 21
-3.3794312311000567
 31
0.0
210
0.0
220
0.0
230
1.0
 40
0.017444438246
 41
3.1584369585311007
 42
4.6943267002792872
  0
ARC
  5
9C
100
AcDbEntity
  8
0
370
          15
  6
Continuous
 62
           7
100
AcDbCircle
 10
-366.57822407722
 20
525.85157241633
 30
0.0
 40
28.607502095111
100
AcDbArc
 50
176.011341016441
 51
183.98865898356
  0
LINE
  5
9D
100
AcDbEntity
  8
0
370
          15
  6
Continuous
 62
           7
100
AcDbLine
 10
-395.116434172991
 20
527.359530601535
 30
0.0
 11
-386.494285934532
 21
527.660622652694
 31
0.0
  0
ARC
  5
9E
100
AcDbEntity
  8
0
370
          15
  6
Continuous
 62
           7
100
AcDbCircle
 10
-382.994285934532
 20
539.252138090018
 30
0.0
 40
3.5
100
AcDbArc
 50
92.000000000001
 51
180.0
  0
LINE
  5
9F
100
AcDbEntity
  8
0
370
          15
  6
Continuous
 62
           7
100
AcDbLine
 10
-395.11643417299
 20
134.288156449271
 30
0.0
 11
-398.494285934531
 21
134.288156449271
 31
0.0
  0
ARC
  5
A0
100
AcDbEntity
  8
0
370
          15
  6
Continuous
 62
           7
100
AcDbCircle
 10
-394.994285934531
 20
134.288156449271
 30
0.0
 40
3.5
100
AcDbArc
 50
180.0
 51
268.0
  0
LINE
  5
A1
100
AcDbEntity
  8
0
370
          15
  6
Continuous
 62
           7
100
AcDbLine
 10
-398.494285934531
 20
134.288156449271
 30
0.0
 11
-398.494285934532
 21
523.861662706968
 31
0.0
  0
LINE
  5
A2
100
AcDbEntity
  8
0
370
          15
  6
Continuous
 62
           7
100
AcDbLine
 10
-395.116434172991
 20
523.861662706968
 30
0.0
 11
-398.494285934532
 21
523.861662706968
 31
0.0
  0
ARC
  5
A3
100
AcDbEntity
  8
0
370
          15
  6
Continuous
 62
           7
100
AcDbCircle
 10
-394.994285934533
 20
523.861662706968
 30
0.0
 40
3.5
100
AcDbArc
 50
91.999999999998
 51
180.0
  0
LINE
  5
A4
100
AcDbEntity
  8
0
370
          15
  6
Continuous
 62
           7
100
AcDbLine
 10
481.508381073397
 20
543.260622652692
 30
0.0
 11
496.130529311855
 21
542.750005984583
 31
0.0
  0
ARC
  5
A5
100
AcDbEntity
  8
0
370
          15
  6
Continuous
 62
           7
100
AcDbCircle
 10
467.592319226817
 20
541.242047799433
 30
0.0
 40
28.607502084408
100
AcDbArc
 50
356.011341014837
 51
3.988658985164
  0
LINE
  5
A6
100
AcDbEntity
  8
0
370
          15
  6
Continuous
 62
           7
100
AcDbLine
 10
496.130529311855
 20
539.252138090016
 30
0.0
 11
481.508381073397
 21
539.762754758125
 31
0.0
  0
LINE
  5
A7
100
AcDbEntity
  8
0
370
          15
  6
Continuous
 62
           7
100
AcDbLine
 10
481.508381073397
 20
539.762754758125
 30
0.0
 11
481.508381073397
 21
543.260622652692
 31
0.0
  0
LINE
  5
A8
100
AcDbEntity
  8
0
370
          15
  6
Continuous
 62
           7
100
AcDbLine
 10
508.130529311854
 20
134.288156449269
 30
0.0
 11
508.130529311856
 21
523.861662706967
 31
0.0
  0
LINE
  5
A9
100
AcDbEntity
  8
0
370
          15
  6
Continuous
 62
           7
100
AcDbLine
 10
481.508381073395
 20
133.358490547259
 30
0.0
 11
508.130529311854
 21
134.288156449269
 31
0.0
  0
LINE
  5
AA
100
AcDbEntity
  8
0
370
          15
  6
Continuous
 62
           7
100
AcDbLine
 10
496.130529311855
 20
524.280711940868
 30
0.0
 11
496.130529311855
 21
539.252138090016
 31
0.0
  0
LINE
  5
AB
100
AcDbEntity
  8
0
370
          15
  6
Continuous
 62
           7
100
AcDbLine
 10
508.130529311856
 20
523.861662706967
 30
0.0
 11
496.130529311855
 21
524.280711940868
 31
0.0
  0
LINE
  5
AC
100
AcDbEntity
  8
0
370
          15
  6
Continuous
 62
           7
100
AcDbLine
 10
481.508381073397
 20
539.762754758125
 30
0.0
 11
481.508381073395
 21
133.358490547259
 31
0.0
  0
ARC
  5
AD
100
AcDbEntity
  8
0
370
          15
  6
Continuous
 62
           7
100
AcDbCircle
 10
479.592319210292
 20
132.298246739862
 30
0.0
 40
28.607502100892
100
AcDbArc
 50
356.01134101716
 51
3.988658982841
  0
LINE
  5
AE
100
AcDbEntity
  8
0
370
          15
  6
Continuous
 62
           7
100
AcDbLine
 10
508.130529311854
 20
130.790288554702
 30
0.0
 11
481.508381073395
 21
129.860622652692
 31
0.0
  0
LINE
  5
AF
100
AcDbEntity
  8
0
370
          15
  6
Continuous
 62
           7
100
AcDbLine
 10
481.508381073395
 20
129.860622652692
 30
0.0
 11
481.508381073395
 21
133.358490547259
 31
0.0
  0
LINE
  5
B0
100
AcDbEntity
  8
0
370
          15
  6
Continuous
 62
           7
100
AcDbLine
 10
499.508381073397
 20
539.252138090016
 30
0.0
 11
499.508381073397
 21
527.658635515754
 31
0.0
  0
ELLIPSE
  5
B1
100
AcDbEntity
  8
0
370
          15
  6
Continuous
 62
           7
100
AcDbEllipse
 10
496.008381073397
 20
524.280711940868
 30
0.0
 11
3.499503483174351
 21
3.3794312311000567
 31
0.0
210
0.0
220
0.0
230
1.0
 40
0.017444438246
 41
4.7304512604902191
 42
6.2663410022398729
  0
LINE
  5
B2
100
AcDbEntity
  8
0
370
          15
  6
Continuous
 62
           7
100
AcDbLine
 10
499.508381073397
 20
539.252138090016
 30
0.0
 11
496.130529311855
 21
539.252138090016
 31
0.0
  0
ARC
  5
B3
100
AcDbEntity
  8
0
370
          15
  6
Continuous
 62
           7
100
AcDbCircle
 10
496.008381073397
 20
539.252138090016
 30
0.0
 40
3.5
100
AcDbArc
 50
0.0
 51
88.000000000004
  0
LINE
  5
B4
100
AcDbEntity
  8
0
370
          15
  6
Continuous
 62
           7
100
AcDbLine
 10
499.508381073397
 20
527.660622652692
 30
0.0
 11
508.130529311856
 21
527.359530601533
 31
0.0
  0
ARC
  5
B5
100
AcDbEntity
  8
0
370
          15
  6
Continuous
 62
           7
100
AcDbCircle
 10
479.592319216193
 20
525.851572416299
 30
0.0
 40
28.607502095001
100
AcDbArc
 50
356.011341016485
 51
3.988658983515
  0
LINE
  5
B6
100
AcDbEntity
  8
0
370
          15
  6
Continuous
 62
           7
100
AcDbLine
 10
511.508381073397
 20
523.861662706967
 30
0.0
 11
511.508381073395
 21
134.288156449269
 31
0.0
  0
LINE
  5
B7
100
AcDbEntity
  8
0
370
          15
  6
Continuous
 62
           7
100
AcDbLine
 10
511.508381073395
 20
134.288156449269
 30
0.0
 11
508.130529311854
 21
134.288156449269
 31
0.0
  0
LINE
  5
B8
100
AcDbEntity
  8
0
370
          15
  6
Continuous
 62
           7
100
AcDbLine
 10
511.508381073397
 20
523.861662706967
 30
0.0
 11
508.130529311856
 21
523.861662706967
 31
0.0
  0
ARC
  5
B9
100
AcDbEntity
  8
0
370
          15
  6
Continuous
 62
           7
100
AcDbCircle
 10
508.008381073397
 20
523.861662706967
 30
0.0
 40
3.5
100
AcDbArc
 50
0.0
 51
87.999999999999
  0
ARC
  5
BA
100
AcDbEntity
  8
0
370
          15
  6
Continuous
 62
           7
100
AcDbCircle
 10
508.008381073395
 20
134.288156449269
 30
0.0
 40
3.5
100
AcDbArc
 50
272.000000000001
 51
359.999999999999
  0
LINE
  5
BB
100
AcDbEntity
  8
0
370
          15
  6
Continuous
 62
           7
100
AcDbLine
 10
-565.792480632458
 20
540.01935072557
 30
0.0
 11
-565.792480632458
 21
525.047924576421
 31
0.0
  0
LINE
  5
BC
100
AcDbEntity
  8
0
370
          15
  6
Continuous
 62
           7
100
AcDbLine
 10
-565.792480632458
 20
540.01935072557
 30
0.0
 11
-565.251208705336
 21
540.560622652692
 31
0.0
  0
LINE
  5
BD
100
AcDbEntity
  8
0
370
          15
  6
Continuous
 62
           7
100
AcDbLine
 10
-565.251208705336
 20
540.560622652692
 30
0.0
 11
-565.251208705337
 21
132.560622652692
 31
0.0
  0
LINE
  5
BE
100
AcDbEntity
  8
0
370
          15
  6
Continuous
 62
           7
100
AcDbLine
 10
-565.879782556189
 20
133.189196503544
 30
0.0
 11
-565.251208705337
 21
132.560622652692
 31
0.0
  0
LINE
  5
BF
100
AcDbEntity
  8
0
370
          15
  6
Continuous
 62
           7
100
AcDbLine
 10
-565.879782556187
 20
524.960622652692
 30
0.0
 11
-565.879782556189
 21
133.189196503544
 31
0.0
  0
LINE
  5
C0
100
AcDbEntity
  8
0
370
          15
  6
Continuous
 62
           7
100
AcDbLine
 10
-565.879782556187
 20
524.960622652692
 30
0.0
 11
-565.792480632458
 21
525.047924576421
 31
0.0
  0
LINE
  5
C1
100
AcDbEntity
  8
0
370
          15
  6
Continuous
 62
           7
100
AcDbLine
 10
-1072.622634854486
 20
133.189196503545
 30
0.0
 11
-1073.251208705337
 21
132.560622652694
 31
0.0
  0
LINE
  5
C2
100
AcDbEntity
  8
0
370
          15
  6
Continuous
 62
           7
100
AcDbLine
 10
-565.879782556189
 20
133.189196503544
 30
0.0
 11
-1072.622634854487
 21
133.189196503545
 31
0.0
  0
LINE
  5
C3
100
AcDbEntity
  8
0
370
          15
  6
Continuous
 62
           7
100
AcDbLine
 10
-565.251208705337
 20
132.560622652692
 30
0.0
 11
-1073.251208705337
 21
132.560622652694
 31
0.0
  0
LINE
  5
C4
100
AcDbEntity
  8
0
370
          15
  6
Continuous
 62
           7
100
AcDbLine
 10
-1072.622634854486
 20
133.189196503545
 30
0.0
 11
-1072.622634854485
 21
524.960622652694
 31
0.0
  0
LINE
  5
C5
100
AcDbEntity
  8
0
370
          15
  6
Continuous
 62
           7
100
AcDbLine
 10
-1073.251208705337
 20
132.560622652694
 30
0.0
 11
-1073.251208705336
 21
540.560622652694
 31
0.0
  0
LINE
  5
C6
100
AcDbEntity
  8
0
370
          15
  6
Continuous
 62
           7
100
AcDbLine
 10
-1072.709936778214
 20
540.019350725572
 30
0.0
 11
-1073.251208705336
 21
540.560622652694
 31
0.0
  0
LINE
  5
C7
100
AcDbEntity
  8
0
370
          15
  6
Continuous
 62
           7
100
AcDbLine
 10
-1072.709936778214
 20
525.047924576423
 30
0.0
 11
-1072.709936778214
 21
540.019350725572
 31
0.0
  0
LINE
  5
C8
100
AcDbEntity
  8
0
370
          15
  6
Continuous
 62
           7
100
AcDbLine
 10
-1072.709936778214
 20
525.047924576423
 30
0.0
 11
-1072.622634854485
 21
524.960622652694
 31
0.0
  0
LINE
  5
C9
100
AcDbEntity
  8
0
370
          15
  6
Continuous
 62
           7
100
AcDbLine
 10
-1073.251208705336
 20
540.560622652694
 30
0.0
 11
-1009.876208705336
 21
540.560622652694
 31
0.0
  0
LINE
  5
CA
100
AcDbEntity
  8
0
370
          15
  6
Continuous
 62
           7
100
AcDbLine
 10
-628.626208705336
 20
540.560622652692
 30
0.0
 11
-565.251208705336
 21
540.560622652692
 31
0.0
  0
LINE
  5
CB
100
AcDbEntity
  8
0
370
          15
  6
Continuous
 62
           7
100
AcDbLine
 10
-628.626208705336
 20
525.589196503543
 30
0.0
 11
-628.626208705336
 21
540.560622652692
 31
0.0
  0
LINE
  5
CC
100
AcDbEntity
  8
0
370
          15
  6
Continuous
 62
           7
100
AcDbLine
 10
-684.876208705336
 20
525.589196503544
 30
0.0
 11
-628.626208705336
 21
525.589196503543
 31
0.0
  0
LINE
  5
CD
100
AcDbEntity
  8
0
370
          15
  6
Continuous
 62
           7
100
AcDbLine
 10
-684.876208705336
 20
540.560622652693
 30
0.0
 11
-684.876208705336
 21
525.589196503544
 31
0.0
  0
LINE
  5
CE
100
AcDbEntity
  8
0
370
          15
  6
Continuous
 62
           7
100
AcDbLine
 10
-953.626208705336
 20
540.560622652694
 30
0.0
 11
-684.876208705336
 21
540.560622652693
 31
0.0
  0
LINE
  5
CF
100
AcDbEntity
  8
0
370
          15
  6
Continuous
 62
           7
100
AcDbLine
 10
-953.626208705336
 20
540.560622652694
 30
0.0
 11
-953.626208705336
 21
525.589196503545
 31
0.0
  0
LINE
  5
D0
100
AcDbEntity
  8
0
370
          15
  6
Continuous
 62
           7
100
AcDbLine
 10
-953.626208705336
 20
525.589196503545
 30
0.0
 11
-1009.876208705336
 21
525.589196503545
 31
0.0
  0
LINE
  5
D1
100
AcDbEntity
  8
0
370
          15
  6
Continuous
 62
           7
100
AcDbLine
 10
-1009.876208705336
 20
525.589196503545
 30
0.0
 11
-1009.876208705336
 21
540.560622652694
 31
0.0
  0
ELLIPSE
  5
D2
100
AcDbEntity
  8
0
370
          15
  6
Continuous
 62
           7
100
AcDbEllipse
 10
-1072.449075300292
 20
133.36275605774
 30
0.0
 11
2.477889906097289
 21
2.4778899060971469
 31
0.0
210
0.0
220
0.0
230
1.0
 40
0.998782765959
 41
2.3568034777779463
 42
3.9263818294016462
  0
LINE
  5
D3
100
AcDbEntity
  8
0
370
          15
  6
Continuous
 62
           7
100
AcDbLine
 10
-1075.951208705337
 20
133.358490547261
 30
0.0
 11
-1075.951208705336
 21
539.762754758127
 31
0.0
  0
ELLIPSE
  5
D4
100
AcDbEntity
  8
0
370
          15
  6
Continuous
 62
           7
100
AcDbEllipse
 10
-1072.44907530029
 20
539.758489247648
 30
0.0
 11
2.477889906097289
 21
-2.4778899060970616
 31
0.0
210
0.0
220
0.0
230
1.0
 40
0.998782765959
 41
2.3568034777779512
 42
3.9263818294016182
  0
LINE
  5
D5
100
AcDbEntity
  8
0
370
          15
  6
Continuous
 62
           7
100
AcDbLine
 10
-1072.453340810769
 20
543.260622652694
 30
0.0
 11
-1006.876208705336
 21
543.260622652694
 31
0.0
  0
LINE
  5
D6
100
AcDbEntity
  8
0
370
          15
  6
Continuous
 62
           7
100
AcDbLine
 10
-1006.876208705336
 20
528.289196503545
 30
0.0
 11
-1006.876208705336
 21
543.260622652694
 31
0.0
  0
LINE
  5
D7
100
AcDbEntity
  8
0
370
          15
  6
Continuous
 62
           7
100
AcDbLine
 10
-956.626208705242
 20
528.289196503545
 30
0.0
 11
-1006.876208705336
 21
528.289196503545
 31
0.0
  0
LINE
  5
D8
100
AcDbEntity
  8
0
370
          15
  6
Continuous
 62
           7
100
AcDbLine
 10
-956.626208705242
 20
528.289196503545
 30
0.0
 11
-956.626208705336
 21
543.260622652693
 31
0.0
  0
LINE
  5
D9
100
AcDbEntity
  8
0
370
          15
  6
Continuous
 62
           7
100
AcDbLine
 10
-956.626208705336
 20
543.260622652693
 30
0.0
 11
-681.876208705336
 21
543.260622652693
 31
0.0
  0
LINE
  5
DA
100
AcDbEntity
  8
0
370
          15
  6
Continuous
 62
           7
100
AcDbLine
 10
-681.876208705336
 20
528.289196503544
 30
0.0
 11
-681.876208705336
 21
543.260622652693
 31
0.0
  0
LINE
  5
DB
100
AcDbEntity
  8
0
370
          15
  6
Continuous
 62
           7
100
AcDbLine
 10
-681.876208705336
 20
528.289196503544
 30
0.0
 11
-631.626208705336
 21
528.289196503544
 31
0.0
  0
LINE
  5
DC
100
AcDbEntity
  8
0
370
          15
  6
Continuous
 62
           7
100
AcDbLine
 10
-631.626208705336
 20
528.289196503544
 30
0.0
 11
-631.626208705336
 21
543.260622652693
 31
0.0
  0
LINE
  5
DD
100
AcDbEntity
  8
0
370
          15
  6
Continuous
 62
           7
100
AcDbLine
 10
-631.626208705336
 20
543.260622652693
 30
0.0
 11
-566.049076599903
 21
543.260622652692
 31
0.0
  0
ELLIPSE
  5
DE
100
AcDbEntity
  8
0
370
          15
  6
Continuous
 62
           7
100
AcDbEllipse
 10
-566.053342110382
 20
539.758489247646
 30
0.0
 11
2.4778899060974027
 21
2.4778899060970616
 31
0.0
210
0.0
220
0.0
230
1.0
 40
0.998782765959
 41
5.4983961313678513
 42
7.0679744829915041
  0
LINE
  5
DF
100
AcDbEntity
  8
0
370
          15
  6
Continuous
 62
           7
100
AcDbLine
 10
-562.551208705336
 20
539.762754758125
 30
0.0
 11
-562.551208705337
 21
133.358490547259
 31
0.0
  0
LINE
  5
E0
100
AcDbEntity
  8
0
370
          15
  6
Continuous
 62
           7
100
AcDbLine
 10
-566.049076599905
 20
129.860622652692
 30
0.0
 11
-1072.45334081077
 21
129.860622652694
 31
0.0
  0
ELLIPSE
  5
E1
100
AcDbEntity
  8
0
370
          15
  6
Continuous
 62
           7
100
AcDbEllipse
 10
-566.053342110383
 20
133.362756057738
 30
0.0
 11
2.4778899060974027
 21
-2.4778899060971469
 31
0.0
210
0.0
220
0.0
230
1.0
 40
0.998782765959
 41
5.4983961313676533
 42
7.0679744829912785
  0
LINE
  5
E2
100
AcDbEntity
  8
0
370
          15
  6
Continuous
 62
           7
100
AcDbLine
 10
-628.626208705336
 20
540.01935072557
 30
0.0
 11
-565.792480632458
 21
540.01935072557
 31
0.0
  0
LINE
  5
E3
100
AcDbEntity
  8
0
370
          15
  6
Continuous
 62
           7
100
AcDbLine
 10
-1009.876208705336
 20
525.047924576423
 30
0.0
 11
-1058.263595062916
 21
525.047924576423
 31
0.0
  0
LINE
  5
E4
100
AcDbEntity
  8
0
370
          15
  6
Continuous
 62
           7
100
AcDbLine
 10
-1009.876208705336
 20
525.047924576423
 30
0.0
 11
-1009.876208705336
 21
525.589196503545
 31
0.0
  0
LINE
  5
E5
100
AcDbEntity
  8
0
370
          15
  6
Continuous
 62
           7
100
AcDbLine
 10
-953.626208705336
 20
525.589196503545
 30
0.0
 11
-953.626208705336
 21
525.047924576422
 31
0.0
  0
LINE
  5
E6
100
AcDbEntity
  8
0
370
          15
  6
Continuous
 62
           7
100
AcDbLine
 10
-684.876208705336
 20
525.047924576422
 30
0.0
 11
-953.626208705336
 21
525.047924576422
 31
0.0
  0
LINE
  5
E7
100
AcDbEntity
  8
0
370
          15
  6
Continuous
 62
           7
100
AcDbLine
 10
-684.876208705336
 20
525.589196503544
 30
0.0
 11
-684.876208705336
 21
525.047924576422
 31
0.0
  0
LINE
  5
E8
100
AcDbEntity
  8
0
370
          15
  6
Continuous
 62
           7
100
AcDbLine
 10
-628.626208705336
 20
525.047924576421
 30
0.0
 11
-628.626208705336
 21
525.589196503543
 31
0.0
  0
LINE
  5
E9
100
AcDbEntity
  8
0
370
          15
  6
Continuous
 62
           7
100
AcDbLine
 10
-580.238822347756
 20
525.047924576421
 30
0.0
 11
-628.626208705336
 21
525.047924576421
 31
0.0
  0
LINE
  5
EA
100
AcDbEntity
  8
0
370
          15
  6
Continuous
 62
           7
100
AcDbLine
 10
-1059.141002468951
 20
524.628875342522
 30
0.0
 11
-579.361414941721
 21
524.628875342521
 31
0.0
  0
LINE
  5
EB
100
AcDbEntity
  8
0
370
          15
  6
Continuous
 62
           7
100
AcDbLine
 10
-953.626208705336
 20
540.019350725571
 30
0.0
 11
-684.876208705336
 21
540.019350725571
 31
0.0
  0
LINE
  5
EC
100
AcDbEntity
  8
0
370
          15
  6
Continuous
 62
           7
100
AcDbLine
 10
-1072.709936778214
 20
540.019350725572
 30
0.0
 11
-1009.876208705336
 21
540.019350725572
 31
0.0
  0
LINE
  5
ED
100
AcDbEntity
  8
0
370
          15
  6
Continuous
 62
           7
100
AcDbLine
 10
-565.792480632458
 20
525.047924576421
 30
0.0
 11
-576.711821550527
 21
525.047924576421
 31
0.0
  0
ARC
  5
EE
100
AcDbEntity
  8
0
370
          15
  6
Continuous
 62
           7
100
AcDbCircle
 10
-582.161173114872
 20
519.894812164668
 30
0.0
 40
7.5
100
AcDbArc
 50
1.000000000002
 51
43.399538220482
  0
LINE
  5
EF
100
AcDbEntity
  8
0
370
          15
  6
Continuous
 62
           7
100
AcDbLine
 10
-574.662315401199
 20
520.025705212948
 30
0.0
 11
-571.416282810729
 21
334.060622652692
 31
0.0
  0
LINE
  5
F0
100
AcDbEntity
  8
0
370
          15
  6
Continuous
 62
           7
100
AcDbLine
 10
-571.416282810729
 20
334.060622652692
 30
0.0
 11
-574.6623154012
 21
148.095540092437
 31
0.0
  0
ARC
  5
F1
100
AcDbEntity
  8
0
370
          15
  6
Continuous
 62
           7
100
AcDbCircle
 10
-582.161173114873
 20
148.226433140716
 30
0.0
 40
7.5
100
AcDbArc
 50
270.000000000001
 51
358.999999999982
  0
LINE
  5
F2
100
AcDbEntity
  8
0
370
          15
  6
Continuous
 62
           7
100
AcDbLine
 10
-582.161173114873
 20
140.726433140716
 30
0.0
 11
-1056.341244295802
 21
140.726433140718
 31
0.0
  0
ARC
  5
F3
100
AcDbEntity
  8
0
370
          15
  6
Continuous
 62
           7
100
AcDbCircle
 10
-1056.341244295802
 20
148.226433140718
 30
0.0
 40
7.5
100
AcDbArc
 50
181.000000000003
 51
270.000000000001
  0
LINE
  5
F4
100
AcDbEntity
  8
0
370
          15
  6
Continuous
 62
           7
100
AcDbLine
 10
-1063.840102009475
 20
148.095540092438
 30
0.0
 11
-1067.086134599945
 21
334.060622652694
 31
0.0
  0
LINE
  5
F5
100
AcDbEntity
  8
0
370
          15
  6
Continuous
 62
           7
100
AcDbLine
 10
-1067.086134599945
 20
334.060622652694
 30
0.0
 11
-1063.840102009473
 21
520.025705212949
 31
0.0
  0
ARC
  5
F6
100
AcDbEntity
  8
0
370
          15
  6
Continuous
 62
           7
100
AcDbCircle
 10
-1056.3412442958
 20
519.894812164669
 30
0.0
 40
7.5
100
AcDbArc
 50
136.600461779521
 51
178.999999999985
  0
LINE
  5
F7
100
AcDbEntity
  8
0
370
          15
  6
Continuous
 62
           7
100
AcDbLine
 10
-1061.790595860146
 20
525.047924576423
 30
0.0
 11
-1072.709936778214
 21
525.047924576423
 31
0.0
  0
ARC
  5
F8
100
AcDbEntity
  8
0
370
          15
  6
Continuous
 62
           7
100
AcDbCircle
 10
-1056.3412442958
 20
519.894812164669
 30
0.0
 40
5.5
100
AcDbArc
 50
110.457856330193
 51
179.0
  0
LINE
  5
F9
100
AcDbEntity
  8
0
370
          15
  6
Continuous
 62
           7
100
AcDbLine
 10
-1065.085829943857
 20
334.060622652694
 30
0.0
 11
-1061.840406619161
 21
519.990800400074
 31
0.0
  0
LINE
  5
FA
100
AcDbEntity
  8
0
370
          15
  6
Continuous
 62
           7
100
AcDbLine
 10
-1061.840406619162
 20
148.130444905313
 30
0.0
 11
-1065.085829943857
 21
334.060622652694
 31
0.0
  0
ARC
  5
FB
100
AcDbEntity
  8
0
370
          15
  6
Continuous
 62
           7
100
AcDbCircle
 10
-1056.341244295802
 20
148.226433140718
 30
0.0
 40
5.5
100
AcDbArc
 50
181.000000000081
 51
270.000000000001
  0
LINE
  5
FC
100
AcDbEntity
  8
0
370
          15
  6
Continuous
 62
           7
100
AcDbLine
 10
-582.161173114873
 20
142.726433140717
 30
0.0
 11
-1056.341244295802
 21
142.726433140718
 31
0.0
  0
ARC
  5
FD
100
AcDbEntity
  8
0
370
          15
  6
Continuous
 62
           7
100
AcDbCircle
 10
-582.161173114873
 20
148.226433140716
 30
0.0
 40
5.5
100
AcDbArc
 50
270.000000000001
 51
359.000000000001
  0
LINE
  5
FE
100
AcDbEntity
  8
0
370
          15
  6
Continuous
 62
           7
100
AcDbLine
 10
-573.416587466817
 20
334.060622652692
 30
0.0
 11
-576.662010791513
 21
148.130444905311
 31
0.0
  0
LINE
  5
FF
100
AcDbEntity
  8
0
370
          15
  6
Continuous
 62
           7
100
AcDbLine
 10
-576.662010791512
 20
519.990800400073
 30
0.0
 11
-573.416587466817
 21
334.060622652692
 31
0.0
  0
ARC
  5
100
100
AcDbEntity
  8
0
370
          15
  6
Continuous
 62
           7
100
AcDbCircle
 10
-582.161173114872
 20
519.894812164668
 30
0.0
 40
5.5
100
AcDbArc
 50
1.000000000062
 51
69.5421436698
  0
LINE
  5
101
100
AcDbEntity
  8
0
370
          15
  6
Continuous
 62
           7
100
AcDbLine
 10
-587.074752979264
 20
514.894716968703
 30
0.0
 11
-583.918282121743
 21
334.060622652692
 31
0.0
  0
LINE
  5
102
100
AcDbEntity
  8
0
370
          15
  6
Continuous
 62
           7
100
AcDbLine
 10
-1051.427664431409
 20
514.894716968705
 30
0.0
 11
-587.074752979264
 21
514.894716968703
 31
0.0
  0
LINE
  5
103
100
AcDbEntity
  8
0
370
          15
  6
Continuous
 62
           7
100
AcDbLine
 10
-1054.58413528893
 20
334.060622652694
 30
0.0
 11
-1051.427664431409
 21
514.894716968705
 31
0.0
  0
LINE
  5
104
100
AcDbEntity
  8
0
370
          15
  6
Continuous
 62
           7
100
AcDbLine
 10
-1051.42766443141
 20
153.226528336682
 30
0.0
 11
-1054.58413528893
 21
334.060622652694
 31
0.0
  0
LINE
  5
105
100
AcDbEntity
  8
0
370
          15
  6
Continuous
 62
           7
100
AcDbLine
 10
-587.074752979265
 20
153.226528336681
 30
0.0
 11
-1051.42766443141
 21
153.226528336682
 31
0.0
  0
LINE
  5
106
100
AcDbEntity
  8
0
370
          15
  6
Continuous
 62
           7
100
AcDbLine
 10
-583.918282121743
 20
334.060622652692
 30
0.0
 11
-587.074752979265
 21
153.226528336681
 31
0.0
  0
LINE
  5
107
100
AcDbEntity
  8
0
370
          15
  6
Continuous
 62
           7
100
AcDbLine
 10
-1053.393058957641
 20
151.226528336682
 30
0.0
 11
-1056.584439945018
 21
334.060622652694
 31
0.0
  0
LINE
  5
108
100
AcDbEntity
  8
0
370
          15
  6
Continuous
 62
           7
100
AcDbLine
 10
-1056.584439945018
 20
334.060622652694
 30
0.0
 11
-1053.39305895764
 21
516.894716968705
 31
0.0
  0
LINE
  5
109
100
AcDbEntity
  8
0
370
          15
  6
Continuous
 62
           7
100
AcDbLine
 10
-1053.39305895764
 20
516.894716968705
 30
0.0
 11
-585.109358453033
 21
516.894716968704
 31
0.0
  0
LINE
  5
10A
100
AcDbEntity
  8
0
370
          15
  6
Continuous
 62
           7
100
AcDbLine
 10
-585.109358453033
 20
516.894716968704
 30
0.0
 11
-581.917977465655
 21
334.060622652692
 31
0.0
  0
LINE
  5
10B
100
AcDbEntity
  8
0
370
          15
  6
Continuous
 62
           7
100
AcDbLine
 10
-585.109358453034
 20
151.226528336681
 30
0.0
 11
-1053.393058957641
 21
151.226528336682
 31
0.0
  0
LINE
  5
10C
100
AcDbEntity
  8
0
370
          15
  6
Continuous
 62
           7
100
AcDbLine
 10
-581.917977465655
 20
334.060622652692
 30
0.0
 11
-585.109358453034
 21
151.226528336681
 31
0.0
  0
CIRCLE
  5
10D
100
AcDbEntity
  8
0
370
          15
  6
Continuous
 62
           7
100
AcDbCircle
 10
-606.551208705337
 20
254.260622652692
 30
0.0
 40
6.209460779138
  0
CIRCLE
  5
10E
100
AcDbEntity
  8
0
370
          15
  6
Continuous
 62
           7
100
AcDbCircle
 10
-606.551208705337
 20
254.260622652692
 30
0.0
 40
6.0
  0
CIRCLE
  5
10F
100
AcDbEntity
  8
0
370
          15
  6
Continuous
 62
           7
100
AcDbCircle
 10
-606.551208705337
 20
254.260622652692
 30
0.0
 40
1.75
  0
CIRCLE
  5
110
100
AcDbEntity
  8
0
370
          15
  6
Continuous
 62
           7
100
AcDbCircle
 10
-606.551208705337
 20
254.260622652692
 30
0.0
 40
1.540539220861
  0
LINE
  5
111
100
AcDbEntity
  8
0
370
          15
  6
Continuous
 62
           7
100
AcDbLine
 10
-566.211529866359
 20
524.628875342521
 30
0.0
 11
-565.879782556187
 21
524.960622652692
 31
0.0
  0
LINE
  5
112
100
AcDbEntity
  8
0
370
          15
  6
Continuous
 62
           7
100
AcDbLine
 10
-576.344073680607
 20
524.628875342521
 30
0.0
 11
-566.211529866359
 21
524.628875342521
 31
0.0
  0
CIRCLE
  5
113
100
AcDbEntity
  8
0
370
          15
  6
Continuous
 62
           7
100
AcDbCircle
 10
-606.551208705336
 20
499.260622652692
 30
0.0
 40
6.209460779138
  0
CIRCLE
  5
114
100
AcDbEntity
  8
0
370
          15
  6
Continuous
 62
           7
100
AcDbCircle
 10
-606.551208705336
 20
499.260622652692
 30
0.0
 40
6.0
  0
CIRCLE
  5
115
100
AcDbEntity
  8
0
370
          15
  6
Continuous
 62
           7
100
AcDbCircle
 10
-606.551208705336
 20
499.260622652692
 30
0.0
 40
1.75
  0
CIRCLE
  5
116
100
AcDbEntity
  8
0
370
          15
  6
Continuous
 62
           7
100
AcDbCircle
 10
-606.551208705336
 20
499.260622652692
 30
0.0
 40
1.540539220861
  0
CIRCLE
  5
117
100
AcDbEntity
  8
0
370
          15
  6
Continuous
 62
           7
100
AcDbCircle
 10
-1031.551208705337
 20
254.260622652694
 30
0.0
 40
6.0
  0
CIRCLE
  5
118
100
AcDbEntity
  8
0
370
          15
  6
Continuous
 62
           7
100
AcDbCircle
 10
-1031.551208705337
 20
254.260622652694
 30
0.0
 40
1.75
  0
CIRCLE
  5
119
100
AcDbEntity
  8
0
370
          15
  6
Continuous
 62
           7
100
AcDbCircle
 10
-1031.551208705337
 20
254.260622652694
 30
0.0
 40
6.209460779139
  0
CIRCLE
  5
11A
100
AcDbEntity
  8
0
370
          15
  6
Continuous
 62
           7
100
AcDbCircle
 10
-1031.551208705337
 20
254.260622652694
 30
0.0
 40
1.540539220861
  0
CIRCLE
  5
11B
100
AcDbEntity
  8
0
370
          15
  6
Continuous
 62
           7
100
AcDbCircle
 10
-1031.551208705336
 20
499.260622652694
 30
0.0
 40
6.209460779138
  0
CIRCLE
  5
11C
100
AcDbEntity
  8
0
370
          15
  6
Continuous
 62
           7
100
AcDbCircle
 10
-1031.551208705336
 20
499.260622652694
 30
0.0
 40
6.0
  0
CIRCLE
  5
11D
100
AcDbEntity
  8
0
370
          15
  6
Continuous
 62
           7
100
AcDbCircle
 10
-1031.551208705336
 20
499.260622652694
 30
0.0
 40
1.75
  0
CIRCLE
  5
11E
100
AcDbEntity
  8
0
370
          15
  6
Continuous
 62
           7
100
AcDbCircle
 10
-1031.551208705336
 20
499.260622652694
 30
0.0
 40
1.540539220861
  0
LINE
  5
11F
100
AcDbEntity
  8
0
370
          15
  6
Continuous
 62
           7
100
AcDbLine
 10
-1072.290887544313
 20
524.628875342522
 30
0.0
 11
-1062.158343730065
 21
524.628875342522
 31
0.0
  0
LINE
  5
120
100
AcDbEntity
  8
0
370
          15
  6
Continuous
 62
           7
100
AcDbLine
 10
-1072.290887544313
 20
524.628875342522
 30
0.0
 11
-1072.622634854485
 21
524.960622652694
 31
0.0
  0
LINE
  5
121
100
AcDbEntity
  8
0
370
          15
  6
Continuous
 62
           7
100
AcDbLine
 10
-1072.290887544314
 20
133.520943813717
 30
0.0
 11
-1072.622634854486
 21
133.189196503545
 31
0.0
  0
LINE
  5
122
100
AcDbEntity
  8
0
370
          15
  6
Continuous
 62
           7
100
AcDbLine
 10
-566.21152986636
 20
133.520943813715
 30
0.0
 11
-1072.290887544314
 21
133.520943813717
 31
0.0
  0
LINE
  5
123
100
AcDbEntity
  8
0
370
          15
  6
Continuous
 62
           7
100
AcDbLine
 10
-566.21152986636
 20
133.520943813715
 30
0.0
 11
-565.879782556189
 21
133.189196503544
 31
0.0
  0
LINE
  5
124
100
AcDbEntity
  8
0
370
          15
  6
Continuous
 62
           7
100
AcDbLine
 10
-566.211529866359
 20
524.628875342521
 30
0.0
 11
-566.21152986636
 21
133.520943813715
 31
0.0
  0
LINE
  5
125
100
AcDbEntity
  8
0
370
          15
  6
Continuous
 62
           7
100
AcDbLine
 10
-1072.290887544314
 20
133.520943813717
 30
0.0
 11
-1072.290887544313
 21
524.628875342522
 31
0.0
  0
LINE
  5
126
100
AcDbEntity
  8
0
370
          15
  6
Continuous
 62
           7
100
AcDbLine
 10
319.612746385565
 20
-41.752467786542
 30
0.0
 11
254.035614280132
 21
-41.752467786542
 31
0.0
  0
LINE
  5
127
100
AcDbEntity
  8
0
370
          15
  6
Continuous
 62
           7
100
AcDbLine
 10
319.102129717456
 20
-56.374616025001
 30
0.0
 11
319.612746385565
 21
-41.752467786542
 31
0.0
  0
LINE
  5
128
100
AcDbEntity
  8
0
370
          15
  6
Continuous
 62
           7
100
AcDbLine
 10
254.035614280132
 20
-56.374616025001
 30
0.0
 11
319.102129717456
 21
-56.374616025001
 31
0.0
  0
LINE
  5
129
100
AcDbEntity
  8
0
370
          15
  6
Continuous
 62
           7
100
AcDbLine
 10
254.035614280132
 20
-41.752467786542
 30
0.0
 11
254.035614280132
 21
-56.374616025001
 31
0.0
  0
LINE
  5
12A
100
AcDbEntity
  8
0
370
          15
  6
Continuous
 62
           7
100
AcDbLine
 10
319.612746385565
 20
-41.752467786542
 30
0.0
 11
323.110614280132
 21
-41.752467786542
 31
0.0
  0
LINE
  5
12B
100
AcDbEntity
  8
0
370
          15
  6
Continuous
 62
           7
100
AcDbLine
 10
323.110614280132
 20
-41.752467786542
 30
0.0
 11
322.599997612022
 21
-56.374616025001
 31
0.0
  0
ARC
  5
12C
100
AcDbEntity
  8
0
370
          15
  6
Continuous
 62
           7
100
AcDbCircle
 10
321.092039426845
 20
-27.836405933192
 30
0.0
 40
28.60750209116
100
AcDbArc
 50
266.011341015834
 51
273.021574569065
  0
LINE
  5
12D
100
AcDbEntity
  8
0
370
          15
  6
Continuous
 62
           7
100
AcDbLine
 10
203.785614280132
 20
-41.752467786542
 30
0.0
 11
203.785614280132
 21
-56.374616025001
 31
0.0
  0
LINE
  5
12E
100
AcDbEntity
  8
0
370
          15
  6
Continuous
 62
           7
100
AcDbLine
 10
-70.964385719868
 20
-56.374616025001
 30
0.0
 11
203.785614280132
 21
-56.374616025001
 31
0.0
  0
LINE
  5
12F
100
AcDbEntity
  8
0
370
          15
  6
Continuous
 62
           7
100
AcDbLine
 10
-70.964385719868
 20
-41.752467786542
 30
0.0
 11
-70.964385719868
 21
-56.374616025001
 31
0.0
  0
LINE
  5
130
100
AcDbEntity
  8
0
370
          15
  6
Continuous
 62
           7
100
AcDbLine
 10
203.785614280132
 20
-41.752467786542
 30
0.0
 11
-70.964385719868
 21
-41.752467786542
 31
0.0
  0
LINE
  5
131
100
AcDbEntity
  8
0
370
          15
  6
Continuous
 62
           7
100
AcDbLine
 10
-186.280901157192
 20
-56.374616025001
 30
0.0
 11
-121.214385719868
 21
-56.374616025001
 31
0.0
  0
LINE
  5
132
100
AcDbEntity
  8
0
370
          15
  6
Continuous
 62
           7
100
AcDbLine
 10
-186.791517825301
 20
-41.752467786542
 30
0.0
 11
-186.280901157192
 21
-56.374616025001
 31
0.0
  0
LINE
  5
133
100
AcDbEntity
  8
0
370
          15
  6
Continuous
 62
           7
100
AcDbLine
 10
-121.214385719868
 20
-41.752467786542
 30
0.0
 11
-121.214385719868
 21
-56.374616025001
 31
0.0
  0
LINE
  5
134
100
AcDbEntity
  8
0
370
          15
  6
Continuous
 62
           7
100
AcDbLine
 10
-121.214385719868
 20
-41.752467786542
 30
0.0
 11
-186.791517825301
 21
-41.752467786542
 31
0.0
  0
ARC
  5
135
100
AcDbEntity
  8
0
370
          15
  6
Continuous
 62
           7
100
AcDbCircle
 10
-188.270810866571
 20
-27.836405928507
 30
0.0
 40
28.607502095834
100
AcDbArc
 50
266.978425431407
 51
273.988658983492
  0
LINE
  5
136
100
AcDbEntity
  8
0
370
          15
  6
Continuous
 62
           7
100
AcDbLine
 10
-189.778769051759
 20
-56.374616025001
 30
0.0
 11
-190.289385719868
 21
-41.752467786542
 31
0.0
  0
LINE
  5
137
100
AcDbEntity
  8
0
370
          15
  6
Continuous
 62
           7
100
AcDbLine
 10
-190.289385719868
 20
-41.752467786542
 30
0.0
 11
-186.791517825301
 21
-41.752467786542
 31
0.0
  0
LINE
  5
138
100
AcDbEntity
  8
0
370
          15
  6
Continuous
 62
           7
100
AcDbLine
 10
319.102129717456
 20
-59.752467786542
 30
0.0
 11
254.035614280132
 21
-59.752467786542
 31
0.0
  0
LINE
  5
139
100
AcDbEntity
  8
0
370
          15
  6
Continuous
 62
           7
100
AcDbLine
 10
319.102129717456
 20
-56.374616025001
 30
0.0
 11
319.102129717456
 21
-59.752467786542
 31
0.0
  0
LINE
  5
13A
100
AcDbEntity
  8
0
370
          15
  6
Continuous
 62
           7
100
AcDbLine
 10
254.035614280132
 20
-59.752467786542
 30
0.0
 11
254.035614280132
 21
-56.374616025001
 31
0.0
  0
ARC
  5
13B
100
AcDbEntity
  8
0
370
          15
  6
Continuous
 62
           7
100
AcDbCircle
 10
319.102129717456
 20
-56.252467786542
 30
0.0
 40
3.5
100
AcDbArc
 50
270.0
 51
357.999999999875
  0
LINE
  5
13C
100
AcDbEntity
  8
0
370
          15
  6
Continuous
 62
           7
100
AcDbLine
 10
203.785614280132
 20
-59.752467786542
 30
0.0
 11
-70.964385719868
 21
-59.752467786542
 31
0.0
  0
LINE
  5
13D
100
AcDbEntity
  8
0
370
          15
  6
Continuous
 62
           7
100
AcDbLine
 10
-70.964385719868
 20
-59.752467786542
 30
0.0
 11
-70.964385719868
 21
-56.374616025001
 31
0.0
  0
LINE
  5
13E
100
AcDbEntity
  8
0
370
          15
  6
Continuous
 62
           7
100
AcDbLine
 10
203.785614280132
 20
-56.374616025001
 30
0.0
 11
203.785614280132
 21
-59.752467786542
 31
0.0
  0
LINE
  5
13F
100
AcDbEntity
  8
0
370
          15
  6
Continuous
 62
           7
100
AcDbLine
 10
-121.214385719868
 20
-59.752467786542
 30
0.0
 11
-186.280901157192
 21
-59.752467786542
 31
0.0
  0
LINE
  5
140
100
AcDbEntity
  8
0
370
          15
  6
Continuous
 62
           7
100
AcDbLine
 10
-186.280901157192
 20
-59.752467786542
 30
0.0
 11
-186.280901157192
 21
-56.374616025001
 31
0.0
  0
LINE
  5
141
100
AcDbEntity
  8
0
370
          15
  6
Continuous
 62
           7
100
AcDbLine
 10
-121.214385719868
 20
-56.374616025001
 30
0.0
 11
-121.214385719868
 21
-59.752467786542
 31
0.0
  0
ARC
  5
142
100
AcDbEntity
  8
0
370
          15
  6
Continuous
 62
           7
100
AcDbCircle
 10
-186.280901157192
 20
-56.252467786542
 30
0.0
 40
3.5
100
AcDbArc
 50
182.000000000127
 51
270.000000000001
  0
LINE
  5
143
100
AcDbEntity
  8
0
370
          15
  6
Continuous
 62
           7
100
AcDbLine
 10
318.683080483555
 20
-68.374616025001
 30
0.0
 11
318.984172534713
 21
-59.752467786542
 31
0.0
  0
LINE
  5
144
100
AcDbEntity
  8
0
370
          15
  6
Continuous
 62
           7
100
AcDbLine
 10
-185.861851923291
 20
-68.374616025001
 30
0.0
 11
318.683080483555
 21
-68.374616025001
 31
0.0
  0
LINE
  5
145
100
AcDbEntity
  8
0
370
          15
  6
Continuous
 62
           7
100
AcDbLine
 10
-186.16294397445
 20
-59.752467786542
 30
0.0
 11
-185.861851923291
 21
-68.374616025001
 31
0.0
  0
LINE
  5
146
100
AcDbEntity
  8
0
370
          15
  6
Continuous
 62
           7
100
AcDbLine
 10
203.785614280038
 20
-41.752467786542
 30
0.0
 11
254.035614280132
 21
-41.752467786542
 31
0.0
  0
LINE
  5
147
100
AcDbEntity
  8
0
370
          15
  6
Continuous
 62
           7
100
AcDbLine
 10
-70.964385719868
 20
-41.752467786542
 30
0.0
 11
-121.214385719868
 21
-41.752467786542
 31
0.0
  0
ARC
  5
148
100
AcDbEntity
  8
0
370
          15
  6
Continuous
 62
           7
100
AcDbCircle
 10
320.672990192923
 20
-39.836405931683
 30
0.0
 40
28.607502092665
100
AcDbArc
 50
266.011341016088
 51
273.02157456895
  0
LINE
  5
149
100
AcDbEntity
  8
0
370
          15
  6
Continuous
 62
           7
100
AcDbLine
 10
322.599997612022
 20
-56.374616025001
 30
0.0
 11
322.180948378121
 21
-68.374616025001
 31
0.0
  0
ARC
  5
14A
100
AcDbEntity
  8
0
370
          15
  6
Continuous
 62
           7
100
AcDbCircle
 10
-187.851761632689
 20
-39.836405930109
 30
0.0
 40
28.607502094236
100
AcDbArc
 50
266.978425431277
 51
273.988658983753
  0
LINE
  5
14B
100
AcDbEntity
  8
0
370
          15
  6
Continuous
 62
           7
100
AcDbLine
 10
-189.359719817858
 20
-68.374616025001
 30
0.0
 11
-189.778769051759
 21
-56.374616025001
 31
0.0
  0
ARC
  5
14C
100
AcDbEntity
  8
0
370
          15
  6
Continuous
 62
           7
100
AcDbCircle
 10
318.683080483554
 20
-68.252467786542
 30
0.0
 40
3.5
100
AcDbArc
 50
270.000000000009
 51
357.999999999999
  0
LINE
  5
14D
100
AcDbEntity
  8
0
370
          15
  6
Continuous
 62
           7
100
AcDbLine
 10
318.683080483555
 20
-68.374616025001
 30
0.0
 11
318.683080483555
 21
-71.752467786542
 31
0.0
  0
LINE
  5
14E
100
AcDbEntity
  8
0
370
          15
  6
Continuous
 62
           7
100
AcDbLine
 10
318.683080483555
 20
-71.752467786542
 30
0.0
 11
-185.861851923291
 21
-71.752467786542
 31
0.0
  0
LINE
  5
14F
100
AcDbEntity
  8
0
370
          15
  6
Continuous
 62
           7
100
AcDbLine
 10
-185.861851923291
 20
-68.374616025001
 30
0.0
 11
-185.861851923291
 21
-71.752467786542
 31
0.0
  0
ARC
  5
150
100
AcDbEntity
  8
0
370
          15
  6
Continuous
 62
           7
100
AcDbCircle
 10
-185.861851923291
 20
-68.252467786542
 30
0.0
 40
3.5
100
AcDbArc
 50
182.000000000193
 51
270.000000000001
  0
ENDSEC
  0
SECTION
  2
OBJECTS
  0
DICTIONARY
  5
C
100
AcDbDictionary
280
           0
281
           1
  3
ACAD_GROUP
350
D
  3
ACAD_PLOTSTYLENAME
350
E
  3
ACAD_MLINESTYLE
350
17
  3
ACAD_PLOTSETTINGS
350
19
  3
ACAD_LAYOUT
350
1A
  3
ACAD_WIPEOUT_VARS
350
153
  0
DICTIONARY
  5
D
102
{ACAD_REACTORS
330
C
102
}
100
AcDbDictionary
280
           0
281
           1
  0
DICTIONARY
  5
17
102
{ACAD_REACTORS
330
C
102
}
100
AcDbDictionary
280
           0
281
           1
  3
STANDARD
350
18
  0
MLINESTYLE
  5
18
102
{ACAD_REACTORS
330
17
102
}
100
AcDbMlineStyle
  2
Standard
 70
           0
  3

 62
         256
 51
90.0
 52
90.0
 71
           2
 49
0.5
 62
         256
  6
ByLayer
 49
-0.5
 62
         256
  6
ByLayer
  0
ACDBDICTIONARYWDFLT
  5
E
102
{ACAD_REACTORS
330
C
102
}
100
AcDbDictionary
281
           1
  3
NORMAL
350
F
100
AcDbDictionaryWithDefault
340
F
  0
ACDBPLACEHOLDER
  5
F
102
{ACAD_REACTORS
330
E
102
}
  0
LAYOUT
  5
22
102
{ACAD_REACTORS
330
1A
102
}
100
AcDbPlotSettings
  1

  2

  4

  6

 40
0.0
 41
0.0
 42
0.0
 43
0.0
 44
0.0
 45
0.0
 46
0.0
 47
0.0
 48
0.0
 49
0.0
140
0.0
141
0.0
142
1.0
143
1.0
 70
        1712
 72
           0
 73
           0
 74
           0
  7

 75
           0
147
1.0
148
0.0
149
0.0
100
AcDbLayout
  1
MODEL
 70
           1
 71
           0
 10
0.0
 20
0.0
 11
0.0
 21
0.0
 12
0.0
 22
0.0
 32
0.0
 14
0.0
 24
0.0
 34
0.0
 15
420.0
 25
297.0
 35
0.0
146
0.0
 13
0.0
 23
0.0
 33
0.0
 16
1.0
 26
0.0
 36
0.0
 17
0.0
 27
1.0
 37
0.0
 76
           0
330
1F
331
0
345
0
346
0
  0
LAYOUT
  5
1E
102
{ACAD_REACTORS
330
1A
102
}
100
AcDbPlotSettings
  1

  2

  4

  6

 40
0.0
 41
0.0
 42
0.0
 43
0.0
 44
0.0
 45
0.0
 46
0.0
 47
0.0
 48
0.0
 49
0.0
140
0.0
141
0.0
142
1.0
143
1.0
 70
         688
 72
           0
 73
           0
 74
           5
  7

 75
          16
147
1.0
148
0.0
149
0.0
100
AcDbLayout
  1
LAYOUT1
 70
           1
 71
           1
 10
0.0
 20
0.0
 11
0.0
 21
0.0
 12
0.0
 22
0.0
 32
0.0
 14
0.0
 24
0.0
 34
0.0
 15
0.0
 25
0.0
 35
0.0
146
0.0
 13
0.0
 23
0.0
 33
0.0
 16
1.0
 26
0.0
 36
0.0
 17
0.0
 27
1.0
 37
0.0
 76
           0
330
1B
331
0
345
0
346
0
  0
DICTIONARY
  5
1A
102
{ACAD_REACTORS
330
C
102
}
100
AcDbDictionary
280
           0
281
           1
  3
MODEL
350
22
  3
LAYOUT1
350
1E
  3
LAYOUT2
350
26
  0
DICTIONARY
  5
19
102
{ACAD_REACTORS
330
C
102
}
100
AcDbDictionary
280
           0
281
           1
  0
WIPEOUTVARIABLES
  5
153
100
AcDbWipeoutVariables
 70
           1
  0
LAYOUT
  5
26
102
{ACAD_REACTORS
330
1A
102
}
100
AcDbPlotSettings
  1

  2

  4

  6

 40
0.0
 41
0.0
 42
0.0
 43
0.0
 44
0.0
 45
0.0
 46
0.0
 47
0.0
 48
0.0
 49
0.0
140
0.0
141
0.0
142
1.0
143
1.0
 70
         688
 72
           0
 73
           0
 74
           5
  7

 75
          16
147
1.0
148
0.0
149
0.0
100
AcDbLayout
  1
LAYOUT2
 70
           1
 71
           2
 10
0.0
 20
0.0
 11
0.0
 21
0.0
 12
0.0
 22
0.0
 32
0.0
 14
0.0
 24
0.0
 34
0.0
 15
0.0
 25
0.0
 35
0.0
146
0.0
 13
0.0
 23
0.0
 33
0.0
 16
1.0
 26
0.0
 36
0.0
 17
0.0
 27
1.0
 37
0.0
 76
           0
330
23
331
0
345
0
346
0
  0
ENDSEC
  0
EOF
