  0
SECTION
  2
HEADER
  9
$ACADVER
  1
AC1015
  9
$ACADMAINTVER
 70
           6
  9
$DWGCODEPAGE
  3
ANSI_1252
  9
$INSBASE
 10
0.0
 20
0.0
 30
0.0
  9
$EXTMIN
 10
-1287.01940174734
 20
-264.839170806827
 30
0.0
  9
$EXTMAX
 10
700.835948318711
 20
929.369547253087
 30
0.0
  9
$LIMMIN
 10
0.0
 20
0.0
  9
$LIMMAX
 10
0.0
 20
0.0
  9
$ORTHOMODE
 70
           0
  9
$REGENMODE
 70
           1
  9
$FILLMODE
 70
           1
  9
$QTEXTMODE
 70
           0
  9
$MIRRTEXT
 70
           1
  9
$LTSCALE
 40
1.0
  9
$ATTMODE
 70
           1
  9
$TEXTSIZE
 40
3.5
  9
$TRACEWID
 40
1.0
  9
$TEXTSTYLE
  7
Standard
  9
$CLAYER
  8
0
  9
$CELTYPE
  6
ByLayer
  9
$CECOLOR
 62
         256
  9
$CELTSCALE
 40
1.0
  9
$DISPSILH
 70
           0
  9
$DIMSCALE
 40
1.0
  9
$DIMASZ
 40
6.0
  9
$DIMEXO
 40
1.0
  9
$DIMDLI
 40
3.75
  9
$DIMRND
 40
0.0
  9
$DIMDLE
 40
0.0
  9
$DIMEXE
 40
1.0
  9
$DIMTP
 40
0.0
  9
$DIMTM
 40
0.0
  9
$DIMTXT
 40
3.5
  9
$DIMCEN
 40
2.5
  9
$DIMTSZ
 40
0.0
  9
$DIMTOL
 70
           0
  9
$DIMLIM
 70
           0
  9
$DIMTIH
 70
           1
  9
$DIMTOH
 70
           1
  9
$DIMSE1
 70
           0
  9
$DIMSE2
 70
           0
  9
$DIMTAD
 70
           1
  9
$DIMZIN
 70
           0
  9
$DIMBLK
  1

  9
$DIMASO
 70
           1
  9
$DIMSHO
 70
           1
  9
$DIMPOST
  1

  9
$DIMAPOST
  1

  9
$DIMALT
 70
           0
  9
$DIMALTD
 70
           3
  9
$DIMALTF
 40
0.03937007874
  9
$DIMLFAC
 40
1.0
  9
$DIMTOFL
 70
           1
  9
$DIMTVP
 40
0.0
  9
$DIMTIX
 70
           0
  9
$DIMSOXD
 70
           0
  9
$DIMSAH
 70
           0
  9
$DIMBLK1
  1

  9
$DIMBLK2
  1

  9
$DIMSTYLE
  2
ISO-25
  9
$DIMCLRD
 70
           0
  9
$DIMCLRE
 70
           0
  9
$DIMCLRT
 70
           0
  9
$DIMTFAC
 40
1.0
  9
$DIMGAP
 40
1.524
  9
$DIMJUST
 70
           0
  9
$DIMSD1
 70
           0
  9
$DIMSD2
 70
           0
  9
$DIMTOLJ
 70
           0
  9
$DIMTZIN
 70
           0
  9
$DIMALTZ
 70
           0
  9
$DIMALTTZ
 70
           0
  9
$DIMUPT
 70
           0
  9
$DIMDEC
 70
           2
  9
$DIMTDEC
 70
           2
  9
$DIMALTU
 70
           2
  9
$DIMALTTD
 70
           3
  9
$DIMTXSTY
  7
Standard
  9
$DIMAUNIT
 70
           0
  9
$DIMADEC
 70
           0
  9
$DIMALTRND
 40
0.0
  9
$DIMAZIN
 70
           0
  9
$DIMDSEP
 70
          44
  9
$DIMATFIT
 70
           3
  9
$DIMFRAC
 70
           0
  9
$DIMLDRBLK
  1

  9
$DIMLUNIT
 70
           2
  9
$DIMLWD
 70
          -2
  9
$DIMLWE
 70
          -2
  9
$DIMTMOVE
 70
           0
  9
$LUNITS
 70
           2
  9
$LUPREC
 70
           2
  9
$SKETCHINC
 40
1.0
  9
$FILLETRAD
 40
10.0
  9
$AUNITS
 70
           0
  9
$AUPREC
 70
           0
  9
$MENU
  1
.
  9
$ELEVATION
 40
0.0
  9
$PELEVATION
 40
0.0
  9
$THICKNESS
 40
0.0
  9
$LIMCHECK
 70
           0
  9
$CHAMFERA
 40
10.0
  9
$CHAMFERB
 40
10.0
  9
$CHAMFERC
 40
20.0
  9
$CHAMFERD
 40
0.0
  9
$SKPOLY
 70
           0
  9
$TDCREATE
 40
2453845.366008114
  9
$TDUCREATE
 40
0.000000000
  9
$TDUPDATE
 40
2453845.590103970
  9
$TDUUPDATE
 40
2453845.506770625
  9
$TDINDWG
 40
0.0010300579
  9
$TDUSRTIMER
 40
0.0010300579
  9
$USRTIMER
 70
           1
  9
$ANGBASE
 50
0.0
  9
$ANGDIR
 70
           0
  9
$PDMODE
 70
           0
  9
$PDSIZE
 40
-1.0
  9
$PLINEWID
 40
0.0
  9
$SPLFRAME
 70
           0
  9
$SPLINETYPE
 70
           6
  9
$SPLINESEGS
 70
           8
  9
$HANDSEED
  5
33E
  9
$SURFTAB1
 70
           6
  9
$SURFTAB2
 70
           6
  9
$SURFTYPE
 70
           6
  9
$SURFU
 70
           6
  9
$SURFV
 70
           6
  9
$UCSBASE
  2

  9
$UCSNAME
  2

  9
$UCSORG
 10
0.0
 20
0.0
 30
0.0
  9
$UCSXDIR
 10
1.0
 20
0.0
 30
0.0
  9
$UCSYDIR
 10
0.0
 20
1.0
 30
0.0
  9
$UCSORTHOREF
  2

  9
$UCSORTHOVIEW
 70
           0
  9
$UCSORGTOP
 10
0.0
 20
0.0
 30
0.0
  9
$UCSORGBOTTOM
 10
0.0
 20
0.0
 30
0.0
  9
$UCSORGLEFT
 10
0.0
 20
0.0
 30
0.0
  9
$UCSORGRIGHT
 10
0.0
 20
0.0
 30
0.0
  9
$UCSORGFRONT
 10
0.0
 20
0.0
 30
0.0
  9
$UCSORGBACK
 10
0.0
 20
0.0
 30
0.0
  9
$PUCSBASE
  2

  9
$PUCSNAME
  2

  9
$PUCSORG
 10
0.0
 20
0.0
 30
0.0
  9
$PUCSXDIR
 10
1.0
 20
0.0
 30
0.0
  9
$PUCSYDIR
 10
0.0
 20
1.0
 30
0.0
  9
$PUCSORTHOREF
  2

  9
$PUCSORTHOVIEW
 70
           0
  9
$PUCSORGTOP
 10
0.0
 20
0.0
 30
0.0
  9
$PUCSORGBOTTOM
 10
0.0
 20
0.0
 30
0.0
  9
$PUCSORGLEFT
 10
0.0
 20
0.0
 30
0.0
  9
$PUCSORGRIGHT
 10
0.0
 20
0.0
 30
0.0
  9
$PUCSORGFRONT
 10
0.0
 20
0.0
 30
0.0
  9
$PUCSORGBACK
 10
0.0
 20
0.0
 30
0.0
  9
$USERI1
 70
           0
  9
$USERI2
 70
           0
  9
$USERI3
 70
           0
  9
$USERI4
 70
           0
  9
$USERI5
 70
           0
  9
$USERR1
 40
0.0
  9
$USERR2
 40
0.0
  9
$USERR3
 40
0.0
  9
$USERR4
 40
0.0
  9
$USERR5
 40
0.0
  9
$WORLDVIEW
 70
           1
  9
$SHADEDGE
 70
           3
  9
$SHADEDIF
 70
          70
  9
$TILEMODE
 70
           1
  9
$MAXACTVP
 70
          64
  9
$PINSBASE
 10
0.0
 20
0.0
 30
0.0
  9
$PLIMCHECK
 70
           0
  9
$PEXTMIN
 10
1.000000000000E+20
 20
1.000000000000E+20
 30
1.000000000000E+20
  9
$PEXTMAX
 10
-1.000000000000E+20
 20
-1.000000000000E+20
 30
-1.000000000000E+20
  9
$PLIMMIN
 10
0.0
 20
0.0
  9
$PLIMMAX
 10
420.0
 20
297.0
  9
$UNITMODE
 70
           0
  9
$VISRETAIN
 70
           1
  9
$PLINEGEN
 70
           0
  9
$PSLTSCALE
 70
           1
  9
$TREEDEPTH
 70
        3020
  9
$CMLSTYLE
  2
Standard
  9
$CMLJUST
 70
           0
  9
$CMLSCALE
 40
20.0
  9
$PROXYGRAPHICS
 70
           1
  9
$MEASUREMENT
 70
           1
  9
$CELWEIGHT
370
          -1
  9
$ENDCAPS
280
           0
  9
$JOINSTYLE
280
           0
  9
$LWDISPLAY
290
           1
  9
$INSUNITS
 70
           4
  9
$HYPERLINKBASE
  1

  9
$STYLESHEET
  1

  9
$XEDIT
290
           0
  9
$CEPSNTYPE
380
           0
  9
$PSTYLEMODE
290
           1
  9
$FINGERPRINTGUID
  2
{B7F83ED2-93FF-4C5B-8A45-9A6F1B69D40B}
  9
$VERSIONGUID
  2
{FAEB1C32-E019-11D5-929B-00C0DF256EC4}
  9
$EXTNAMES
290
           1
  9
$PSVPSCALE
 40
0.0
  0
ENDSEC
  0
SECTION
  2
CLASSES
  0
CLASS
  1
ACDBDICTIONARYWDFLT
  2
AcDbDictionaryWithDefault
  3
ObjectDBX Classes
 90
        0
280
           0
281
           0
  0
CLASS
  1
ACDBPLACEHOLDER
  2
AcDbPlaceHolder
  3
ObjectDBX Classes
 90
        0
280
           0
281
           0
  0
CLASS
  1
LAYOUT
  2
AcDbLayout
  3
ObjectDBX Classes
 90
        0
280
           0
281
           0
  0
CLASS
  1
LWPOLYLINE
  2
AcDbPolyline
  3
AutoCAD 2000
 90
        0
280
           0
281
           1
  0
CLASS
  1
IMAGE
  2
AcDbRasterImage
  3
ISM
 90
      127
280
           0
281
           1
  0
CLASS
  1
OLE2FRAME
  2
AcDbOle2Frame
  3
AutoCAD 2000
 90
        0
280
           0
281
           1
  0
CLASS
  1
HATCH
  2
AcDbHatch
  3
AutoCAD 2000
 90
        0
280
           0
281
           1
  0
CLASS
  1
DICTIONARYVAR
  2
AcDbDictionaryVar
  3
AutoCAD 2000
 90
        0
280
           0
281
           0
  0
CLASS
  1
RASTERVARIABLES
  2
AcDbRasterVariables
  3
ISM
 90
        0
280
           0
281
           0
  0
CLASS
  1
IMAGEDEF
  2
AcDbRasterImageDef
  3
ISM
 90
        0
280
           0
281
           0
  0
CLASS
  1
IMAGEDEF_REACTOR
  2
AcDbRasterImageDefReactor
  3
ISM
 90
        1
280
           0
281
           0
  0
CLASS
  1
IDBUFFER
  2
AcDbIdBuffer
  3
AutoCAD 2000
 90
        0
280
           0
281
           0
  0
CLASS
  1
SPATIAL_FILTER
  2
AcDbSpatialFilter
  3
AutoCAD 2000
 90
        0
280
           0
281
           0
  0
CLASS
  1
XRECORD
  2
AcDbXrecord
  3
AutoCAD 2000
 90
        0
280
           0
281
           0
  0
CLASS
  1
SORTENTSTABLE
  2
AcDbSortentsTable
  3
AutoCAD 2000
 90
        0
280
           0
281
           0
  0
CLASS
  1
LAYER_INDEX
  2
AcDbLayerIndex
  3
AutoCAD 2000
 90
        0
280
           0
281
           0
  0
CLASS
  1
SPATIAL_INDEX
  2
AcDbSpatialIndex
  3
AutoCAD 2000
 90
        0
280
           0
281
           0
  0
CLASS
  1
OBJECT_PTR
  2
CAseDLPNTableRecord
  3
"ASE-LPNTableRecord"
 90
        1
280
           0
281
           0
  0
CLASS
  1
PLOTSETTINGS
  2
AcDbPlotSettings
  3
AutoCAD 2000
 90
        0
280
           0
281
           0
  0
CLASS
  1
VBA_PROJECT
  2
AcDbVbaProject
  3
acadvba
 90
        0
280
           0
281
           0
  0
CLASS
  1
WIPEOUT
  2
AcDbWipeout
  3
WipeOut|AutoCAD Express Tool|expresstools@autodesk.com
 90
      127
280
           0
281
           1
  0
CLASS
  1
WIPEOUTVARIABLES
  2
AcDbWipeoutVariables
  3
WipeOut|AutoCAD Express Tool|expresstools@autodesk.com
 90
        0
280
           0
281
           0
  0
CLASS
  1
RTEXT
  2
RText
  3
RText|AutoCAD Express Tool|expresstools@autodesk.com
 90
        0
280
           0
281
           1
  0
CLASS
  1
ARCALIGNEDTEXT
  2
AcDbArcAlignedText
  3
ATEXT|AutoCAD Express Tool|expresstools@autodesk.com
 90
        0
280
           0
281
           1
  0
CLASS
  1
DIMASSOC
  2
AcDbDimAssoc
  3
AcDbDimAssoc|Product Desc:     AcDim ARX App For Dimension|Company:          Autodesk, Inc.|WEB Address:      www.autodesk.com
 90
        1
280
           0
281
           0
  0
ENDSEC
  0
SECTION
  2
TABLES
  0
TABLE
  2
VPORT
  5
8
100
AcDbSymbolTable
 70
           1
  0
VPORT
  5
29
100
AcDbSymbolTableRecord
100
AcDbViewportTableRecord
  2
*Active
 70
          64
 10
0.0
 20
0.0
 11
1.0
 21
1.0
 12
-293.091726714314
 22
332.26518822313
 13
0.0
 23
0.0
 14
10.0
 24
10.0
 15
10.0
 25
10.0
 16
0.0
 26
0.0
 36
1.0
 17
0.0
 27
0.0
 37
0.0
 40
1218.092892421113
 41
1.97297297285
 42
50.0
 43
0.0
 44
0.0
 50
0.0
 51
0.0
 71
           0
 72
        2000
 73
           1
 74
           3
 75
           0
 76
           0
 77
           0
 78
           0
281
           0
 65
           0
110
0.0
120
0.0
130
0.0
111
1.0
121
0.0
131
0.0
112
0.0
122
1.0
132
0.0
345
0
346
0
 79
           0
146
0.0
  0
ENDTAB
  0
TABLE
  2
LTYPE
  5
5
100
AcDbSymbolTable
 70
           8
  0
LTYPE
  5
14
100
AcDbSymbolTableRecord
100
AcDbLinetypeTableRecord
  2
ByBlock
 70
          64
  3

 72
          65
 73
           0
 40
0.0
  0
LTYPE
  5
15
100
AcDbSymbolTableRecord
100
AcDbLinetypeTableRecord
  2
ByLayer
 70
          64
  3

 72
          65
 73
           0
 40
0.0
  0
LTYPE
  5
16
100
AcDbSymbolTableRecord
100
AcDbLinetypeTableRecord
  2
Continuous
 70
          64
  3
Solid line
 72
          65
 73
           0
 40
0.0
  0
LTYPE
  5
2A
100
AcDbSymbolTableRecord
100
AcDbLinetypeTableRecord
  2
HIDDEN
 70
          64
  3
Hidden __ __ __ __ __ __ __ __ __ __ __ __ __ __
 72
          65
 73
           2
 40
1.905
 49
1.27
 74
           0
 49
-0.635
 74
           0
  0
LTYPE
  5
2B
100
AcDbSymbolTableRecord
100
AcDbLinetypeTableRecord
  2
PHANTOM
 70
          64
  3
Phantom ______  __  __  ______  __  __  ______
 72
          65
 73
           6
 40
12.7
 49
6.35
 74
           0
 49
-1.27
 74
           0
 49
1.27
 74
           0
 49
-1.27
 74
           0
 49
1.27
 74
           0
 49
-1.27
 74
           0
  0
LTYPE
  5
2C
100
AcDbSymbolTableRecord
100
AcDbLinetypeTableRecord
  2
CENTER
 70
          64
  3
Center ____ _ ____ _ ____ _ ____ _ ____ _ ____
 72
          65
 73
           4
 40
10.16
 49
6.35
 74
           0
 49
-1.27
 74
           0
 49
1.27
 74
           0
 49
-1.27
 74
           0
  0
LTYPE
  5
2D
100
AcDbSymbolTableRecord
100
AcDbLinetypeTableRecord
  2
CENTERX2
 70
          64
  3
Center (2x) ________  __  ________  __  _____
 72
          65
 73
           4
 40
20.32
 49
12.7
 74
           0
 49
-2.54
 74
           0
 49
2.54
 74
           0
 49
-2.54
 74
           0
  0
LTYPE
  5
2E
100
AcDbSymbolTableRecord
100
AcDbLinetypeTableRecord
  2
DOT2
 70
          64
  3
Dot (.5x) ........................................
 72
          65
 73
           2
 40
0.635
 49
0.0
 74
           0
 49
-0.635
 74
           0
  0
ENDTAB
  0
TABLE
  2
LAYER
  5
2
100
AcDbSymbolTable
 70
           2
  0
LAYER
  5
10
100
AcDbSymbolTableRecord
100
AcDbLayerTableRecord
  2
0
 70
          64
 62
           7
  6
Continuous
290
           1
370
          -3
390
F
  0
LAYER
  5
330
100
AcDbSymbolTableRecord
100
AcDbLayerTableRecord
  2
DEFPOINTS
 70
           0
 62
           7
  6
Continuous
290
           0
370
          -3
390
F
  0
ENDTAB
  0
TABLE
  2
STYLE
  5
3
100
AcDbSymbolTable
 70
           1
  0
STYLE
  5
11
100
AcDbSymbolTableRecord
100
AcDbTextStyleTableRecord
  2
Standard
 70
          64
 40
0.0
 41
1.0
 50
0.0
 71
           0
 42
2.5
  3
TXT
  4

  0
ENDTAB
  0
TABLE
  2
VIEW
  5
6
100
AcDbSymbolTable
 70
           0
  0
ENDTAB
  0
TABLE
  2
UCS
  5
7
100
AcDbSymbolTable
 70
           0
  0
ENDTAB
  0
TABLE
  2
APPID
  5
9
100
AcDbSymbolTable
 70
           1
  0
APPID
  5
12
100
AcDbSymbolTableRecord
100
AcDbRegAppTableRecord
  2
ACAD
 70
          64
  0
ENDTAB
  0
TABLE
  2
DIMSTYLE
  5
A
100
AcDbSymbolTable
 70
           1
100
AcDbDimStyleTable
 71
           0
  0
DIMSTYLE
105
27
100
AcDbSymbolTableRecord
100
AcDbDimStyleTableRecord
  2
ISO-25
 70
          64
  3

  4

 40
1.0
 41
2.5
 42
0.625
 43
3.75
 44
1.25
 45
0.0
 46
0.0
 47
0.0
 48
0.0
 71
           0
 72
           0
 73
           0
 74
           0
 75
           0
 76
           0
 77
           1
 78
           8
 79
           0
140
2.5
141
2.5
142
0.0
143
0.03937007874
144
1.0
145
0.0
146
1.0
147
0.625
148
0.0
170
           0
171
           3
172
           1
173
           0
174
           0
175
           0
176
           0
177
           0
178
           0
179
           0
271
           2
272
           2
273
           2
274
           3
275
           0
276
           0
277
           2
278
          44
279
           0
280
           0
281
           0
282
           0
283
           0
284
           8
285
           0
286
           0
288
           0
289
           3
340
11
341
0
342
0
343
0
344
0
371
          -2
372
          -2
  0
ENDTAB
  0
TABLE
  2
BLOCK_RECORD
  5
1
100
AcDbSymbolTable
 70
           1
  0
BLOCK_RECORD
  5
1F
100
AcDbSymbolTableRecord
100
AcDbBlockTableRecord
  2
*MODEL_SPACE
340
22
  0
BLOCK_RECORD
  5
1B
100
AcDbSymbolTableRecord
100
AcDbBlockTableRecord
  2
*PAPER_SPACE
340
1E
  0
BLOCK_RECORD
  5
23
100
AcDbSymbolTableRecord
100
AcDbBlockTableRecord
  2
*Paper_Space0
340
26
  0
ENDTAB
  0
ENDSEC
  0
SECTION
  2
BLOCKS
  0
BLOCK
  5
20
100
AcDbEntity
  8
0
390
0
100
AcDbBlockBegin
  2
*MODEL_SPACE
 70
           0
 10
0.0
 20
0.0
 30
0.0
  3
*MODEL_SPACE
  1

  0
ENDBLK
  5
21
100
AcDbEntity
  8
0
390
0
100
AcDbBlockEnd
  0
BLOCK
  5
1C
100
AcDbEntity
 67
           1
  8
0
390
0
100
AcDbBlockBegin
  2
*PAPER_SPACE
 70
           0
 10
0.0
 20
0.0
 30
0.0
  3
*PAPER_SPACE
  1

  0
ENDBLK
  5
1D
100
AcDbEntity
 67
           1
  8
0
390
0
100
AcDbBlockEnd
  0
BLOCK
  5
24
100
AcDbEntity
  8
0
100
AcDbBlockBegin
  2
*Paper_Space0
 70
          64
 10
0.0
 20
0.0
 30
0.0
  3
*Paper_Space0
  1

  0
ENDBLK
  5
25
100
AcDbEntity
  8
0
100
AcDbBlockEnd
  0
ENDSEC
  0
SECTION
  2
ENTITIES
  0
LINE
  5
2F
100
AcDbEntity
  8
0
370
          15
  6
Continuous
 62
           7
100
AcDbLine
 10
-154.46788140069
 20
713.369554688767
 30
0.0
 11
-154.46788140069
 21
711.369550635651
 31
0.0
  0
LINE
  5
30
100
AcDbEntity
  8
0
370
          15
  6
Continuous
 62
           7
100
AcDbLine
 10
-144.467876036272
 20
711.369550635651
 30
0.0
 11
-144.467876036272
 21
713.369554688767
 31
0.0
  0
LINE
  5
31
100
AcDbEntity
  8
0
370
          15
  6
Continuous
 62
           7
100
AcDbLine
 10
275.532110850707
 20
713.369554688767
 30
0.0
 11
275.532110850707
 21
711.369550635651
 31
0.0
  0
LINE
  5
32
100
AcDbEntity
  8
0
370
          15
  6
Continuous
 62
           7
100
AcDbLine
 10
285.532116215125
 20
711.369550635651
 30
0.0
 11
285.532116215125
 21
713.369554688767
 31
0.0
  0
LINE
  5
33
100
AcDbEntity
  8
0
370
          15
  6
Continuous
 62
           7
100
AcDbLine
 10
-156.967879016504
 20
713.369554688767
 30
0.0
 11
-156.967879016504
 21
711.369550635651
 31
0.0
  0
LINE
  5
34
100
AcDbEntity
  8
0
370
          15
  6
Continuous
 62
           7
100
AcDbLine
 10
-141.967878420458
 20
711.369550635651
 30
0.0
 11
-141.967878420458
 21
713.369554688767
 31
0.0
  0
LINE
  5
35
100
AcDbEntity
  8
0
370
          15
  6
Continuous
 62
           7
100
AcDbLine
 10
273.032113234892
 20
713.369554688767
 30
0.0
 11
273.032113234892
 21
711.369550635651
 31
0.0
  0
LINE
  5
36
100
AcDbEntity
  8
0
370
          15
  6
Continuous
 62
           7
100
AcDbLine
 10
288.032113830939
 20
711.369550635651
 30
0.0
 11
288.032113830939
 21
713.369554688767
 31
0.0
  0
LINE
  5
37
100
AcDbEntity
  8
0
370
          15
  6
Continuous
 62
           7
100
AcDbLine
 10
-189.368278462991
 20
908.369547536209
 30
0.0
 11
-186.009139497385
 21
715.924165060356
 31
0.0
  0
ARC
  5
38
100
AcDbEntity
  8
0
370
          15
  6
Continuous
 62
           7
100
AcDbCircle
 10
-187.488391445138
 20
758.351736063332
 30
0.0
 40
42.453350486593
100
AcDbArc
 50
268.487787319817
 51
271.996828335896
  0
LINE
  5
39
100
AcDbEntity
  8
0
370
          15
  6
Continuous
 62
           7
100
AcDbLine
 10
-188.608736474618
 20
715.924165060356
 30
0.0
 11
-191.967875440225
 21
908.369547536209
 31
0.0
  0
LINE
  5
3A
100
AcDbEntity
  8
0
370
          15
  6
Continuous
 62
           7
100
AcDbLine
 10
-191.967875440225
 20
908.369547536209
 30
0.0
 11
-189.368278462991
 21
908.369547536209
 31
0.0
  0
LINE
  5
3B
100
AcDbEntity
  8
0
370
          15
  6
Continuous
 62
           7
100
AcDbLine
 10
317.07337431182
 20
715.924165060356
 30
0.0
 11
320.432513277426
 21
908.369547536209
 31
0.0
  0
LINE
  5
3C
100
AcDbEntity
  8
0
370
          15
  6
Continuous
 62
           7
100
AcDbLine
 10
283.476322214499
 20
715.924165060356
 30
0.0
 11
317.07337431182
 21
715.924165060356
 31
0.0
  0
ARC
  5
3D
100
AcDbEntity
  8
0
370
          15
  6
Continuous
 62
           7
100
AcDbCircle
 10
280.626322739634
 20
737.972581987554
 30
0.0
 40
22.256787317755
100
AcDbArc
 50
262.153719963655
 51
277.356970125196
  0
LINE
  5
3E
100
AcDbEntity
  8
0
370
          15
  6
Continuous
 62
           7
100
AcDbLine
 10
-146.523684938058
 20
715.924165060356
 30
0.0
 11
277.587919752493
 21
715.924165060356
 31
0.0
  0
ARC
  5
3F
100
AcDbEntity
  8
0
370
          15
  6
Continuous
 62
           7
100
AcDbCircle
 10
-149.373681746583
 20
737.97254138346
 30
0.0
 40
22.2567474578
100
AcDbArc
 50
262.153698894268
 51
277.356976452837
  0
LINE
  5
40
100
AcDbEntity
  8
0
370
          15
  6
Continuous
 62
           7
100
AcDbLine
 10
-186.009139497385
 20
715.924165060356
 30
0.0
 11
-152.412087400064
 21
715.924165060356
 31
0.0
  0
LINE
  5
41
100
AcDbEntity
  8
0
370
          15
  6
Continuous
 62
           7
100
AcDbLine
 10
-189.368278462991
 20
908.369547536209
 30
0.0
 11
320.432513277426
 21
908.369547536209
 31
0.0
  0
LINE
  5
42
100
AcDbEntity
  8
0
370
          15
  6
Continuous
 62
           7
100
AcDbLine
 10
323.03211025466
 20
908.369547536209
 30
0.0
 11
319.672971289053
 21
715.924165060356
 31
0.0
  0
ARC
  5
43
100
AcDbEntity
  8
0
370
          15
  6
Continuous
 62
           7
100
AcDbCircle
 10
318.55262625955
 20
758.351736063303
 30
0.0
 40
42.453350486563
100
AcDbArc
 50
268.003171664135
 51
271.512212680217
  0
LINE
  5
44
100
AcDbEntity
  8
0
370
          15
  6
Continuous
 62
           7
100
AcDbLine
 10
320.432513277426
 20
908.369547536209
 30
0.0
 11
323.03211025466
 21
908.369547536209
 31
0.0
  0
LINE
  5
45
100
AcDbEntity
  8
0
370
          15
  6
Continuous
 62
           7
100
AcDbLine
 10
-146.523684938058
 20
715.924165060356
 30
0.0
 11
-146.523684938058
 21
713.369554688767
 31
0.0
  0
LINE
  5
46
100
AcDbEntity
  8
0
370
          15
  6
Continuous
 62
           7
100
AcDbLine
 10
-146.523684938058
 20
713.369554688767
 30
0.0
 11
-152.412087400064
 21
713.369554688767
 31
0.0
  0
LINE
  5
47
100
AcDbEntity
  8
0
370
          15
  6
Continuous
 62
           7
100
AcDbLine
 10
-152.412087400064
 20
715.924165060356
 30
0.0
 11
-152.412087400064
 21
713.369554688767
 31
0.0
  0
LINE
  5
48
100
AcDbEntity
  8
0
370
          15
  6
Continuous
 62
           7
100
AcDbLine
 10
283.476322214499
 20
715.924165060356
 30
0.0
 11
283.476322214499
 21
713.369554688767
 31
0.0
  0
LINE
  5
49
100
AcDbEntity
  8
0
370
          15
  6
Continuous
 62
           7
100
AcDbLine
 10
283.476322214499
 20
713.369554688767
 30
0.0
 11
277.587919752493
 21
713.369554688767
 31
0.0
  0
LINE
  5
4A
100
AcDbEntity
  8
0
370
          15
  6
Continuous
 62
           7
100
AcDbLine
 10
277.587919752493
 20
715.924165060356
 30
0.0
 11
277.587919752493
 21
713.369554688767
 31
0.0
  0
LINE
  5
4B
100
AcDbEntity
  8
0
370
          15
  6
Continuous
 62
           7
100
AcDbLine
 10
-169.912085611925
 20
713.369554688767
 30
0.0
 11
-186.009139497385
 21
713.369554688767
 31
0.0
  0
LINE
  5
4C
100
AcDbEntity
  8
0
370
          15
  6
Continuous
 62
           7
100
AcDbLine
 10
-186.009139497385
 20
715.924165060356
 30
0.0
 11
-186.009139497385
 21
713.369554688767
 31
0.0
  0
LINE
  5
4D
100
AcDbEntity
  8
0
370
          15
  6
Continuous
 62
           7
100
AcDbLine
 10
-152.412087400064
 20
713.369554688767
 30
0.0
 11
-164.023683149919
 21
713.369554688767
 31
0.0
  0
ARC
  5
4E
100
AcDbEntity
  8
0
370
          15
  6
Continuous
 62
           7
100
AcDbCircle
 10
-166.97408760548
 20
692.481996204015
 30
0.0
 40
21.094904263952
100
AcDbArc
 50
81.96005971009
 51
98.005910108795
  0
ARC
  5
4F
100
AcDbEntity
  8
0
370
          15
  6
Continuous
 62
           7
100
AcDbCircle
 10
-186.009132047679
 20
715.969547536209
 30
0.0
 40
2.6
100
AcDbArc
 50
181.000000000362
 51
270.000000000003
  0
LINE
  5
50
100
AcDbEntity
  8
0
370
          15
  6
Continuous
 62
           7
100
AcDbLine
 10
277.587919752493
 20
713.369554688767
 30
0.0
 11
-146.523684938058
 21
713.369554688767
 31
0.0
  0
LINE
  5
51
100
AcDbEntity
  8
0
370
          15
  6
Continuous
 62
           7
100
AcDbLine
 10
295.087917964354
 20
713.369554688767
 30
0.0
 11
283.476322214499
 21
713.369554688767
 31
0.0
  0
LINE
  5
52
100
AcDbEntity
  8
0
370
          15
  6
Continuous
 62
           7
100
AcDbLine
 10
317.07337431182
 20
715.924165060356
 30
0.0
 11
317.07337431182
 21
713.369554688767
 31
0.0
  0
LINE
  5
53
100
AcDbEntity
  8
0
370
          15
  6
Continuous
 62
           7
100
AcDbLine
 10
317.07337431182
 20
713.369554688767
 30
0.0
 11
300.97632042636
 21
713.369554688767
 31
0.0
  0
ARC
  5
54
100
AcDbEntity
  8
0
370
          15
  6
Continuous
 62
           7
100
AcDbCircle
 10
298.025915970806
 20
692.48199620503
 30
0.0
 40
21.094904262946
100
AcDbArc
 50
81.960059709723
 51
98.005910109199
  0
ARC
  5
55
100
AcDbEntity
  8
0
370
          15
  6
Continuous
 62
           7
100
AcDbCircle
 10
317.073366862115
 20
715.969547536209
 30
0.0
 40
2.6
100
AcDbArc
 50
270.0
 51
358.999999999821
  0
LINE
  5
56
100
AcDbEntity
  8
0
370
          15
  6
Continuous
 62
           7
100
AcDbLine
 10
-161.967889149293
 20
713.369554688767
 30
0.0
 11
-163.966984231576
 21
713.369554688767
 31
0.0
  0
LINE
  5
57
100
AcDbEntity
  8
0
370
          15
  6
Continuous
 62
           7
100
AcDbLine
 10
-169.937372882471
 20
713.369554688767
 30
0.0
 11
-171.96787961255
 21
713.369554688767
 31
0.0
  0
LINE
  5
58
100
AcDbEntity
  8
0
370
          15
  6
Continuous
 62
           7
100
AcDbLine
 10
-144.467876036272
 20
711.369550635651
 30
0.0
 11
-154.46788140069
 21
711.369550635651
 31
0.0
  0
LINE
  5
59
100
AcDbEntity
  8
0
370
          15
  6
Continuous
 62
           7
100
AcDbLine
 10
285.532116215125
 20
711.369550635651
 30
0.0
 11
275.532110850707
 21
711.369550635651
 31
0.0
  0
LINE
  5
5A
100
AcDbEntity
  8
0
370
          15
  6
Continuous
 62
           7
100
AcDbLine
 10
303.032114426986
 20
713.369554688767
 30
0.0
 11
301.033019344702
 21
713.369554688767
 31
0.0
  0
LINE
  5
5B
100
AcDbEntity
  8
0
370
          15
  6
Continuous
 62
           7
100
AcDbLine
 10
295.062630693808
 20
713.369554688767
 30
0.0
 11
293.032123963728
 21
713.369554688767
 31
0.0
  0
LINE
  5
5C
100
AcDbEntity
  8
0
370
          15
  6
Continuous
 62
           7
100
AcDbLine
 10
-125.740960915193
 20
921.36954780443
 30
0.0
 11
-125.967875797853
 21
908.369547536209
 31
0.0
  0
LINE
  5
5D
100
AcDbEntity
  8
0
370
          15
  6
Continuous
 62
           7
100
AcDbLine
 10
-125.740960915193
 20
921.36954780443
 30
0.0
 11
256.805195729628
 21
921.36954780443
 31
0.0
  0
LINE
  5
5E
100
AcDbEntity
  8
0
370
          15
  6
Continuous
 62
           7
100
AcDbLine
 10
256.805195729628
 20
921.36954780443
 30
0.0
 11
257.032110612288
 21
908.369547536209
 31
0.0
  0
LINE
  5
5F
100
AcDbEntity
  8
0
370
          15
  6
Continuous
 62
           7
100
AcDbLine
 10
-174.108982761011
 20
927.369546925262
 30
0.0
 11
-168.610037047967
 21
927.369546925262
 31
0.0
  0
LINE
  5
60
100
AcDbEntity
  8
0
370
          15
  6
Continuous
 62
           7
100
AcDbLine
 10
-168.610037047967
 20
927.369546925262
 30
0.0
 11
299.674271862402
 21
927.369546925262
 31
0.0
  0
LINE
  5
61
100
AcDbEntity
  8
0
370
          15
  6
Continuous
 62
           7
100
AcDbLine
 10
299.674271862402
 20
927.369546925262
 30
0.0
 11
305.173217575446
 21
927.369546925262
 31
0.0
  0
LINE
  5
62
100
AcDbEntity
  8
0
370
          15
  6
Continuous
 62
           7
100
AcDbLine
 10
-177.302048285113
 20
927.369546925262
 30
0.0
 11
-177.467883308039
 21
908.369547536209
 31
0.0
  0
LINE
  5
63
100
AcDbEntity
  8
0
370
          15
  6
Continuous
 62
           7
100
AcDbLine
 10
-177.302048285113
 20
927.369546925262
 30
0.0
 11
-174.108982761011
 21
927.369546925262
 31
0.0
  0
LINE
  5
64
100
AcDbEntity
  8
0
370
          15
  6
Continuous
 62
           7
100
AcDbLine
 10
308.366283099546
 20
927.369546925262
 30
0.0
 11
308.532118122473
 21
908.369547536209
 31
0.0
  0
LINE
  5
65
100
AcDbEntity
  8
0
370
          15
  6
Continuous
 62
           7
100
AcDbLine
 10
305.173217575446
 20
927.369546925262
 30
0.0
 11
308.366283099546
 21
927.369546925262
 31
0.0
  0
LINE
  5
66
100
AcDbEntity
  8
0
370
          15
  6
Continuous
 62
           7
100
AcDbLine
 10
-176.96788974534
 20
711.369550635651
 30
0.0
 11
-176.96788974534
 21
713.369554688767
 31
0.0
  0
LINE
  5
67
100
AcDbEntity
  8
0
370
          15
  6
Continuous
 62
           7
100
AcDbLine
 10
-176.96788974534
 20
711.369550635651
 30
0.0
 11
-186.967880208597
 21
711.369550635651
 31
0.0
  0
LINE
  5
68
100
AcDbEntity
  8
0
370
          15
  6
Continuous
 62
           7
100
AcDbLine
 10
-186.967880208597
 20
711.369550635651
 30
0.0
 11
-186.967880208597
 21
713.369554688767
 31
0.0
  0
LINE
  5
69
100
AcDbEntity
  8
0
370
          15
  6
Continuous
 62
           7
100
AcDbLine
 10
-186.009139497385
 20
713.369554688767
 30
0.0
 11
-186.967880208597
 21
713.369554688767
 31
0.0
  0
LINE
  5
6A
100
AcDbEntity
  8
0
370
          15
  6
Continuous
 62
           7
100
AcDbLine
 10
318.032115023032
 20
711.369550635651
 30
0.0
 11
318.032115023032
 21
713.369554688767
 31
0.0
  0
LINE
  5
6B
100
AcDbEntity
  8
0
370
          15
  6
Continuous
 62
           7
100
AcDbLine
 10
308.032124559775
 20
711.369550635651
 30
0.0
 11
308.032124559775
 21
713.369554688767
 31
0.0
  0
LINE
  5
6C
100
AcDbEntity
  8
0
370
          15
  6
Continuous
 62
           7
100
AcDbLine
 10
318.032115023032
 20
713.369554688767
 30
0.0
 11
317.07337431182
 21
713.369554688767
 31
0.0
  0
LINE
  5
6D
100
AcDbEntity
  8
0
370
          15
  6
Continuous
 62
           7
100
AcDbLine
 10
318.032115023032
 20
711.369550635651
 30
0.0
 11
308.032124559775
 21
711.369550635651
 31
0.0
  0
ARC
  5
6E
100
AcDbEntity
  8
0
370
          15
  6
Continuous
 62
           7
100
AcDbCircle
 10
-186.005911484637
 20
715.785041603081
 30
0.0
 40
2.6
100
AcDbArc
 50
181.000000000539
 51
248.285068036273
  0
ARC
  5
6F
100
AcDbEntity
  8
0
370
          15
  6
Continuous
 62
           7
100
AcDbCircle
 10
317.070146299072
 20
715.785041603081
 30
0.0
 40
2.6
100
AcDbArc
 50
291.71493196373
 51
358.999999999574
  0
LINE
  5
70
100
AcDbEntity
  8
0
370
          15
  6
Continuous
 62
           7
100
AcDbLine
 10
-141.967878420458
 20
711.369550635651
 30
0.0
 11
-144.467876036272
 21
711.369550635651
 31
0.0
  0
LINE
  5
71
100
AcDbEntity
  8
0
370
          15
  6
Continuous
 62
           7
100
AcDbLine
 10
-154.46788140069
 20
711.369550635651
 30
0.0
 11
-156.967879016504
 21
711.369550635651
 31
0.0
  0
LINE
  5
72
100
AcDbEntity
  8
0
370
          15
  6
Continuous
 62
           7
100
AcDbLine
 10
288.032113830939
 20
711.369550635651
 30
0.0
 11
285.532116215124
 21
711.369550635651
 31
0.0
  0
LINE
  5
73
100
AcDbEntity
  8
0
370
          15
  6
Continuous
 62
           7
100
AcDbLine
 10
275.532110850706
 20
711.369550635651
 30
0.0
 11
273.032113234892
 21
711.369550635651
 31
0.0
  0
LINE
  5
74
100
AcDbEntity
  8
0
370
          15
  6
Continuous
 62
           7
100
AcDbLine
 10
203.032120387448
 20
927.370765095189
 30
0.0
 11
203.032120387448
 21
927.369546925262
 31
0.0
  0
LINE
  5
75
100
AcDbEntity
  8
0
370
          15
  6
Continuous
 62
           7
100
AcDbLine
 10
253.032117407216
 20
927.370765095189
 30
0.0
 11
203.032120387448
 21
927.370765095189
 31
0.0
  0
LINE
  5
76
100
AcDbEntity
  8
0
370
          15
  6
Continuous
 62
           7
100
AcDbLine
 10
253.032117407216
 20
927.370765095189
 30
0.0
 11
253.032117407216
 21
927.369546925262
 31
0.0
  0
LINE
  5
77
100
AcDbEntity
  8
0
370
          15
  6
Continuous
 62
           7
100
AcDbLine
 10
-121.967882592784
 20
929.369547253087
 30
0.0
 11
-71.967885573016
 21
929.369547253087
 31
0.0
  0
LINE
  5
78
100
AcDbEntity
  8
0
370
          15
  6
Continuous
 62
           7
100
AcDbLine
 10
-71.967885573016
 20
929.369547253087
 30
0.0
 11
-71.967885573016
 21
927.369546925262
 31
0.0
  0
LINE
  5
79
100
AcDbEntity
  8
0
370
          15
  6
Continuous
 62
           7
100
AcDbLine
 10
-121.967882592784
 20
927.369546925262
 30
0.0
 11
-121.967882592784
 21
929.369547253087
 31
0.0
  0
LINE
  5
7A
100
AcDbEntity
  8
0
370
          15
  6
Continuous
 62
           7
100
AcDbLine
 10
203.032120387448
 20
929.369547253087
 30
0.0
 11
253.032117407216
 21
929.369547253087
 31
0.0
  0
LINE
  5
7B
100
AcDbEntity
  8
0
370
          15
  6
Continuous
 62
           7
100
AcDbLine
 10
253.032117407216
 20
929.369547253087
 30
0.0
 11
253.032117407216
 21
927.370765095189
 31
0.0
  0
LINE
  5
7C
100
AcDbEntity
  8
0
370
          15
  6
Continuous
 62
           7
100
AcDbLine
 10
203.032120387448
 20
927.370765095189
 30
0.0
 11
203.032120387448
 21
929.369547253087
 31
0.0
  0
LINE
  5
7D
100
AcDbEntity
  8
0
370
          15
  6
Continuous
 62
           7
100
AcDbLine
 10
-168.610037047967
 20
927.369546925262
 30
0.0
 11
-168.772966344461
 21
908.369547536209
 31
0.0
  0
LINE
  5
7E
100
AcDbEntity
  8
0
370
          15
  6
Continuous
 62
           7
100
AcDbLine
 10
-174.271926958665
 20
908.369547536209
 30
0.0
 11
-174.108982761011
 21
927.369546925262
 31
0.0
  0
LINE
  5
7F
100
AcDbEntity
  8
0
370
          15
  6
Continuous
 62
           7
100
AcDbLine
 10
299.837201158896
 20
908.369547536209
 30
0.0
 11
299.674271862402
 21
927.369546925262
 31
0.0
  0
LINE
  5
80
100
AcDbEntity
  8
0
370
          15
  6
Continuous
 62
           7
100
AcDbLine
 10
305.173217575446
 20
927.369546925262
 30
0.0
 11
305.3361617731
 21
908.369547536209
 31
0.0
  0
LINE
  5
81
100
AcDbEntity
  8
0
370
          15
  6
Continuous
 62
           7
100
AcDbLine
 10
203.032120387448
 20
537.005827229576
 30
0.0
 11
253.032117407216
 21
537.005827229576
 31
0.0
  0
LINE
  5
82
100
AcDbEntity
  8
0
370
          15
  6
Continuous
 62
           7
100
AcDbLine
 10
253.032117407216
 20
533.507958453255
 30
0.0
 11
203.032120387448
 21
533.507958453255
 31
0.0
  0
LINE
  5
83
100
AcDbEntity
  8
0
370
          15
  6
Continuous
 62
           7
100
AcDbLine
 10
203.032120387448
 20
533.507958453255
 30
0.0
 11
203.032120387448
 21
537.005827229576
 31
0.0
  0
LINE
  5
84
100
AcDbEntity
  8
0
370
          15
  6
Continuous
 62
           7
100
AcDbLine
 10
253.032117407216
 20
537.005827229576
 30
0.0
 11
253.032117407216
 21
533.507958453255
 31
0.0
  0
LINE
  5
85
100
AcDbEntity
  8
0
370
          15
  6
Continuous
 62
           7
100
AcDbLine
 10
-71.967885573016
 20
533.507958453254
 30
0.0
 11
-121.967882592784
 21
533.507958453253
 31
0.0
  0
LINE
  5
86
100
AcDbEntity
  8
0
370
          15
  6
Continuous
 62
           7
100
AcDbLine
 10
-121.967882592784
 20
537.005827229575
 30
0.0
 11
-71.967885573016
 21
537.005827229575
 31
0.0
  0
LINE
  5
87
100
AcDbEntity
  8
0
370
          15
  6
Continuous
 62
           7
100
AcDbLine
 10
-71.967885573016
 20
537.005827229575
 30
0.0
 11
-71.967885573016
 21
533.507958453254
 31
0.0
  0
LINE
  5
88
100
AcDbEntity
  8
0
370
          15
  6
Continuous
 62
           7
100
AcDbLine
 10
-121.967882592784
 20
533.507958453253
 30
0.0
 11
-121.967882592784
 21
537.005827229575
 31
0.0
  0
LINE
  5
89
100
AcDbEntity
  8
0
370
          15
  6
Continuous
 62
           7
100
AcDbLine
 10
-121.967882592784
 20
526.383728187636
 30
0.0
 11
-71.967885573016
 21
526.383728187636
 31
0.0
  0
LINE
  5
8A
100
AcDbEntity
  8
0
370
          15
  6
Continuous
 62
           7
100
AcDbLine
 10
-71.967885573016
 20
533.507958453254
 30
0.0
 11
-71.967885573016
 21
526.383728187636
 31
0.0
  0
LINE
  5
8B
100
AcDbEntity
  8
0
370
          15
  6
Continuous
 62
           7
100
AcDbLine
 10
-121.967882592784
 20
533.507958453253
 30
0.0
 11
-121.967882592784
 21
526.383728187636
 31
0.0
  0
LINE
  5
8C
100
AcDbEntity
  8
0
370
          15
  6
Continuous
 62
           7
100
AcDbLine
 10
203.032120387448
 20
526.457354825096
 30
0.0
 11
253.032117407216
 21
526.457354825096
 31
0.0
  0
LINE
  5
8D
100
AcDbEntity
  8
0
370
          15
  6
Continuous
 62
           7
100
AcDbLine
 10
203.032120387448
 20
533.507958453255
 30
0.0
 11
203.032120387448
 21
526.457354825096
 31
0.0
  0
LINE
  5
8E
100
AcDbEntity
  8
0
370
          15
  6
Continuous
 62
           7
100
AcDbLine
 10
253.032117407216
 20
533.507958453255
 30
0.0
 11
253.032117407216
 21
526.457354825096
 31
0.0
  0
LINE
  5
8F
100
AcDbEntity
  8
0
370
          15
  6
Continuous
 62
           7
100
AcDbLine
 10
-71.967885573016
 20
524.311364095763
 30
0.0
 11
-121.967882592784
 21
524.311364095763
 31
0.0
  0
LINE
  5
90
100
AcDbEntity
  8
0
370
          15
  6
Continuous
 62
           7
100
AcDbLine
 10
-71.967885573016
 20
526.383728187636
 30
0.0
 11
-71.967885573016
 21
524.311364095763
 31
0.0
  0
LINE
  5
91
100
AcDbEntity
  8
0
370
          15
  6
Continuous
 62
           7
100
AcDbLine
 10
-121.967882592784
 20
524.311364095763
 30
0.0
 11
-121.967882592784
 21
526.383728187636
 31
0.0
  0
LINE
  5
92
100
AcDbEntity
  8
0
370
          15
  6
Continuous
 62
           7
100
AcDbLine
 10
253.032117407216
 20
524.31392709549
 30
0.0
 11
203.032120387448
 21
524.313927095489
 31
0.0
  0
LINE
  5
93
100
AcDbEntity
  8
0
370
          15
  6
Continuous
 62
           7
100
AcDbLine
 10
203.032120387448
 20
524.313927095489
 30
0.0
 11
203.032120387448
 21
526.457354825096
 31
0.0
  0
LINE
  5
94
100
AcDbEntity
  8
0
370
          15
  6
Continuous
 62
           7
100
AcDbLine
 10
253.032117407216
 20
526.457354825096
 30
0.0
 11
253.032117407216
 21
524.31392709549
 31
0.0
  0
LINE
  5
95
100
AcDbEntity
  8
0
370
          15
  6
Continuous
 62
           7
100
AcDbLine
 10
203.032120387448
 20
523.650393288689
 30
0.0
 11
253.032117407216
 21
523.650393288689
 31
0.0
  0
LINE
  5
96
100
AcDbEntity
  8
0
370
          15
  6
Continuous
 62
           7
100
AcDbLine
 10
203.032120387448
 20
524.313927095489
 30
0.0
 11
203.032120387448
 21
523.650393288689
 31
0.0
  0
LINE
  5
97
100
AcDbEntity
  8
0
370
          15
  6
Continuous
 62
           7
100
AcDbLine
 10
253.032117407216
 20
524.31392709549
 30
0.0
 11
253.032117407216
 21
523.650393288689
 31
0.0
  0
LINE
  5
98
100
AcDbEntity
  8
0
370
          15
  6
Continuous
 62
           7
100
AcDbLine
 10
-174.108982761012
 20
511.280775468901
 30
0.0
 11
-175.876469094859
 21
513.079390328483
 31
0.0
  0
ELLIPSE
  5
99
100
AcDbEntity
  8
0
370
          15
  6
Continuous
 62
           7
100
AcDbEllipse
 10
-170.377107206692
 20
512.982980511273
 30
0.0
 11
-3.8552894969070906
 21
3.9231710940947551
 31
0.0
210
0.0
220
0.0
230
1.0
 40
0.999925156527
 41
0.4748111622895873
 42
0.776634099724098
  0
ELLIPSE
  5
9A
100
AcDbEntity
  8
0
370
          15
  6
Continuous
 62
           7
100
AcDbEllipse
 10
-170.423416899797
 20
513.030105597343
 30
0.0
 11
-3.8552894969070906
 21
3.9231710940947551
 31
0.0
210
0.0
220
0.0
230
1.0
 40
0.999925156527
 41
5.5065512074541259
 42
6.7581529860079455
  0
LINE
  5
9B
100
AcDbEntity
  8
0
370
          15
  6
Continuous
 62
           7
100
AcDbLine
 10
-170.423821289645
 20
518.530309598998
 30
0.0
 11
-168.610037047969
 21
516.684577267722
 31
0.0
  0
ELLIPSE
  5
9C
100
AcDbEntity
  8
0
370
          15
  6
Continuous
 62
           7
100
AcDbEllipse
 10
-168.609620586511
 20
511.184373059597
 30
0.0
 11
-3.8552894969070906
 21
3.9231710940947551
 31
0.0
210
0.0
220
0.0
230
1.0
 40
0.999925156527
 41
5.5065512074541445
 42
7.0598194069035767
  0
LINE
  5
9D
100
AcDbEntity
  8
0
370
          15
  6
Continuous
 62
           7
100
AcDbLine
 10
-127.647802908526
 20
518.530309598999
 30
0.0
 11
-125.967875797854
 21
516.850397389487
 31
0.0
  0
LINE
  5
9E
100
AcDbEntity
  8
0
370
          15
  6
Continuous
 62
           7
100
AcDbLine
 10
257.032110612287
 20
516.850397389488
 30
0.0
 11
-125.967875797854
 21
516.850397389487
 31
0.0
  0
LINE
  5
9F
100
AcDbEntity
  8
0
370
          15
  6
Continuous
 62
           7
100
AcDbLine
 10
258.712037722959
 20
518.530309599
 30
0.0
 11
257.032110612287
 21
516.850397389488
 31
0.0
  0
LINE
  5
A0
100
AcDbEntity
  8
0
370
          15
  6
Continuous
 62
           7
100
AcDbLine
 10
301.488056104078
 20
518.530309599
 30
0.0
 11
258.712037722959
 21
518.530309599
 31
0.0
  0
LINE
  5
A1
100
AcDbEntity
  8
0
370
          15
  6
Continuous
 62
           7
100
AcDbLine
 10
299.674271862401
 20
516.684577267723
 30
0.0
 11
301.488056104078
 21
518.530309599
 31
0.0
  0
LINE
  5
A2
100
AcDbEntity
  8
0
370
          15
  6
Continuous
 62
           7
100
AcDbLine
 10
299.674271862401
 20
516.684577267723
 30
0.0
 11
-168.610037047969
 21
516.684577267722
 31
0.0
  0
LINE
  5
A3
100
AcDbEntity
  8
0
370
          15
  6
Continuous
 62
           7
100
AcDbLine
 10
-127.647802908526
 20
518.530309598999
 30
0.0
 11
-170.423821289645
 21
518.530309598998
 31
0.0
  0
ELLIPSE
  5
A4
100
AcDbEntity
  8
0
370
          15
  6
Continuous
 62
           7
100
AcDbEllipse
 10
301.487651714229
 20
513.030105597345
 30
0.0
 11
3.8552894969126328
 21
3.9231710940890707
 31
0.0
210
0.0
220
0.0
230
1.0
 40
0.999925156527
 41
5.808217628352681
 42
7.0598194069065947
  0
ELLIPSE
  5
A5
100
AcDbEntity
  8
0
370
          15
  6
Continuous
 62
           7
100
AcDbEllipse
 10
301.441342021124
 20
512.982980511275
 30
0.0
 11
3.8552894969126328
 21
3.9231710940892981
 31
0.0
210
0.0
220
0.0
230
1.0
 40
0.999925156527
 41
5.5065512074570302
 42
5.8083741448913475
  0
LINE
  5
A6
100
AcDbEntity
  8
0
370
          15
  6
Continuous
 62
           7
100
AcDbLine
 10
306.940703909292
 20
513.079390328485
 30
0.0
 11
305.173217575444
 21
511.280775468903
 31
0.0
  0
ELLIPSE
  5
A7
100
AcDbEntity
  8
0
370
          15
  6
Continuous
 62
           7
100
AcDbEllipse
 10
299.673855400943
 20
511.184373059599
 30
0.0
 11
3.8552894969126328
 21
3.9231710940891276
 31
0.0
210
0.0
220
0.0
230
1.0
 40
0.999925156527
 41
5.506551207457056
 42
7.0598194069065334
  0
ELLIPSE
  5
A8
100
AcDbEntity
  8
0
370
          15
  6
Continuous
 62
           7
100
AcDbEllipse
 10
300.656365537933
 20
144.516603318821
 30
0.0
 11
-1.4022382446901815
 21
1.4269280045053847
 31
0.0
210
0.0
220
0.0
230
1.0
 40
0.999700681327
 41
2.365070795000968
 42
3.918114512179022
  0
LINE
  5
A9
100
AcDbEntity
  8
0
370
          15
  6
Continuous
 62
           7
100
AcDbLine
 10
302.65635184516
 20
144.481093090134
 30
0.0
 11
305.865808646574
 21
328.350393034624
 31
0.0
  0
LINE
  5
AA
100
AcDbEntity
  8
0
370
          15
  6
Continuous
 62
           7
100
AcDbLine
 10
305.865808646574
 20
328.350393034624
 30
0.0
 11
302.656351845159
 21
512.219697635727
 31
0.0
  0
ELLIPSE
  5
AB
100
AcDbEntity
  8
0
370
          15
  6
Continuous
 62
           7
100
AcDbEllipse
 10
300.656365537932
 20
512.184182638668
 30
0.0
 11
1.4022382446901815
 21
1.426928004505271
 31
0.0
210
0.0
220
0.0
230
1.0
 40
0.999700681327
 41
5.506663448590551
 42
7.0597071657686303
  0
LINE
  5
AC
100
AcDbEntity
  8
0
370
          15
  6
Continuous
 62
           7
100
AcDbLine
 10
300.656958739652
 20
514.184490244942
 30
0.0
 11
-169.592723925219
 21
514.18449024494
 31
0.0
  0
ELLIPSE
  5
AD
100
AcDbEntity
  8
0
370
          15
  6
Continuous
 62
           7
100
AcDbEllipse
 10
-169.5921307235
 20
512.184182638667
 30
0.0
 11
-1.4022382446901815
 21
1.4269280045051573
 31
0.0
210
0.0
220
0.0
230
1.0
 40
0.999700681327
 41
5.5066634485905963
 42
7.0597071657686987
  0
LINE
  5
AE
100
AcDbEntity
  8
0
370
          15
  6
Continuous
 62
           7
100
AcDbLine
 10
-171.592117030726
 20
512.219697635726
 30
0.0
 11
-174.80157383214
 21
328.350393034622
 31
0.0
  0
LINE
  5
AF
100
AcDbEntity
  8
0
370
          15
  6
Continuous
 62
           7
100
AcDbLine
 10
-174.80157383214
 20
328.350393034622
 30
0.0
 11
-171.592117030725
 21
144.481093090132
 31
0.0
  0
ELLIPSE
  5
B0
100
AcDbEntity
  8
0
370
          15
  6
Continuous
 62
           7
100
AcDbEllipse
 10
-169.592130723498
 20
144.51660331882
 30
0.0
 11
1.4022382446903237
 21
1.426928004505271
 31
0.0
210
0.0
220
0.0
230
1.0
 40
0.999700681327
 41
2.3650707950007042
 42
3.9181145121786365
  0
LINE
  5
B1
100
AcDbEntity
  8
0
370
          15
  6
Continuous
 62
           7
100
AcDbLine
 10
-169.592723925218
 20
142.516300480918
 30
0.0
 11
300.656958739653
 21
142.516300480919
 31
0.0
  0
ELLIPSE
  5
B2
100
AcDbEntity
  8
0
370
          15
  6
Continuous
 62
           7
100
AcDbEllipse
 10
-168.60962058651
 20
145.516412897889
 30
0.0
 11
3.855289496912917
 21
3.923171094089156
 31
0.0
210
0.0
220
0.0
230
1.0
 40
0.999925156527
 41
2.3649585538672562
 42
3.9182267533168682
  0
LINE
  5
B3
100
AcDbEntity
  8
0
370
          15
  6
Continuous
 62
           7
100
AcDbLine
 10
-177.302048285113
 20
328.350393034622
 30
0.0
 11
-174.108982761011
 21
145.420015256957
 31
0.0
  0
LINE
  5
B4
100
AcDbEntity
  8
0
370
          15
  6
Continuous
 62
           7
100
AcDbLine
 10
-174.108982761012
 20
511.280775468901
 30
0.0
 11
-177.302048285113
 21
328.350393034622
 31
0.0
  0
LINE
  5
B5
100
AcDbEntity
  8
0
370
          15
  6
Continuous
 62
           7
100
AcDbLine
 10
308.366283099546
 20
328.350393034624
 30
0.0
 11
305.173217575444
 21
511.280775468903
 31
0.0
  0
LINE
  5
B6
100
AcDbEntity
  8
0
370
          15
  6
Continuous
 62
           7
100
AcDbLine
 10
305.173217575446
 20
145.420015256958
 30
0.0
 11
308.366283099546
 21
328.350393034624
 31
0.0
  0
ELLIPSE
  5
B7
100
AcDbEntity
  8
0
370
          15
  6
Continuous
 62
           7
100
AcDbEllipse
 10
299.673855400945
 20
145.516412897891
 30
0.0
 11
-3.8552894969069484
 21
3.9231710940946698
 31
0.0
210
0.0
220
0.0
230
1.0
 40
0.999925156527
 41
2.3649585538643212
 42
3.9182267533138191
  0
LINE
  5
B8
100
AcDbEntity
  8
0
370
          15
  6
Continuous
 62
           7
100
AcDbLine
 10
-168.610037047967
 20
140.016198556975
 30
0.0
 11
299.674271862402
 21
140.016198556977
 31
0.0
  0
LINE
  5
B9
100
AcDbEntity
  8
0
370
          15
  6
Continuous
 62
           7
100
AcDbLine
 10
-169.592723925219
 20
514.18449024494
 30
0.0
 11
-166.208431799518
 21
510.740608375625
 31
0.0
  0
ELLIPSE
  5
BA
100
AcDbEntity
  8
0
370
          15
  6
Continuous
 62
           7
100
AcDbEllipse
 10
-166.207835037244
 20
508.74029832833
 30
0.0
 11
-1.4022382446901815
 21
1.4269280045053279
 31
0.0
210
0.0
220
0.0
230
1.0
 40
0.999700681327
 41
5.5066634485908796
 42
7.0597071657687316
  0
LINE
  5
BB
100
AcDbEntity
  8
0
370
          15
  6
Continuous
 62
           7
100
AcDbLine
 10
-168.207824905024
 20
508.775800865249
 30
0.0
 11
-171.592117030726
 21
512.219697635726
 31
0.0
  0
LINE
  5
BC
100
AcDbEntity
  8
0
370
          15
  6
Continuous
 62
           7
100
AcDbLine
 10
297.27266661395
 20
510.740608375626
 30
0.0
 11
300.656958739652
 21
514.184490244942
 31
0.0
  0
LINE
  5
BD
100
AcDbEntity
  8
0
370
          15
  6
Continuous
 62
           7
100
AcDbLine
 10
297.27266661395
 20
510.740608375626
 30
0.0
 11
267.832114617719
 21
510.740608375626
 31
0.0
  0
LINE
  5
BE
100
AcDbEntity
  8
0
370
          15
  6
Continuous
 62
           7
100
AcDbLine
 10
256.211950700177
 20
510.492742460328
 30
0.0
 11
267.832114617719
 21
510.492742460328
 31
0.0
  0
LINE
  5
BF
100
AcDbEntity
  8
0
370
          15
  6
Continuous
 62
           7
100
AcDbLine
 10
256.211950700177
 20
510.492742460328
 30
0.0
 11
254.553838889493
 21
513.809204500275
 31
0.0
  0
LINE
  5
C0
100
AcDbEntity
  8
0
370
          15
  6
Continuous
 62
           7
100
AcDbLine
 10
254.553838889493
 20
513.809204500275
 30
0.0
 11
-123.489604075061
 21
513.809204500274
 31
0.0
  0
LINE
  5
C1
100
AcDbEntity
  8
0
370
          15
  6
Continuous
 62
           7
100
AcDbLine
 10
-125.147715885745
 20
510.492742460327
 30
0.0
 11
-123.489604075061
 21
513.809204500274
 31
0.0
  0
LINE
  5
C2
100
AcDbEntity
  8
0
370
          15
  6
Continuous
 62
           7
100
AcDbLine
 10
-136.767879803286
 20
510.492742460327
 30
0.0
 11
-125.147715885745
 21
510.492742460327
 31
0.0
  0
LINE
  5
C3
100
AcDbEntity
  8
0
370
          15
  6
Continuous
 62
           7
100
AcDbLine
 10
-136.767879803286
 20
510.740608375625
 30
0.0
 11
-166.208431799518
 21
510.740608375625
 31
0.0
  0
LINE
  5
C4
100
AcDbEntity
  8
0
370
          15
  6
Continuous
 62
           7
100
AcDbLine
 10
302.656351845159
 20
512.219697635727
 30
0.0
 11
299.272059719457
 21
508.775800865251
 31
0.0
  0
ELLIPSE
  5
C5
100
AcDbEntity
  8
0
370
          15
  6
Continuous
 62
           7
100
AcDbEllipse
 10
297.272069851676
 20
508.740298328331
 30
0.0
 11
1.4022382446904658
 21
1.4269280045053847
 31
0.0
210
0.0
220
0.0
230
1.0
 40
0.999700681327
 41
5.5066634485907597
 42
7.0597071657687316
  0
LINE
  5
C6
100
AcDbEntity
  8
0
370
          15
  6
Continuous
 62
           7
100
AcDbLine
 10
305.865808646574
 20
328.350393034624
 30
0.0
 11
305.490463297262
 21
328.350393034624
 31
0.0
  0
LINE
  5
C7
100
AcDbEntity
  8
0
370
          15
  6
Continuous
 62
           7
100
AcDbLine
 10
305.490463297262
 20
328.350393034624
 30
0.0
 11
302.981793205633
 21
472.072109978752
 31
0.0
  0
LINE
  5
C8
100
AcDbEntity
  8
0
370
          15
  6
Continuous
 62
           7
100
AcDbLine
 10
299.635886471166
 20
473.730221789437
 30
0.0
 11
302.981793205633
 21
472.072109978752
 31
0.0
  0
LINE
  5
C9
100
AcDbEntity
  8
0
370
          15
  6
Continuous
 62
           7
100
AcDbLine
 10
299.515097658529
 20
480.650395553666
 30
0.0
 11
299.635886471166
 21
473.730221789437
 31
0.0
  0
LINE
  5
CA
100
AcDbEntity
  8
0
370
          15
  6
Continuous
 62
           7
100
AcDbLine
 10
299.76299337615
 20
480.650395553666
 30
0.0
 11
299.272059719457
 21
508.775800865251
 31
0.0
  0
LINE
  5
CB
100
AcDbEntity
  8
0
370
          15
  6
Continuous
 62
           7
100
AcDbLine
 10
-177.302048285113
 20
328.350393034622
 30
0.0
 11
-177.467883308039
 21
328.350393034623
 31
0.0
  0
LINE
  5
CC
100
AcDbEntity
  8
0
370
          15
  6
Continuous
 62
           7
100
AcDbLine
 10
-174.915955145465
 20
474.550396602706
 30
0.0
 11
-177.467883308039
 21
328.350393034623
 31
0.0
  0
LINE
  5
CD
100
AcDbEntity
  8
0
370
          15
  6
Continuous
 62
           7
100
AcDbLine
 10
-176.566810090647
 20
476.230308812217
 30
0.0
 11
-174.915955145465
 21
474.550396602706
 31
0.0
  0
LINE
  5
CE
100
AcDbEntity
  8
0
370
          15
  6
Continuous
 62
           7
100
AcDbLine
 10
-176.125646312342
 20
501.504347127037
 30
0.0
 11
-176.566810090647
 21
476.230308812217
 31
0.0
  0
LINE
  5
CF
100
AcDbEntity
  8
0
370
          15
  6
Continuous
 62
           7
100
AcDbLine
 10
-176.077798683749
 20
501.545474331932
 30
0.0
 11
-175.876469094859
 21
513.079390328483
 31
0.0
  0
LINE
  5
D0
100
AcDbEntity
  8
0
370
          15
  6
Continuous
 62
           7
100
AcDbLine
 10
307.63104490508
 20
476.230308812219
 30
0.0
 11
307.189881126775
 21
501.504347127038
 31
0.0
  0
LINE
  5
D1
100
AcDbEntity
  8
0
370
          15
  6
Continuous
 62
           7
100
AcDbLine
 10
307.63104490508
 20
476.230308812219
 30
0.0
 11
305.980189959897
 21
474.550396602707
 31
0.0
  0
LINE
  5
D2
100
AcDbEntity
  8
0
370
          15
  6
Continuous
 62
           7
100
AcDbLine
 10
308.532118122473
 20
328.350393034624
 30
0.0
 11
305.980189959897
 21
474.550396602707
 31
0.0
  0
LINE
  5
D3
100
AcDbEntity
  8
0
370
          15
  6
Continuous
 62
           7
100
AcDbLine
 10
308.366283099546
 20
328.350393034624
 30
0.0
 11
308.532118122473
 21
328.350393034624
 31
0.0
  0
LINE
  5
D4
100
AcDbEntity
  8
0
370
          15
  6
Continuous
 62
           7
100
AcDbLine
 10
307.142033498181
 20
501.545474331933
 30
0.0
 11
306.940703909292
 21
513.079390328485
 31
0.0
  0
LINE
  5
D5
100
AcDbEntity
  8
0
370
          15
  6
Continuous
 62
           7
100
AcDbLine
 10
-168.571651656733
 20
473.730221789436
 30
0.0
 11
-168.450862844096
 21
480.650395553665
 31
0.0
  0
LINE
  5
D6
100
AcDbEntity
  8
0
370
          15
  6
Continuous
 62
           7
100
AcDbLine
 10
-168.571651656733
 20
473.730221789436
 30
0.0
 11
-171.9175583912
 21
472.072109978751
 31
0.0
  0
LINE
  5
D7
100
AcDbEntity
  8
0
370
          15
  6
Continuous
 62
           7
100
AcDbLine
 10
-171.9175583912
 20
472.072109978751
 30
0.0
 11
-174.426228482828
 21
328.350393034623
 31
0.0
  0
LINE
  5
D8
100
AcDbEntity
  8
0
370
          15
  6
Continuous
 62
           7
100
AcDbLine
 10
-174.80157383214
 20
328.350393034622
 30
0.0
 11
-174.426228482828
 21
328.350393034623
 31
0.0
  0
LINE
  5
D9
100
AcDbEntity
  8
0
370
          15
  6
Continuous
 62
           7
100
AcDbLine
 10
-168.207824905024
 20
508.775800865249
 30
0.0
 11
-168.698758561717
 21
480.650395553665
 31
0.0
  0
LINE
  5
DA
100
AcDbEntity
  8
0
370
          15
  6
Continuous
 62
           7
100
AcDbLine
 10
306.146010081664
 20
191.650391023713
 30
0.0
 11
308.532118122473
 21
328.350393034624
 31
0.0
  0
LINE
  5
DB
100
AcDbEntity
  8
0
370
          15
  6
Continuous
 62
           7
100
AcDbLine
 10
307.796865026846
 20
189.970463913041
 30
0.0
 11
306.146010081664
 21
191.650391023713
 31
0.0
  0
LINE
  5
DC
100
AcDbEntity
  8
0
370
          15
  6
Continuous
 62
           7
100
AcDbLine
 10
307.278453628912
 20
160.271048944551
 30
0.0
 11
307.796865026846
 21
189.970463913041
 31
0.0
  0
LINE
  5
DD
100
AcDbEntity
  8
0
370
          15
  6
Continuous
 62
           7
100
AcDbLine
 10
307.23062090148
 20
160.230994623262
 30
0.0
 11
306.994035165206
 21
146.676451366502
 31
0.0
  0
LINE
  5
DE
100
AcDbEntity
  8
0
370
          15
  6
Continuous
 62
           7
100
AcDbLine
 10
306.987016718283
 20
143.574282925683
 30
0.0
 11
307.040437381163
 21
146.634757917482
 31
0.0
  0
LINE
  5
DF
100
AcDbEntity
  8
0
370
          15
  6
Continuous
 62
           7
100
AcDbLine
 10
305.173217575446
 20
145.420015256958
 30
0.0
 11
306.987016718283
 21
143.574282925683
 31
0.0
  0
LINE
  5
E0
100
AcDbEntity
  8
0
370
          15
  6
Continuous
 62
           7
100
AcDbLine
 10
299.801706592932
 20
192.470565836984
 30
0.0
 11
299.51509765853
 21
176.050395172196
 31
0.0
  0
LINE
  5
E1
100
AcDbEntity
  8
0
370
          15
  6
Continuous
 62
           7
100
AcDbLine
 10
299.801706592932
 20
192.470565836984
 30
0.0
 11
303.147613327399
 21
194.128677647667
 31
0.0
  0
LINE
  5
E2
100
AcDbEntity
  8
0
370
          15
  6
Continuous
 62
           7
100
AcDbLine
 10
303.147613327399
 20
194.128677647667
 30
0.0
 11
305.490463297262
 21
328.350393034624
 31
0.0
  0
LINE
  5
E3
100
AcDbEntity
  8
0
370
          15
  6
Continuous
 62
           7
100
AcDbLine
 10
299.272059719458
 20
147.924974959451
 30
0.0
 11
302.65635184516
 21
144.481093090134
 31
0.0
  0
LINE
  5
E4
100
AcDbEntity
  8
0
370
          15
  6
Continuous
 62
           7
100
AcDbLine
 10
299.272059719458
 20
147.924974959451
 30
0.0
 11
299.76299337615
 21
176.050395172196
 31
0.0
  0
LINE
  5
E5
100
AcDbEntity
  8
0
370
          15
  6
Continuous
 62
           7
100
AcDbLine
 10
-176.166386087045
 20
160.23099462326
 30
0.0
 11
-175.929800350771
 21
146.6764513665
 31
0.0
  0
LINE
  5
E6
100
AcDbEntity
  8
0
370
          15
  6
Continuous
 62
           7
100
AcDbLine
 10
-176.732630212412
 20
189.97046391304
 30
0.0
 11
-176.214218814478
 21
160.271048944549
 31
0.0
  0
LINE
  5
E7
100
AcDbEntity
  8
0
370
          15
  6
Continuous
 62
           7
100
AcDbLine
 10
-176.732630212412
 20
189.97046391304
 30
0.0
 11
-175.081775267229
 21
191.650391023711
 31
0.0
  0
LINE
  5
E8
100
AcDbEntity
  8
0
370
          15
  6
Continuous
 62
           7
100
AcDbLine
 10
-177.467883308039
 20
328.350393034623
 30
0.0
 11
-175.081775267229
 21
191.650391023711
 31
0.0
  0
LINE
  5
E9
100
AcDbEntity
  8
0
370
          15
  6
Continuous
 62
           7
100
AcDbLine
 10
-175.922781903848
 20
143.574282925681
 30
0.0
 11
-174.108982761011
 21
145.420015256957
 31
0.0
  0
LINE
  5
EA
100
AcDbEntity
  8
0
370
          15
  6
Continuous
 62
           7
100
AcDbLine
 10
-175.976202566728
 20
146.63475791748
 30
0.0
 11
-175.922781903848
 21
143.574282925681
 31
0.0
  0
LINE
  5
EB
100
AcDbEntity
  8
0
370
          15
  6
Continuous
 62
           7
100
AcDbLine
 10
-174.426228482828
 20
328.350393034623
 30
0.0
 11
-172.083378512964
 21
194.128677647666
 31
0.0
  0
LINE
  5
EC
100
AcDbEntity
  8
0
370
          15
  6
Continuous
 62
           7
100
AcDbLine
 10
-168.737471778497
 20
192.470565836982
 30
0.0
 11
-172.083378512964
 21
194.128677647666
 31
0.0
  0
LINE
  5
ED
100
AcDbEntity
  8
0
370
          15
  6
Continuous
 62
           7
100
AcDbLine
 10
-168.450862844095
 20
176.050395172195
 30
0.0
 11
-168.737471778497
 21
192.470565836982
 31
0.0
  0
LINE
  5
EE
100
AcDbEntity
  8
0
370
          15
  6
Continuous
 62
           7
100
AcDbLine
 10
-168.698758561716
 20
176.050395172195
 30
0.0
 11
-168.207824905023
 21
147.924974959449
 31
0.0
  0
LINE
  5
EF
100
AcDbEntity
  8
0
370
          15
  6
Continuous
 62
           7
100
AcDbLine
 10
-171.592117030725
 20
144.481093090132
 30
0.0
 11
-168.207824905023
 21
147.924974959449
 31
0.0
  0
LINE
  5
F0
100
AcDbEntity
  8
0
370
          15
  6
Continuous
 62
           7
100
AcDbLine
 10
300.656958739653
 20
142.516300480919
 30
0.0
 11
297.272666613951
 21
145.960182350236
 31
0.0
  0
ELLIPSE
  5
F1
100
AcDbEntity
  8
0
370
          15
  6
Continuous
 62
           7
100
AcDbEllipse
 10
297.272069851677
 20
147.96048762916
 30
0.0
 11
-1.4022382446901815
 21
1.4269280045052426
 31
0.0
210
0.0
220
0.0
230
1.0
 40
0.999700681327
 41
2.3650707950009435
 42
3.9181145121789114
  0
ELLIPSE
  5
F2
100
AcDbEntity
  8
0
370
          15
  6
Continuous
 62
           7
100
AcDbEllipse
 10
-166.207835037243
 20
147.960487629158
 30
0.0
 11
1.4022382446904658
 21
1.426928004505271
 31
0.0
210
0.0
220
0.0
230
1.0
 40
0.999700681327
 41
2.3650707950007046
 42
3.9181145121789509
  0
LINE
  5
F3
100
AcDbEntity
  8
0
370
          15
  6
Continuous
 62
           7
100
AcDbLine
 10
-166.208431799516
 20
145.960182350234
 30
0.0
 11
-169.592723925218
 21
142.516300480918
 31
0.0
  0
LINE
  5
F4
100
AcDbEntity
  8
0
370
          15
  6
Continuous
 62
           7
100
AcDbLine
 10
-125.147715885744
 20
146.208048265533
 30
0.0
 11
-136.767879803285
 21
146.208048265533
 31
0.0
  0
LINE
  5
F5
100
AcDbEntity
  8
0
370
          15
  6
Continuous
 62
           7
100
AcDbLine
 10
-125.147715885744
 20
146.208048265533
 30
0.0
 11
-123.468071897134
 21
142.848521869735
 31
0.0
  0
LINE
  5
F6
100
AcDbEntity
  8
0
370
          15
  6
Continuous
 62
           7
100
AcDbLine
 10
-123.284221370325
 20
142.664671342925
 30
0.0
 11
-123.468071897134
 21
142.848521869735
 31
0.0
  0
LINE
  5
F7
100
AcDbEntity
  8
0
370
          15
  6
Continuous
 62
           7
100
AcDbLine
 10
-123.284221370325
 20
142.664671342925
 30
0.0
 11
254.34845618476
 21
142.664671342926
 31
0.0
  0
LINE
  5
F8
100
AcDbEntity
  8
0
370
          15
  6
Continuous
 62
           7
100
AcDbLine
 10
254.532306711569
 20
142.848521869736
 30
0.0
 11
254.34845618476
 21
142.664671342926
 31
0.0
  0
LINE
  5
F9
100
AcDbEntity
  8
0
370
          15
  6
Continuous
 62
           7
100
AcDbLine
 10
256.211950700179
 20
146.208048265534
 30
0.0
 11
254.532306711569
 21
142.848521869736
 31
0.0
  0
LINE
  5
FA
100
AcDbEntity
  8
0
370
          15
  6
Continuous
 62
           7
100
AcDbLine
 10
267.83211461772
 20
146.208048265534
 30
0.0
 11
256.211950700179
 21
146.208048265534
 31
0.0
  0
LINE
  5
FB
100
AcDbEntity
  8
0
370
          15
  6
Continuous
 62
           7
100
AcDbLine
 10
267.83211461772
 20
145.960182350236
 30
0.0
 11
297.272666613951
 21
145.960182350236
 31
0.0
  0
LINE
  5
FC
100
AcDbEntity
  8
0
370
          15
  6
Continuous
 62
           7
100
AcDbLine
 10
-166.208431799516
 20
145.960182350234
 30
0.0
 11
-136.767879803285
 21
145.960182350234
 31
0.0
  0
LINE
  5
FD
100
AcDbEntity
  8
0
370
          15
  6
Continuous
 62
           7
100
AcDbLine
 10
-168.610037047967
 20
140.016198556975
 30
0.0
 11
-170.423821289644
 21
138.1704662257
 31
0.0
  0
ELLIPSE
  5
FE
100
AcDbEntity
  8
0
370
          15
  6
Continuous
 62
           7
100
AcDbEllipse
 10
-170.423416899796
 20
143.670680360144
 30
0.0
 11
3.855289496912917
 21
3.923171094089156
 31
0.0
210
0.0
220
0.0
230
1.0
 40
0.999925156527
 41
2.3649585538672659
 42
3.9182267533167425
  0
ELLIPSE
  5
FF
100
AcDbEntity
  8
0
370
          15
  6
Continuous
 62
           7
100
AcDbEllipse
 10
301.487651714231
 20
143.670680360146
 30
0.0
 11
-3.8552894969072327
 21
3.9231710940947551
 31
0.0
210
0.0
220
0.0
230
1.0
 40
0.999925156527
 41
2.3649585538642754
 42
3.9182267533138084
  0
LINE
  5
100
100
AcDbEntity
  8
0
370
          15
  6
Continuous
 62
           7
100
AcDbLine
 10
301.488056104079
 20
138.170466225701
 30
0.0
 11
299.674271862402
 21
140.016198556977
 31
0.0
  0
LINE
  5
101
100
AcDbEntity
  8
0
370
          15
  6
Continuous
 62
           7
100
AcDbLine
 10
296.702890913382
 20
138.170466225701
 30
0.0
 11
299.361347477332
 21
138.170466225701
 31
0.0
  0
LINE
  5
102
100
AcDbEntity
  8
0
370
          15
  6
Continuous
 62
           7
100
AcDbLine
 10
283.181055705443
 20
138.170466225701
 30
0.0
 11
296.702890913382
 21
138.170466225701
 31
0.0
  0
LINE
  5
103
100
AcDbEntity
  8
0
370
          15
  6
Continuous
 62
           7
100
AcDbLine
 10
282.526879827872
 20
138.475910227853
 30
0.0
 11
278.537362139121
 21
138.475910227853
 31
0.0
  0
LINE
  5
104
100
AcDbEntity
  8
0
370
          15
  6
Continuous
 62
           7
100
AcDbLine
 10
258.71203772296
 20
138.170466225701
 30
0.0
 11
277.88318626155
 21
138.170466225701
 31
0.0
  0
LINE
  5
105
100
AcDbEntity
  8
0
370
          15
  6
Continuous
 62
           7
100
AcDbLine
 10
258.71203772296
 20
138.170466225701
 30
0.0
 11
257.032110612288
 21
139.850393336373
 31
0.0
  0
LINE
  5
106
100
AcDbEntity
  8
0
370
          15
  6
Continuous
 62
           7
100
AcDbLine
 10
257.032110612288
 20
139.850393336373
 30
0.0
 11
256.805195729628
 21
139.963835876541
 31
0.0
  0
LINE
  5
107
100
AcDbEntity
  8
0
370
          15
  6
Continuous
 62
           7
100
AcDbLine
 10
-125.740960915193
 20
139.96383587654
 30
0.0
 11
256.805195729628
 21
139.963835876541
 31
0.0
  0
LINE
  5
108
100
AcDbEntity
  8
0
370
          15
  6
Continuous
 62
           7
100
AcDbLine
 10
-125.740960915193
 20
139.96383587654
 30
0.0
 11
-125.967875797853
 21
139.850393336371
 31
0.0
  0
LINE
  5
109
100
AcDbEntity
  8
0
370
          15
  6
Continuous
 62
           7
100
AcDbLine
 10
-127.647802908525
 20
138.1704662257
 30
0.0
 11
-125.967875797853
 21
139.850393336371
 31
0.0
  0
LINE
  5
10A
100
AcDbEntity
  8
0
370
          15
  6
Continuous
 62
           7
100
AcDbLine
 10
-146.818951447114
 20
138.1704662257
 30
0.0
 11
-127.647802908525
 21
138.1704662257
 31
0.0
  0
LINE
  5
10B
100
AcDbEntity
  8
0
370
          15
  6
Continuous
 62
           7
100
AcDbLine
 10
-151.462645013437
 20
138.475910227851
 30
0.0
 11
-147.473127324686
 21
138.475910227851
 31
0.0
  0
LINE
  5
10C
100
AcDbEntity
  8
0
370
          15
  6
Continuous
 62
           7
100
AcDbLine
 10
-165.638656098947
 20
138.1704662257
 30
0.0
 11
-152.116820891008
 21
138.1704662257
 31
0.0
  0
LINE
  5
10D
100
AcDbEntity
  8
0
370
          15
  6
Continuous
 62
           7
100
AcDbLine
 10
-168.297112662897
 20
138.1704662257
 30
0.0
 11
-165.638656098947
 21
138.1704662257
 31
0.0
  0
LINE
  5
10E
100
AcDbEntity
  8
0
370
          15
  6
Continuous
 62
           7
100
AcDbLine
 10
-170.423821289644
 20
138.1704662257
 30
0.0
 11
-168.297112662897
 21
138.1704662257
 31
0.0
  0
LINE
  5
10F
100
AcDbEntity
  8
0
370
          15
  6
Continuous
 62
           7
100
AcDbLine
 10
299.361347477332
 20
138.170466225701
 30
0.0
 11
301.488056104079
 21
138.170466225701
 31
0.0
  0
LINE
  5
110
100
AcDbEntity
  8
0
370
          15
  6
Continuous
 62
           7
100
AcDbLine
 10
-71.967885573016
 20
523.650393288688
 30
0.0
 11
-121.967882592784
 21
523.650393288688
 31
0.0
  0
LINE
  5
111
100
AcDbEntity
  8
0
370
          15
  6
Continuous
 62
           7
100
AcDbLine
 10
-71.967885573016
 20
524.311364095763
 30
0.0
 11
-71.967885573016
 21
523.650393288688
 31
0.0
  0
LINE
  5
112
100
AcDbEntity
  8
0
370
          15
  6
Continuous
 62
           7
100
AcDbLine
 10
-121.967882592784
 20
524.311364095763
 30
0.0
 11
-121.967882592784
 21
523.650393288688
 31
0.0
  0
LINE
  5
113
100
AcDbEntity
  8
0
370
          15
  6
Continuous
 62
           7
100
AcDbLine
 10
203.032120387448
 20
537.62121538456
 30
0.0
 11
253.032117407216
 21
537.62121538456
 31
0.0
  0
LINE
  5
114
100
AcDbEntity
  8
0
370
          15
  6
Continuous
 62
           7
100
AcDbLine
 10
203.032120387448
 20
537.62121538456
 30
0.0
 11
203.032120387448
 21
537.005827229576
 31
0.0
  0
LINE
  5
115
100
AcDbEntity
  8
0
370
          15
  6
Continuous
 62
           7
100
AcDbLine
 10
253.032117407216
 20
537.62121538456
 30
0.0
 11
253.032117407216
 21
537.005827229576
 31
0.0
  0
LINE
  5
116
100
AcDbEntity
  8
0
370
          15
  6
Continuous
 62
           7
100
AcDbLine
 10
-71.967885573016
 20
537.621215384559
 30
0.0
 11
-121.967882592784
 21
537.621215384559
 31
0.0
  0
LINE
  5
117
100
AcDbEntity
  8
0
370
          15
  6
Continuous
 62
           7
100
AcDbLine
 10
-71.967885573016
 20
537.621215384559
 30
0.0
 11
-71.967885573016
 21
537.005827229575
 31
0.0
  0
LINE
  5
118
100
AcDbEntity
  8
0
370
          15
  6
Continuous
 62
           7
100
AcDbLine
 10
-121.967882592784
 20
537.621215384559
 30
0.0
 11
-121.967882592784
 21
537.005827229575
 31
0.0
  0
LINE
  5
119
100
AcDbEntity
  8
0
370
          15
  6
Continuous
 62
           7
100
AcDbLine
 10
256.805195729628
 20
130.24312297638
 30
0.0
 11
257.032110612288
 21
130.01620809372
 31
0.0
  0
LINE
  5
11A
100
AcDbEntity
  8
0
370
          15
  6
Continuous
 62
           7
100
AcDbLine
 10
256.805195729628
 20
130.24312297638
 30
0.0
 11
256.805195729628
 21
139.963835876541
 31
0.0
  0
LINE
  5
11B
100
AcDbEntity
  8
0
370
          15
  6
Continuous
 62
           7
100
AcDbLine
 10
257.032110612288
 20
139.850393336373
 30
0.0
 11
257.032110612288
 21
130.01620809372
 31
0.0
  0
LINE
  5
11C
100
AcDbEntity
  8
0
370
          15
  6
Continuous
 62
           7
100
AcDbLine
 10
-125.740960915193
 20
130.243122976378
 30
0.0
 11
-125.967875797853
 21
130.016208093718
 31
0.0
  0
LINE
  5
11D
100
AcDbEntity
  8
0
370
          15
  6
Continuous
 62
           7
100
AcDbLine
 10
-125.967875797853
 20
139.850393336371
 30
0.0
 11
-125.967875797853
 21
130.016208093718
 31
0.0
  0
LINE
  5
11E
100
AcDbEntity
  8
0
370
          15
  6
Continuous
 62
           7
100
AcDbLine
 10
-125.740960915193
 20
139.96383587654
 30
0.0
 11
-125.740960915193
 21
130.243122976378
 31
0.0
  0
LINE
  5
11F
100
AcDbEntity
  8
0
370
          15
  6
Continuous
 62
           7
100
AcDbLine
 10
-125.740960915193
 20
130.243122976378
 30
0.0
 11
256.805195729628
 21
130.24312297638
 31
0.0
  0
LINE
  5
120
100
AcDbEntity
  8
0
370
          15
  6
Continuous
 62
           7
100
AcDbLine
 10
-125.967875797853
 20
130.016208093718
 30
0.0
 11
257.032110612288
 21
130.01620809372
 31
0.0
  0
LINE
  5
121
100
AcDbEntity
  8
0
370
          15
  6
Continuous
 62
           7
100
AcDbLine
 10
257.032110612288
 20
125.850394766884
 30
0.0
 11
320.532112638846
 21
125.850394766884
 31
0.0
  0
LINE
  5
122
100
AcDbEntity
  8
0
370
          15
  6
Continuous
 62
           7
100
AcDbLine
 10
320.532112638846
 20
125.850394766884
 30
0.0
 11
320.532112638846
 21
191.650391023713
 31
0.0
  0
LINE
  5
123
100
AcDbEntity
  8
0
370
          15
  6
Continuous
 62
           7
100
AcDbLine
 10
320.532112638846
 20
191.650391023713
 30
0.0
 11
306.146010081664
 21
191.650391023713
 31
0.0
  0
LINE
  5
124
100
AcDbEntity
  8
0
370
          15
  6
Continuous
 62
           7
100
AcDbLine
 10
305.980189959897
 20
474.550396602707
 30
0.0
 11
320.532112638845
 21
474.550396602707
 31
0.0
  0
LINE
  5
125
100
AcDbEntity
  8
0
370
          15
  6
Continuous
 62
           7
100
AcDbLine
 10
320.532112638845
 20
474.550396602707
 30
0.0
 11
320.532112638845
 21
535.850391190606
 31
0.0
  0
LINE
  5
126
100
AcDbEntity
  8
0
370
          15
  6
Continuous
 62
           7
100
AcDbLine
 10
320.532112638845
 20
535.850391190606
 30
0.0
 11
257.032110612287
 21
535.850391190605
 31
0.0
  0
LINE
  5
127
100
AcDbEntity
  8
0
370
          15
  6
Continuous
 62
           7
100
AcDbLine
 10
257.032110612287
 20
535.850391190605
 30
0.0
 11
257.032110612287
 21
516.850397389488
 31
0.0
  0
LINE
  5
128
100
AcDbEntity
  8
0
370
          15
  6
Continuous
 62
           7
100
AcDbLine
 10
-125.967875797854
 20
516.850397389487
 30
0.0
 11
-125.967875797854
 21
535.850391190604
 31
0.0
  0
LINE
  5
129
100
AcDbEntity
  8
0
370
          15
  6
Continuous
 62
           7
100
AcDbLine
 10
-125.967875797854
 20
535.850391190604
 30
0.0
 11
-189.467877824412
 21
535.850391190604
 31
0.0
  0
LINE
  5
12A
100
AcDbEntity
  8
0
370
          15
  6
Continuous
 62
           7
100
AcDbLine
 10
-189.467877824412
 20
535.850391190604
 30
0.0
 11
-189.467877824412
 21
474.550396602706
 31
0.0
  0
LINE
  5
12B
100
AcDbEntity
  8
0
370
          15
  6
Continuous
 62
           7
100
AcDbLine
 10
-189.467877824412
 20
474.550396602706
 30
0.0
 11
-174.915955145465
 21
474.550396602706
 31
0.0
  0
LINE
  5
12C
100
AcDbEntity
  8
0
370
          15
  6
Continuous
 62
           7
100
AcDbLine
 10
-175.081775267229
 20
191.650391023711
 30
0.0
 11
-189.467877824411
 21
191.650391023711
 31
0.0
  0
LINE
  5
12D
100
AcDbEntity
  8
0
370
          15
  6
Continuous
 62
           7
100
AcDbLine
 10
-189.467877824411
 20
191.650391023711
 30
0.0
 11
-189.467877824411
 21
125.850394766882
 31
0.0
  0
LINE
  5
12E
100
AcDbEntity
  8
0
370
          15
  6
Continuous
 62
           7
100
AcDbLine
 10
-189.467877824411
 20
125.850394766882
 30
0.0
 11
-125.967875797853
 21
125.850394766883
 31
0.0
  0
LINE
  5
12F
100
AcDbEntity
  8
0
370
          15
  6
Continuous
 62
           7
100
AcDbLine
 10
-125.967875797853
 20
125.850394766883
 30
0.0
 11
-125.967875797853
 21
130.016208093718
 31
0.0
  0
LINE
  5
130
100
AcDbEntity
  8
0
370
          15
  6
Continuous
 62
           7
100
AcDbLine
 10
257.032110612288
 20
130.01620809372
 30
0.0
 11
257.032110612288
 21
125.850394766884
 31
0.0
  0
ELLIPSE
  5
131
100
AcDbEntity
  8
0
370
          15
  6
Continuous
 62
           7
100
AcDbEllipse
 10
-189.367486539868
 20
125.950789031657
 30
0.0
 11
1.8390376918407014
 21
1.8390376918412699
 31
0.0
210
0.0
220
0.0
230
1.0
 40
0.999695459882
 41
2.3563467834397209
 42
3.92683852373957
  0
LINE
  5
132
100
AcDbEntity
  8
0
370
          15
  6
Continuous
 62
           7
100
AcDbLine
 10
-191.967875440227
 20
535.750791829184
 30
0.0
 11
-191.967875440225
 21
125.949994128302
 31
0.0
  0
ELLIPSE
  5
133
100
AcDbEntity
  8
0
370
          15
  6
Continuous
 62
           7
100
AcDbEllipse
 10
-189.36748653987
 20
535.749996925829
 30
0.0
 11
1.8390376918412699
 21
-1.8390376918407583
 31
0.0
210
0.0
220
0.0
230
1.0
 40
0.999695459882
 41
2.3563467834397307
 42
3.9268385237395602
  0
LINE
  5
134
100
AcDbEntity
  8
0
370
          15
  6
Continuous
 62
           7
100
AcDbLine
 10
320.432513277425
 20
538.35038880642
 30
0.0
 11
-189.368278462993
 21
538.350388806418
 31
0.0
  0
ELLIPSE
  5
135
100
AcDbEntity
  8
0
370
          15
  6
Continuous
 62
           7
100
AcDbEllipse
 10
320.431721354302
 20
535.749996925831
 30
0.0
 11
1.8390376918407014
 21
1.8390376918414404
 31
0.0
210
0.0
220
0.0
230
1.0
 40
0.999695459882
 41
5.4979394370294958
 42
7.0684311773293187
  0
LINE
  5
136
100
AcDbEntity
  8
0
370
          15
  6
Continuous
 62
           7
100
AcDbLine
 10
323.03211025466
 20
125.949994128304
 30
0.0
 11
323.032110254659
 21
535.750791829186
 31
0.0
  0
ELLIPSE
  5
137
100
AcDbEntity
  8
0
370
          15
  6
Continuous
 62
           7
100
AcDbEllipse
 10
320.431721354303
 20
125.950789031659
 30
0.0
 11
1.8390376918415541
 21
-1.8390376918406304
 31
0.0
210
0.0
220
0.0
230
1.0
 40
0.999695459882
 41
5.4979394370294479
 42
7.0684311773292503
  0
LINE
  5
138
100
AcDbEntity
  8
0
370
          15
  6
Continuous
 62
           7
100
AcDbLine
 10
-189.368278462991
 20
123.350397151068
 30
0.0
 11
320.432513277426
 21
123.35039715107
 31
0.0
  0
LINE
  5
139
100
AcDbEntity
  8
0
370
          15
  6
Continuous
 62
           7
100
AcDbLine
 10
-127.647802908526
 20
534.170464079933
 30
0.0
 11
-125.967875797854
 21
535.850391190604
 31
0.0
  0
LINE
  5
13A
100
AcDbEntity
  8
0
370
          15
  6
Continuous
 62
           7
100
AcDbLine
 10
-127.647802908526
 20
534.170464079933
 30
0.0
 11
-127.647802908526
 21
518.530309598999
 31
0.0
  0
LINE
  5
13B
100
AcDbEntity
  8
0
370
          15
  6
Continuous
 62
           7
100
AcDbLine
 10
258.712037722959
 20
534.170464079934
 30
0.0
 11
257.032110612287
 21
535.850391190605
 31
0.0
  0
LINE
  5
13C
100
AcDbEntity
  8
0
370
          15
  6
Continuous
 62
           7
100
AcDbLine
 10
258.712037722959
 20
518.530309599
 30
0.0
 11
258.712037722959
 21
534.170464079934
 31
0.0
  0
LINE
  5
13D
100
AcDbEntity
  8
0
370
          15
  6
Continuous
 62
           7
100
AcDbLine
 10
318.852185528173
 20
534.170464079934
 30
0.0
 11
320.532112638845
 21
535.850391190606
 31
0.0
  0
LINE
  5
13E
100
AcDbEntity
  8
0
370
          15
  6
Continuous
 62
           7
100
AcDbLine
 10
258.712037722959
 20
534.170464079934
 30
0.0
 11
318.852185528173
 21
534.170464079934
 31
0.0
  0
LINE
  5
13F
100
AcDbEntity
  8
0
370
          15
  6
Continuous
 62
           7
100
AcDbLine
 10
-187.78795071374
 20
476.230308812217
 30
0.0
 11
-187.78795071374
 21
501.485497158126
 31
0.0
  0
LINE
  5
140
100
AcDbEntity
  8
0
370
          15
  6
Continuous
 62
           7
100
AcDbLine
 10
-187.78795071374
 20
476.230308812217
 30
0.0
 11
-189.467877824412
 21
474.550396602706
 31
0.0
  0
LINE
  5
141
100
AcDbEntity
  8
0
370
          15
  6
Continuous
 62
           7
100
AcDbLine
 10
-187.78795071374
 20
534.170464079933
 30
0.0
 11
-189.467877824412
 21
535.850391190604
 31
0.0
  0
LINE
  5
142
100
AcDbEntity
  8
0
370
          15
  6
Continuous
 62
           7
100
AcDbLine
 10
-187.78795071374
 20
515.215278070526
 30
0.0
 11
-187.78795071374
 21
534.170464079933
 31
0.0
  0
LINE
  5
143
100
AcDbEntity
  8
0
370
          15
  6
Continuous
 62
           7
100
AcDbLine
 10
-187.835097987758
 20
515.175044935302
 30
0.0
 11
-187.835097987758
 21
501.52573029335
 31
0.0
  0
LINE
  5
144
100
AcDbEntity
  8
0
370
          15
  6
Continuous
 62
           7
100
AcDbLine
 10
-187.78795071374
 20
534.170464079933
 30
0.0
 11
-127.647802908526
 21
534.170464079933
 31
0.0
  0
LINE
  5
145
100
AcDbEntity
  8
0
370
          15
  6
Continuous
 62
           7
100
AcDbLine
 10
318.89933280219
 20
515.175044935304
 30
0.0
 11
318.89933280219
 21
501.525730293351
 31
0.0
  0
LINE
  5
146
100
AcDbEntity
  8
0
370
          15
  6
Continuous
 62
           7
100
AcDbLine
 10
318.852185528173
 20
534.170464079934
 30
0.0
 11
318.852185528173
 21
515.215278070527
 31
0.0
  0
LINE
  5
147
100
AcDbEntity
  8
0
370
          15
  6
Continuous
 62
           7
100
AcDbLine
 10
318.852185528173
 20
476.230308812219
 30
0.0
 11
320.532112638845
 21
474.550396602707
 31
0.0
  0
LINE
  5
148
100
AcDbEntity
  8
0
370
          15
  6
Continuous
 62
           7
100
AcDbLine
 10
318.852185528173
 20
501.485497158128
 30
0.0
 11
318.852185528173
 21
476.230308812219
 31
0.0
  0
LINE
  5
149
100
AcDbEntity
  8
0
370
          15
  6
Continuous
 62
           7
100
AcDbLine
 10
318.852185528173
 20
476.230308812219
 30
0.0
 11
307.63104490508
 21
476.230308812219
 31
0.0
  0
LINE
  5
14A
100
AcDbEntity
  8
0
370
          15
  6
Continuous
 62
           7
100
AcDbLine
 10
-176.566810090647
 20
476.230308812217
 30
0.0
 11
-187.78795071374
 21
476.230308812217
 31
0.0
  0
LINE
  5
14B
100
AcDbEntity
  8
0
370
          15
  6
Continuous
 62
           7
100
AcDbLine
 10
318.899332802191
 20
146.525741022187
 30
0.0
 11
318.899332802191
 21
160.17505566414
 31
0.0
  0
LINE
  5
14C
100
AcDbEntity
  8
0
370
          15
  6
Continuous
 62
           7
100
AcDbLine
 10
318.852185528174
 20
189.970463913041
 30
0.0
 11
318.852185528174
 21
160.215288799363
 31
0.0
  0
LINE
  5
14D
100
AcDbEntity
  8
0
370
          15
  6
Continuous
 62
           7
100
AcDbLine
 10
318.852185528174
 20
189.970463913041
 30
0.0
 11
320.532112638846
 21
191.650391023713
 31
0.0
  0
LINE
  5
14E
100
AcDbEntity
  8
0
370
          15
  6
Continuous
 62
           7
100
AcDbLine
 10
318.852185528174
 20
127.530321877557
 30
0.0
 11
320.532112638846
 21
125.850394766884
 31
0.0
  0
LINE
  5
14F
100
AcDbEntity
  8
0
370
          15
  6
Continuous
 62
           7
100
AcDbLine
 10
318.852185528174
 20
146.485507886964
 30
0.0
 11
318.852185528174
 21
127.530321877557
 31
0.0
  0
LINE
  5
150
100
AcDbEntity
  8
0
370
          15
  6
Continuous
 62
           7
100
AcDbLine
 10
-187.787950713739
 20
127.530321877555
 30
0.0
 11
-187.787950713739
 21
146.485507886962
 31
0.0
  0
LINE
  5
151
100
AcDbEntity
  8
0
370
          15
  6
Continuous
 62
           7
100
AcDbLine
 10
-187.787950713739
 20
127.530321877555
 30
0.0
 11
-189.467877824411
 21
125.850394766882
 31
0.0
  0
LINE
  5
152
100
AcDbEntity
  8
0
370
          15
  6
Continuous
 62
           7
100
AcDbLine
 10
-187.787950713739
 20
189.97046391304
 30
0.0
 11
-189.467877824411
 21
191.650391023711
 31
0.0
  0
LINE
  5
153
100
AcDbEntity
  8
0
370
          15
  6
Continuous
 62
           7
100
AcDbLine
 10
-187.787950713739
 20
160.215288799362
 30
0.0
 11
-187.787950713739
 21
189.97046391304
 31
0.0
  0
LINE
  5
154
100
AcDbEntity
  8
0
370
          15
  6
Continuous
 62
           7
100
AcDbLine
 10
-187.835097987756
 20
146.525741022186
 30
0.0
 11
-187.835097987756
 21
160.175055664138
 31
0.0
  0
LINE
  5
155
100
AcDbEntity
  8
0
370
          15
  6
Continuous
 62
           7
100
AcDbLine
 10
307.796865026846
 20
189.970463913041
 30
0.0
 11
318.852185528174
 21
189.970463913041
 31
0.0
  0
LINE
  5
156
100
AcDbEntity
  8
0
370
          15
  6
Continuous
 62
           7
100
AcDbLine
 10
-187.787950713739
 20
189.97046391304
 30
0.0
 11
-176.732630212412
 21
189.97046391304
 31
0.0
  0
LINE
  5
157
100
AcDbEntity
  8
0
370
          15
  6
Continuous
 62
           7
100
AcDbLine
 10
258.71203772296
 20
127.530321877557
 30
0.0
 11
257.032110612288
 21
125.850394766884
 31
0.0
  0
LINE
  5
158
100
AcDbEntity
  8
0
370
          15
  6
Continuous
 62
           7
100
AcDbLine
 10
258.71203772296
 20
127.530321877557
 30
0.0
 11
258.71203772296
 21
138.170466225701
 31
0.0
  0
LINE
  5
159
100
AcDbEntity
  8
0
370
          15
  6
Continuous
 62
           7
100
AcDbLine
 10
-127.647802908525
 20
127.530321877555
 30
0.0
 11
-125.967875797853
 21
125.850394766883
 31
0.0
  0
LINE
  5
15A
100
AcDbEntity
  8
0
370
          15
  6
Continuous
 62
           7
100
AcDbLine
 10
-127.647802908525
 20
138.1704662257
 30
0.0
 11
-127.647802908525
 21
127.530321877555
 31
0.0
  0
LINE
  5
15B
100
AcDbEntity
  8
0
370
          15
  6
Continuous
 62
           7
100
AcDbLine
 10
318.852185528174
 20
127.530321877557
 30
0.0
 11
258.71203772296
 21
127.530321877557
 31
0.0
  0
LINE
  5
15C
100
AcDbEntity
  8
0
370
          15
  6
Continuous
 62
           7
100
AcDbLine
 10
-127.647802908525
 20
127.530321877555
 30
0.0
 11
-187.787950713739
 21
127.530321877555
 31
0.0
  0
CIRCLE
  5
15D
100
AcDbEntity
  8
0
370
          15
  6
Continuous
 62
           7
100
AcDbCircle
 10
280.532117407216
 20
528.350392978745
 30
0.0
 40
5.5
  0
CIRCLE
  5
15E
100
AcDbEntity
  8
0
370
          15
  6
Continuous
 62
           7
100
AcDbCircle
 10
-149.467882592784
 20
528.350392978744
 30
0.0
 40
5.5
  0
CIRCLE
  5
15F
100
AcDbEntity
  8
0
370
          15
  6
Continuous
 62
           7
100
AcDbCircle
 10
-181.967882592784
 20
495.850392978744
 30
0.0
 40
5.5
  0
CIRCLE
  5
160
100
AcDbEntity
  8
0
370
          15
  6
Continuous
 62
           7
100
AcDbCircle
 10
313.032117407216
 20
495.850392978746
 30
0.0
 40
5.5
  0
CIRCLE
  5
161
100
AcDbEntity
  8
0
370
          15
  6
Continuous
 62
           7
100
AcDbCircle
 10
-181.967882592782
 20
165.850392978744
 30
0.0
 40
5.5
  0
CIRCLE
  5
162
100
AcDbEntity
  8
0
370
          15
  6
Continuous
 62
           7
100
AcDbCircle
 10
313.032117407217
 20
165.850392978746
 30
0.0
 40
5.5
  0
ARC
  5
163
100
AcDbEntity
  8
0
370
          15
  6
Continuous
 62
           7
100
AcDbCircle
 10
-149.467882592782
 20
133.350392978744
 30
0.0
 40
5.5
100
AcDbArc
 50
111.265083559529
 51
68.734916440472
  0
ARC
  5
164
100
AcDbEntity
  8
0
370
          15
  6
Continuous
 62
           7
100
AcDbCircle
 10
280.532117407218
 20
133.350392978745
 30
0.0
 40
5.5
100
AcDbArc
 50
111.265083559528
 51
68.734916440472
  0
CIRCLE
  5
165
100
AcDbEntity
  8
0
370
          15
  6
Continuous
 62
           7
100
AcDbCircle
 10
-146.967882592784
 20
490.850392978744
 30
0.0
 40
3.0
  0
ARC
  5
166
100
AcDbEntity
  8
0
370
          15
  6
Continuous
 62
           7
100
AcDbCircle
 10
-146.967882592784
 20
490.850392978744
 30
0.0
 40
10.2
100
AcDbArc
 50
270.000000000002
 51
360.0
  0
LINE
  5
167
100
AcDbEntity
  8
0
370
          15
  6
Continuous
 62
           7
100
AcDbLine
 10
-168.698758561717
 20
480.650395553665
 30
0.0
 11
-146.967888553248
 21
480.650395553665
 31
0.0
  0
LINE
  5
168
100
AcDbEntity
  8
0
370
          15
  6
Continuous
 62
           7
100
AcDbLine
 10
-136.767879803286
 20
490.850389402465
 30
0.0
 11
-136.767879803286
 21
510.740608375625
 31
0.0
  0
CIRCLE
  5
169
100
AcDbEntity
  8
0
370
          15
  6
Continuous
 62
           7
100
AcDbCircle
 10
278.032117407216
 20
490.850392978745
 30
0.0
 40
3.0
  0
LINE
  5
16A
100
AcDbEntity
  8
0
370
          15
  6
Continuous
 62
           7
100
AcDbLine
 10
278.032123367681
 20
480.650395553666
 30
0.0
 11
299.76299337615
 21
480.650395553666
 31
0.0
  0
ARC
  5
16B
100
AcDbEntity
  8
0
370
          15
  6
Continuous
 62
           7
100
AcDbCircle
 10
278.032117407216
 20
490.850392978745
 30
0.0
 40
10.2
100
AcDbArc
 50
180.000000000001
 51
270.000000000003
  0
LINE
  5
16C
100
AcDbEntity
  8
0
370
          15
  6
Continuous
 62
           7
100
AcDbLine
 10
267.832114617719
 20
510.740608375626
 30
0.0
 11
267.832114617719
 21
490.850389402467
 31
0.0
  0
CIRCLE
  5
16D
100
AcDbEntity
  8
0
370
          15
  6
Continuous
 62
           7
100
AcDbCircle
 10
278.032117407218
 20
165.850392978745
 30
0.0
 40
3.0
  0
LINE
  5
16E
100
AcDbEntity
  8
0
370
          15
  6
Continuous
 62
           7
100
AcDbLine
 10
267.83211461772
 20
165.850386422234
 30
0.0
 11
267.83211461772
 21
145.960182350236
 31
0.0
  0
ARC
  5
16F
100
AcDbEntity
  8
0
370
          15
  6
Continuous
 62
           7
100
AcDbCircle
 10
278.032117407218
 20
165.850392978745
 30
0.0
 40
10.2
100
AcDbArc
 50
90.000000000002
 51
180.0
  0
LINE
  5
170
100
AcDbEntity
  8
0
370
          15
  6
Continuous
 62
           7
100
AcDbLine
 10
299.76299337615
 20
176.050395172196
 30
0.0
 11
278.032123367682
 21
176.050395172196
 31
0.0
  0
CIRCLE
  5
171
100
AcDbEntity
  8
0
370
          15
  6
Continuous
 62
           7
100
AcDbCircle
 10
-146.967882592782
 20
165.850392978744
 30
0.0
 40
3.0
  0
LINE
  5
172
100
AcDbEntity
  8
0
370
          15
  6
Continuous
 62
           7
100
AcDbLine
 10
-136.767879803285
 20
145.960182350234
 30
0.0
 11
-136.767879803285
 21
165.850386422233
 31
0.0
  0
ARC
  5
173
100
AcDbEntity
  8
0
370
          15
  6
Continuous
 62
           7
100
AcDbCircle
 10
-146.967882592782
 20
165.850392978744
 30
0.0
 40
10.2
100
AcDbArc
 50
0.0
 51
90.000000000001
  0
LINE
  5
174
100
AcDbEntity
  8
0
370
          15
  6
Continuous
 62
           7
100
AcDbLine
 10
-146.967888553247
 20
176.050395172195
 30
0.0
 11
-168.698758561716
 21
176.050395172195
 31
0.0
  0
ARC
  5
175
100
AcDbEntity
  8
0
370
          15
  6
Continuous
 62
           7
100
AcDbCircle
 10
313.032117407216
 20
508.350392978746
 30
0.0
 40
9.0
100
AcDbArc
 50
293.073918065633
 51
310.685872402607
  0
ARC
  5
176
100
AcDbEntity
  8
0
370
          15
  6
Continuous
 62
           7
100
AcDbCircle
 10
313.032117407216
 20
508.350392978746
 30
0.0
 40
9.0
100
AcDbArc
 50
229.121739876221
 51
246.92608193437
  0
CIRCLE
  5
177
100
AcDbEntity
  8
0
370
          15
  6
Continuous
 62
           7
100
AcDbCircle
 10
313.032117407216
 20
508.350392978746
 30
0.0
 40
3.1
  0
ARC
  5
178
100
AcDbEntity
  8
0
370
          15
  6
Continuous
 62
           7
100
AcDbCircle
 10
313.032117407216
 20
508.350392978746
 30
0.0
 40
9.0
100
AcDbArc
 50
49.314127597391
 51
135.041219532662
  0
ARC
  5
179
100
AcDbEntity
  8
0
370
          15
  6
Continuous
 62
           7
100
AcDbCircle
 10
-181.967882592784
 20
508.350392978744
 30
0.0
 40
9.0
100
AcDbArc
 50
229.314127597395
 51
246.926081934369
  0
ARC
  5
17A
100
AcDbEntity
  8
0
370
          15
  6
Continuous
 62
           7
100
AcDbCircle
 10
-181.967882592784
 20
508.350392978744
 30
0.0
 40
9.0
100
AcDbArc
 50
293.07391806563
 51
310.878260123779
  0
CIRCLE
  5
17B
100
AcDbEntity
  8
0
370
          15
  6
Continuous
 62
           7
100
AcDbCircle
 10
-181.967882592784
 20
508.350392978744
 30
0.0
 40
3.1
  0
ARC
  5
17C
100
AcDbEntity
  8
0
370
          15
  6
Continuous
 62
           7
100
AcDbCircle
 10
-181.967882592784
 20
508.350392978744
 30
0.0
 40
9.0
100
AcDbArc
 50
44.958780467345
 51
130.685872402607
  0
ARC
  5
17D
100
AcDbEntity
  8
0
370
          15
  6
Continuous
 62
           7
100
AcDbCircle
 10
313.032117407218
 20
153.350392978746
 30
0.0
 40
9.0
100
AcDbArc
 50
49.314127597393
 51
66.926081934367
  0
ARC
  5
17E
100
AcDbEntity
  8
0
370
          15
  6
Continuous
 62
           7
100
AcDbCircle
 10
313.032117407218
 20
153.350392978746
 30
0.0
 40
9.0
100
AcDbArc
 50
227.863565133943
 51
310.685872402608
  0
ARC
  5
17F
100
AcDbEntity
  8
0
370
          15
  6
Continuous
 62
           7
100
AcDbCircle
 10
313.032117407218
 20
153.350392978746
 30
0.0
 40
9.0
100
AcDbArc
 50
113.073918065629
 51
130.136434866059
  0
CIRCLE
  5
180
100
AcDbEntity
  8
0
370
          15
  6
Continuous
 62
           7
100
AcDbCircle
 10
313.032117407218
 20
153.350392978746
 30
0.0
 40
3.1
  0
ARC
  5
181
100
AcDbEntity
  8
0
370
          15
  6
Continuous
 62
           7
100
AcDbCircle
 10
-181.967882592782
 20
153.350392978744
 30
0.0
 40
9.0
100
AcDbArc
 50
229.314127597393
 51
312.136434866058
  0
ARC
  5
182
100
AcDbEntity
  8
0
370
          15
  6
Continuous
 62
           7
100
AcDbCircle
 10
-181.967882592782
 20
153.350392978744
 30
0.0
 40
9.0
100
AcDbArc
 50
49.863565133943
 51
66.926081934372
  0
CIRCLE
  5
183
100
AcDbEntity
  8
0
370
          15
  6
Continuous
 62
           7
100
AcDbCircle
 10
-181.967882592782
 20
153.350392978744
 30
0.0
 40
3.1
  0
ARC
  5
184
100
AcDbEntity
  8
0
370
          15
  6
Continuous
 62
           7
100
AcDbCircle
 10
-181.967882592782
 20
153.350392978744
 30
0.0
 40
9.0
100
AcDbArc
 50
113.073918065633
 51
130.685872402608
  0
CIRCLE
  5
185
100
AcDbEntity
  8
0
370
          15
  6
Continuous
 62
           7
100
AcDbCircle
 10
-166.967882592784
 20
528.350392978744
 30
0.0
 40
5.0
  0
CIRCLE
  5
186
100
AcDbEntity
  8
0
370
          15
  6
Continuous
 62
           7
100
AcDbCircle
 10
298.032117407216
 20
528.350392978746
 30
0.0
 40
5.0
  0
ARC
  5
187
100
AcDbEntity
  8
0
370
          15
  6
Continuous
 62
           7
100
AcDbCircle
 10
298.032117407218
 20
133.350392978746
 30
0.0
 40
5.0
100
AcDbArc
 50
105.417211139605
 51
74.582788860398
  0
ARC
  5
188
100
AcDbEntity
  8
0
370
          15
  6
Continuous
 62
           7
100
AcDbCircle
 10
-166.967882592782
 20
133.350392978744
 30
0.0
 40
5.0
100
AcDbArc
 50
105.417211139608
 51
74.58278886039
  0
LINE
  5
189
100
AcDbEntity
  8
0
370
          15
  6
Continuous
 62
           7
100
AcDbLine
 10
484.835955471269
 20
513.350397747116
 30
0.0
 11
482.835951418153
 21
513.350397747116
 31
0.0
  0
LINE
  5
18A
100
AcDbEntity
  8
0
370
          15
  6
Continuous
 62
           7
100
AcDbLine
 10
482.835951418153
 20
490.850389402465
 30
0.0
 11
484.835955471269
 21
490.850389402465
 31
0.0
  0
LINE
  5
18B
100
AcDbEntity
  8
0
370
          15
  6
Continuous
 62
           7
100
AcDbLine
 10
484.835955471267
 20
170.850396555023
 30
0.0
 11
482.835951418152
 21
170.850396555023
 31
0.0
  0
LINE
  5
18C
100
AcDbEntity
  8
0
370
          15
  6
Continuous
 62
           7
100
AcDbLine
 10
482.835951418152
 20
148.350388210372
 30
0.0
 11
484.835955471267
 21
148.350388210372
 31
0.0
  0
LINE
  5
18D
100
AcDbEntity
  8
0
370
          15
  6
Continuous
 62
           7
100
AcDbLine
 10
484.835955471268
 20
438.350394766883
 30
0.0
 11
482.835951418153
 21
438.350394766883
 31
0.0
  0
LINE
  5
18E
100
AcDbEntity
  8
0
370
          15
  6
Continuous
 62
           7
100
AcDbLine
 10
482.835951418153
 20
423.350394170837
 30
0.0
 11
484.835955471268
 21
423.350394170837
 31
0.0
  0
LINE
  5
18F
100
AcDbEntity
  8
0
370
          15
  6
Continuous
 62
           7
100
AcDbLine
 10
484.835955471268
 20
238.350391786651
 30
0.0
 11
482.835951418152
 21
238.350391786651
 31
0.0
  0
LINE
  5
190
100
AcDbEntity
  8
0
370
          15
  6
Continuous
 62
           7
100
AcDbLine
 10
482.835951418152
 20
223.350391190605
 30
0.0
 11
484.835955471268
 21
223.350391190605
 31
0.0
  0
LINE
  5
191
100
AcDbEntity
  8
0
370
          15
  6
Continuous
 62
           7
100
AcDbLine
 10
484.835955471269
 20
533.35039357479
 30
0.0
 11
482.835951418153
 21
533.35039357479
 31
0.0
  0
LINE
  5
192
100
AcDbEntity
  8
0
370
          15
  6
Continuous
 62
           7
100
AcDbLine
 10
482.835951418153
 20
523.350388210372
 30
0.0
 11
484.835955471269
 21
523.350388210372
 31
0.0
  0
LINE
  5
193
100
AcDbEntity
  8
0
370
          15
  6
Continuous
 62
           7
100
AcDbLine
 10
484.835955471267
 20
138.350397747116
 30
0.0
 11
482.835951418152
 21
138.350397747116
 31
0.0
  0
LINE
  5
194
100
AcDbEntity
  8
0
370
          15
  6
Continuous
 62
           7
100
AcDbLine
 10
482.835951418152
 20
128.350392382697
 30
0.0
 11
484.835955471267
 21
128.350392382697
 31
0.0
  0
ARC
  5
195
100
AcDbEntity
  8
0
370
          15
  6
Continuous
 62
           7
100
AcDbCircle
 10
487.251470255557
 20
532.388474763689
 30
0.0
 40
2.599956327987
100
AcDbArc
 50
90.998146097081
 51
160.410927533095
  0
ARC
  5
196
100
AcDbEntity
  8
0
370
          15
  6
Continuous
 62
           7
100
AcDbCircle
 10
487.251464849794
 20
129.312335893015
 30
0.0
 40
2.599975547529
100
AcDbArc
 50
199.518015802999
 51
269.001980427269
  0
LINE
  5
197
100
AcDbEntity
  8
0
370
          15
  6
Continuous
 62
           7
100
AcDbLine
 10
679.835948318712
 20
538.350388806418
 30
0.0
 11
679.835948318712
 21
535.750791829184
 31
0.0
  0
LINE
  5
198
100
AcDbEntity
  8
0
370
          15
  6
Continuous
 62
           7
100
AcDbLine
 10
679.835948318712
 20
535.750791829184
 30
0.0
 11
487.390565842859
 21
532.391637962417
 31
0.0
  0
ARC
  5
199
100
AcDbEntity
  8
0
370
          15
  6
Continuous
 62
           7
100
AcDbCircle
 10
529.817962453284
 20
533.870899150291
 30
0.0
 40
42.453176521908
100
AcDbArc
 50
178.003150999929
 51
181.996849000072
  0
LINE
  5
19A
100
AcDbEntity
  8
0
370
          15
  6
Continuous
 62
           7
100
AcDbLine
 10
487.390565842859
 20
534.991249840812
 30
0.0
 11
679.835948318712
 21
538.350388806418
 31
0.0
  0
LINE
  5
19B
100
AcDbEntity
  8
0
370
          15
  6
Continuous
 62
           7
100
AcDbLine
 10
679.835948318712
 20
535.750791829184
 30
0.0
 11
679.83594831871
 21
125.949994128302
 31
0.0
  0
LINE
  5
19C
100
AcDbEntity
  8
0
370
          15
  6
Continuous
 62
           7
100
AcDbLine
 10
487.390565842857
 20
129.309147995071
 30
0.0
 11
679.83594831871
 21
125.949994128302
 31
0.0
  0
LINE
  5
19D
100
AcDbEntity
  8
0
370
          15
  6
Continuous
 62
           7
100
AcDbLine
 10
487.390565842857
 20
150.406197112159
 30
0.0
 11
487.390565842857
 21
129.309147995071
 31
0.0
  0
LWPOLYLINE
  5
19E
100
AcDbEntity
  8
0
370
          15
  6
Continuous
 62
           7
100
AcDbPolyline
 90
        3
 70
         128
 10
487.206059664955
 20
153.350398343162
 10
487.207207054367
 20
153.198451202468
 10
487.390565842857
 20
150.406197112159
  0
LINE
  5
19F
100
AcDbEntity
  8
0
370
          15
  6
Continuous
 62
           7
100
AcDbLine
 10
487.206059664955
 20
165.850386422233
 30
0.0
 11
487.206059664955
 21
153.350398343162
 31
0.0
  0
LWPOLYLINE
  5
1A0
100
AcDbEntity
  8
0
370
          15
  6
Continuous
 62
           7
100
AcDbPolyline
 90
        3
 70
         128
 10
487.390565842857
 20
168.794587653236
 10
487.348112434616
 20
167.903125684814
 10
487.206059664955
 20
165.850386422233
  0
LINE
  5
1A1
100
AcDbEntity
  8
0
370
          15
  6
Continuous
 62
           7
100
AcDbLine
 10
487.390565842859
 20
492.906198304252
 30
0.0
 11
487.390565842857
 21
168.794587653236
 31
0.0
  0
LWPOLYLINE
  5
1A2
100
AcDbEntity
  8
0
370
          15
  6
Continuous
 62
           7
100
AcDbPolyline
 90
        3
 70
         128
 10
487.206059664956
 20
495.850399535255
 10
487.207207054368
 20
495.698452394561
 10
487.390565842859
 20
492.906198304252
  0
LINE
  5
1A3
100
AcDbEntity
  8
0
370
          15
  6
Continuous
 62
           7
100
AcDbLine
 10
487.206059664956
 20
508.350387614326
 30
0.0
 11
487.206059664956
 21
495.850399535255
 31
0.0
  0
LWPOLYLINE
  5
1A4
100
AcDbEntity
  8
0
370
          15
  6
Continuous
 62
           7
100
AcDbPolyline
 90
        3
 70
         128
 10
487.390565842859
 20
511.294588845329
 10
487.348112434617
 20
510.403126876907
 10
487.206059664956
 20
508.350387614326
  0
LINE
  5
1A5
100
AcDbEntity
  8
0
370
          15
  6
Continuous
 62
           7
100
AcDbLine
 10
487.390565842859
 20
532.391637962417
 30
0.0
 11
487.390565842859
 21
511.294588845329
 31
0.0
  0
LINE
  5
1A6
100
AcDbEntity
  8
0
370
          15
  6
Continuous
 62
           7
100
AcDbLine
 10
679.83594831871
 20
123.350397151068
 30
0.0
 11
487.390565842857
 21
126.709536116676
 31
0.0
  0
ARC
  5
1A7
100
AcDbEntity
  8
0
370
          15
  6
Continuous
 62
           7
100
AcDbCircle
 10
529.817962436337
 20
127.829886807175
 30
0.0
 40
42.453176504974
100
AcDbArc
 50
178.003150999103
 51
181.996849000898
  0
LINE
  5
1A8
100
AcDbEntity
  8
0
370
          15
  6
Continuous
 62
           7
100
AcDbLine
 10
679.83594831871
 20
125.949994128302
 30
0.0
 11
679.83594831871
 21
123.350397151068
 31
0.0
  0
LINE
  5
1A9
100
AcDbEntity
  8
0
370
          15
  6
Continuous
 62
           7
100
AcDbLine
 10
484.835955471269
 20
492.906198304252
 30
0.0
 11
484.835955471269
 21
495.850399535255
 31
0.0
  0
LINE
  5
1AA
100
AcDbEntity
  8
0
370
          15
  6
Continuous
 62
           7
100
AcDbLine
 10
484.835955471269
 20
495.850399535255
 30
0.0
 11
487.206059664956
 21
495.850399535255
 31
0.0
  0
LINE
  5
1AB
100
AcDbEntity
  8
0
370
          15
  6
Continuous
 62
           7
100
AcDbLine
 10
484.835955471269
 20
492.906198304252
 30
0.0
 11
487.390565842859
 21
492.906198304252
 31
0.0
  0
LINE
  5
1AC
100
AcDbEntity
  8
0
370
          15
  6
Continuous
 62
           7
100
AcDbLine
 10
484.835955471267
 20
150.406197112159
 30
0.0
 11
484.835955471267
 21
153.350398343162
 31
0.0
  0
LINE
  5
1AD
100
AcDbEntity
  8
0
370
          15
  6
Continuous
 62
           7
100
AcDbLine
 10
484.835955471267
 20
153.350398343162
 30
0.0
 11
487.206059664955
 21
153.350398343162
 31
0.0
  0
LINE
  5
1AE
100
AcDbEntity
  8
0
370
          15
  6
Continuous
 62
           7
100
AcDbLine
 10
484.835955471267
 20
150.406197112159
 30
0.0
 11
487.390565842857
 21
150.406197112159
 31
0.0
  0
LINE
  5
1AF
100
AcDbEntity
  8
0
370
          15
  6
Continuous
 62
           7
100
AcDbLine
 10
484.835955471269
 20
508.350387614326
 30
0.0
 11
484.835955471269
 21
511.294588845329
 31
0.0
  0
LINE
  5
1B0
100
AcDbEntity
  8
0
370
          15
  6
Continuous
 62
           7
100
AcDbLine
 10
484.835955471269
 20
511.294588845329
 30
0.0
 11
487.390565842859
 21
511.294588845329
 31
0.0
  0
LINE
  5
1B1
100
AcDbEntity
  8
0
370
          15
  6
Continuous
 62
           7
100
AcDbLine
 10
484.835955471269
 20
508.350387614326
 30
0.0
 11
487.206059664956
 21
508.350387614326
 31
0.0
  0
LINE
  5
1B2
100
AcDbEntity
  8
0
370
          15
  6
Continuous
 62
           7
100
AcDbLine
 10
484.835955471267
 20
165.850386422233
 30
0.0
 11
484.835955471268
 21
168.794587653236
 31
0.0
  0
LINE
  5
1B3
100
AcDbEntity
  8
0
370
          15
  6
Continuous
 62
           7
100
AcDbLine
 10
484.835955471268
 20
168.794587653236
 30
0.0
 11
487.390565842857
 21
168.794587653236
 31
0.0
  0
LINE
  5
1B4
100
AcDbEntity
  8
0
370
          15
  6
Continuous
 62
           7
100
AcDbLine
 10
484.835955471267
 20
165.850386422233
 30
0.0
 11
487.206059664955
 21
165.850386422233
 31
0.0
  0
ARC
  5
1B5
100
AcDbEntity
  8
0
370
          15
  6
Continuous
 62
           7
100
AcDbCircle
 10
487.435948318712
 20
532.391642433641
 30
0.0
 40
2.6
100
AcDbArc
 50
91.000000000006
 51
180.0
  0
LINE
  5
1B6
100
AcDbEntity
  8
0
370
          15
  6
Continuous
 62
           7
100
AcDbLine
 10
484.835955471269
 20
532.391637962417
 30
0.0
 11
487.390565842859
 21
532.391637962417
 31
0.0
  0
LINE
  5
1B7
100
AcDbEntity
  8
0
370
          15
  6
Continuous
 62
           7
100
AcDbLine
 10
484.835955471269
 20
511.294588845329
 30
0.0
 11
484.835955471269
 21
532.391637962417
 31
0.0
  0
LINE
  5
1B8
100
AcDbEntity
  8
0
370
          15
  6
Continuous
 62
           7
100
AcDbLine
 10
484.835955471268
 20
168.794587653236
 30
0.0
 11
484.835955471269
 21
492.906198304252
 31
0.0
  0
LINE
  5
1B9
100
AcDbEntity
  8
0
370
          15
  6
Continuous
 62
           7
100
AcDbLine
 10
484.835955471267
 20
129.309147995071
 30
0.0
 11
484.835955471267
 21
150.406197112159
 31
0.0
  0
LINE
  5
1BA
100
AcDbEntity
  8
0
370
          15
  6
Continuous
 62
           7
100
AcDbLine
 10
484.835955471267
 20
129.309147995071
 30
0.0
 11
487.390565842857
 21
129.309147995071
 31
0.0
  0
ARC
  5
1BB
100
AcDbEntity
  8
0
370
          15
  6
Continuous
 62
           7
100
AcDbCircle
 10
487.43594831871
 20
129.309143523847
 30
0.0
 40
2.6
100
AcDbArc
 50
180.0
 51
268.999999999995
  0
LINE
  5
1BC
100
AcDbEntity
  8
0
370
          15
  6
Continuous
 62
           7
100
AcDbLine
 10
484.835955471269
 20
495.850399535255
 30
0.0
 11
484.835955471269
 21
508.350387614326
 31
0.0
  0
LINE
  5
1BD
100
AcDbEntity
  8
0
370
          15
  6
Continuous
 62
           7
100
AcDbLine
 10
484.835955471267
 20
153.350398343162
 30
0.0
 11
484.835955471267
 21
165.850386422233
 31
0.0
  0
LINE
  5
1BE
100
AcDbEntity
  8
0
370
          15
  6
Continuous
 62
           7
100
AcDbLine
 10
482.835951418153
 20
508.350387614326
 30
0.0
 11
484.835955471269
 21
508.350387614326
 31
0.0
  0
LINE
  5
1BF
100
AcDbEntity
  8
0
370
          15
  6
Continuous
 62
           7
100
AcDbLine
 10
482.835951418153
 20
508.350387614326
 30
0.0
 11
482.835951418153
 21
513.350397747116
 31
0.0
  0
LINE
  5
1C0
100
AcDbEntity
  8
0
370
          15
  6
Continuous
 62
           7
100
AcDbLine
 10
482.835951418153
 20
495.850399535255
 30
0.0
 11
484.835955471269
 21
495.850399535255
 31
0.0
  0
LINE
  5
1C1
100
AcDbEntity
  8
0
370
          15
  6
Continuous
 62
           7
100
AcDbLine
 10
482.835951418153
 20
495.850399535255
 30
0.0
 11
482.835951418153
 21
508.350387614326
 31
0.0
  0
LINE
  5
1C2
100
AcDbEntity
  8
0
370
          15
  6
Continuous
 62
           7
100
AcDbLine
 10
482.835951418153
 20
490.850389402465
 30
0.0
 11
482.835951418153
 21
495.850399535255
 31
0.0
  0
LINE
  5
1C3
100
AcDbEntity
  8
0
370
          15
  6
Continuous
 62
           7
100
AcDbLine
 10
482.835951418152
 20
165.850386422233
 30
0.0
 11
484.835955471267
 21
165.850386422233
 31
0.0
  0
LINE
  5
1C4
100
AcDbEntity
  8
0
370
          15
  6
Continuous
 62
           7
100
AcDbLine
 10
482.835951418152
 20
165.850386422233
 30
0.0
 11
482.835951418152
 21
170.850396555023
 31
0.0
  0
LINE
  5
1C5
100
AcDbEntity
  8
0
370
          15
  6
Continuous
 62
           7
100
AcDbLine
 10
482.835951418152
 20
153.350398343162
 30
0.0
 11
484.835955471267
 21
153.350398343162
 31
0.0
  0
LINE
  5
1C6
100
AcDbEntity
  8
0
370
          15
  6
Continuous
 62
           7
100
AcDbLine
 10
482.835951418152
 20
153.350398343162
 30
0.0
 11
482.835951418152
 21
165.850386422233
 31
0.0
  0
LINE
  5
1C7
100
AcDbEntity
  8
0
370
          15
  6
Continuous
 62
           7
100
AcDbLine
 10
482.835951418152
 20
148.350388210372
 30
0.0
 11
482.835951418152
 21
153.350398343162
 31
0.0
  0
LINE
  5
1C8
100
AcDbEntity
  8
0
370
          15
  6
Continuous
 62
           7
100
AcDbLine
 10
698.835947707763
 20
328.350393034622
 30
0.0
 11
679.835948318711
 21
328.350393034623
 31
0.0
  0
LINE
  5
1C9
100
AcDbEntity
  8
0
370
          15
  6
Continuous
 62
           7
100
AcDbLine
 10
698.835947707764
 20
511.280775468901
 30
0.0
 11
698.835947707763
 21
328.350393034622
 31
0.0
  0
LINE
  5
1CA
100
AcDbEntity
  8
0
370
          15
  6
Continuous
 62
           7
100
AcDbLine
 10
698.835947707763
 20
328.350393034622
 30
0.0
 11
698.835947707762
 21
145.420015256957
 31
0.0
  0
LINE
  5
1CB
100
AcDbEntity
  8
0
370
          15
  6
Continuous
 62
           7
100
AcDbLine
 10
698.835947707762
 20
140.016198556975
 30
0.0
 11
679.83594831871
 21
139.850393336371
 31
0.0
  0
LINE
  5
1CC
100
AcDbEntity
  8
0
370
          15
  6
Continuous
 62
           7
100
AcDbLine
 10
698.835947707762
 20
145.420015256957
 30
0.0
 11
698.835947707762
 21
140.016198556975
 31
0.0
  0
LINE
  5
1CD
100
AcDbEntity
  8
0
370
          15
  6
Continuous
 62
           7
100
AcDbLine
 10
679.835948318712
 20
516.850397389487
 30
0.0
 11
698.835947707764
 21
516.684577267722
 31
0.0
  0
LINE
  5
1CE
100
AcDbEntity
  8
0
370
          15
  6
Continuous
 62
           7
100
AcDbLine
 10
698.835947707764
 20
516.684577267722
 30
0.0
 11
698.835947707764
 21
511.280775468901
 31
0.0
  0
LINE
  5
1CF
100
AcDbEntity
  8
0
370
          15
  6
Continuous
 62
           7
100
AcDbLine
 10
484.835955471269
 20
523.350388210372
 30
0.0
 11
484.835955471269
 21
532.391637962417
 31
0.0
  0
LWPOLYLINE
  5
1D0
100
AcDbEntity
  8
0
370
          15
  6
Continuous
 62
           7
100
AcDbPolyline
 90
        3
 70
         128
 10
485.007020801774
 20
533.316404026107
 10
484.950068563691
 20
533.153474729614
 10
484.835955471269
 20
532.391637962417
  0
LWPOLYLINE
  5
1D1
100
AcDbEntity
  8
0
370
          15
  6
Continuous
 62
           7
100
AcDbPolyline
 90
        4
 70
         128
 10
484.835955471267
 20
129.309147995071
 10
484.912562340965
 20
128.682643573837
 10
485.016825765838
 20
128.356337946014
 10
485.007020801773
 20
128.384381931381
  0
LINE
  5
1D2
100
AcDbEntity
  8
0
370
          15
  6
Continuous
 62
           7
100
AcDbLine
 10
484.835955471267
 20
129.309147995071
 30
0.0
 11
484.835955471267
 21
138.350397747115
 31
0.0
  0
LINE
  5
1D3
100
AcDbEntity
  8
0
370
          15
  6
Continuous
 62
           7
100
AcDbLine
 10
482.835951418153
 20
430.85039446886
 30
0.0
 11
482.835951418153
 21
438.350394766883
 31
0.0
  0
LINE
  5
1D4
100
AcDbEntity
  8
0
370
          15
  6
Continuous
 62
           7
100
AcDbLine
 10
482.835951418153
 20
423.350394170837
 30
0.0
 11
482.835951418153
 21
430.85039446886
 31
0.0
  0
LINE
  5
1D5
100
AcDbEntity
  8
0
370
          15
  6
Continuous
 62
           7
100
AcDbLine
 10
482.835951418152
 20
230.850391488628
 30
0.0
 11
482.835951418152
 21
238.350391786651
 31
0.0
  0
LINE
  5
1D6
100
AcDbEntity
  8
0
370
          15
  6
Continuous
 62
           7
100
AcDbLine
 10
482.835951418152
 20
223.350391190605
 30
0.0
 11
482.835951418152
 21
230.850391488628
 31
0.0
  0
LINE
  5
1D7
100
AcDbEntity
  8
0
370
          15
  6
Continuous
 62
           7
100
AcDbLine
 10
482.835951418153
 20
528.350398343162
 30
0.0
 11
482.835951418153
 21
533.35039357479
 31
0.0
  0
LINE
  5
1D8
100
AcDbEntity
  8
0
370
          15
  6
Continuous
 62
           7
100
AcDbLine
 10
482.835951418153
 20
523.350388210372
 30
0.0
 11
482.835951418153
 21
528.350398343162
 31
0.0
  0
LINE
  5
1D9
100
AcDbEntity
  8
0
370
          15
  6
Continuous
 62
           7
100
AcDbLine
 10
482.835951418152
 20
128.350392382697
 30
0.0
 11
482.835951418152
 21
138.350397747116
 31
0.0
  0
LINE
  5
1DA
100
AcDbEntity
  8
0
370
          15
  6
Continuous
 62
           7
100
AcDbLine
 10
692.835948586931
 20
130.243122976378
 30
0.0
 11
679.83594831871
 21
130.016208093718
 31
0.0
  0
LINE
  5
1DB
100
AcDbEntity
  8
0
370
          15
  6
Continuous
 62
           7
100
AcDbLine
 10
692.835948586931
 20
139.96383587654
 30
0.0
 11
692.835948586931
 21
130.243122976378
 31
0.0
  0
LINE
  5
1DC
100
AcDbEntity
  8
0
370
          15
  6
Continuous
 62
           7
100
AcDbLine
 10
679.835948318711
 20
537.621215384559
 30
0.0
 11
697.458096936813
 21
537.005827229575
 31
0.0
  0
ARC
  5
1DD
100
AcDbEntity
  8
0
370
          15
  6
Continuous
 62
           7
100
AcDbCircle
 10
697.335948318711
 20
533.507962712442
 30
0.0
 40
3.5
100
AcDbArc
 50
0.0
 51
88.000000000003
  0
LINE
  5
1DE
100
AcDbEntity
  8
0
370
          15
  6
Continuous
 62
           7
100
AcDbLine
 10
700.835948035589
 20
533.507958453253
 30
0.0
 11
700.835948035589
 21
526.383728187636
 31
0.0
  0
LINE
  5
1DF
100
AcDbEntity
  8
0
370
          15
  6
Continuous
 62
           7
100
AcDbLine
 10
698.763580218426
 20
524.311364095763
 30
0.0
 11
700.835948035589
 21
526.383728187636
 31
0.0
  0
LINE
  5
1E0
100
AcDbEntity
  8
0
370
          15
  6
Continuous
 62
           7
100
AcDbLine
 10
698.763580218426
 20
524.311364095763
 30
0.0
 11
679.835948318711
 21
523.650393288688
 31
0.0
  0
LINE
  5
1E1
100
AcDbEntity
  8
0
370
          15
  6
Continuous
 62
           7
100
AcDbLine
 10
698.83716587769
 20
524.313927095489
 30
0.0
 11
699.818493023982
 21
525.366276901322
 31
0.0
  0
LINE
  5
1E2
100
AcDbEntity
  8
0
370
          15
  6
Continuous
 62
           7
100
AcDbLine
 10
698.83716587769
 20
524.313927095489
 30
0.0
 11
698.763580218425
 21
524.311364095764
 31
0.0
  0
LINE
  5
1E3
100
AcDbEntity
  8
0
370
          15
  6
Continuous
 62
           7
100
AcDbLine
 10
698.835947707764
 20
511.280775468901
 30
0.0
 11
679.835948318711
 21
511.446580689505
 31
0.0
  0
LINE
  5
1E4
100
AcDbEntity
  8
0
370
          15
  6
Continuous
 62
           7
100
AcDbLine
 10
679.83594831871
 20
145.254195135192
 30
0.0
 11
698.835947707762
 21
145.420015256957
 31
0.0
  0
LINE
  5
1E5
100
AcDbEntity
  8
0
370
          15
  6
Continuous
 62
           7
100
AcDbLine
 10
285.532116215123
 20
-48.839178242506
 30
0.0
 11
285.532116215123
 21
-46.839174189391
 31
0.0
  0
LINE
  5
1E6
100
AcDbEntity
  8
0
370
          15
  6
Continuous
 62
           7
100
AcDbLine
 10
275.532110850705
 20
-46.839174189391
 30
0.0
 11
275.532110850705
 21
-48.839178242506
 31
0.0
  0
LINE
  5
1E7
100
AcDbEntity
  8
0
370
          15
  6
Continuous
 62
           7
100
AcDbLine
 10
-144.467876036273
 20
-48.839178242506
 30
0.0
 11
-144.467876036273
 21
-46.839174189391
 31
0.0
  0
LINE
  5
1E8
100
AcDbEntity
  8
0
370
          15
  6
Continuous
 62
           7
100
AcDbLine
 10
-154.467881400691
 20
-46.839174189391
 30
0.0
 11
-154.467881400691
 21
-48.839178242506
 31
0.0
  0
LINE
  5
1E9
100
AcDbEntity
  8
0
370
          15
  6
Continuous
 62
           7
100
AcDbLine
 10
288.032113830938
 20
-48.839178242506
 30
0.0
 11
288.032113830938
 21
-46.83917418939
 31
0.0
  0
LINE
  5
1EA
100
AcDbEntity
  8
0
370
          15
  6
Continuous
 62
           7
100
AcDbLine
 10
273.032113234891
 20
-46.83917418939
 30
0.0
 11
273.032113234891
 21
-48.839178242506
 31
0.0
  0
LINE
  5
1EB
100
AcDbEntity
  8
0
370
          15
  6
Continuous
 62
           7
100
AcDbLine
 10
-141.967878420458
 20
-48.839178242506
 30
0.0
 11
-141.967878420458
 21
-46.83917418939
 31
0.0
  0
LINE
  5
1EC
100
AcDbEntity
  8
0
370
          15
  6
Continuous
 62
           7
100
AcDbLine
 10
-156.967879016505
 20
-46.83917418939
 30
0.0
 11
-156.967879016505
 21
-48.839178242506
 31
0.0
  0
LINE
  5
1ED
100
AcDbEntity
  8
0
370
          15
  6
Continuous
 62
           7
100
AcDbLine
 10
323.032110254659
 20
-243.839171089949
 30
0.0
 11
320.432513277425
 21
-243.839171089949
 31
0.0
  0
LINE
  5
1EE
100
AcDbEntity
  8
0
370
          15
  6
Continuous
 62
           7
100
AcDbLine
 10
320.432513277425
 20
-243.839171089949
 30
0.0
 11
317.073374311818
 21
-51.393788614096
 31
0.0
  0
ARC
  5
1EF
100
AcDbEntity
  8
0
370
          15
  6
Continuous
 62
           7
100
AcDbCircle
 10
318.5526262595
 20
-93.821359614093
 30
0.0
 40
42.453350483613
100
AcDbArc
 50
88.487787319613
 51
91.996828335939
  0
LINE
  5
1F0
100
AcDbEntity
  8
0
370
          15
  6
Continuous
 62
           7
100
AcDbLine
 10
319.672971289052
 20
-51.393788614096
 30
0.0
 11
323.032110254659
 21
-243.839171089949
 31
0.0
  0
LINE
  5
1F1
100
AcDbEntity
  8
0
370
          15
  6
Continuous
 62
           7
100
AcDbLine
 10
320.432513277425
 20
-243.839171089949
 30
0.0
 11
-189.368278462993
 21
-243.839171089949
 31
0.0
  0
LINE
  5
1F2
100
AcDbEntity
  8
0
370
          15
  6
Continuous
 62
           7
100
AcDbLine
 10
-186.009139497386
 20
-51.393788614096
 30
0.0
 11
-189.368278462993
 21
-243.839171089949
 31
0.0
  0
LINE
  5
1F3
100
AcDbEntity
  8
0
370
          15
  6
Continuous
 62
           7
100
AcDbLine
 10
-152.412087400065
 20
-51.393788614096
 30
0.0
 11
-186.009139497386
 21
-51.393788614096
 31
0.0
  0
ARC
  5
1F4
100
AcDbEntity
  8
0
370
          15
  6
Continuous
 62
           7
100
AcDbCircle
 10
-149.562087925199
 20
-73.442205541917
 30
0.0
 40
22.256787318373
100
AcDbArc
 50
82.153719963879
 51
97.356970124994
  0
LINE
  5
1F5
100
AcDbEntity
  8
0
370
          15
  6
Continuous
 62
           7
100
AcDbLine
 10
277.587919752492
 20
-51.393788614096
 30
0.0
 11
-146.52368493806
 21
-51.393788614096
 31
0.0
  0
ARC
  5
1F6
100
AcDbEntity
  8
0
370
          15
  6
Continuous
 62
           7
100
AcDbCircle
 10
280.437916561011
 20
-73.442164937713
 30
0.0
 40
22.25674745831
100
AcDbArc
 50
82.153698894434
 51
97.356976452653
  0
LINE
  5
1F7
100
AcDbEntity
  8
0
370
          15
  6
Continuous
 62
           7
100
AcDbLine
 10
317.073374311818
 20
-51.393788614096
 30
0.0
 11
283.476322214498
 21
-51.393788614096
 31
0.0
  0
LINE
  5
1F8
100
AcDbEntity
  8
0
370
          15
  6
Continuous
 62
           7
100
AcDbLine
 10
-191.967875440227
 20
-243.839171089949
 30
0.0
 11
-188.60873647462
 21
-51.393788614096
 31
0.0
  0
ARC
  5
1F9
100
AcDbEntity
  8
0
370
          15
  6
Continuous
 62
           7
100
AcDbCircle
 10
-187.488391445105
 20
-93.821359612216
 30
0.0
 40
42.453350481739
100
AcDbArc
 50
88.003171663923
 51
91.512212680404
  0
LINE
  5
1FA
100
AcDbEntity
  8
0
370
          15
  6
Continuous
 62
           7
100
AcDbLine
 10
-189.368278462993
 20
-243.839171089949
 30
0.0
 11
-191.967875440227
 21
-243.839171089949
 31
0.0
  0
LINE
  5
1FB
100
AcDbEntity
  8
0
370
          15
  6
Continuous
 62
           7
100
AcDbLine
 10
203.032120387448
 20
-261.461319708051
 30
0.0
 11
253.032117407216
 21
-261.461319708051
 31
0.0
  0
LINE
  5
1FC
100
AcDbEntity
  8
0
370
          15
  6
Continuous
 62
           7
100
AcDbLine
 10
203.032120387448
 20
-243.839171089949
 30
0.0
 11
203.032120387448
 21
-261.461319708051
 31
0.0
  0
LINE
  5
1FD
100
AcDbEntity
  8
0
370
          15
  6
Continuous
 62
           7
100
AcDbLine
 10
253.032117407216
 20
-243.839171089949
 30
0.0
 11
253.032117407216
 21
-261.461319708051
 31
0.0
  0
LINE
  5
1FE
100
AcDbEntity
  8
0
370
          15
  6
Continuous
 62
           7
100
AcDbLine
 10
-121.967882592784
 20
-261.461319708051
 30
0.0
 11
-71.967885573016
 21
-261.461319708051
 31
0.0
  0
LINE
  5
1FF
100
AcDbEntity
  8
0
370
          15
  6
Continuous
 62
           7
100
AcDbLine
 10
-121.967882592784
 20
-243.839171089949
 30
0.0
 11
-121.967882592784
 21
-261.461319708051
 31
0.0
  0
LINE
  5
200
100
AcDbEntity
  8
0
370
          15
  6
Continuous
 62
           7
100
AcDbLine
 10
-71.967885573016
 20
-243.839171089949
 30
0.0
 11
-71.967885573016
 21
-261.461319708051
 31
0.0
  0
LINE
  5
201
100
AcDbEntity
  8
0
370
          15
  6
Continuous
 62
           7
100
AcDbLine
 10
253.032117407216
 20
-264.839170806827
 30
0.0
 11
203.032120387448
 21
-264.839170806827
 31
0.0
  0
LINE
  5
202
100
AcDbEntity
  8
0
370
          15
  6
Continuous
 62
           7
100
AcDbLine
 10
203.032120387448
 20
-264.839170806827
 30
0.0
 11
203.032120387448
 21
-261.461319708051
 31
0.0
  0
LINE
  5
203
100
AcDbEntity
  8
0
370
          15
  6
Continuous
 62
           7
100
AcDbLine
 10
253.032117407216
 20
-261.461319708051
 30
0.0
 11
253.032117407216
 21
-264.839170806827
 31
0.0
  0
LINE
  5
204
100
AcDbEntity
  8
0
370
          15
  6
Continuous
 62
           7
100
AcDbLine
 10
-71.967885573016
 20
-264.839170806827
 30
0.0
 11
-121.967882592784
 21
-264.839170806827
 31
0.0
  0
LINE
  5
205
100
AcDbEntity
  8
0
370
          15
  6
Continuous
 62
           7
100
AcDbLine
 10
-121.967882592784
 20
-264.839170806827
 30
0.0
 11
-121.967882592784
 21
-261.461319708051
 31
0.0
  0
LINE
  5
206
100
AcDbEntity
  8
0
370
          15
  6
Continuous
 62
           7
100
AcDbLine
 10
-71.967885573016
 20
-261.461319708051
 30
0.0
 11
-71.967885573016
 21
-264.839170806827
 31
0.0
  0
LINE
  5
207
100
AcDbEntity
  8
0
370
          15
  6
Continuous
 62
           7
100
AcDbLine
 10
277.587919752492
 20
-48.839178242506
 30
0.0
 11
283.476322214498
 21
-48.839178242506
 31
0.0
  0
LINE
  5
208
100
AcDbEntity
  8
0
370
          15
  6
Continuous
 62
           7
100
AcDbLine
 10
283.476322214498
 20
-48.839178242506
 30
0.0
 11
283.476322214498
 21
-51.393788614096
 31
0.0
  0
LINE
  5
209
100
AcDbEntity
  8
0
370
          15
  6
Continuous
 62
           7
100
AcDbLine
 10
277.587919752492
 20
-48.839178242506
 30
0.0
 11
277.587919752492
 21
-51.393788614096
 31
0.0
  0
LINE
  5
20A
100
AcDbEntity
  8
0
370
          15
  6
Continuous
 62
           7
100
AcDbLine
 10
-152.412087400065
 20
-48.839178242506
 30
0.0
 11
-146.52368493806
 21
-48.839178242506
 31
0.0
  0
LINE
  5
20B
100
AcDbEntity
  8
0
370
          15
  6
Continuous
 62
           7
100
AcDbLine
 10
-146.52368493806
 20
-48.839178242506
 30
0.0
 11
-146.52368493806
 21
-51.393788614096
 31
0.0
  0
LINE
  5
20C
100
AcDbEntity
  8
0
370
          15
  6
Continuous
 62
           7
100
AcDbLine
 10
-152.412087400065
 20
-48.839178242506
 30
0.0
 11
-152.412087400065
 21
-51.393788614096
 31
0.0
  0
LINE
  5
20D
100
AcDbEntity
  8
0
370
          15
  6
Continuous
 62
           7
100
AcDbLine
 10
283.476322214498
 20
-48.839178242506
 30
0.0
 11
295.087917964353
 21
-48.839178242506
 31
0.0
  0
ARC
  5
20E
100
AcDbEntity
  8
0
370
          15
  6
Continuous
 62
           7
100
AcDbCircle
 10
298.038322419909
 20
-27.951619757355
 30
0.0
 40
21.094904264348
100
AcDbArc
 50
261.960059710253
 51
278.005910108655
  0
LINE
  5
20F
100
AcDbEntity
  8
0
370
          15
  6
Continuous
 62
           7
100
AcDbLine
 10
300.976320426358
 20
-48.839178242506
 30
0.0
 11
317.073374311818
 21
-48.839178242506
 31
0.0
  0
LINE
  5
210
100
AcDbEntity
  8
0
370
          15
  6
Continuous
 62
           7
100
AcDbLine
 10
317.073374311818
 20
-48.839178242506
 30
0.0
 11
317.073374311818
 21
-51.393788614096
 31
0.0
  0
ARC
  5
211
100
AcDbEntity
  8
0
370
          15
  6
Continuous
 62
           7
100
AcDbCircle
 10
317.073366862113
 20
-51.439171089949
 30
0.0
 40
2.6
100
AcDbArc
 50
1.000000000538
 51
90.0
  0
LINE
  5
212
100
AcDbEntity
  8
0
370
          15
  6
Continuous
 62
           7
100
AcDbLine
 10
-146.52368493806
 20
-48.839178242506
 30
0.0
 11
277.587919752492
 21
-48.839178242506
 31
0.0
  0
LINE
  5
213
100
AcDbEntity
  8
0
370
          15
  6
Continuous
 62
           7
100
AcDbLine
 10
-186.009139497386
 20
-48.839178242506
 30
0.0
 11
-169.912085611926
 21
-48.839178242506
 31
0.0
  0
ARC
  5
214
100
AcDbEntity
  8
0
370
          15
  6
Continuous
 62
           7
100
AcDbCircle
 10
-166.961681156342
 20
-27.951619757407
 30
0.0
 40
21.0949042643
100
AcDbArc
 50
261.960059710159
 51
278.005910108597
  0
LINE
  5
215
100
AcDbEntity
  8
0
370
          15
  6
Continuous
 62
           7
100
AcDbLine
 10
-164.02368314992
 20
-48.839178242506
 30
0.0
 11
-152.412087400065
 21
-48.839178242506
 31
0.0
  0
LINE
  5
216
100
AcDbEntity
  8
0
370
          15
  6
Continuous
 62
           7
100
AcDbLine
 10
-186.009139497386
 20
-48.839178242506
 30
0.0
 11
-186.009139497386
 21
-51.393788614096
 31
0.0
  0
ARC
  5
217
100
AcDbEntity
  8
0
370
          15
  6
Continuous
 62
           7
100
AcDbCircle
 10
-186.009132047681
 20
-51.439171089949
 30
0.0
 40
2.6
100
AcDbArc
 50
90.0
 51
178.999999999821
  0
LINE
  5
218
100
AcDbEntity
  8
0
370
          15
  6
Continuous
 62
           7
100
AcDbLine
 10
293.032123963727
 20
-48.839178242506
 30
0.0
 11
295.03121904601
 21
-48.839178242506
 31
0.0
  0
LINE
  5
219
100
AcDbEntity
  8
0
370
          15
  6
Continuous
 62
           7
100
AcDbLine
 10
301.001607696905
 20
-48.839178242506
 30
0.0
 11
303.032114426984
 21
-48.839178242506
 31
0.0
  0
LINE
  5
21A
100
AcDbEntity
  8
0
370
          15
  6
Continuous
 62
           7
100
AcDbLine
 10
275.532110850705
 20
-46.839174189391
 30
0.0
 11
285.532116215123
 21
-46.839174189391
 31
0.0
  0
LINE
  5
21B
100
AcDbEntity
  8
0
370
          15
  6
Continuous
 62
           7
100
AcDbLine
 10
-154.467881400691
 20
-46.839174189391
 30
0.0
 11
-144.467876036273
 21
-46.839174189391
 31
0.0
  0
LINE
  5
21C
100
AcDbEntity
  8
0
370
          15
  6
Continuous
 62
           7
100
AcDbLine
 10
-171.967879612552
 20
-48.839178242506
 30
0.0
 11
-169.968784530268
 21
-48.839178242506
 31
0.0
  0
LINE
  5
21D
100
AcDbEntity
  8
0
370
          15
  6
Continuous
 62
           7
100
AcDbLine
 10
-163.998395879374
 20
-48.839178242506
 30
0.0
 11
-161.967889149295
 21
-48.839178242506
 31
0.0
  0
LINE
  5
21E
100
AcDbEntity
  8
0
370
          15
  6
Continuous
 62
           7
100
AcDbLine
 10
305.173217575444
 20
-262.839170479001
 30
0.0
 11
299.674271862401
 21
-262.839170479001
 31
0.0
  0
LINE
  5
21F
100
AcDbEntity
  8
0
370
          15
  6
Continuous
 62
           7
100
AcDbLine
 10
299.674271862401
 20
-262.839170479001
 30
0.0
 11
253.032117407216
 21
-262.839170479001
 31
0.0
  0
LINE
  5
220
100
AcDbEntity
  8
0
370
          15
  6
Continuous
 62
           7
100
AcDbLine
 10
203.032120387449
 20
-262.839170479001
 30
0.0
 11
-71.967885573016
 21
-262.839170479001
 31
0.0
  0
LINE
  5
221
100
AcDbEntity
  8
0
370
          15
  6
Continuous
 62
           7
100
AcDbLine
 10
-121.967882592784
 20
-262.839170479001
 30
0.0
 11
-168.610037047969
 21
-262.839170479001
 31
0.0
  0
LINE
  5
222
100
AcDbEntity
  8
0
370
          15
  6
Continuous
 62
           7
100
AcDbLine
 10
-168.610037047969
 20
-262.839170479001
 30
0.0
 11
-174.108982761012
 21
-262.839170479001
 31
0.0
  0
LINE
  5
223
100
AcDbEntity
  8
0
370
          15
  6
Continuous
 62
           7
100
AcDbLine
 10
308.032124559774
 20
-46.83917418939
 30
0.0
 11
308.032124559774
 21
-48.839178242506
 31
0.0
  0
LINE
  5
224
100
AcDbEntity
  8
0
370
          15
  6
Continuous
 62
           7
100
AcDbLine
 10
308.032124559774
 20
-46.83917418939
 30
0.0
 11
318.03211502303
 21
-46.83917418939
 31
0.0
  0
LINE
  5
225
100
AcDbEntity
  8
0
370
          15
  6
Continuous
 62
           7
100
AcDbLine
 10
318.03211502303
 20
-46.83917418939
 30
0.0
 11
318.03211502303
 21
-48.839178242506
 31
0.0
  0
LINE
  5
226
100
AcDbEntity
  8
0
370
          15
  6
Continuous
 62
           7
100
AcDbLine
 10
317.073374311818
 20
-48.839178242506
 30
0.0
 11
318.03211502303
 21
-48.839178242506
 31
0.0
  0
LINE
  5
227
100
AcDbEntity
  8
0
370
          15
  6
Continuous
 62
           7
100
AcDbLine
 10
-186.967880208598
 20
-46.83917418939
 30
0.0
 11
-186.967880208598
 21
-48.839178242506
 31
0.0
  0
LINE
  5
228
100
AcDbEntity
  8
0
370
          15
  6
Continuous
 62
           7
100
AcDbLine
 10
-176.967889745341
 20
-46.83917418939
 30
0.0
 11
-176.967889745341
 21
-48.839178242506
 31
0.0
  0
LINE
  5
229
100
AcDbEntity
  8
0
370
          15
  6
Continuous
 62
           7
100
AcDbLine
 10
-186.967880208598
 20
-48.839178242506
 30
0.0
 11
-186.009139497386
 21
-48.839178242506
 31
0.0
  0
LINE
  5
22A
100
AcDbEntity
  8
0
370
          15
  6
Continuous
 62
           7
100
AcDbLine
 10
-186.967880208598
 20
-46.83917418939
 30
0.0
 11
-176.967889745341
 21
-46.83917418939
 31
0.0
  0
LINE
  5
22B
100
AcDbEntity
  8
0
370
          15
  6
Continuous
 62
           7
100
AcDbLine
 10
308.366283099546
 20
-262.839170479
 30
0.0
 11
308.532118122473
 21
-243.839171089948
 31
0.0
  0
LINE
  5
22C
100
AcDbEntity
  8
0
370
          15
  6
Continuous
 62
           7
100
AcDbLine
 10
308.366283099546
 20
-262.839170479
 30
0.0
 11
305.173217575444
 21
-262.839170479001
 31
0.0
  0
LINE
  5
22D
100
AcDbEntity
  8
0
370
          15
  6
Continuous
 62
           7
100
AcDbLine
 10
-177.302048285113
 20
-262.839170479
 30
0.0
 11
-177.467883308039
 21
-243.839171089948
 31
0.0
  0
LINE
  5
22E
100
AcDbEntity
  8
0
370
          15
  6
Continuous
 62
           7
100
AcDbLine
 10
-174.108982761012
 20
-262.839170479001
 30
0.0
 11
-177.302048285113
 21
-262.839170479
 31
0.0
  0
ARC
  5
22F
100
AcDbEntity
  8
0
370
          15
  6
Continuous
 62
           7
100
AcDbCircle
 10
317.070146299071
 20
-51.254665156821
 30
0.0
 40
2.6
100
AcDbArc
 50
1.000000000259
 51
68.285068036269
  0
ARC
  5
230
100
AcDbEntity
  8
0
370
          15
  6
Continuous
 62
           7
100
AcDbCircle
 10
-186.005911484638
 20
-51.254665156821
 30
0.0
 40
2.6
100
AcDbArc
 50
111.714931963731
 51
178.999999999741
  0
LINE
  5
231
100
AcDbEntity
  8
0
370
          15
  6
Continuous
 62
           7
100
AcDbLine
 10
273.032113234891
 20
-46.83917418939
 30
0.0
 11
275.532110850706
 21
-46.83917418939
 31
0.0
  0
LINE
  5
232
100
AcDbEntity
  8
0
370
          15
  6
Continuous
 62
           7
100
AcDbLine
 10
285.532116215124
 20
-46.83917418939
 30
0.0
 11
288.032113830938
 21
-46.83917418939
 31
0.0
  0
LINE
  5
233
100
AcDbEntity
  8
0
370
          15
  6
Continuous
 62
           7
100
AcDbLine
 10
-156.967879016505
 20
-46.83917418939
 30
0.0
 11
-154.467881400691
 21
-46.83917418939
 31
0.0
  0
LINE
  5
234
100
AcDbEntity
  8
0
370
          15
  6
Continuous
 62
           7
100
AcDbLine
 10
-144.467876036273
 20
-46.83917418939
 30
0.0
 11
-141.967878420458
 21
-46.83917418939
 31
0.0
  0
LINE
  5
235
100
AcDbEntity
  8
0
370
          15
  6
Continuous
 62
           7
100
AcDbLine
 10
299.674271862401
 20
-262.839170479001
 30
0.0
 11
299.837201158895
 21
-243.839171089949
 31
0.0
  0
LINE
  5
236
100
AcDbEntity
  8
0
370
          15
  6
Continuous
 62
           7
100
AcDbLine
 10
305.336161773099
 20
-243.839171089949
 30
0.0
 11
305.173217575444
 21
-262.839170479001
 31
0.0
  0
LINE
  5
237
100
AcDbEntity
  8
0
370
          15
  6
Continuous
 62
           7
100
AcDbLine
 10
-168.772966344462
 20
-243.839171089949
 30
0.0
 11
-168.610037047969
 21
-262.839170479001
 31
0.0
  0
LINE
  5
238
100
AcDbEntity
  8
0
370
          15
  6
Continuous
 62
           7
100
AcDbLine
 10
-174.108982761012
 20
-262.839170479001
 30
0.0
 11
-174.271926958667
 21
-243.839171089949
 31
0.0
  0
LINE
  5
239
100
AcDbEntity
  8
0
370
          15
  6
Continuous
 62
           7
100
AcDbLine
 10
-370.749263589462
 20
148.350388210374
 30
0.0
 11
-368.749259536346
 21
148.350388210374
 31
0.0
  0
LINE
  5
23A
100
AcDbEntity
  8
0
370
          15
  6
Continuous
 62
           7
100
AcDbLine
 10
-368.749259536346
 20
170.850396555024
 30
0.0
 11
-370.749263589462
 21
170.850396555024
 31
0.0
  0
LINE
  5
23B
100
AcDbEntity
  8
0
370
          15
  6
Continuous
 62
           7
100
AcDbLine
 10
-370.749263589463
 20
490.850389402467
 30
0.0
 11
-368.749259536347
 21
490.850389402467
 31
0.0
  0
LINE
  5
23C
100
AcDbEntity
  8
0
370
          15
  6
Continuous
 62
           7
100
AcDbLine
 10
-368.749259536347
 20
513.350397747117
 30
0.0
 11
-370.749263589463
 21
513.350397747117
 31
0.0
  0
LINE
  5
23D
100
AcDbEntity
  8
0
370
          15
  6
Continuous
 62
           7
100
AcDbLine
 10
-370.749263589463
 20
423.350394170838
 30
0.0
 11
-368.749259536347
 21
423.350394170838
 31
0.0
  0
LINE
  5
23E
100
AcDbEntity
  8
0
370
          15
  6
Continuous
 62
           7
100
AcDbLine
 10
-368.749259536347
 20
438.350394766885
 30
0.0
 11
-370.749263589463
 21
438.350394766885
 31
0.0
  0
LINE
  5
23F
100
AcDbEntity
  8
0
370
          15
  6
Continuous
 62
           7
100
AcDbLine
 10
-370.749263589462
 20
223.350391190606
 30
0.0
 11
-368.749259536346
 21
223.350391190606
 31
0.0
  0
LINE
  5
240
100
AcDbEntity
  8
0
370
          15
  6
Continuous
 62
           7
100
AcDbLine
 10
-368.749259536346
 20
238.350391786653
 30
0.0
 11
-370.749263589462
 21
238.350391786653
 31
0.0
  0
LINE
  5
241
100
AcDbEntity
  8
0
370
          15
  6
Continuous
 62
           7
100
AcDbLine
 10
-370.749263589462
 20
128.350392382699
 30
0.0
 11
-368.749259536346
 21
128.350392382699
 31
0.0
  0
LINE
  5
242
100
AcDbEntity
  8
0
370
          15
  6
Continuous
 62
           7
100
AcDbLine
 10
-368.749259536346
 20
138.350397747117
 30
0.0
 11
-370.749263589462
 21
138.350397747117
 31
0.0
  0
LINE
  5
243
100
AcDbEntity
  8
0
370
          15
  6
Continuous
 62
           7
100
AcDbLine
 10
-370.749263589463
 20
523.350388210374
 30
0.0
 11
-368.749259536347
 21
523.350388210374
 31
0.0
  0
LINE
  5
244
100
AcDbEntity
  8
0
370
          15
  6
Continuous
 62
           7
100
AcDbLine
 10
-368.749259536347
 20
533.350393574792
 30
0.0
 11
-370.749263589463
 21
533.350393574792
 31
0.0
  0
ARC
  5
245
100
AcDbEntity
  8
0
370
          15
  6
Continuous
 62
           7
100
AcDbCircle
 10
-373.164778373944
 20
129.312311194146
 30
0.0
 40
2.599956328285
100
AcDbArc
 50
270.998146101234
 51
340.410927527342
  0
ARC
  5
246
100
AcDbEntity
  8
0
370
          15
  6
Continuous
 62
           7
100
AcDbCircle
 10
-373.164772968128
 20
532.388450064336
 30
0.0
 40
2.59997554767
100
AcDbArc
 50
19.51801580264
 51
89.001980424259
  0
LINE
  5
247
100
AcDbEntity
  8
0
370
          15
  6
Continuous
 62
           7
100
AcDbLine
 10
-565.749256436905
 20
123.35039715107
 30
0.0
 11
-565.749256436905
 21
125.949994128304
 31
0.0
  0
LINE
  5
248
100
AcDbEntity
  8
0
370
          15
  6
Continuous
 62
           7
100
AcDbLine
 10
-565.749256436905
 20
125.949994128304
 30
0.0
 11
-373.303873961052
 21
129.309147995072
 31
0.0
  0
ARC
  5
249
100
AcDbEntity
  8
0
370
          15
  6
Continuous
 62
           7
100
AcDbCircle
 10
-415.731270559729
 20
127.829886807137
 30
0.0
 40
42.453176510169
100
AcDbArc
 50
358.003150999294
 51
1.996849000707
  0
LINE
  5
24A
100
AcDbEntity
  8
0
370
          15
  6
Continuous
 62
           7
100
AcDbLine
 10
-373.303873961052
 20
126.709536116677
 30
0.0
 11
-565.749256436905
 21
123.35039715107
 31
0.0
  0
LINE
  5
24B
100
AcDbEntity
  8
0
370
          15
  6
Continuous
 62
           7
100
AcDbLine
 10
-565.749256436905
 20
125.949994128304
 30
0.0
 11
-565.749256436906
 21
535.750791829186
 31
0.0
  0
LINE
  5
24C
100
AcDbEntity
  8
0
370
          15
  6
Continuous
 62
           7
100
AcDbLine
 10
-373.303873961053
 20
532.391637962419
 30
0.0
 11
-565.749256436906
 21
535.750791829186
 31
0.0
  0
LINE
  5
24D
100
AcDbEntity
  8
0
370
          15
  6
Continuous
 62
           7
100
AcDbLine
 10
-373.303873961053
 20
511.29458884533
 30
0.0
 11
-373.303873961053
 21
532.391637962419
 31
0.0
  0
LWPOLYLINE
  5
24E
100
AcDbEntity
  8
0
370
          15
  6
Continuous
 62
           7
100
AcDbPolyline
 90
        3
 70
         128
 10
-373.119367783151
 20
508.350387614328
 10
-373.120515172563
 20
508.502334755021
 10
-373.303873961053
 20
511.29458884533
  0
LINE
  5
24F
100
AcDbEntity
  8
0
370
          15
  6
Continuous
 62
           7
100
AcDbLine
 10
-373.119367783151
 20
495.850399535256
 30
0.0
 11
-373.119367783151
 21
508.350387614328
 31
0.0
  0
LWPOLYLINE
  5
250
100
AcDbEntity
  8
0
370
          15
  6
Continuous
 62
           7
100
AcDbPolyline
 90
        3
 70
         128
 10
-373.303873961053
 20
492.906198304254
 10
-373.261420552812
 20
493.797660272676
 10
-373.119367783151
 20
495.850399535256
  0
LINE
  5
251
100
AcDbEntity
  8
0
370
          15
  6
Continuous
 62
           7
100
AcDbLine
 10
-373.303873961052
 20
168.794587653238
 30
0.0
 11
-373.303873961053
 21
492.906198304254
 31
0.0
  0
LWPOLYLINE
  5
252
100
AcDbEntity
  8
0
370
          15
  6
Continuous
 62
           7
100
AcDbPolyline
 90
        3
 70
         128
 10
-373.11936778315
 20
165.850386422235
 10
-373.120515172561
 20
166.002333562928
 10
-373.303873961052
 20
168.794587653238
  0
LINE
  5
253
100
AcDbEntity
  8
0
370
          15
  6
Continuous
 62
           7
100
AcDbLine
 10
-373.11936778315
 20
153.350398343164
 30
0.0
 11
-373.11936778315
 21
165.850386422235
 31
0.0
  0
LWPOLYLINE
  5
254
100
AcDbEntity
  8
0
370
          15
  6
Continuous
 62
           7
100
AcDbPolyline
 90
        3
 70
         128
 10
-373.303873961052
 20
150.406197112161
 10
-373.26142055281
 20
151.297659080583
 10
-373.11936778315
 20
153.350398343164
  0
LINE
  5
255
100
AcDbEntity
  8
0
370
          15
  6
Continuous
 62
           7
100
AcDbLine
 10
-373.303873961052
 20
129.309147995072
 30
0.0
 11
-373.303873961052
 21
150.406197112161
 31
0.0
  0
LINE
  5
256
100
AcDbEntity
  8
0
370
          15
  6
Continuous
 62
           7
100
AcDbLine
 10
-565.749256436906
 20
538.35038880642
 30
0.0
 11
-373.303873961053
 21
534.991249840814
 31
0.0
  0
ARC
  5
257
100
AcDbEntity
  8
0
370
          15
  6
Continuous
 62
           7
100
AcDbCircle
 10
-415.731270563702
 20
533.870899150387
 30
0.0
 40
42.453176514139
100
AcDbArc
 50
358.003150999437
 51
1.996849000564
  0
LINE
  5
258
100
AcDbEntity
  8
0
370
          15
  6
Continuous
 62
           7
100
AcDbLine
 10
-565.749256436906
 20
535.750791829186
 30
0.0
 11
-565.749256436906
 21
538.35038880642
 31
0.0
  0
LINE
  5
259
100
AcDbEntity
  8
0
370
          15
  6
Continuous
 62
           7
100
AcDbLine
 10
-373.303873961052
 20
168.794587653238
 30
0.0
 11
-370.749263589462
 21
168.794587653238
 31
0.0
  0
LINE
  5
25A
100
AcDbEntity
  8
0
370
          15
  6
Continuous
 62
           7
100
AcDbLine
 10
-370.749263589462
 20
168.794587653238
 30
0.0
 11
-370.749263589462
 21
165.850386422235
 31
0.0
  0
LINE
  5
25B
100
AcDbEntity
  8
0
370
          15
  6
Continuous
 62
           7
100
AcDbLine
 10
-373.11936778315
 20
165.850386422235
 30
0.0
 11
-370.749263589462
 21
165.850386422235
 31
0.0
  0
LINE
  5
25C
100
AcDbEntity
  8
0
370
          15
  6
Continuous
 62
           7
100
AcDbLine
 10
-373.303873961053
 20
511.29458884533
 30
0.0
 11
-370.749263589463
 21
511.29458884533
 31
0.0
  0
LINE
  5
25D
100
AcDbEntity
  8
0
370
          15
  6
Continuous
 62
           7
100
AcDbLine
 10
-370.749263589463
 20
511.29458884533
 30
0.0
 11
-370.749263589463
 21
508.350387614328
 31
0.0
  0
LINE
  5
25E
100
AcDbEntity
  8
0
370
          15
  6
Continuous
 62
           7
100
AcDbLine
 10
-373.119367783151
 20
508.350387614328
 30
0.0
 11
-370.749263589463
 21
508.350387614328
 31
0.0
  0
LINE
  5
25F
100
AcDbEntity
  8
0
370
          15
  6
Continuous
 62
           7
100
AcDbLine
 10
-373.11936778315
 20
153.350398343164
 30
0.0
 11
-370.749263589462
 21
153.350398343164
 31
0.0
  0
LINE
  5
260
100
AcDbEntity
  8
0
370
          15
  6
Continuous
 62
           7
100
AcDbLine
 10
-370.749263589462
 20
153.350398343164
 30
0.0
 11
-370.749263589462
 21
150.406197112161
 31
0.0
  0
LINE
  5
261
100
AcDbEntity
  8
0
370
          15
  6
Continuous
 62
           7
100
AcDbLine
 10
-373.303873961052
 20
150.406197112161
 30
0.0
 11
-370.749263589462
 21
150.406197112161
 31
0.0
  0
LINE
  5
262
100
AcDbEntity
  8
0
370
          15
  6
Continuous
 62
           7
100
AcDbLine
 10
-373.119367783151
 20
495.850399535256
 30
0.0
 11
-370.749263589463
 21
495.850399535257
 31
0.0
  0
LINE
  5
263
100
AcDbEntity
  8
0
370
          15
  6
Continuous
 62
           7
100
AcDbLine
 10
-370.749263589463
 20
495.850399535257
 30
0.0
 11
-370.749263589463
 21
492.906198304254
 31
0.0
  0
LINE
  5
264
100
AcDbEntity
  8
0
370
          15
  6
Continuous
 62
           7
100
AcDbLine
 10
-373.303873961053
 20
492.906198304254
 30
0.0
 11
-370.749263589463
 21
492.906198304254
 31
0.0
  0
LINE
  5
265
100
AcDbEntity
  8
0
370
          15
  6
Continuous
 62
           7
100
AcDbLine
 10
-370.749263589462
 20
150.406197112161
 30
0.0
 11
-370.749263589462
 21
129.309147995073
 31
0.0
  0
LINE
  5
266
100
AcDbEntity
  8
0
370
          15
  6
Continuous
 62
           7
100
AcDbLine
 10
-373.303873961052
 20
129.309147995072
 30
0.0
 11
-370.749263589462
 21
129.309147995073
 31
0.0
  0
ARC
  5
267
100
AcDbEntity
  8
0
370
          15
  6
Continuous
 62
           7
100
AcDbCircle
 10
-373.349256436905
 20
129.309143523849
 30
0.0
 40
2.6
100
AcDbArc
 50
271.000000000002
 51
359.999999999999
  0
LINE
  5
268
100
AcDbEntity
  8
0
370
          15
  6
Continuous
 62
           7
100
AcDbLine
 10
-370.749263589463
 20
492.906198304254
 30
0.0
 11
-370.749263589462
 21
168.794587653238
 31
0.0
  0
LINE
  5
269
100
AcDbEntity
  8
0
370
          15
  6
Continuous
 62
           7
100
AcDbLine
 10
-373.303873961053
 20
532.391637962419
 30
0.0
 11
-370.749263589463
 21
532.391637962419
 31
0.0
  0
LINE
  5
26A
100
AcDbEntity
  8
0
370
          15
  6
Continuous
 62
           7
100
AcDbLine
 10
-370.749263589463
 20
532.391637962419
 30
0.0
 11
-370.749263589463
 21
511.29458884533
 31
0.0
  0
ARC
  5
26B
100
AcDbEntity
  8
0
370
          15
  6
Continuous
 62
           7
100
AcDbCircle
 10
-373.349256436906
 20
532.391642433643
 30
0.0
 40
2.6
100
AcDbArc
 50
0.0
 51
88.999999999997
  0
LINE
  5
26C
100
AcDbEntity
  8
0
370
          15
  6
Continuous
 62
           7
100
AcDbLine
 10
-370.749263589462
 20
165.850386422235
 30
0.0
 11
-370.749263589462
 21
153.350398343164
 31
0.0
  0
LINE
  5
26D
100
AcDbEntity
  8
0
370
          15
  6
Continuous
 62
           7
100
AcDbLine
 10
-370.749263589463
 20
508.350387614328
 30
0.0
 11
-370.749263589463
 21
495.850399535257
 31
0.0
  0
LINE
  5
26E
100
AcDbEntity
  8
0
370
          15
  6
Continuous
 62
           7
100
AcDbLine
 10
-368.749259536346
 20
153.350398343164
 30
0.0
 11
-370.749263589462
 21
153.350398343164
 31
0.0
  0
LINE
  5
26F
100
AcDbEntity
  8
0
370
          15
  6
Continuous
 62
           7
100
AcDbLine
 10
-368.749259536346
 20
153.350398343164
 30
0.0
 11
-368.749259536346
 21
148.350388210374
 31
0.0
  0
LINE
  5
270
100
AcDbEntity
  8
0
370
          15
  6
Continuous
 62
           7
100
AcDbLine
 10
-368.749259536346
 20
165.850386422235
 30
0.0
 11
-370.749263589462
 21
165.850386422235
 31
0.0
  0
LINE
  5
271
100
AcDbEntity
  8
0
370
          15
  6
Continuous
 62
           7
100
AcDbLine
 10
-368.749259536346
 20
165.850386422235
 30
0.0
 11
-368.749259536346
 21
153.350398343164
 31
0.0
  0
LINE
  5
272
100
AcDbEntity
  8
0
370
          15
  6
Continuous
 62
           7
100
AcDbLine
 10
-368.749259536346
 20
170.850396555024
 30
0.0
 11
-368.749259536346
 21
165.850386422235
 31
0.0
  0
LINE
  5
273
100
AcDbEntity
  8
0
370
          15
  6
Continuous
 62
           7
100
AcDbLine
 10
-368.749259536347
 20
495.850399535257
 30
0.0
 11
-370.749263589463
 21
495.850399535257
 31
0.0
  0
LINE
  5
274
100
AcDbEntity
  8
0
370
          15
  6
Continuous
 62
           7
100
AcDbLine
 10
-368.749259536347
 20
495.850399535257
 30
0.0
 11
-368.749259536347
 21
490.850389402467
 31
0.0
  0
LINE
  5
275
100
AcDbEntity
  8
0
370
          15
  6
Continuous
 62
           7
100
AcDbLine
 10
-368.749259536347
 20
508.350387614328
 30
0.0
 11
-370.749263589463
 21
508.350387614328
 31
0.0
  0
LINE
  5
276
100
AcDbEntity
  8
0
370
          15
  6
Continuous
 62
           7
100
AcDbLine
 10
-368.749259536347
 20
508.350387614328
 30
0.0
 11
-368.749259536347
 21
495.850399535257
 31
0.0
  0
LINE
  5
277
100
AcDbEntity
  8
0
370
          15
  6
Continuous
 62
           7
100
AcDbLine
 10
-368.749259536347
 20
513.350397747117
 30
0.0
 11
-368.749259536347
 21
508.350387614328
 31
0.0
  0
LINE
  5
278
100
AcDbEntity
  8
0
370
          15
  6
Continuous
 62
           7
100
AcDbLine
 10
-584.749255825958
 20
328.350393034624
 30
0.0
 11
-565.749256436905
 21
328.350393034624
 31
0.0
  0
LINE
  5
279
100
AcDbEntity
  8
0
370
          15
  6
Continuous
 62
           7
100
AcDbLine
 10
-584.749255825957
 20
145.420015256958
 30
0.0
 11
-584.749255825958
 21
328.350393034624
 31
0.0
  0
LINE
  5
27A
100
AcDbEntity
  8
0
370
          15
  6
Continuous
 62
           7
100
AcDbLine
 10
-584.749255825958
 20
328.350393034624
 30
0.0
 11
-584.749255825958
 21
511.280775468903
 31
0.0
  0
LINE
  5
27B
100
AcDbEntity
  8
0
370
          15
  6
Continuous
 62
           7
100
AcDbLine
 10
-565.749256436904
 20
139.850393336373
 30
0.0
 11
-584.749255825957
 21
140.016198556977
 31
0.0
  0
LINE
  5
27C
100
AcDbEntity
  8
0
370
          15
  6
Continuous
 62
           7
100
AcDbLine
 10
-584.749255825957
 20
140.016198556977
 30
0.0
 11
-584.749255825957
 21
145.420015256958
 31
0.0
  0
LINE
  5
27D
100
AcDbEntity
  8
0
370
          15
  6
Continuous
 62
           7
100
AcDbLine
 10
-584.749255825958
 20
516.684577267723
 30
0.0
 11
-565.749256436906
 21
516.850397389489
 31
0.0
  0
LINE
  5
27E
100
AcDbEntity
  8
0
370
          15
  6
Continuous
 62
           7
100
AcDbLine
 10
-584.749255825958
 20
511.280775468903
 30
0.0
 11
-584.749255825958
 21
516.684577267723
 31
0.0
  0
LINE
  5
27F
100
AcDbEntity
  8
0
370
          15
  6
Continuous
 62
           7
100
AcDbLine
 10
-370.749263589462
 20
138.350397747117
 30
0.0
 11
-370.749263589462
 21
129.309147995072
 31
0.0
  0
LWPOLYLINE
  5
280
100
AcDbEntity
  8
0
370
          15
  6
Continuous
 62
           7
100
AcDbPolyline
 90
        3
 70
         128
 10
-370.920328919967
 20
128.384381931382
 10
-370.863376681884
 20
128.547311227876
 10
-370.749263589462
 20
129.309147995072
  0
LWPOLYLINE
  5
281
100
AcDbEntity
  8
0
370
          15
  6
Continuous
 62
           7
100
AcDbPolyline
 90
        4
 70
         128
 10
-370.749263589463
 20
532.391637962419
 10
-370.825870459161
 20
533.018142383653
 10
-370.930133884034
 20
533.344448011476
 10
-370.920328919969
 20
533.316404026109
  0
LINE
  5
282
100
AcDbEntity
  8
0
370
          15
  6
Continuous
 62
           7
100
AcDbLine
 10
-370.749263589463
 20
532.391637962419
 30
0.0
 11
-370.749263589463
 21
523.350388210374
 31
0.0
  0
LINE
  5
283
100
AcDbEntity
  8
0
370
          15
  6
Continuous
 62
           7
100
AcDbLine
 10
-368.749259536347
 20
438.350394766885
 30
0.0
 11
-368.749259536347
 21
423.350394170838
 31
0.0
  0
LINE
  5
284
100
AcDbEntity
  8
0
370
          15
  6
Continuous
 62
           7
100
AcDbLine
 10
-368.749259536346
 20
238.350391786653
 30
0.0
 11
-368.749259536346
 21
223.350391190606
 31
0.0
  0
LINE
  5
285
100
AcDbEntity
  8
0
370
          15
  6
Continuous
 62
           7
100
AcDbLine
 10
-368.749259536346
 20
138.350397747117
 30
0.0
 11
-368.749259536346
 21
128.350392382699
 31
0.0
  0
LINE
  5
286
100
AcDbEntity
  8
0
370
          15
  6
Continuous
 62
           7
100
AcDbLine
 10
-368.749259536347
 20
528.350398343164
 30
0.0
 11
-368.749259536347
 21
523.350388210374
 31
0.0
  0
LINE
  5
287
100
AcDbEntity
  8
0
370
          15
  6
Continuous
 62
           7
100
AcDbLine
 10
-368.749259536347
 20
533.350393574792
 30
0.0
 11
-368.749259536347
 21
528.350398343164
 31
0.0
  0
LINE
  5
288
100
AcDbEntity
  8
0
370
          15
  6
Continuous
 62
           7
100
AcDbLine
 10
-578.749256705125
 20
130.24312297638
 30
0.0
 11
-565.749256436904
 21
130.01620809372
 31
0.0
  0
LINE
  5
289
100
AcDbEntity
  8
0
370
          15
  6
Continuous
 62
           7
100
AcDbLine
 10
-578.749256705125
 20
130.24312297638
 30
0.0
 11
-578.749256705125
 21
139.963835876541
 31
0.0
  0
ARC
  5
28A
100
AcDbEntity
  8
0
370
          15
  6
Continuous
 62
           7
100
AcDbCircle
 10
-583.249256436906
 20
533.507962712443
 30
0.0
 40
3.5
100
AcDbArc
 50
92.0
 51
180.000000000002
  0
LINE
  5
28B
100
AcDbEntity
  8
0
370
          15
  6
Continuous
 62
           7
100
AcDbLine
 10
-565.749256436906
 20
537.62121538456
 30
0.0
 11
-583.371405055008
 21
537.005827229576
 31
0.0
  0
LINE
  5
28C
100
AcDbEntity
  8
0
370
          15
  6
Continuous
 62
           7
100
AcDbLine
 10
-586.749256153784
 20
526.457354825096
 30
0.0
 11
-584.750473995886
 21
524.31392709549
 31
0.0
  0
LINE
  5
28D
100
AcDbEntity
  8
0
370
          15
  6
Continuous
 62
           7
100
AcDbLine
 10
-586.749256153784
 20
533.507958453255
 30
0.0
 11
-586.749256153784
 21
526.457354825096
 31
0.0
  0
LINE
  5
28E
100
AcDbEntity
  8
0
370
          15
  6
Continuous
 62
           7
100
AcDbLine
 10
-584.750473995886
 20
524.31392709549
 30
0.0
 11
-565.749256436906
 21
523.650393288689
 31
0.0
  0
LINE
  5
28F
100
AcDbEntity
  8
0
370
          15
  6
Continuous
 62
           7
100
AcDbLine
 10
-586.749256153783
 20
526.383728187636
 30
0.0
 11
-585.731801142176
 21
525.36627690132
 31
0.0
  0
LINE
  5
290
100
AcDbEntity
  8
0
370
          15
  6
Continuous
 62
           7
100
AcDbLine
 10
-586.749256153783
 20
526.457354825095
 30
0.0
 11
-586.749256153783
 21
526.383728187636
 31
0.0
  0
LINE
  5
291
100
AcDbEntity
  8
0
370
          15
  6
Continuous
 62
           7
100
AcDbLine
 10
-584.749255825957
 20
145.420015256958
 30
0.0
 11
-565.749256436905
 21
145.254195135193
 31
0.0
  0
LINE
  5
292
100
AcDbEntity
  8
0
370
          15
  6
Continuous
 62
           7
100
AcDbLine
 10
-565.749256436906
 20
511.446580689507
 30
0.0
 11
-584.749255825958
 21
511.280775468903
 31
0.0
  0
CIRCLE
  5
293
100
AcDbEntity
  8
0
370
          15
  6
Continuous
 62
           7
100
AcDbCircle
 10
-782.019401747341
 20
165.850392978744
 30
0.0
 40
2.6
  0
LINE
  5
294
100
AcDbEntity
  8
0
370
          15
  6
Continuous
 62
           7
100
AcDbLine
 10
-777.019404131527
 20
153.350398343162
 30
0.0
 11
-777.019404131527
 21
165.850386422233
 31
0.0
  0
LINE
  5
295
100
AcDbEntity
  8
0
370
          15
  6
Continuous
 62
           7
100
AcDbLine
 10
-787.019394594784
 20
165.850386422233
 30
0.0
 11
-787.019394594784
 21
153.350398343162
 31
0.0
  0
ARC
  5
296
100
AcDbEntity
  8
0
370
          15
  6
Continuous
 62
           7
100
AcDbCircle
 10
-782.019401747341
 20
165.850392978744
 30
0.0
 40
5.0
100
AcDbArc
 50
0.000000000001
 51
180.0
  0
CIRCLE
  5
297
100
AcDbEntity
  8
0
370
          15
  6
Continuous
 62
           7
100
AcDbCircle
 10
-782.019401747342
 20
153.350392978744
 30
0.0
 40
3.1
  0
ARC
  5
298
100
AcDbEntity
  8
0
370
          15
  6
Continuous
 62
           7
100
AcDbCircle
 10
-782.019401747342
 20
153.350392978744
 30
0.0
 40
5.0
100
AcDbArc
 50
180.0
 51
360.0
  0
CIRCLE
  5
299
100
AcDbEntity
  8
0
370
          15
  6
Continuous
 62
           7
100
AcDbCircle
 10
-814.519401747342
 20
133.350392978744
 30
0.0
 40
5.0
  0
CIRCLE
  5
29A
100
AcDbEntity
  8
0
370
          15
  6
Continuous
 62
           7
100
AcDbCircle
 10
-814.519401747342
 20
133.350392978744
 30
0.0
 40
3.6
  0
CIRCLE
  5
29B
100
AcDbEntity
  8
0
370
          15
  6
Continuous
 62
           7
100
AcDbCircle
 10
-814.519401747341
 20
230.850392978744
 30
0.0
 40
3.0
  0
CIRCLE
  5
29C
100
AcDbEntity
  8
0
370
          15
  6
Continuous
 62
           7
100
AcDbCircle
 10
-814.519401747341
 20
230.850392978744
 30
0.0
 40
7.5
  0
CIRCLE
  5
29D
100
AcDbEntity
  8
0
370
          15
  6
Continuous
 62
           7
100
AcDbCircle
 10
-814.519401747341
 20
430.850392978744
 30
0.0
 40
3.0
  0
CIRCLE
  5
29E
100
AcDbEntity
  8
0
370
          15
  6
Continuous
 62
           7
100
AcDbCircle
 10
-814.519401747341
 20
430.850392978744
 30
0.0
 40
7.5
  0
CIRCLE
  5
29F
100
AcDbEntity
  8
0
370
          15
  6
Continuous
 62
           7
100
AcDbCircle
 10
-782.01940174734
 20
508.350392978744
 30
0.0
 40
3.1
  0
LINE
  5
2A0
100
AcDbEntity
  8
0
370
          15
  6
Continuous
 62
           7
100
AcDbLine
 10
-777.019404131526
 20
495.850399535255
 30
0.0
 11
-777.019404131526
 21
508.350387614326
 31
0.0
  0
ARC
  5
2A1
100
AcDbEntity
  8
0
370
          15
  6
Continuous
 62
           7
100
AcDbCircle
 10
-782.01940174734
 20
495.850392978744
 30
0.0
 40
5.0
100
AcDbArc
 50
180.0
 51
360.0
  0
LINE
  5
2A2
100
AcDbEntity
  8
0
370
          15
  6
Continuous
 62
           7
100
AcDbLine
 10
-787.019394594783
 20
508.350387614326
 30
0.0
 11
-787.019394594783
 21
495.850399535255
 31
0.0
  0
ARC
  5
2A3
100
AcDbEntity
  8
0
370
          15
  6
Continuous
 62
           7
100
AcDbCircle
 10
-782.01940174734
 20
508.350392978744
 30
0.0
 40
5.0
100
AcDbArc
 50
0.0
 51
180.0
  0
CIRCLE
  5
2A4
100
AcDbEntity
  8
0
370
          15
  6
Continuous
 62
           7
100
AcDbCircle
 10
-782.01940174734
 20
495.850392978744
 30
0.0
 40
2.6
  0
CIRCLE
  5
2A5
100
AcDbEntity
  8
0
370
          15
  6
Continuous
 62
           7
100
AcDbCircle
 10
-814.51940174734
 20
528.350392978744
 30
0.0
 40
3.6
  0
CIRCLE
  5
2A6
100
AcDbEntity
  8
0
370
          15
  6
Continuous
 62
           7
100
AcDbCircle
 10
-814.51940174734
 20
528.350392978744
 30
0.0
 40
5.0
  0
CIRCLE
  5
2A7
100
AcDbEntity
  8
0
370
          15
  6
Continuous
 62
           7
100
AcDbCircle
 10
-1244.519401747342
 20
133.350392978745
 30
0.0
 40
5.0
  0
CIRCLE
  5
2A8
100
AcDbEntity
  8
0
370
          15
  6
Continuous
 62
           7
100
AcDbCircle
 10
-1244.519401747342
 20
133.350392978745
 30
0.0
 40
3.6
  0
CIRCLE
  5
2A9
100
AcDbEntity
  8
0
370
          15
  6
Continuous
 62
           7
100
AcDbCircle
 10
-1277.019401747342
 20
153.350392978746
 30
0.0
 40
3.1
  0
LINE
  5
2AA
100
AcDbEntity
  8
0
370
          15
  6
Continuous
 62
           7
100
AcDbLine
 10
-1282.019399363156
 20
165.850386422235
 30
0.0
 11
-1282.019399363156
 21
153.350398343164
 31
0.0
  0
ARC
  5
2AB
100
AcDbEntity
  8
0
370
          15
  6
Continuous
 62
           7
100
AcDbCircle
 10
-1277.019401747342
 20
165.850392978746
 30
0.0
 40
5.0
100
AcDbArc
 50
0.0
 51
180.0
  0
LINE
  5
2AC
100
AcDbEntity
  8
0
370
          15
  6
Continuous
 62
           7
100
AcDbLine
 10
-1272.019408899899
 20
153.350398343164
 30
0.0
 11
-1272.019408899899
 21
165.850386422235
 31
0.0
  0
ARC
  5
2AD
100
AcDbEntity
  8
0
370
          15
  6
Continuous
 62
           7
100
AcDbCircle
 10
-1277.019401747342
 20
153.350392978746
 30
0.0
 40
5.0
100
AcDbArc
 50
180.0
 51
360.0
  0
CIRCLE
  5
2AE
100
AcDbEntity
  8
0
370
          15
  6
Continuous
 62
           7
100
AcDbCircle
 10
-1277.019401747342
 20
165.850392978746
 30
0.0
 40
2.6
  0
CIRCLE
  5
2AF
100
AcDbEntity
  8
0
370
          15
  6
Continuous
 62
           7
100
AcDbCircle
 10
-1244.519401747341
 20
230.850392978746
 30
0.0
 40
3.0
  0
CIRCLE
  5
2B0
100
AcDbEntity
  8
0
370
          15
  6
Continuous
 62
           7
100
AcDbCircle
 10
-1244.519401747341
 20
230.850392978746
 30
0.0
 40
7.5
  0
CIRCLE
  5
2B1
100
AcDbEntity
  8
0
370
          15
  6
Continuous
 62
           7
100
AcDbCircle
 10
-1244.519401747341
 20
430.850392978746
 30
0.0
 40
3.000000000019
  0
CIRCLE
  5
2B2
100
AcDbEntity
  8
0
370
          15
  6
Continuous
 62
           7
100
AcDbCircle
 10
-1244.519401747341
 20
430.850392978746
 30
0.0
 40
7.500000000019
  0
CIRCLE
  5
2B3
100
AcDbEntity
  8
0
370
          15
  6
Continuous
 62
           7
100
AcDbCircle
 10
-1244.51940174734
 20
528.350392978746
 30
0.0
 40
3.6
  0
CIRCLE
  5
2B4
100
AcDbEntity
  8
0
370
          15
  6
Continuous
 62
           7
100
AcDbCircle
 10
-1244.51940174734
 20
528.350392978746
 30
0.0
 40
5.0
  0
CIRCLE
  5
2B5
100
AcDbEntity
  8
0
370
          15
  6
Continuous
 62
           7
100
AcDbCircle
 10
-1277.019401747341
 20
495.850392978746
 30
0.0
 40
2.6
  0
LINE
  5
2B6
100
AcDbEntity
  8
0
370
          15
  6
Continuous
 62
           7
100
AcDbLine
 10
-1282.019399363155
 20
508.350387614328
 30
0.0
 11
-1282.019399363155
 21
495.850399535257
 31
0.0
  0
ARC
  5
2B7
100
AcDbEntity
  8
0
370
          15
  6
Continuous
 62
           7
100
AcDbCircle
 10
-1277.019401747341
 20
508.350392978746
 30
0.0
 40
5.0
100
AcDbArc
 50
0.0
 51
180.0
  0
LINE
  5
2B8
100
AcDbEntity
  8
0
370
          15
  6
Continuous
 62
           7
100
AcDbLine
 10
-1272.019408899898
 20
495.850399535256
 30
0.0
 11
-1272.019408899898
 21
508.350387614328
 31
0.0
  0
CIRCLE
  5
2B9
100
AcDbEntity
  8
0
370
          15
  6
Continuous
 62
           7
100
AcDbCircle
 10
-1277.019401747341
 20
508.350392978746
 30
0.0
 40
3.1
  0
ARC
  5
2BA
100
AcDbEntity
  8
0
370
          15
  6
Continuous
 62
           7
100
AcDbCircle
 10
-1277.019401747341
 20
495.850392978746
 30
0.0
 40
5.0
100
AcDbArc
 50
180.0
 51
360.0
  0
LINE
  5
2BB
100
AcDbEntity
  8
0
370
          15
  6
Continuous
 62
           7
100
AcDbLine
 10
-794.075198728199
 20
129.309147995071
 30
0.0
 11
-777.97814484274
 21
129.309147995071
 31
0.0
  0
LINE
  5
2BC
100
AcDbEntity
  8
0
370
          15
  6
Continuous
 62
           7
100
AcDbLine
 10
-777.97814484274
 20
126.709536116676
 30
0.0
 11
-777.97814484274
 21
129.309147995071
 31
0.0
  0
LINE
  5
2BD
100
AcDbEntity
  8
0
370
          15
  6
Continuous
 62
           7
100
AcDbLine
 10
-777.97814484274
 20
126.709536116676
 30
0.0
 11
-811.57519694006
 21
126.709536116676
 31
0.0
  0
LINE
  5
2BE
100
AcDbEntity
  8
0
370
          15
  6
Continuous
 62
           7
100
AcDbLine
 10
-811.57519694006
 20
126.709536116676
 30
0.0
 11
-811.57519694006
 21
129.309147995071
 31
0.0
  0
LINE
  5
2BF
100
AcDbEntity
  8
0
370
          15
  6
Continuous
 62
           7
100
AcDbLine
 10
-811.57519694006
 20
129.309147995071
 30
0.0
 11
-799.963601190205
 21
129.309147995071
 31
0.0
  0
ARC
  5
2C0
100
AcDbEntity
  8
0
370
          15
  6
Continuous
 62
           7
100
AcDbCircle
 10
-797.019395054983
 20
133.350366039584
 30
0.0
 40
4.999979304955
100
AcDbArc
 50
233.925006019079
 51
306.074854918477
  0
LINE
  5
2C1
100
AcDbEntity
  8
0
370
          15
  6
Continuous
 62
           7
100
AcDbLine
 10
-777.97814484274
 20
129.309147995071
 30
0.0
 11
-777.97814484274
 21
150.406197112159
 31
0.0
  0
LINE
  5
2C2
100
AcDbEntity
  8
0
370
          15
  6
Continuous
 62
           7
100
AcDbLine
 10
-777.97814484274
 20
150.406197112159
 30
0.0
 11
-775.378547865506
 21
150.406197112159
 31
0.0
  0
LINE
  5
2C3
100
AcDbEntity
  8
0
370
          15
  6
Continuous
 62
           7
100
AcDbLine
 10
-775.378547865506
 20
150.406197112159
 30
0.0
 11
-775.378547865506
 21
129.309147995071
 31
0.0
  0
LINE
  5
2C4
100
AcDbEntity
  8
0
370
          15
  6
Continuous
 62
           7
100
AcDbLine
 10
-777.97814484274
 20
129.309147995071
 30
0.0
 11
-775.378547865506
 21
129.309147995071
 31
0.0
  0
ARC
  5
2C5
100
AcDbEntity
  8
0
370
          15
  6
Continuous
 62
           7
100
AcDbCircle
 10
-777.979142732654
 20
129.310147191318
 30
0.0
 40
2.600611266094
100
AcDbArc
 50
270.021985170441
 51
359.79652638338
  0
LINE
  5
2C6
100
AcDbEntity
  8
0
370
          15
  6
Continuous
 62
           7
100
AcDbLine
 10
-1281.060658651942
 20
532.391637962419
 30
0.0
 11
-1281.060658651942
 21
511.29458884533
 31
0.0
  0
LINE
  5
2C7
100
AcDbEntity
  8
0
370
          15
  6
Continuous
 62
           7
100
AcDbLine
 10
-1264.963604766482
 20
532.391637962419
 30
0.0
 11
-1281.060658651942
 21
532.391637962419
 31
0.0
  0
ARC
  5
2C8
100
AcDbEntity
  8
0
370
          15
  6
Continuous
 62
           7
100
AcDbCircle
 10
-1262.01940174734
 20
528.350392978746
 30
0.0
 40
5.0
100
AcDbArc
 50
126.07470822915
 51
53.925291770848
  0
LINE
  5
2C9
100
AcDbEntity
  8
0
370
          15
  6
Continuous
 62
           7
100
AcDbLine
 10
-1247.463606554622
 20
532.391637962419
 30
0.0
 11
-1259.075202304477
 21
532.391637962419
 31
0.0
  0
LINE
  5
2CA
100
AcDbEntity
  8
0
370
          15
  6
Continuous
 62
           7
100
AcDbLine
 10
-817.463599402064
 20
532.391637962417
 30
0.0
 11
-1241.575204092616
 21
532.391637962419
 31
0.0
  0
LINE
  5
2CB
100
AcDbEntity
  8
0
370
          15
  6
Continuous
 62
           7
100
AcDbLine
 10
-799.963601190204
 20
532.391637962417
 30
0.0
 11
-811.575196940059
 21
532.391637962417
 31
0.0
  0
ARC
  5
2CC
100
AcDbEntity
  8
0
370
          15
  6
Continuous
 62
           7
100
AcDbCircle
 10
-797.01940174734
 20
528.350392978744
 30
0.0
 40
5.0
100
AcDbArc
 50
126.074708229151
 51
53.925291770851
  0
LINE
  5
2CD
100
AcDbEntity
  8
0
370
          15
  6
Continuous
 62
           7
100
AcDbLine
 10
-777.978144842738
 20
532.391637962417
 30
0.0
 11
-794.075198728198
 21
532.391637962417
 31
0.0
  0
LINE
  5
2CE
100
AcDbEntity
  8
0
370
          15
  6
Continuous
 62
           7
100
AcDbLine
 10
-777.978144842738
 20
511.294588845329
 30
0.0
 11
-777.978144842738
 21
532.391637962417
 31
0.0
  0
LINE
  5
2CF
100
AcDbEntity
  8
0
370
          15
  6
Continuous
 62
           7
100
AcDbLine
 10
-777.978144842739
 20
168.794587653236
 30
0.0
 11
-777.978144842738
 21
492.906198304252
 31
0.0
  0
ARC
  5
2D0
100
AcDbEntity
  8
0
370
          15
  6
Continuous
 62
           7
100
AcDbCircle
 10
-797.019401747342
 20
133.350392978744
 30
0.0
 40
5.0
100
AcDbArc
 50
306.074708229152
 51
233.925291770851
  0
LINE
  5
2D1
100
AcDbEntity
  8
0
370
          15
  6
Continuous
 62
           7
100
AcDbLine
 10
-1241.575204092618
 20
129.309147995072
 30
0.0
 11
-817.463599402066
 21
129.309147995071
 31
0.0
  0
LINE
  5
2D2
100
AcDbEntity
  8
0
370
          15
  6
Continuous
 62
           7
100
AcDbLine
 10
-1259.075202304478
 20
129.309147995072
 30
0.0
 11
-1247.463606554623
 21
129.309147995072
 31
0.0
  0
ARC
  5
2D3
100
AcDbEntity
  8
0
370
          15
  6
Continuous
 62
           7
100
AcDbCircle
 10
-1262.019401747342
 20
133.350392978746
 30
0.0
 40
5.0
100
AcDbArc
 50
306.074708229151
 51
233.92529177085
  0
LINE
  5
2D4
100
AcDbEntity
  8
0
370
          15
  6
Continuous
 62
           7
100
AcDbLine
 10
-1281.060658651944
 20
129.309147995073
 30
0.0
 11
-1264.963604766484
 21
129.309147995072
 31
0.0
  0
LINE
  5
2D5
100
AcDbEntity
  8
0
370
          15
  6
Continuous
 62
           7
100
AcDbLine
 10
-1281.060658651944
 20
150.406197112161
 30
0.0
 11
-1281.060658651944
 21
129.309147995073
 31
0.0
  0
LINE
  5
2D6
100
AcDbEntity
  8
0
370
          15
  6
Continuous
 62
           7
100
AcDbLine
 10
-1281.060658651943
 20
492.906198304254
 30
0.0
 11
-1281.060658651944
 21
168.794587653238
 31
0.0
  0
LINE
  5
2D7
100
AcDbEntity
  8
0
370
          15
  6
Continuous
 62
           7
100
AcDbLine
 10
-777.019404131527
 20
153.350398343162
 30
0.0
 11
-775.381766516323
 21
153.350398343162
 31
0.0
  0
LWPOLYLINE
  5
2D8
100
AcDbEntity
  8
0
370
          15
  6
Continuous
 62
           7
100
AcDbPolyline
 90
        3
 70
         128
 10
-775.381766516323
 20
153.350398343162
 10
-775.381736714001
 20
153.198451202468
 10
-775.378547865506
 20
150.406197112159
  0
LINE
  5
2D9
100
AcDbEntity
  8
0
370
          15
  6
Continuous
 62
           7
100
AcDbLine
 10
-777.019404131527
 20
165.850386422233
 30
0.0
 11
-775.381766516323
 21
165.850386422233
 31
0.0
  0
LINE
  5
2DA
100
AcDbEntity
  8
0
370
          15
  6
Continuous
 62
           7
100
AcDbLine
 10
-775.381766516323
 20
165.850386422233
 30
0.0
 11
-775.381766516323
 21
153.350398343162
 31
0.0
  0
LINE
  5
2DB
100
AcDbEntity
  8
0
370
          15
  6
Continuous
 62
           7
100
AcDbLine
 10
-777.978144842739
 20
168.794587653236
 30
0.0
 11
-775.378547865506
 21
168.794587653236
 31
0.0
  0
LWPOLYLINE
  5
2DC
100
AcDbEntity
  8
0
370
          15
  6
Continuous
 62
           7
100
AcDbPolyline
 90
        3
 70
         128
 10
-775.378547865506
 20
168.794587653236
 10
-775.379292923565
 20
167.903125684814
 10
-775.381766516323
 20
165.850386422233
  0
LINE
  5
2DD
100
AcDbEntity
  8
0
370
          15
  6
Continuous
 62
           7
100
AcDbLine
 10
-777.978144842738
 20
492.906198304252
 30
0.0
 11
-775.378547865505
 21
492.906198304252
 31
0.0
  0
LINE
  5
2DE
100
AcDbEntity
  8
0
370
          15
  6
Continuous
 62
           7
100
AcDbLine
 10
-775.378547865505
 20
492.906198304252
 30
0.0
 11
-775.378547865506
 21
168.794587653236
 31
0.0
  0
ARC
  5
2DF
100
AcDbEntity
  8
0
370
          15
  6
Continuous
 62
           7
100
AcDbCircle
 10
-814.613095316779
 20
-1140.863009286783
 30
0.0
 40
1267.576185752617
100
AcDbArc
 50
89.862683660234
 51
90.128845897439
  0
LINE
  5
2E0
100
AcDbEntity
  8
0
370
          15
  6
Continuous
 62
           7
100
AcDbLine
 10
-817.463599402066
 20
126.709536116676
 30
0.0
 11
-817.463599402066
 21
129.309147995071
 31
0.0
  0
LINE
  5
2E1
100
AcDbEntity
  8
0
370
          15
  6
Continuous
 62
           7
100
AcDbLine
 10
-817.463599402066
 20
126.709536116676
 30
0.0
 11
-1241.575204092618
 21
126.709536116677
 31
0.0
  0
LINE
  5
2E2
100
AcDbEntity
  8
0
370
          15
  6
Continuous
 62
           7
100
AcDbLine
 10
-1241.575204092618
 20
126.709536116677
 30
0.0
 11
-1241.575204092618
 21
129.309147995072
 31
0.0
  0
LINE
  5
2E3
100
AcDbEntity
  8
0
370
          15
  6
Continuous
 62
           7
100
AcDbLine
 10
-777.019404131526
 20
495.850399535255
 30
0.0
 11
-775.381766516322
 21
495.850399535255
 31
0.0
  0
LWPOLYLINE
  5
2E4
100
AcDbEntity
  8
0
370
          15
  6
Continuous
 62
           7
100
AcDbPolyline
 90
        3
 70
         128
 10
-775.381766516322
 20
495.850399535255
 10
-775.381736714
 20
495.698452394561
 10
-775.378547865505
 20
492.906198304252
  0
LINE
  5
2E5
100
AcDbEntity
  8
0
370
          15
  6
Continuous
 62
           7
100
AcDbLine
 10
-777.019404131526
 20
508.350387614326
 30
0.0
 11
-775.381766516322
 21
508.350387614326
 31
0.0
  0
LINE
  5
2E6
100
AcDbEntity
  8
0
370
          15
  6
Continuous
 62
           7
100
AcDbLine
 10
-775.381766516322
 20
508.350387614326
 30
0.0
 11
-775.381766516322
 21
495.850399535255
 31
0.0
  0
LINE
  5
2E7
100
AcDbEntity
  8
0
370
          15
  6
Continuous
 62
           7
100
AcDbLine
 10
-777.978144842738
 20
511.294588845329
 30
0.0
 11
-775.378547865504
 21
511.294588845329
 31
0.0
  0
LWPOLYLINE
  5
2E8
100
AcDbEntity
  8
0
370
          15
  6
Continuous
 62
           7
100
AcDbPolyline
 90
        3
 70
         128
 10
-775.378547865504
 20
511.294588845329
 10
-775.379292923564
 20
510.403126876907
 10
-775.381766516322
 20
508.350387614326
  0
LINE
  5
2E9
100
AcDbEntity
  8
0
370
          15
  6
Continuous
 62
           7
100
AcDbLine
 10
-777.978144842738
 20
532.391637962417
 30
0.0
 11
-775.378547865504
 21
532.391637962417
 31
0.0
  0
LINE
  5
2EA
100
AcDbEntity
  8
0
370
          15
  6
Continuous
 62
           7
100
AcDbLine
 10
-775.378547865504
 20
532.391637962417
 30
0.0
 11
-775.378547865504
 21
511.294588845329
 31
0.0
  0
LINE
  5
2EB
100
AcDbEntity
  8
0
370
          15
  6
Continuous
 62
           7
100
AcDbLine
 10
-777.978144842738
 20
532.391637962417
 30
0.0
 11
-777.978144842738
 21
534.991249840812
 31
0.0
  0
ARC
  5
2EC
100
AcDbEntity
  8
0
370
          15
  6
Continuous
 62
           7
100
AcDbCircle
 10
-777.979142732594
 20
532.39063876624
 30
0.0
 40
2.600611266023
100
AcDbArc
 50
0.203473543756
 51
89.978014830862
  0
ARC
  5
2ED
100
AcDbEntity
  8
0
370
          15
  6
Continuous
 62
           7
100
AcDbCircle
 10
-797.019404863395
 20
528.350419917847
 30
0.0
 40
4.999979304986
100
AcDbArc
 50
53.925006019701
 51
126.07485491858
  0
LINE
  5
2EE
100
AcDbEntity
  8
0
370
          15
  6
Continuous
 62
           7
100
AcDbLine
 10
-811.575196940059
 20
532.391637962417
 30
0.0
 11
-811.575196940059
 21
534.991249840812
 31
0.0
  0
LINE
  5
2EF
100
AcDbEntity
  8
0
370
          15
  6
Continuous
 62
           7
100
AcDbLine
 10
-811.575196940059
 20
534.991249840812
 30
0.0
 11
-777.978144842738
 21
534.991249840812
 31
0.0
  0
LINE
  5
2F0
100
AcDbEntity
  8
0
370
          15
  6
Continuous
 62
           7
100
AcDbLine
 10
-817.463599402064
 20
532.391637962417
 30
0.0
 11
-817.463599402064
 21
534.991249840812
 31
0.0
  0
ARC
  5
2F1
100
AcDbEntity
  8
0
370
          15
  6
Continuous
 62
           7
100
AcDbCircle
 10
-814.425703691711
 20
1802.566119134838
 30
0.0
 40
1267.578509630119
100
AcDbArc
 50
269.862684032503
 51
270.128845781746
  0
LINE
  5
2F2
100
AcDbEntity
  8
0
370
          15
  6
Continuous
 62
           7
100
AcDbLine
 10
-1241.575204092616
 20
532.391637962419
 30
0.0
 11
-1241.575204092616
 21
534.991249840814
 31
0.0
  0
LINE
  5
2F3
100
AcDbEntity
  8
0
370
          15
  6
Continuous
 62
           7
100
AcDbLine
 10
-1241.575204092616
 20
534.991249840814
 30
0.0
 11
-817.463599402064
 21
534.991249840812
 31
0.0
  0
ARC
  5
2F4
100
AcDbEntity
  8
0
370
          15
  6
Continuous
 62
           7
100
AcDbCircle
 10
-1244.613099802971
 20
-1140.865333179708
 30
0.0
 40
1267.578509632478
100
AcDbArc
 50
89.862684032502
 51
90.128845781745
  0
LINE
  5
2F5
100
AcDbEntity
  8
0
370
          15
  6
Continuous
 62
           7
100
AcDbLine
 10
-1247.463606554623
 20
126.709536116677
 30
0.0
 11
-1247.463606554623
 21
129.309147995072
 31
0.0
  0
LINE
  5
2F6
100
AcDbEntity
  8
0
370
          15
  6
Continuous
 62
           7
100
AcDbLine
 10
-1247.463606554623
 20
126.709536116677
 30
0.0
 11
-1281.060658651944
 21
126.709536116677
 31
0.0
  0
LINE
  5
2F7
100
AcDbEntity
  8
0
370
          15
  6
Continuous
 62
           7
100
AcDbLine
 10
-1281.060658651944
 20
126.709536116677
 30
0.0
 11
-1281.060658651944
 21
129.309147995073
 31
0.0
  0
ARC
  5
2F8
100
AcDbEntity
  8
0
370
          15
  6
Continuous
 62
           7
100
AcDbCircle
 10
-1262.019398631266
 20
133.350366039569
 30
0.0
 40
4.999979304939
100
AcDbArc
 50
233.925006019008
 51
306.074854918666
  0
LINE
  5
2F9
100
AcDbEntity
  8
0
370
          15
  6
Continuous
 62
           7
100
AcDbLine
 10
-1283.660255629178
 20
129.309147995072
 30
0.0
 11
-1281.060658651944
 21
129.309147995073
 31
0.0
  0
ARC
  5
2FA
100
AcDbEntity
  8
0
370
          15
  6
Continuous
 62
           7
100
AcDbCircle
 10
-1281.059660762026
 20
129.31014719132
 30
0.0
 40
2.600611266095
100
AcDbArc
 50
180.203473601207
 51
269.978014829493
  0
LINE
  5
2FB
100
AcDbEntity
  8
0
370
          15
  6
Continuous
 62
           7
100
AcDbLine
 10
-1283.660255629178
 20
129.309147995072
 30
0.0
 11
-1283.660255629178
 21
150.406197112161
 31
0.0
  0
LINE
  5
2FC
100
AcDbEntity
  8
0
370
          15
  6
Continuous
 62
           7
100
AcDbLine
 10
-1283.660255629178
 20
150.406197112161
 30
0.0
 11
-1281.060658651944
 21
150.406197112161
 31
0.0
  0
LWPOLYLINE
  5
2FD
100
AcDbEntity
  8
0
370
          15
  6
Continuous
 62
           7
100
AcDbPolyline
 90
        3
 70
         128
 10
-1283.660255629178
 20
150.406197112161
 10
-1283.659510571118
 20
151.297659080583
 10
-1283.65703697836
 20
153.350398343164
  0
LINE
  5
2FE
100
AcDbEntity
  8
0
370
          15
  6
Continuous
 62
           7
100
AcDbLine
 10
-1283.65703697836
 20
153.350398343164
 30
0.0
 11
-1282.019399363156
 21
153.350398343164
 31
0.0
  0
LINE
  5
2FF
100
AcDbEntity
  8
0
370
          15
  6
Continuous
 62
           7
100
AcDbLine
 10
-1283.65703697836
 20
153.350398343164
 30
0.0
 11
-1283.65703697836
 21
165.850386422235
 31
0.0
  0
LINE
  5
300
100
AcDbEntity
  8
0
370
          15
  6
Continuous
 62
           7
100
AcDbLine
 10
-1283.65703697836
 20
165.850386422235
 30
0.0
 11
-1282.019399363156
 21
165.850386422235
 31
0.0
  0
LWPOLYLINE
  5
301
100
AcDbEntity
  8
0
370
          15
  6
Continuous
 62
           7
100
AcDbPolyline
 90
        3
 70
         128
 10
-1283.65703697836
 20
165.850386422235
 10
-1283.657066780682
 20
166.002333562928
 10
-1283.660255629178
 20
168.794587653238
  0
LINE
  5
302
100
AcDbEntity
  8
0
370
          15
  6
Continuous
 62
           7
100
AcDbLine
 10
-1283.660255629178
 20
168.794587653238
 30
0.0
 11
-1281.060658651944
 21
168.794587653238
 31
0.0
  0
LINE
  5
303
100
AcDbEntity
  8
0
370
          15
  6
Continuous
 62
           7
100
AcDbLine
 10
-1283.660255629178
 20
168.794587653238
 30
0.0
 11
-1283.660255629176
 21
492.906198304254
 31
0.0
  0
LINE
  5
304
100
AcDbEntity
  8
0
370
          15
  6
Continuous
 62
           7
100
AcDbLine
 10
-1283.660255629176
 20
492.906198304254
 30
0.0
 11
-1281.060658651943
 21
492.906198304254
 31
0.0
  0
LINE
  5
305
100
AcDbEntity
  8
0
370
          15
  6
Continuous
 62
           7
100
AcDbLine
 10
-1247.463606554622
 20
532.391637962419
 30
0.0
 11
-1247.463606554622
 21
534.991249840814
 31
0.0
  0
ARC
  5
306
100
AcDbEntity
  8
0
370
          15
  6
Continuous
 62
           7
100
AcDbCircle
 10
-1244.425708177909
 20
1802.563795241796
 30
0.0
 40
1267.576185750139
100
AcDbArc
 50
269.862683660235
 51
270.128845897441
  0
ARC
  5
307
100
AcDbEntity
  8
0
370
          15
  6
Continuous
 62
           7
100
AcDbCircle
 10
-1262.019408439693
 20
528.350419917947
 30
0.0
 40
4.999979304918
100
AcDbArc
 50
53.925006018854
 51
126.074854918867
  0
LINE
  5
308
100
AcDbEntity
  8
0
370
          15
  6
Continuous
 62
           7
100
AcDbLine
 10
-1281.060658651942
 20
532.391637962419
 30
0.0
 11
-1281.060658651942
 21
534.991249840814
 31
0.0
  0
LINE
  5
309
100
AcDbEntity
  8
0
370
          15
  6
Continuous
 62
           7
100
AcDbLine
 10
-1281.060658651942
 20
534.991249840814
 30
0.0
 11
-1247.463606554622
 21
534.991249840814
 31
0.0
  0
LWPOLYLINE
  5
30A
100
AcDbEntity
  8
0
370
          15
  6
Continuous
 62
           7
100
AcDbPolyline
 90
        3
 70
         128
 10
-1283.660255629176
 20
492.906198304254
 10
-1283.659510571117
 20
493.797660272676
 10
-1283.657036978359
 20
495.850399535256
  0
LINE
  5
30B
100
AcDbEntity
  8
0
370
          15
  6
Continuous
 62
           7
100
AcDbLine
 10
-1283.657036978359
 20
495.850399535256
 30
0.0
 11
-1282.019399363155
 21
495.850399535257
 31
0.0
  0
LWPOLYLINE
  5
30C
100
AcDbEntity
  8
0
370
          15
  6
Continuous
 62
           7
100
AcDbPolyline
 90
        3
 70
         128
 10
-1283.657036978358
 20
508.350387614328
 10
-1283.657066780681
 20
508.502334755021
 10
-1283.660255629176
 20
511.29458884533
  0
LINE
  5
30D
100
AcDbEntity
  8
0
370
          15
  6
Continuous
 62
           7
100
AcDbLine
 10
-1283.660255629176
 20
511.29458884533
 30
0.0
 11
-1281.060658651942
 21
511.29458884533
 31
0.0
  0
LINE
  5
30E
100
AcDbEntity
  8
0
370
          15
  6
Continuous
 62
           7
100
AcDbLine
 10
-1283.657036978358
 20
508.350387614328
 30
0.0
 11
-1282.019399363154
 21
508.350387614328
 31
0.0
  0
LINE
  5
30F
100
AcDbEntity
  8
0
370
          15
  6
Continuous
 62
           7
100
AcDbLine
 10
-1283.657036978359
 20
495.850399535256
 30
0.0
 11
-1283.657036978358
 21
508.350387614328
 31
0.0
  0
LINE
  5
310
100
AcDbEntity
  8
0
370
          15
  6
Continuous
 62
           7
100
AcDbLine
 10
-1283.660255629176
 20
511.29458884533
 30
0.0
 11
-1283.660255629176
 21
532.391637962419
 31
0.0
  0
LINE
  5
311
100
AcDbEntity
  8
0
370
          15
  6
Continuous
 62
           7
100
AcDbLine
 10
-1283.660255629176
 20
532.391637962419
 30
0.0
 11
-1281.060658651942
 21
532.391637962419
 31
0.0
  0
ARC
  5
312
100
AcDbEntity
  8
0
370
          15
  6
Continuous
 62
           7
100
AcDbCircle
 10
-1281.059660762103
 20
532.390638766247
 30
0.0
 40
2.600611266019
100
AcDbArc
 50
90.021985168789
 51
179.796526389114
  0
LINE
  5
313
100
AcDbEntity
  8
0
370
          15
  6
Continuous
 62
           7
100
AcDbLine
 10
-772.019408899896
 20
535.750791829184
 30
0.0
 11
-772.019408899898
 21
125.949994128302
 31
0.0
  0
LINE
  5
314
100
AcDbEntity
  8
0
370
          15
  6
Continuous
 62
           7
100
AcDbLine
 10
-775.378547865506
 20
129.309147995071
 30
0.0
 11
-772.019408899898
 21
125.949994128302
 31
0.0
  0
LINE
  5
315
100
AcDbEntity
  8
0
370
          15
  6
Continuous
 62
           7
100
AcDbLine
 10
-772.019408899896
 20
535.750791829184
 30
0.0
 11
-775.378547865504
 21
532.391637962417
 31
0.0
  0
LINE
  5
316
100
AcDbEntity
  8
0
370
          15
  6
Continuous
 62
           7
100
AcDbLine
 10
-1287.019394594783
 20
125.949994128304
 30
0.0
 11
-1287.019394594782
 21
535.750791829186
 31
0.0
  0
LINE
  5
317
100
AcDbEntity
  8
0
370
          15
  6
Continuous
 62
           7
100
AcDbLine
 10
-1283.660255629176
 20
532.391637962419
 30
0.0
 11
-1287.019394594782
 21
535.750791829186
 31
0.0
  0
LINE
  5
318
100
AcDbEntity
  8
0
370
          15
  6
Continuous
 62
           7
100
AcDbLine
 10
-1287.019394594783
 20
125.949994128304
 30
0.0
 11
-1283.660255629178
 21
129.309147995072
 31
0.0
  0
LINE
  5
319
100
AcDbEntity
  8
0
370
          15
  6
Continuous
 62
           7
100
AcDbLine
 10
-774.619005877132
 20
123.350397151068
 30
0.0
 11
-1284.419797617549
 21
123.35039715107
 31
0.0
  0
LINE
  5
31A
100
AcDbEntity
  8
0
370
          15
  6
Continuous
 62
           7
100
AcDbLine
 10
-1281.060658651944
 20
126.709536116677
 30
0.0
 11
-1284.419797617549
 21
123.35039715107
 31
0.0
  0
LINE
  5
31B
100
AcDbEntity
  8
0
370
          15
  6
Continuous
 62
           7
100
AcDbLine
 10
-774.619005877132
 20
123.350397151068
 30
0.0
 11
-777.97814484274
 21
126.709536116676
 31
0.0
  0
LINE
  5
31C
100
AcDbEntity
  8
0
370
          15
  6
Continuous
 62
           7
100
AcDbLine
 10
-1284.419797617548
 20
538.35038880642
 30
0.0
 11
-774.61900587713
 21
538.350388806418
 31
0.0
  0
LINE
  5
31D
100
AcDbEntity
  8
0
370
          15
  6
Continuous
 62
           7
100
AcDbLine
 10
-777.978144842738
 20
534.991249840812
 30
0.0
 11
-774.61900587713
 21
538.350388806418
 31
0.0
  0
LINE
  5
31E
100
AcDbEntity
  8
0
370
          15
  6
Continuous
 62
           7
100
AcDbLine
 10
-1284.419797617548
 20
538.35038880642
 30
0.0
 11
-1281.060658651942
 21
534.991249840814
 31
0.0
  0
LINE
  5
31F
100
AcDbEntity
  8
0
370
          15
  6
Continuous
 62
           7
100
AcDbLine
 10
-795.690171677228
 20
138.1704662257
 30
0.0
 11
-798.348628241177
 21
138.1704662257
 31
0.0
  0
LINE
  5
320
100
AcDbEntity
  8
0
370
          15
  6
Continuous
 62
           7
100
AcDbLine
 10
-1260.690175253506
 20
138.170466225701
 30
0.0
 11
-1263.348631817456
 21
138.170466225701
 31
0.0
  0
ELLIPSE
  5
321
100
AcDbEntity
  8
0
370
          15
  6
Continuous
 62
           7
100
AcDbEllipse
 10
-774.619797800254
 20
125.950789031657
 30
0.0
 11
-1.8390376918406446
 21
1.8390376918412699
 31
0.0
210
0.0
220
0.0
230
1.0
 40
0.999695459882
 41
2.3563467834400766
 42
3.9268385237398986
  0
ELLIPSE
  5
322
100
AcDbEntity
  8
0
370
          15
  6
Continuous
 62
           7
100
AcDbEllipse
 10
-774.619797800253
 20
535.749996925829
 30
0.0
 11
1.839037691841213
 21
1.8390376918405309
 31
0.0
210
0.0
220
0.0
230
1.0
 40
0.999695459882
 41
5.4979394370298857
 42
7.0684311773296358
  0
ELLIPSE
  5
323
100
AcDbEntity
  8
0
370
          15
  6
Continuous
 62
           7
100
AcDbEllipse
 10
-1284.419005694426
 20
125.950789031659
 30
0.0
 11
1.8390376918409856
 21
1.8390376918405593
 31
0.0
210
0.0
220
0.0
230
1.0
 40
0.999695459882
 41
2.3563467834401286
 42
3.9268385237398333
  0
ELLIPSE
  5
324
100
AcDbEntity
  8
0
370
          15
  6
Continuous
 62
           7
100
AcDbEllipse
 10
-1284.419005694425
 20
535.749996925831
 30
0.0
 11
-1.8390376918407583
 21
1.8390376918414404
 31
0.0
210
0.0
220
0.0
230
1.0
 40
0.999695459882
 41
5.4979394370299222
 42
7.0684311773296784
  0
CIRCLE
  5
325
100
AcDbEntity
  8
0
370
          15
  6
Continuous
 62
           7
100
AcDbCircle
 10
-782.019401747341
 20
165.850392978744
 30
0.0
 40
1.65
  0
CIRCLE
  5
326
100
AcDbEntity
  8
0
370
          15
  6
Continuous
 62
           7
100
AcDbCircle
 10
-814.519401747342
 20
133.350392978744
 30
0.0
 40
3.0
  0
CIRCLE
  5
327
100
AcDbEntity
  8
0
370
          15
  6
Continuous
 62
           7
100
AcDbCircle
 10
-782.01940174734
 20
495.850392978744
 30
0.0
 40
1.65
  0
CIRCLE
  5
328
100
AcDbEntity
  8
0
370
          15
  6
Continuous
 62
           7
100
AcDbCircle
 10
-814.51940174734
 20
528.350392978744
 30
0.0
 40
3.0
  0
CIRCLE
  5
329
100
AcDbEntity
  8
0
370
          15
  6
Continuous
 62
           7
100
AcDbCircle
 10
-1244.519401747342
 20
133.350392978745
 30
0.0
 40
3.0
  0
CIRCLE
  5
32A
100
AcDbEntity
  8
0
370
          15
  6
Continuous
 62
           7
100
AcDbCircle
 10
-1277.019401747342
 20
165.850392978746
 30
0.0
 40
1.65
  0
CIRCLE
  5
32B
100
AcDbEntity
  8
0
370
          15
  6
Continuous
 62
           7
100
AcDbCircle
 10
-1244.51940174734
 20
528.350392978746
 30
0.0
 40
3.0
  0
CIRCLE
  5
32C
100
AcDbEntity
  8
0
370
          15
  6
Continuous
 62
           7
100
AcDbCircle
 10
-1277.019401747341
 20
495.850392978746
 30
0.0
 40
1.65
  0
ENDSEC
  0
SECTION
  2
OBJECTS
  0
DICTIONARY
  5
C
100
AcDbDictionary
280
           0
281
           1
  3
ACAD_GROUP
350
D
  3
ACAD_PLOTSTYLENAME
350
E
  3
ACAD_MLINESTYLE
350
17
  3
ACAD_PLOTSETTINGS
350
19
  3
ACAD_LAYOUT
350
1A
  3
ACAD_WIPEOUT_VARS
350
32F
  0
DICTIONARY
  5
D
102
{ACAD_REACTORS
330
C
102
}
100
AcDbDictionary
280
           0
281
           1
  0
DICTIONARY
  5
17
102
{ACAD_REACTORS
330
C
102
}
100
AcDbDictionary
280
           0
281
           1
  3
STANDARD
350
18
  0
MLINESTYLE
  5
18
102
{ACAD_REACTORS
330
17
102
}
100
AcDbMlineStyle
  2
Standard
 70
           0
  3

 62
         256
 51
90.0
 52
90.0
 71
           2
 49
0.5
 62
         256
  6
ByLayer
 49
-0.5
 62
         256
  6
ByLayer
  0
ACDBDICTIONARYWDFLT
  5
E
102
{ACAD_REACTORS
330
C
102
}
100
AcDbDictionary
281
           1
  3
NORMAL
350
F
100
AcDbDictionaryWithDefault
340
F
  0
ACDBPLACEHOLDER
  5
F
102
{ACAD_REACTORS
330
E
102
}
  0
LAYOUT
  5
22
102
{ACAD_REACTORS
330
1A
102
}
100
AcDbPlotSettings
  1

  2

  4

  6

 40
0.0
 41
0.0
 42
0.0
 43
0.0
 44
0.0
 45
0.0
 46
0.0
 47
0.0
 48
0.0
 49
0.0
140
0.0
141
0.0
142
1.0
143
1.0
 70
        1712
 72
           0
 73
           0
 74
           0
  7

 75
           0
147
1.0
148
0.0
149
0.0
100
AcDbLayout
  1
MODEL
 70
           1
 71
           0
 10
0.0
 20
0.0
 11
0.0
 21
0.0
 12
0.0
 22
0.0
 32
0.0
 14
0.0
 24
0.0
 34
0.0
 15
420.0
 25
297.0
 35
0.0
146
0.0
 13
0.0
 23
0.0
 33
0.0
 16
1.0
 26
0.0
 36
0.0
 17
0.0
 27
1.0
 37
0.0
 76
           0
330
1F
331
0
345
0
346
0
  0
LAYOUT
  5
1E
102
{ACAD_REACTORS
330
1A
102
}
100
AcDbPlotSettings
  1

  2

  4

  6

 40
0.0
 41
0.0
 42
0.0
 43
0.0
 44
0.0
 45
0.0
 46
0.0
 47
0.0
 48
0.0
 49
0.0
140
0.0
141
0.0
142
1.0
143
1.0
 70
         688
 72
           0
 73
           0
 74
           5
  7

 75
          16
147
1.0
148
0.0
149
0.0
100
AcDbLayout
  1
LAYOUT1
 70
           1
 71
           1
 10
0.0
 20
0.0
 11
0.0
 21
0.0
 12
0.0
 22
0.0
 32
0.0
 14
0.0
 24
0.0
 34
0.0
 15
0.0
 25
0.0
 35
0.0
146
0.0
 13
0.0
 23
0.0
 33
0.0
 16
1.0
 26
0.0
 36
0.0
 17
0.0
 27
1.0
 37
0.0
 76
           0
330
1B
331
0
345
0
346
0
  0
DICTIONARY
  5
1A
102
{ACAD_REACTORS
330
C
102
}
100
AcDbDictionary
280
           0
281
           1
  3
MODEL
350
22
  3
LAYOUT1
350
1E
  3
LAYOUT2
350
26
  0
DICTIONARY
  5
19
102
{ACAD_REACTORS
330
C
102
}
100
AcDbDictionary
280
           0
281
           1
  0
WIPEOUTVARIABLES
  5
32F
100
AcDbWipeoutVariables
 70
           1
  0
LAYOUT
  5
26
102
{ACAD_REACTORS
330
1A
102
}
100
AcDbPlotSettings
  1

  2

  4

  6

 40
0.0
 41
0.0
 42
0.0
 43
0.0
 44
0.0
 45
0.0
 46
0.0
 47
0.0
 48
0.0
 49
0.0
140
0.0
141
0.0
142
1.0
143
1.0
 70
         688
 72
           0
 73
           0
 74
           5
  7

 75
          16
147
1.0
148
0.0
149
0.0
100
AcDbLayout
  1
LAYOUT2
 70
           1
 71
           2
 10
0.0
 20
0.0
 11
0.0
 21
0.0
 12
0.0
 22
0.0
 32
0.0
 14
0.0
 24
0.0
 34
0.0
 15
0.0
 25
0.0
 35
0.0
146
0.0
 13
0.0
 23
0.0
 33
0.0
 16
1.0
 26
0.0
 36
0.0
 17
0.0
 27
1.0
 37
0.0
 76
           0
330
23
331
0
345
0
346
0
  0
ENDSEC
  0
EOF
