  0
SECTION
  2
HEADER
  9
$ACADVER
  1
AC1015
  9
$ACADMAINTVER
 70
           6
  9
$DWGCODEPAGE
  3
ANSI_1252
  9
$INSBASE
 10
0.0
 20
0.0
 30
0.0
  9
$EXTMIN
 10
-909.263696578415
 20
-49.195901174184
 30
0.0
  9
$EXTMAX
 10
454.261282896487
 20
634.609936243252
 30
0.0
  9
$LIMMIN
 10
0.0
 20
0.0
  9
$LIMMAX
 10
0.0
 20
0.0
  9
$ORTHOMODE
 70
           0
  9
$REGENMODE
 70
           1
  9
$FILLMODE
 70
           1
  9
$QTEXTMODE
 70
           0
  9
$MIRRTEXT
 70
           1
  9
$LTSCALE
 40
1.0
  9
$ATTMODE
 70
           1
  9
$TEXTSIZE
 40
3.5
  9
$TRACEWID
 40
1.0
  9
$TEXTSTYLE
  7
Standard
  9
$CLAYER
  8
0
  9
$CELTYPE
  6
ByLayer
  9
$CECOLOR
 62
         256
  9
$CELTSCALE
 40
1.0
  9
$DISPSILH
 70
           0
  9
$DIMSCALE
 40
1.0
  9
$DIMASZ
 40
6.0
  9
$DIMEXO
 40
1.0
  9
$DIMDLI
 40
3.75
  9
$DIMRND
 40
0.0
  9
$DIMDLE
 40
0.0
  9
$DIMEXE
 40
1.0
  9
$DIMTP
 40
0.0
  9
$DIMTM
 40
0.0
  9
$DIMTXT
 40
3.5
  9
$DIMCEN
 40
2.5
  9
$DIMTSZ
 40
0.0
  9
$DIMTOL
 70
           0
  9
$DIMLIM
 70
           0
  9
$DIMTIH
 70
           1
  9
$DIMTOH
 70
           1
  9
$DIMSE1
 70
           0
  9
$DIMSE2
 70
           0
  9
$DIMTAD
 70
           1
  9
$DIMZIN
 70
           0
  9
$DIMBLK
  1

  9
$DIMASO
 70
           1
  9
$DIMSHO
 70
           1
  9
$DIMPOST
  1

  9
$DIMAPOST
  1

  9
$DIMALT
 70
           0
  9
$DIMALTD
 70
           3
  9
$DIMALTF
 40
0.03937007874
  9
$DIMLFAC
 40
1.0
  9
$DIMTOFL
 70
           1
  9
$DIMTVP
 40
0.0
  9
$DIMTIX
 70
           0
  9
$DIMSOXD
 70
           0
  9
$DIMSAH
 70
           0
  9
$DIMBLK1
  1

  9
$DIMBLK2
  1

  9
$DIMSTYLE
  2
ISO-25
  9
$DIMCLRD
 70
           0
  9
$DIMCLRE
 70
           0
  9
$DIMCLRT
 70
           0
  9
$DIMTFAC
 40
1.0
  9
$DIMGAP
 40
1.524
  9
$DIMJUST
 70
           0
  9
$DIMSD1
 70
           0
  9
$DIMSD2
 70
           0
  9
$DIMTOLJ
 70
           0
  9
$DIMTZIN
 70
           0
  9
$DIMALTZ
 70
           0
  9
$DIMALTTZ
 70
           0
  9
$DIMUPT
 70
           0
  9
$DIMDEC
 70
           2
  9
$DIMTDEC
 70
           2
  9
$DIMALTU
 70
           2
  9
$DIMALTTD
 70
           3
  9
$DIMTXSTY
  7
Standard
  9
$DIMAUNIT
 70
           0
  9
$DIMADEC
 70
           0
  9
$DIMALTRND
 40
0.0
  9
$DIMAZIN
 70
           0
  9
$DIMDSEP
 70
          44
  9
$DIMATFIT
 70
           3
  9
$DIMFRAC
 70
           0
  9
$DIMLDRBLK
  1

  9
$DIMLUNIT
 70
           2
  9
$DIMLWD
 70
          -2
  9
$DIMLWE
 70
          -2
  9
$DIMTMOVE
 70
           0
  9
$LUNITS
 70
           2
  9
$LUPREC
 70
           2
  9
$SKETCHINC
 40
1.0
  9
$FILLETRAD
 40
10.0
  9
$AUNITS
 70
           0
  9
$AUPREC
 70
           0
  9
$MENU
  1
.
  9
$ELEVATION
 40
0.0
  9
$PELEVATION
 40
0.0
  9
$THICKNESS
 40
0.0
  9
$LIMCHECK
 70
           0
  9
$CHAMFERA
 40
10.0
  9
$CHAMFERB
 40
10.0
  9
$CHAMFERC
 40
20.0
  9
$CHAMFERD
 40
0.0
  9
$SKPOLY
 70
           0
  9
$TDCREATE
 40
2453845.436663125
  9
$TDUCREATE
 40
0.000000000
  9
$TDUPDATE
 40
2453845.589953959
  9
$TDUUPDATE
 40
2453845.506620625
  9
$TDINDWG
 40
0.0013078704
  9
$TDUSRTIMER
 40
0.0013078704
  9
$USRTIMER
 70
           1
  9
$ANGBASE
 50
0.0
  9
$ANGDIR
 70
           0
  9
$PDMODE
 70
           0
  9
$PDSIZE
 40
-1.0
  9
$PLINEWID
 40
0.0
  9
$SPLFRAME
 70
           0
  9
$SPLINETYPE
 70
           6
  9
$SPLINESEGS
 70
           8
  9
$HANDSEED
  5
17D
  9
$SURFTAB1
 70
           6
  9
$SURFTAB2
 70
           6
  9
$SURFTYPE
 70
           6
  9
$SURFU
 70
           6
  9
$SURFV
 70
           6
  9
$UCSBASE
  2

  9
$UCSNAME
  2

  9
$UCSORG
 10
0.0
 20
0.0
 30
0.0
  9
$UCSXDIR
 10
1.0
 20
0.0
 30
0.0
  9
$UCSYDIR
 10
0.0
 20
1.0
 30
0.0
  9
$UCSORTHOREF
  2

  9
$UCSORTHOVIEW
 70
           0
  9
$UCSORGTOP
 10
0.0
 20
0.0
 30
0.0
  9
$UCSORGBOTTOM
 10
0.0
 20
0.0
 30
0.0
  9
$UCSORGLEFT
 10
0.0
 20
0.0
 30
0.0
  9
$UCSORGRIGHT
 10
0.0
 20
0.0
 30
0.0
  9
$UCSORGFRONT
 10
0.0
 20
0.0
 30
0.0
  9
$UCSORGBACK
 10
0.0
 20
0.0
 30
0.0
  9
$PUCSBASE
  2

  9
$PUCSNAME
  2

  9
$PUCSORG
 10
0.0
 20
0.0
 30
0.0
  9
$PUCSXDIR
 10
1.0
 20
0.0
 30
0.0
  9
$PUCSYDIR
 10
0.0
 20
1.0
 30
0.0
  9
$PUCSORTHOREF
  2

  9
$PUCSORTHOVIEW
 70
           0
  9
$PUCSORGTOP
 10
0.0
 20
0.0
 30
0.0
  9
$PUCSORGBOTTOM
 10
0.0
 20
0.0
 30
0.0
  9
$PUCSORGLEFT
 10
0.0
 20
0.0
 30
0.0
  9
$PUCSORGRIGHT
 10
0.0
 20
0.0
 30
0.0
  9
$PUCSORGFRONT
 10
0.0
 20
0.0
 30
0.0
  9
$PUCSORGBACK
 10
0.0
 20
0.0
 30
0.0
  9
$USERI1
 70
           0
  9
$USERI2
 70
           0
  9
$USERI3
 70
           0
  9
$USERI4
 70
           0
  9
$USERI5
 70
           0
  9
$USERR1
 40
0.0
  9
$USERR2
 40
0.0
  9
$USERR3
 40
0.0
  9
$USERR4
 40
0.0
  9
$USERR5
 40
0.0
  9
$WORLDVIEW
 70
           1
  9
$SHADEDGE
 70
           3
  9
$SHADEDIF
 70
          70
  9
$TILEMODE
 70
           1
  9
$MAXACTVP
 70
          64
  9
$PINSBASE
 10
0.0
 20
0.0
 30
0.0
  9
$PLIMCHECK
 70
           0
  9
$PEXTMIN
 10
1.000000000000E+20
 20
1.000000000000E+20
 30
1.000000000000E+20
  9
$PEXTMAX
 10
-1.000000000000E+20
 20
-1.000000000000E+20
 30
-1.000000000000E+20
  9
$PLIMMIN
 10
0.0
 20
0.0
  9
$PLIMMAX
 10
420.0
 20
297.0
  9
$UNITMODE
 70
           0
  9
$VISRETAIN
 70
           1
  9
$PLINEGEN
 70
           0
  9
$PSLTSCALE
 70
           1
  9
$TREEDEPTH
 70
        3020
  9
$CMLSTYLE
  2
Standard
  9
$CMLJUST
 70
           0
  9
$CMLSCALE
 40
20.0
  9
$PROXYGRAPHICS
 70
           1
  9
$MEASUREMENT
 70
           1
  9
$CELWEIGHT
370
          -1
  9
$ENDCAPS
280
           0
  9
$JOINSTYLE
280
           0
  9
$LWDISPLAY
290
           1
  9
$INSUNITS
 70
           4
  9
$HYPERLINKBASE
  1

  9
$STYLESHEET
  1

  9
$XEDIT
290
           0
  9
$CEPSNTYPE
380
           0
  9
$PSTYLEMODE
290
           1
  9
$FINGERPRINTGUID
  2
{122A616B-0037-4252-89C8-3B4D06D800E7}
  9
$VERSIONGUID
  2
{FAEB1C32-E019-11D5-929B-00C0DF256EC4}
  9
$EXTNAMES
290
           1
  9
$PSVPSCALE
 40
0.0
  0
ENDSEC
  0
SECTION
  2
CLASSES
  0
CLASS
  1
ACDBDICTIONARYWDFLT
  2
AcDbDictionaryWithDefault
  3
ObjectDBX Classes
 90
        0
280
           0
281
           0
  0
CLASS
  1
ACDBPLACEHOLDER
  2
AcDbPlaceHolder
  3
ObjectDBX Classes
 90
        0
280
           0
281
           0
  0
CLASS
  1
LAYOUT
  2
AcDbLayout
  3
ObjectDBX Classes
 90
        0
280
           0
281
           0
  0
CLASS
  1
LWPOLYLINE
  2
AcDbPolyline
  3
AutoCAD 2000
 90
        0
280
           0
281
           1
  0
CLASS
  1
IMAGE
  2
AcDbRasterImage
  3
ISM
 90
      127
280
           0
281
           1
  0
CLASS
  1
OLE2FRAME
  2
AcDbOle2Frame
  3
AutoCAD 2000
 90
        0
280
           0
281
           1
  0
CLASS
  1
HATCH
  2
AcDbHatch
  3
AutoCAD 2000
 90
        0
280
           0
281
           1
  0
CLASS
  1
DICTIONARYVAR
  2
AcDbDictionaryVar
  3
AutoCAD 2000
 90
        0
280
           0
281
           0
  0
CLASS
  1
RASTERVARIABLES
  2
AcDbRasterVariables
  3
ISM
 90
        0
280
           0
281
           0
  0
CLASS
  1
IMAGEDEF
  2
AcDbRasterImageDef
  3
ISM
 90
        0
280
           0
281
           0
  0
CLASS
  1
IMAGEDEF_REACTOR
  2
AcDbRasterImageDefReactor
  3
ISM
 90
        1
280
           0
281
           0
  0
CLASS
  1
IDBUFFER
  2
AcDbIdBuffer
  3
AutoCAD 2000
 90
        0
280
           0
281
           0
  0
CLASS
  1
SPATIAL_FILTER
  2
AcDbSpatialFilter
  3
AutoCAD 2000
 90
        0
280
           0
281
           0
  0
CLASS
  1
XRECORD
  2
AcDbXrecord
  3
AutoCAD 2000
 90
        0
280
           0
281
           0
  0
CLASS
  1
SORTENTSTABLE
  2
AcDbSortentsTable
  3
AutoCAD 2000
 90
        0
280
           0
281
           0
  0
CLASS
  1
LAYER_INDEX
  2
AcDbLayerIndex
  3
AutoCAD 2000
 90
        0
280
           0
281
           0
  0
CLASS
  1
SPATIAL_INDEX
  2
AcDbSpatialIndex
  3
AutoCAD 2000
 90
        0
280
           0
281
           0
  0
CLASS
  1
OBJECT_PTR
  2
CAseDLPNTableRecord
  3
"ASE-LPNTableRecord"
 90
        1
280
           0
281
           0
  0
CLASS
  1
PLOTSETTINGS
  2
AcDbPlotSettings
  3
AutoCAD 2000
 90
        0
280
           0
281
           0
  0
CLASS
  1
VBA_PROJECT
  2
AcDbVbaProject
  3
acadvba
 90
        0
280
           0
281
           0
  0
CLASS
  1
WIPEOUT
  2
AcDbWipeout
  3
WipeOut|AutoCAD Express Tool|expresstools@autodesk.com
 90
      127
280
           0
281
           1
  0
CLASS
  1
WIPEOUTVARIABLES
  2
AcDbWipeoutVariables
  3
WipeOut|AutoCAD Express Tool|expresstools@autodesk.com
 90
        0
280
           0
281
           0
  0
CLASS
  1
RTEXT
  2
RText
  3
RText|AutoCAD Express Tool|expresstools@autodesk.com
 90
        0
280
           0
281
           1
  0
CLASS
  1
ARCALIGNEDTEXT
  2
AcDbArcAlignedText
  3
ATEXT|AutoCAD Express Tool|expresstools@autodesk.com
 90
        0
280
           0
281
           1
  0
CLASS
  1
DIMASSOC
  2
AcDbDimAssoc
  3
AcDbDimAssoc|Product Desc:     AcDim ARX App For Dimension|Company:          Autodesk, Inc.|WEB Address:      www.autodesk.com
 90
        1
280
           0
281
           0
  0
ENDSEC
  0
SECTION
  2
TABLES
  0
TABLE
  2
VPORT
  5
8
100
AcDbSymbolTable
 70
           1
  0
VPORT
  5
29
100
AcDbSymbolTableRecord
100
AcDbViewportTableRecord
  2
*Active
 70
          64
 10
0.0
 20
0.0
 11
1.0
 21
1.0
 12
-227.501206840964
 22
292.707017534534
 13
0.0
 23
0.0
 14
10.0
 24
10.0
 15
10.0
 25
10.0
 16
0.0
 26
0.0
 36
1.0
 17
0.0
 27
0.0
 37
0.0
 40
697.481954165785
 41
1.97297297285
 42
50.0
 43
0.0
 44
0.0
 50
0.0
 51
0.0
 71
           0
 72
        2000
 73
           1
 74
           3
 75
           0
 76
           0
 77
           0
 78
           0
281
           0
 65
           0
110
0.0
120
0.0
130
0.0
111
1.0
121
0.0
131
0.0
112
0.0
122
1.0
132
0.0
345
0
346
0
 79
           0
146
0.0
  0
ENDTAB
  0
TABLE
  2
LTYPE
  5
5
100
AcDbSymbolTable
 70
           8
  0
LTYPE
  5
14
100
AcDbSymbolTableRecord
100
AcDbLinetypeTableRecord
  2
ByBlock
 70
          64
  3

 72
          65
 73
           0
 40
0.0
  0
LTYPE
  5
15
100
AcDbSymbolTableRecord
100
AcDbLinetypeTableRecord
  2
ByLayer
 70
          64
  3

 72
          65
 73
           0
 40
0.0
  0
LTYPE
  5
16
100
AcDbSymbolTableRecord
100
AcDbLinetypeTableRecord
  2
Continuous
 70
          64
  3
Solid line
 72
          65
 73
           0
 40
0.0
  0
LTYPE
  5
2A
100
AcDbSymbolTableRecord
100
AcDbLinetypeTableRecord
  2
HIDDEN
 70
          64
  3
Hidden __ __ __ __ __ __ __ __ __ __ __ __ __ __
 72
          65
 73
           2
 40
1.905
 49
1.27
 74
           0
 49
-0.635
 74
           0
  0
LTYPE
  5
2B
100
AcDbSymbolTableRecord
100
AcDbLinetypeTableRecord
  2
PHANTOM
 70
          64
  3
Phantom ______  __  __  ______  __  __  ______
 72
          65
 73
           6
 40
12.7
 49
6.35
 74
           0
 49
-1.27
 74
           0
 49
1.27
 74
           0
 49
-1.27
 74
           0
 49
1.27
 74
           0
 49
-1.27
 74
           0
  0
LTYPE
  5
2C
100
AcDbSymbolTableRecord
100
AcDbLinetypeTableRecord
  2
CENTER
 70
          64
  3
Center ____ _ ____ _ ____ _ ____ _ ____ _ ____
 72
          65
 73
           4
 40
10.16
 49
6.35
 74
           0
 49
-1.27
 74
           0
 49
1.27
 74
           0
 49
-1.27
 74
           0
  0
LTYPE
  5
2D
100
AcDbSymbolTableRecord
100
AcDbLinetypeTableRecord
  2
CENTERX2
 70
          64
  3
Center (2x) ________  __  ________  __  _____
 72
          65
 73
           4
 40
20.32
 49
12.7
 74
           0
 49
-2.54
 74
           0
 49
2.54
 74
           0
 49
-2.54
 74
           0
  0
LTYPE
  5
2E
100
AcDbSymbolTableRecord
100
AcDbLinetypeTableRecord
  2
DOT2
 70
          64
  3
Dot (.5x) ........................................
 72
          65
 73
           2
 40
0.635
 49
0.0
 74
           0
 49
-0.635
 74
           0
  0
ENDTAB
  0
TABLE
  2
LAYER
  5
2
100
AcDbSymbolTable
 70
           2
  0
LAYER
  5
10
100
AcDbSymbolTableRecord
100
AcDbLayerTableRecord
  2
0
 70
          64
 62
           7
  6
Continuous
290
           1
370
          -3
390
F
  0
LAYER
  5
16F
100
AcDbSymbolTableRecord
100
AcDbLayerTableRecord
  2
DEFPOINTS
 70
           0
 62
           7
  6
Continuous
290
           0
370
          -3
390
F
  0
ENDTAB
  0
TABLE
  2
STYLE
  5
3
100
AcDbSymbolTable
 70
           1
  0
STYLE
  5
11
100
AcDbSymbolTableRecord
100
AcDbTextStyleTableRecord
  2
Standard
 70
          64
 40
0.0
 41
1.0
 50
0.0
 71
           0
 42
2.5
  3
TXT
  4

  0
ENDTAB
  0
TABLE
  2
VIEW
  5
6
100
AcDbSymbolTable
 70
           0
  0
ENDTAB
  0
TABLE
  2
UCS
  5
7
100
AcDbSymbolTable
 70
           0
  0
ENDTAB
  0
TABLE
  2
APPID
  5
9
100
AcDbSymbolTable
 70
           1
  0
APPID
  5
12
100
AcDbSymbolTableRecord
100
AcDbRegAppTableRecord
  2
ACAD
 70
          64
  0
ENDTAB
  0
TABLE
  2
DIMSTYLE
  5
A
100
AcDbSymbolTable
 70
           1
100
AcDbDimStyleTable
 71
           0
  0
DIMSTYLE
105
27
100
AcDbSymbolTableRecord
100
AcDbDimStyleTableRecord
  2
ISO-25
 70
          64
  3

  4

 40
1.0
 41
2.5
 42
0.625
 43
3.75
 44
1.25
 45
0.0
 46
0.0
 47
0.0
 48
0.0
 71
           0
 72
           0
 73
           0
 74
           0
 75
           0
 76
           0
 77
           1
 78
           8
 79
           0
140
2.5
141
2.5
142
0.0
143
0.03937007874
144
1.0
145
0.0
146
1.0
147
0.625
148
0.0
170
           0
171
           3
172
           1
173
           0
174
           0
175
           0
176
           0
177
           0
178
           0
179
           0
271
           2
272
           2
273
           2
274
           3
275
           0
276
           0
277
           2
278
          44
279
           0
280
           0
281
           0
282
           0
283
           0
284
           8
285
           0
286
           0
288
           0
289
           3
340
11
341
0
342
0
343
0
344
0
371
          -2
372
          -2
  0
ENDTAB
  0
TABLE
  2
BLOCK_RECORD
  5
1
100
AcDbSymbolTable
 70
           1
  0
BLOCK_RECORD
  5
1F
100
AcDbSymbolTableRecord
100
AcDbBlockTableRecord
  2
*MODEL_SPACE
340
22
  0
BLOCK_RECORD
  5
1B
100
AcDbSymbolTableRecord
100
AcDbBlockTableRecord
  2
*PAPER_SPACE
340
1E
  0
BLOCK_RECORD
  5
23
100
AcDbSymbolTableRecord
100
AcDbBlockTableRecord
  2
*Paper_Space0
340
26
  0
ENDTAB
  0
ENDSEC
  0
SECTION
  2
BLOCKS
  0
BLOCK
  5
20
100
AcDbEntity
  8
0
390
0
100
AcDbBlockBegin
  2
*MODEL_SPACE
 70
           0
 10
0.0
 20
0.0
 30
0.0
  3
*MODEL_SPACE
  1

  0
ENDBLK
  5
21
100
AcDbEntity
  8
0
390
0
100
AcDbBlockEnd
  0
BLOCK
  5
1C
100
AcDbEntity
 67
           1
  8
0
390
0
100
AcDbBlockBegin
  2
*PAPER_SPACE
 70
           0
 10
0.0
 20
0.0
 30
0.0
  3
*PAPER_SPACE
  1

  0
ENDBLK
  5
1D
100
AcDbEntity
 67
           1
  8
0
390
0
100
AcDbBlockEnd
  0
BLOCK
  5
24
100
AcDbEntity
  8
0
100
AcDbBlockBegin
  2
*Paper_Space0
 70
          64
 10
0.0
 20
0.0
 30
0.0
  3
*Paper_Space0
  1

  0
ENDBLK
  5
25
100
AcDbEntity
  8
0
100
AcDbBlockEnd
  0
ENDSEC
  0
SECTION
  2
ENTITIES
  0
LINE
  5
2F
100
AcDbEntity
  8
0
370
          15
  6
Continuous
 62
           7
100
AcDbLine
 10
98.062459300054
 20
631.609936243252
 30
0.0
 11
98.062459300054
 21
632.609936243252
 31
0.0
  0
LINE
  5
30
100
AcDbEntity
  8
0
370
          15
  6
Continuous
 62
           7
100
AcDbLine
 10
70.062459300054
 20
632.609936243252
 30
0.0
 11
70.062459300054
 21
631.609936243252
 31
0.0
  0
LINE
  5
31
100
AcDbEntity
  8
0
370
          15
  6
Continuous
 62
           7
100
AcDbLine
 10
98.062459300054
 20
632.609936243252
 30
0.0
 11
96.062459300054
 21
634.609936243252
 31
0.0
  0
LINE
  5
32
100
AcDbEntity
  8
0
370
          15
  6
Continuous
 62
           7
100
AcDbLine
 10
72.062459300054
 20
634.609936243252
 30
0.0
 11
70.062459300054
 21
632.609936243252
 31
0.0
  0
LINE
  5
33
100
AcDbEntity
  8
0
370
          15
  6
Continuous
 62
           7
100
AcDbLine
 10
-119.139672805378
 20
601.609936243252
 30
0.0
 11
-122.637540699945
 21
601.609936243252
 31
0.0
  0
LINE
  5
34
100
AcDbEntity
  8
0
370
          15
  6
Continuous
 62
           7
100
AcDbLine
 10
-122.637540699946
 20
601.609936243252
 30
0.0
 11
-121.707874797935
 21
628.232084481711
 31
0.0
  0
ARC
  5
35
100
AcDbEntity
  8
0
370
          15
  6
Continuous
 62
           7
100
AcDbCircle
 10
-120.19991661275
 20
599.693874386403
 30
0.0
 40
28.60750209465
100
AcDbArc
 50
86.011341016337
 51
93.021574568711
  0
LINE
  5
36
100
AcDbEntity
  8
0
370
          15
  6
Continuous
 62
           7
100
AcDbLine
 10
-118.210006903369
 20
628.232084481711
 30
0.0
 11
-119.139672805378
 21
601.609936243252
 31
0.0
  0
LINE
  5
37
100
AcDbEntity
  8
0
370
          15
  6
Continuous
 62
           7
100
AcDbLine
 10
286.334925503477
 20
628.232084481711
 30
0.0
 11
-118.210006903369
 21
628.232084481711
 31
0.0
  0
LINE
  5
38
100
AcDbEntity
  8
0
370
          15
  6
Continuous
 62
           7
100
AcDbLine
 10
287.264591405488
 20
601.609936243252
 30
0.0
 11
286.334925503477
 21
628.232084481711
 31
0.0
  0
LINE
  5
39
100
AcDbEntity
  8
0
370
          15
  6
Continuous
 62
           7
100
AcDbLine
 10
-119.139672805378
 20
601.609936243252
 30
0.0
 11
287.264591405488
 21
601.609936243252
 31
0.0
  0
ARC
  5
3A
100
AcDbEntity
  8
0
370
          15
  6
Continuous
 62
           7
100
AcDbCircle
 10
288.324835212927
 20
599.693874386988
 30
0.0
 40
28.607502094072
100
AcDbArc
 50
86.978425431363
 51
93.98865898388
  0
LINE
  5
3B
100
AcDbEntity
  8
0
370
          15
  6
Continuous
 62
           7
100
AcDbLine
 10
289.832793398044
 20
628.232084481711
 30
0.0
 11
290.762459300055
 21
601.609936243252
 31
0.0
  0
LINE
  5
3C
100
AcDbEntity
  8
0
370
          15
  6
Continuous
 62
           7
100
AcDbLine
 10
290.762459300055
 20
601.609936243252
 30
0.0
 11
287.264591405488
 21
601.609936243252
 31
0.0
  0
LINE
  5
3D
100
AcDbEntity
  8
0
370
          15
  6
Continuous
 62
           7
100
AcDbLine
 10
-118.210006903369
 20
631.609936243252
 30
0.0
 11
-118.210006903369
 21
628.232084481711
 31
0.0
  0
ARC
  5
3E
100
AcDbEntity
  8
0
370
          15
  6
Continuous
 62
           7
100
AcDbCircle
 10
-118.210006903369
 20
628.109936243252
 30
0.0
 40
3.5
100
AcDbArc
 50
90.0
 51
177.999999999775
  0
LINE
  5
3F
100
AcDbEntity
  8
0
370
          15
  6
Continuous
 62
           7
100
AcDbLine
 10
-118.210006903369
 20
631.609936243252
 30
0.0
 11
286.334925503478
 21
631.609936243252
 31
0.0
  0
LINE
  5
40
100
AcDbEntity
  8
0
370
          15
  6
Continuous
 62
           7
100
AcDbLine
 10
286.334925503478
 20
631.609936243252
 30
0.0
 11
286.334925503477
 21
628.232084481711
 31
0.0
  0
ARC
  5
41
100
AcDbEntity
  8
0
370
          15
  6
Continuous
 62
           7
100
AcDbCircle
 10
286.334925503478
 20
628.109936243252
 30
0.0
 40
3.5
100
AcDbArc
 50
2.00000000029
 51
89.999999999998
  0
LINE
  5
42
100
AcDbEntity
  8
0
370
          15
  6
Continuous
 62
           7
100
AcDbLine
 10
98.062459300054
 20
632.609936243252
 30
0.0
 11
70.062459300054
 21
632.609936243252
 31
0.0
  0
LINE
  5
43
100
AcDbEntity
  8
0
370
          15
  6
Continuous
 62
           7
100
AcDbLine
 10
72.062459300054
 20
634.609936243252
 30
0.0
 11
96.062459300054
 21
634.609936243252
 31
0.0
  0
CIRCLE
  5
44
100
AcDbEntity
  8
0
370
          15
  6
Continuous
 62
           7
100
AcDbCircle
 10
84.062459300054
 20
188.495789000848
 30
0.0
 40
12.0
  0
CIRCLE
  5
45
100
AcDbEntity
  8
0
370
          15
  6
Continuous
 62
           7
100
AcDbCircle
 10
84.062459300054
 20
188.495789000848
 30
0.0
 40
14.0
  0
LINE
  5
46
100
AcDbEntity
  8
0
370
          15
  6
Continuous
 62
           7
100
AcDbLine
 10
-118.21000690337
 20
438.496829055122
 30
0.0
 11
-121.707874797936
 21
438.496829055122
 31
0.0
  0
ARC
  5
47
100
AcDbEntity
  8
0
370
          15
  6
Continuous
 62
           7
100
AcDbCircle
 10
-118.204718685964
 20
438.491540837701
 30
0.0
 40
3.503160103421
100
AcDbArc
 50
90.086491237792
 51
179.913508582064
  0
LINE
  5
48
100
AcDbEntity
  8
0
370
          15
  6
Continuous
 62
           7
100
AcDbLine
 10
-118.21000690337
 20
441.994696949689
 30
0.0
 11
-118.21000690337
 21
438.496829055122
 31
0.0
  0
LINE
  5
49
100
AcDbEntity
  8
0
370
          15
  6
Continuous
 62
           7
100
AcDbLine
 10
-118.21000690337
 20
441.994696949689
 30
0.0
 11
286.334925503476
 21
441.99469694969
 31
0.0
  0
LINE
  5
4A
100
AcDbEntity
  8
0
370
          15
  6
Continuous
 62
           7
100
AcDbLine
 10
286.334925503476
 20
441.99469694969
 30
0.0
 11
286.334925503476
 21
438.496829055123
 31
0.0
  0
LINE
  5
4B
100
AcDbEntity
  8
0
370
          15
  6
Continuous
 62
           7
100
AcDbLine
 10
286.334925503476
 20
438.496829055123
 30
0.0
 11
-118.21000690337
 21
438.496829055122
 31
0.0
  0
LINE
  5
4C
100
AcDbEntity
  8
0
370
          15
  6
Continuous
 62
           7
100
AcDbLine
 10
289.832793398043
 20
438.496829055123
 30
0.0
 11
286.334925503476
 21
438.496829055123
 31
0.0
  0
ARC
  5
4D
100
AcDbEntity
  8
0
370
          15
  6
Continuous
 62
           7
100
AcDbCircle
 10
286.329637286012
 20
438.491540837704
 30
0.0
 40
3.503160103464
100
AcDbArc
 50
0.086491238017
 51
89.913508761254
  0
LINE
  5
4E
100
AcDbEntity
  8
0
370
          15
  6
Continuous
 62
           7
100
AcDbLine
 10
-118.21000690337
 20
438.496829055122
 30
0.0
 11
-118.210006903369
 21
148.923322797425
 31
0.0
  0
LINE
  5
4F
100
AcDbEntity
  8
0
370
          15
  6
Continuous
 62
           7
100
AcDbLine
 10
-118.210006903369
 20
148.923322797425
 30
0.0
 11
-121.707874797935
 21
148.923322797425
 31
0.0
  0
LINE
  5
50
100
AcDbEntity
  8
0
370
          15
  6
Continuous
 62
           7
100
AcDbLine
 10
-121.707874797935
 20
148.923322797425
 30
0.0
 11
-121.707874797936
 21
438.496829055122
 31
0.0
  0
LINE
  5
51
100
AcDbEntity
  8
0
370
          15
  6
Continuous
 62
           7
100
AcDbLine
 10
289.832793398043
 20
438.496829055123
 30
0.0
 11
289.832793398044
 21
148.923322797426
 31
0.0
  0
LINE
  5
52
100
AcDbEntity
  8
0
370
          15
  6
Continuous
 62
           7
100
AcDbLine
 10
289.832793398044
 20
148.923322797426
 30
0.0
 11
286.334925503478
 21
148.923322797426
 31
0.0
  0
LINE
  5
53
100
AcDbEntity
  8
0
370
          15
  6
Continuous
 62
           7
100
AcDbLine
 10
286.334925503478
 20
148.923322797426
 30
0.0
 11
286.334925503476
 21
438.496829055123
 31
0.0
  0
LINE
  5
54
100
AcDbEntity
  8
0
370
          15
  6
Continuous
 62
           7
100
AcDbLine
 10
-118.210006903369
 20
148.923322797425
 30
0.0
 11
286.334925503478
 21
148.923322797426
 31
0.0
  0
LINE
  5
55
100
AcDbEntity
  8
0
370
          15
  6
Continuous
 62
           7
100
AcDbLine
 10
286.334925503478
 20
148.923322797426
 30
0.0
 11
286.334925503477
 21
145.425454902859
 31
0.0
  0
LINE
  5
56
100
AcDbEntity
  8
0
370
          15
  6
Continuous
 62
           7
100
AcDbLine
 10
286.334925503477
 20
145.425454902859
 30
0.0
 11
-118.210006903369
 21
145.425454902858
 31
0.0
  0
LINE
  5
57
100
AcDbEntity
  8
0
370
          15
  6
Continuous
 62
           7
100
AcDbLine
 10
-118.210006903369
 20
148.923322797425
 30
0.0
 11
-118.210006903369
 21
145.425454902858
 31
0.0
  0
ARC
  5
58
100
AcDbEntity
  8
0
370
          15
  6
Continuous
 62
           7
100
AcDbCircle
 10
-118.204718685799
 20
148.92861101499
 30
0.0
 40
3.50316010357
100
AcDbArc
 50
180.086491240411
 51
269.913508759514
  0
ARC
  5
59
100
AcDbEntity
  8
0
370
          15
  6
Continuous
 62
           7
100
AcDbCircle
 10
286.329637286143
 20
148.928611014784
 30
0.0
 40
3.503160103358
100
AcDbArc
 50
270.086491236639
 51
359.913508506231
  0
ELLIPSE
  5
5A
100
AcDbEntity
  8
0
370
          15
  6
Continuous
 62
           7
100
AcDbEllipse
 10
-118.629056137271
 20
438.915878289023
 30
0.0
 11
3.256070746259212
 21
1.3487086631468514
 31
0.0
210
0.0
220
0.0
230
1.0
 40
0.951833291682
 41
1.1952460438233088
 42
2.7311357855783198
  0
ELLIPSE
  5
5B
100
AcDbEntity
  8
0
370
          15
  6
Continuous
 62
           7
100
AcDbEllipse
 10
-118.506833444049
 20
438.793655595802
 30
0.0
 11
2.4778899060972037
 21
-2.4778899060972321
 31
0.0
210
0.0
220
0.0
230
1.0
 40
0.998782765959
 41
2.3568034777779729
 42
2.3904920876467375
  0
LINE
  5
5C
100
AcDbEntity
  8
0
370
          15
  6
Continuous
 62
           7
100
AcDbLine
 10
-118.511098954528
 20
442.295789000847
 30
0.0
 11
-118.21000690337
 21
441.994696949689
 31
0.0
  0
LINE
  5
5D
100
AcDbEntity
  8
0
370
          15
  6
Continuous
 62
           7
100
AcDbLine
 10
-121.707874797936
 20
438.496829055122
 30
0.0
 11
-122.126924031837
 21
438.915878289023
 31
0.0
  0
ELLIPSE
  5
5E
100
AcDbEntity
  8
0
370
          15
  6
Continuous
 62
           7
100
AcDbEllipse
 10
286.631752044156
 20
438.793655595803
 30
0.0
 11
2.4778899060970616
 21
2.4778899060970616
 31
0.0
210
0.0
220
0.0
230
1.0
 40
0.998782765959
 41
0.7511005659430697
 42
0.7847891758118325
  0
ELLIPSE
  5
5F
100
AcDbEntity
  8
0
370
          15
  6
Continuous
 62
           7
100
AcDbEllipse
 10
286.753974737377
 20
438.915878289024
 30
0.0
 11
3.2560707462593541
 21
-1.3487086631468514
 31
0.0
210
0.0
220
0.0
230
1.0
 40
0.951833291682
 41
0.4104568680114651
 42
1.9463466097664623
  0
LINE
  5
60
100
AcDbEntity
  8
0
370
          15
  6
Continuous
 62
           7
100
AcDbLine
 10
290.251842631944
 20
438.915878289024
 30
0.0
 11
289.832793398043
 21
438.496829055123
 31
0.0
  0
LINE
  5
61
100
AcDbEntity
  8
0
370
          15
  6
Continuous
 62
           7
100
AcDbLine
 10
286.334925503476
 20
441.99469694969
 30
0.0
 11
286.636017554635
 21
442.295789000849
 31
0.0
  0
ELLIPSE
  5
62
100
AcDbEntity
  8
0
370
          15
  6
Continuous
 62
           7
100
AcDbEllipse
 10
-119.1354072949
 20
147.997922405893
 30
0.0
 11
2.4778899060973458
 21
2.4778899060970616
 31
0.0
210
0.0
220
0.0
230
1.0
 40
0.998782765959
 41
2.3568034777779747
 42
3.9263818294017803
  0
LINE
  5
63
100
AcDbEntity
  8
0
370
          15
  6
Continuous
 62
           7
100
AcDbLine
 10
-122.637540699946
 20
147.993656895414
 30
0.0
 11
-121.707874797935
 21
148.923322797425
 31
0.0
  0
LINE
  5
64
100
AcDbEntity
  8
0
370
          15
  6
Continuous
 62
           7
100
AcDbLine
 10
-118.210006903369
 20
145.425454902858
 30
0.0
 11
-119.139672805378
 21
144.495789000847
 31
0.0
  0
ELLIPSE
  5
65
100
AcDbEntity
  8
0
370
          15
  6
Continuous
 62
           7
100
AcDbEllipse
 10
287.260325895008
 20
147.997922405895
 30
0.0
 11
2.4778899060973458
 21
-2.4778899060970616
 31
0.0
210
0.0
220
0.0
230
1.0
 40
0.998782765959
 41
5.4983961313677767
 42
7.0679744829913895
  0
LINE
  5
66
100
AcDbEntity
  8
0
370
          15
  6
Continuous
 62
           7
100
AcDbLine
 10
287.264591405488
 20
144.495789000849
 30
0.0
 11
286.334925503477
 21
145.425454902859
 31
0.0
  0
LINE
  5
67
100
AcDbEntity
  8
0
370
          15
  6
Continuous
 62
           7
100
AcDbLine
 10
289.832793398044
 20
148.923322797426
 30
0.0
 11
290.762459300055
 21
147.993656895416
 31
0.0
  0
LINE
  5
68
100
AcDbEntity
  8
0
370
          15
  6
Continuous
 62
           7
100
AcDbLine
 10
-122.637540699947
 20
454.39792110628
 30
0.0
 11
-122.637540699946
 21
147.993656895414
 31
0.0
  0
LINE
  5
69
100
AcDbEntity
  8
0
370
          15
  6
Continuous
 62
           7
100
AcDbLine
 10
-122.126924031837
 20
453.887304438172
 30
0.0
 11
-122.637540699947
 21
454.39792110628
 31
0.0
  0
LINE
  5
6A
100
AcDbEntity
  8
0
370
          15
  6
Continuous
 62
           7
100
AcDbLine
 10
-122.126924031837
 20
438.915878289023
 30
0.0
 11
-122.126924031837
 21
453.887304438172
 31
0.0
  0
LINE
  5
6B
100
AcDbEntity
  8
0
370
          15
  6
Continuous
 62
           7
100
AcDbLine
 10
290.762459300055
 20
147.993656895416
 30
0.0
 11
290.762459300053
 21
454.397921106283
 31
0.0
  0
LINE
  5
6C
100
AcDbEntity
  8
0
370
          15
  6
Continuous
 62
           7
100
AcDbLine
 10
290.251842631944
 20
453.887304438173
 30
0.0
 11
290.251842631944
 21
438.915878289024
 31
0.0
  0
LINE
  5
6D
100
AcDbEntity
  8
0
370
          15
  6
Continuous
 62
           7
100
AcDbLine
 10
290.762459300053
 20
454.397921106283
 30
0.0
 11
290.251842631944
 21
453.887304438173
 31
0.0
  0
LINE
  5
6E
100
AcDbEntity
  8
0
370
          15
  6
Continuous
 62
           7
100
AcDbLine
 10
-53.562540699947
 20
442.295789000848
 30
0.0
 11
-118.511098954528
 21
442.295789000847
 31
0.0
  0
LINE
  5
6F
100
AcDbEntity
  8
0
370
          15
  6
Continuous
 62
           7
100
AcDbLine
 10
-23.312540699947
 20
442.924362851699
 30
0.0
 11
-53.562540699947
 21
442.924362851699
 31
0.0
  0
LINE
  5
70
100
AcDbEntity
  8
0
370
          15
  6
Continuous
 62
           7
100
AcDbLine
 10
191.437459300054
 20
442.295789000849
 30
0.0
 11
-23.312540699947
 21
442.295789000848
 31
0.0
  0
LINE
  5
71
100
AcDbEntity
  8
0
370
          15
  6
Continuous
 62
           7
100
AcDbLine
 10
191.43745929993
 20
442.9243628517
 30
0.0
 11
221.687459300053
 21
442.9243628517
 31
0.0
  0
LINE
  5
72
100
AcDbEntity
  8
0
370
          15
  6
Continuous
 62
           7
100
AcDbLine
 10
286.636017554635
 20
442.295789000849
 30
0.0
 11
221.687459300053
 21
442.295789000849
 31
0.0
  0
LINE
  5
73
100
AcDbEntity
  8
0
370
          15
  6
Continuous
 62
           7
100
AcDbLine
 10
-119.139672805378
 20
144.495789000847
 30
0.0
 11
287.264591405488
 21
144.495789000849
 31
0.0
  0
LINE
  5
74
100
AcDbEntity
  8
0
370
          15
  6
Continuous
 62
           7
100
AcDbLine
 10
290.251842631944
 20
453.887304438173
 30
0.0
 11
286.753974737377
 21
453.887304438173
 31
0.0
  0
LINE
  5
75
100
AcDbEntity
  8
0
370
          15
  6
Continuous
 62
           7
100
AcDbLine
 10
286.753974737377
 20
457.385172332739
 30
0.0
 11
286.753974737377
 21
453.887304438173
 31
0.0
  0
ARC
  5
76
100
AcDbEntity
  8
0
370
          15
  6
Continuous
 62
           7
100
AcDbCircle
 10
286.748686519934
 20
453.882016220711
 30
0.0
 40
3.503160103462
100
AcDbArc
 50
0.0864914432
 51
89.913508761585
  0
LINE
  5
77
100
AcDbEntity
  8
0
370
          15
  6
Continuous
 62
           7
100
AcDbLine
 10
-118.629056137271
 20
453.887304438172
 30
0.0
 11
-122.126924031837
 21
453.887304438172
 31
0.0
  0
ARC
  5
78
100
AcDbEntity
  8
0
370
          15
  6
Continuous
 62
           7
100
AcDbCircle
 10
-118.623767919858
 20
453.882016220796
 30
0.0
 40
3.503160103413
100
AcDbArc
 50
90.086491237914
 51
179.913508762692
  0
LINE
  5
79
100
AcDbEntity
  8
0
370
          15
  6
Continuous
 62
           7
100
AcDbLine
 10
-118.629056137271
 20
453.887304438172
 30
0.0
 11
-118.62905613727
 21
457.385172332738
 31
0.0
  0
LINE
  5
7A
100
AcDbEntity
  8
0
370
          15
  6
Continuous
 62
           7
100
AcDbLine
 10
-53.562540699947
 20
453.887304438172
 30
0.0
 11
-118.629056137271
 21
453.887304438172
 31
0.0
  0
LINE
  5
7B
100
AcDbEntity
  8
0
370
          15
  6
Continuous
 62
           7
100
AcDbLine
 10
-118.62905613727
 20
457.385172332738
 30
0.0
 11
-53.562540699947
 21
457.385172332738
 31
0.0
  0
LINE
  5
7C
100
AcDbEntity
  8
0
370
          15
  6
Continuous
 62
           7
100
AcDbLine
 10
-53.562540699947
 20
457.385172332738
 30
0.0
 11
-53.562540699947
 21
453.887304438172
 31
0.0
  0
LINE
  5
7D
100
AcDbEntity
  8
0
370
          15
  6
Continuous
 62
           7
100
AcDbLine
 10
286.753974737377
 20
453.887304438173
 30
0.0
 11
221.687459300053
 21
453.887304438173
 31
0.0
  0
LINE
  5
7E
100
AcDbEntity
  8
0
370
          15
  6
Continuous
 62
           7
100
AcDbLine
 10
221.687459300053
 20
457.385172332739
 30
0.0
 11
286.753974737377
 21
457.385172332739
 31
0.0
  0
LINE
  5
7F
100
AcDbEntity
  8
0
370
          15
  6
Continuous
 62
           7
100
AcDbLine
 10
221.687459300053
 20
453.887304438173
 30
0.0
 11
221.687459300053
 21
457.385172332739
 31
0.0
  0
LINE
  5
80
100
AcDbEntity
  8
0
370
          15
  6
Continuous
 62
           7
100
AcDbLine
 10
191.437459300054
 20
453.887304438173
 30
0.0
 11
-23.312540699947
 21
453.887304438172
 31
0.0
  0
LINE
  5
81
100
AcDbEntity
  8
0
370
          15
  6
Continuous
 62
           7
100
AcDbLine
 10
-23.312540699947
 20
457.385172332738
 30
0.0
 11
191.437459300054
 21
457.385172332739
 31
0.0
  0
LINE
  5
82
100
AcDbEntity
  8
0
370
          15
  6
Continuous
 62
           7
100
AcDbLine
 10
-23.312540699947
 20
453.887304438172
 30
0.0
 11
-23.312540699947
 21
457.385172332738
 31
0.0
  0
LINE
  5
83
100
AcDbEntity
  8
0
370
          15
  6
Continuous
 62
           7
100
AcDbLine
 10
191.437459300054
 20
457.385172332739
 30
0.0
 11
191.437459300054
 21
453.887304438173
 31
0.0
  0
LINE
  5
84
100
AcDbEntity
  8
0
370
          15
  6
Continuous
 62
           7
100
AcDbLine
 10
-118.629056137271
 20
453.887304438172
 30
0.0
 11
-118.629056137271
 21
442.29380186391
 31
0.0
  0
LINE
  5
85
100
AcDbEntity
  8
0
370
          15
  6
Continuous
 62
           7
100
AcDbLine
 10
286.753974737377
 20
442.293801863911
 30
0.0
 11
286.753974737377
 21
453.887304438173
 31
0.0
  0
LINE
  5
86
100
AcDbEntity
  8
0
370
          15
  6
Continuous
 62
           7
100
AcDbLine
 10
-53.562540699947
 20
453.887304438172
 30
0.0
 11
-53.562540699947
 21
442.295789000848
 31
0.0
  0
LINE
  5
87
100
AcDbEntity
  8
0
370
          15
  6
Continuous
 62
           7
100
AcDbLine
 10
221.687459300053
 20
453.887304438173
 30
0.0
 11
221.687459300053
 21
442.295789000849
 31
0.0
  0
LINE
  5
88
100
AcDbEntity
  8
0
370
          15
  6
Continuous
 62
           7
100
AcDbLine
 10
-23.312540699947
 20
453.887304438172
 30
0.0
 11
-23.312540699947
 21
442.295789000848
 31
0.0
  0
LINE
  5
89
100
AcDbEntity
  8
0
370
          15
  6
Continuous
 62
           7
100
AcDbLine
 10
191.437459300054
 20
453.887304438173
 30
0.0
 11
191.437459300054
 21
442.295789000849
 31
0.0
  0
ELLIPSE
  5
8A
100
AcDbEntity
  8
0
370
          15
  6
Continuous
 62
           7
100
AcDbEllipse
 10
287.260325895008
 20
454.393655595803
 30
0.0
 11
2.4778899060970616
 21
2.4778899060970616
 31
0.0
210
0.0
220
0.0
230
1.0
 40
0.998782765959
 41
5.4983961313678753
 42
7.0679744829914473
  0
LINE
  5
8B
100
AcDbEntity
  8
0
370
          15
  6
Continuous
 62
           7
100
AcDbLine
 10
286.753974737377
 20
457.385172332739
 30
0.0
 11
287.264591405487
 21
457.895789000849
 31
0.0
  0
ELLIPSE
  5
8C
100
AcDbEntity
  8
0
370
          15
  6
Continuous
 62
           7
100
AcDbEllipse
 10
-119.135407294901
 20
454.393655595802
 30
0.0
 11
2.4778899060972037
 21
-2.4778899060970616
 31
0.0
210
0.0
220
0.0
230
1.0
 40
0.998782765959
 41
2.3568034777779032
 42
3.9263818294016395
  0
LINE
  5
8D
100
AcDbEntity
  8
0
370
          15
  6
Continuous
 62
           7
100
AcDbLine
 10
-119.13967280538
 20
457.895789000848
 30
0.0
 11
-118.62905613727
 21
457.385172332738
 31
0.0
  0
LINE
  5
8E
100
AcDbEntity
  8
0
370
          15
  6
Continuous
 62
           7
100
AcDbLine
 10
-53.562540699947
 20
457.895789000848
 30
0.0
 11
-119.13967280538
 21
457.895789000848
 31
0.0
  0
LINE
  5
8F
100
AcDbEntity
  8
0
370
          15
  6
Continuous
 62
           7
100
AcDbLine
 10
-53.562540699947
 20
457.895789000848
 30
0.0
 11
-53.562540699947
 21
457.385172332738
 31
0.0
  0
LINE
  5
90
100
AcDbEntity
  8
0
370
          15
  6
Continuous
 62
           7
100
AcDbLine
 10
287.264591405487
 20
457.895789000849
 30
0.0
 11
221.687459300053
 21
457.895789000849
 31
0.0
  0
LINE
  5
91
100
AcDbEntity
  8
0
370
          15
  6
Continuous
 62
           7
100
AcDbLine
 10
221.687459300053
 20
457.895789000849
 30
0.0
 11
221.687459300053
 21
457.385172332739
 31
0.0
  0
LINE
  5
92
100
AcDbEntity
  8
0
370
          15
  6
Continuous
 62
           7
100
AcDbLine
 10
191.437459300054
 20
457.895789000849
 30
0.0
 11
-23.312540699947
 21
457.895789000848
 31
0.0
  0
LINE
  5
93
100
AcDbEntity
  8
0
370
          15
  6
Continuous
 62
           7
100
AcDbLine
 10
-23.312540699947
 20
457.895789000848
 30
0.0
 11
-23.312540699947
 21
457.385172332738
 31
0.0
  0
LINE
  5
94
100
AcDbEntity
  8
0
370
          15
  6
Continuous
 62
           7
100
AcDbLine
 10
191.437459300054
 20
457.895789000849
 30
0.0
 11
191.437459300054
 21
457.385172332739
 31
0.0
  0
LINE
  5
95
100
AcDbEntity
  8
0
370
          15
  6
Continuous
 62
           7
100
AcDbLine
 10
-305.773088206551
 20
202.495789000848
 30
0.0
 11
-306.773088206551
 21
202.495789000848
 31
0.0
  0
LINE
  5
96
100
AcDbEntity
  8
0
370
          15
  6
Continuous
 62
           7
100
AcDbLine
 10
-306.773088206551
 20
174.495789000848
 30
0.0
 11
-305.773088206551
 21
174.495789000848
 31
0.0
  0
LINE
  5
97
100
AcDbEntity
  8
0
370
          15
  6
Continuous
 62
           7
100
AcDbLine
 10
-306.773088206551
 20
202.495789000848
 30
0.0
 11
-308.773088206551
 21
200.495789000848
 31
0.0
  0
LINE
  5
98
100
AcDbEntity
  8
0
370
          15
  6
Continuous
 62
           7
100
AcDbLine
 10
-308.773088206551
 20
176.495789000848
 30
0.0
 11
-306.773088206551
 21
174.495789000848
 31
0.0
  0
LINE
  5
99
100
AcDbEntity
  8
0
370
          15
  6
Continuous
 62
           7
100
AcDbLine
 10
-275.773088206551
 20
147.993656895416
 30
0.0
 11
-275.773088206552
 21
454.397921106283
 31
0.0
  0
LINE
  5
9A
100
AcDbEntity
  8
0
370
          15
  6
Continuous
 62
           7
100
AcDbLine
 10
-302.39523644501
 20
148.923322797426
 30
0.0
 11
-275.773088206551
 21
147.993656895416
 31
0.0
  0
LINE
  5
9B
100
AcDbEntity
  8
0
370
          15
  6
Continuous
 62
           7
100
AcDbLine
 10
-302.395236445011
 20
438.496829055123
 30
0.0
 11
-302.39523644501
 21
148.923322797426
 31
0.0
  0
LINE
  5
9C
100
AcDbEntity
  8
0
370
          15
  6
Continuous
 62
           7
100
AcDbLine
 10
-290.395236445011
 20
438.915878289024
 30
0.0
 11
-302.395236445011
 21
438.496829055123
 31
0.0
  0
LINE
  5
9D
100
AcDbEntity
  8
0
370
          15
  6
Continuous
 62
           7
100
AcDbLine
 10
-290.395236445011
 20
453.887304438173
 30
0.0
 11
-290.395236445011
 21
438.915878289024
 31
0.0
  0
LINE
  5
9E
100
AcDbEntity
  8
0
370
          15
  6
Continuous
 62
           7
100
AcDbLine
 10
-275.773088206552
 20
454.397921106283
 30
0.0
 11
-290.395236445011
 21
453.887304438173
 31
0.0
  0
LINE
  5
9F
100
AcDbEntity
  8
0
370
          15
  6
Continuous
 62
           7
100
AcDbLine
 10
-275.773088206551
 20
147.993656895416
 30
0.0
 11
-275.773088206551
 21
144.495789000849
 31
0.0
  0
LINE
  5
A0
100
AcDbEntity
  8
0
370
          15
  6
Continuous
 62
           7
100
AcDbLine
 10
-275.773088206551
 20
144.495789000849
 30
0.0
 11
-302.39523644501
 21
145.425454902859
 31
0.0
  0
ARC
  5
A1
100
AcDbEntity
  8
0
370
          15
  6
Continuous
 62
           7
100
AcDbCircle
 10
-273.857026350693
 20
146.933413088044
 30
0.0
 40
28.607502093662
100
AcDbArc
 50
176.011341016199
 51
183.988658983801
  0
ARC
  5
A2
100
AcDbEntity
  8
0
370
          15
  6
Continuous
 62
           7
100
AcDbCircle
 10
-261.857026346435
 20
455.877214147579
 30
0.0
 40
28.607502097913
100
AcDbArc
 50
176.011341016744
 51
183.988658983257
  0
LINE
  5
A3
100
AcDbEntity
  8
0
370
          15
  6
Continuous
 62
           7
100
AcDbLine
 10
-290.395236445011
 20
457.385172332739
 30
0.0
 11
-275.773088206553
 21
457.895789000849
 31
0.0
  0
LINE
  5
A4
100
AcDbEntity
  8
0
370
          15
  6
Continuous
 62
           7
100
AcDbLine
 10
-275.773088206553
 20
457.895789000849
 30
0.0
 11
-275.773088206552
 21
454.397921106283
 31
0.0
  0
ELLIPSE
  5
A5
100
AcDbEntity
  8
0
370
          15
  6
Continuous
 62
           7
100
AcDbEllipse
 10
-290.273088206552
 20
438.915878289024
 30
0.0
 11
3.4995034831749194
 21
-3.3794312311003409
 31
0.0
210
0.0
220
0.0
230
1.0
 40
0.017444438246
 41
3.1584369585251775
 42
4.6943267002790989
  0
ARC
  5
A6
100
AcDbEntity
  8
0
370
          15
  6
Continuous
 62
           7
100
AcDbCircle
 10
-273.857026349536
 20
440.486738764507
 30
0.0
 40
28.607502094817
100
AcDbArc
 50
176.011341016356
 51
183.988658983645
  0
LINE
  5
A7
100
AcDbEntity
  8
0
370
          15
  6
Continuous
 62
           7
100
AcDbLine
 10
-302.395236445011
 20
441.99469694969
 30
0.0
 11
-293.773088206552
 21
442.295789000849
 31
0.0
  0
LINE
  5
A8
100
AcDbEntity
  8
0
370
          15
  6
Continuous
 62
           7
100
AcDbLine
 10
-293.773088206552
 20
442.293801863911
 30
0.0
 11
-293.773088206553
 21
453.887304438173
 31
0.0
  0
LINE
  5
A9
100
AcDbEntity
  8
0
370
          15
  6
Continuous
 62
           7
100
AcDbLine
 10
-290.395236445011
 20
453.887304438173
 30
0.0
 11
-293.773088206553
 21
453.887304438173
 31
0.0
  0
ARC
  5
AA
100
AcDbEntity
  8
0
370
          15
  6
Continuous
 62
           7
100
AcDbCircle
 10
-290.273088206552
 20
453.887304438173
 30
0.0
 40
3.5
100
AcDbArc
 50
92.000000000001
 51
180.0
  0
LINE
  5
AB
100
AcDbEntity
  8
0
370
          15
  6
Continuous
 62
           7
100
AcDbLine
 10
-302.39523644501
 20
148.923322797426
 30
0.0
 11
-305.773088206551
 21
148.923322797426
 31
0.0
  0
ARC
  5
AC
100
AcDbEntity
  8
0
370
          15
  6
Continuous
 62
           7
100
AcDbCircle
 10
-302.273088206551
 20
148.923322797426
 30
0.0
 40
3.5
100
AcDbArc
 50
180.0
 51
268.000000000002
  0
LINE
  5
AD
100
AcDbEntity
  8
0
370
          15
  6
Continuous
 62
           7
100
AcDbLine
 10
-305.773088206551
 20
148.923322797426
 30
0.0
 11
-305.773088206552
 21
438.496829055123
 31
0.0
  0
LINE
  5
AE
100
AcDbEntity
  8
0
370
          15
  6
Continuous
 62
           7
100
AcDbLine
 10
-302.395236445011
 20
438.496829055123
 30
0.0
 11
-305.773088206552
 21
438.496829055123
 31
0.0
  0
ARC
  5
AF
100
AcDbEntity
  8
0
370
          15
  6
Continuous
 62
           7
100
AcDbCircle
 10
-302.273088206552
 20
438.496829055123
 30
0.0
 40
3.5
100
AcDbArc
 50
92.000000000001
 51
180.0
  0
LINE
  5
B0
100
AcDbEntity
  8
0
370
          15
  6
Continuous
 62
           7
100
AcDbLine
 10
-306.773088206551
 20
188.495789000848
 30
0.0
 11
-306.773088206551
 21
174.495789000848
 31
0.0
  0
LINE
  5
B1
100
AcDbEntity
  8
0
370
          15
  6
Continuous
 62
           7
100
AcDbLine
 10
-306.773088206551
 20
202.495789000848
 30
0.0
 11
-306.773088206551
 21
188.495789000848
 31
0.0
  0
LINE
  5
B2
100
AcDbEntity
  8
0
370
          15
  6
Continuous
 62
           7
100
AcDbLine
 10
-308.773088206551
 20
188.495789000848
 30
0.0
 11
-308.773088206551
 21
200.495789000848
 31
0.0
  0
LINE
  5
B3
100
AcDbEntity
  8
0
370
          15
  6
Continuous
 62
           7
100
AcDbLine
 10
-308.773088206551
 20
176.495789000848
 30
0.0
 11
-308.773088206551
 21
188.495789000848
 31
0.0
  0
LINE
  5
B4
100
AcDbEntity
  8
0
370
          15
  6
Continuous
 62
           7
100
AcDbLine
 10
451.261282896487
 20
174.495789000848
 30
0.0
 11
452.261282896487
 21
174.495789000848
 31
0.0
  0
LINE
  5
B5
100
AcDbEntity
  8
0
370
          15
  6
Continuous
 62
           7
100
AcDbLine
 10
452.261282896487
 20
202.495789000848
 30
0.0
 11
451.261282896487
 21
202.495789000848
 31
0.0
  0
LINE
  5
B6
100
AcDbEntity
  8
0
370
          15
  6
Continuous
 62
           7
100
AcDbLine
 10
452.261282896487
 20
174.495789000848
 30
0.0
 11
454.261282896487
 21
176.495789000848
 31
0.0
  0
LINE
  5
B7
100
AcDbEntity
  8
0
370
          15
  6
Continuous
 62
           7
100
AcDbLine
 10
454.261282896487
 20
200.495789000848
 30
0.0
 11
452.261282896487
 21
202.495789000848
 31
0.0
  0
LINE
  5
B8
100
AcDbEntity
  8
0
370
          15
  6
Continuous
 62
           7
100
AcDbLine
 10
421.261282896488
 20
454.39792110628
 30
0.0
 11
421.261282896488
 21
457.895789000847
 31
0.0
  0
LINE
  5
B9
100
AcDbEntity
  8
0
370
          15
  6
Continuous
 62
           7
100
AcDbLine
 10
421.261282896488
 20
457.895789000848
 30
0.0
 11
435.883431134947
 21
457.385172332738
 31
0.0
  0
ARC
  5
BA
100
AcDbEntity
  8
0
370
          15
  6
Continuous
 62
           7
100
AcDbCircle
 10
407.345221047252
 20
455.877214147553
 30
0.0
 40
28.607502087056
100
AcDbArc
 50
356.011341015278
 51
3.988658984722
  0
LINE
  5
BB
100
AcDbEntity
  8
0
370
          15
  6
Continuous
 62
           7
100
AcDbLine
 10
435.883431134947
 20
453.887304438172
 30
0.0
 11
421.261282896488
 21
454.39792110628
 31
0.0
  0
LINE
  5
BC
100
AcDbEntity
  8
0
370
          15
  6
Continuous
 62
           7
100
AcDbLine
 10
447.883431134946
 20
148.923322797425
 30
0.0
 11
447.883431134947
 21
438.496829055122
 31
0.0
  0
LINE
  5
BD
100
AcDbEntity
  8
0
370
          15
  6
Continuous
 62
           7
100
AcDbLine
 10
421.261282896487
 20
147.993656895414
 30
0.0
 11
447.883431134946
 21
148.923322797425
 31
0.0
  0
LINE
  5
BE
100
AcDbEntity
  8
0
370
          15
  6
Continuous
 62
           7
100
AcDbLine
 10
435.883431134947
 20
438.915878289023
 30
0.0
 11
435.883431134947
 21
453.887304438172
 31
0.0
  0
LINE
  5
BF
100
AcDbEntity
  8
0
370
          15
  6
Continuous
 62
           7
100
AcDbLine
 10
447.883431134947
 20
438.496829055122
 30
0.0
 11
435.883431134947
 21
438.915878289023
 31
0.0
  0
LINE
  5
C0
100
AcDbEntity
  8
0
370
          15
  6
Continuous
 62
           7
100
AcDbLine
 10
421.261282896488
 20
454.39792110628
 30
0.0
 11
421.261282896487
 21
147.993656895414
 31
0.0
  0
ARC
  5
C1
100
AcDbEntity
  8
0
370
          15
  6
Continuous
 62
           7
100
AcDbCircle
 10
419.345221040399
 20
146.933413088037
 30
0.0
 40
28.607502093892
100
AcDbArc
 50
356.011341016221
 51
3.988658983779
  0
LINE
  5
C2
100
AcDbEntity
  8
0
370
          15
  6
Continuous
 62
           7
100
AcDbLine
 10
447.883431134946
 20
145.425454902858
 30
0.0
 11
421.261282896487
 21
144.495789000847
 31
0.0
  0
LINE
  5
C3
100
AcDbEntity
  8
0
370
          15
  6
Continuous
 62
           7
100
AcDbLine
 10
421.261282896487
 20
144.495789000847
 30
0.0
 11
421.261282896487
 21
147.993656895414
 31
0.0
  0
LINE
  5
C4
100
AcDbEntity
  8
0
370
          15
  6
Continuous
 62
           7
100
AcDbLine
 10
439.261282896488
 20
453.887304438172
 30
0.0
 11
439.261282896488
 21
442.29380186391
 31
0.0
  0
ELLIPSE
  5
C5
100
AcDbEntity
  8
0
370
          15
  6
Continuous
 62
           7
100
AcDbEllipse
 10
435.761282896488
 20
438.915878289023
 30
0.0
 11
3.4995034831746352
 21
3.379431231099943
 31
0.0
210
0.0
220
0.0
230
1.0
 40
0.017444438246
 41
4.7304512604902209
 42
6.2663410022469987
  0
LINE
  5
C6
100
AcDbEntity
  8
0
370
          15
  6
Continuous
 62
           7
100
AcDbLine
 10
439.261282896488
 20
453.887304438172
 30
0.0
 11
435.883431134947
 21
453.887304438172
 31
0.0
  0
ARC
  5
C7
100
AcDbEntity
  8
0
370
          15
  6
Continuous
 62
           7
100
AcDbCircle
 10
435.761282896488
 20
453.887304438172
 30
0.0
 40
3.5
100
AcDbArc
 50
0.0
 51
87.999999999999
  0
LINE
  5
C8
100
AcDbEntity
  8
0
370
          15
  6
Continuous
 62
           7
100
AcDbLine
 10
439.261282896488
 20
442.295789000847
 30
0.0
 11
447.883431134947
 21
441.994696949689
 31
0.0
  0
ARC
  5
C9
100
AcDbEntity
  8
0
370
          15
  6
Continuous
 62
           7
100
AcDbCircle
 10
419.345221039903
 20
440.486738764485
 30
0.0
 40
28.607502094386
100
AcDbArc
 50
356.011341016338
 51
3.988658983663
  0
LINE
  5
CA
100
AcDbEntity
  8
0
370
          15
  6
Continuous
 62
           7
100
AcDbLine
 10
451.261282896488
 20
438.496829055122
 30
0.0
 11
447.883431134947
 21
438.496829055122
 31
0.0
  0
ARC
  5
CB
100
AcDbEntity
  8
0
370
          15
  6
Continuous
 62
           7
100
AcDbCircle
 10
447.761282896488
 20
438.496829055122
 30
0.0
 40
3.5
100
AcDbArc
 50
0.0
 51
87.999999999999
  0
LINE
  5
CC
100
AcDbEntity
  8
0
370
          15
  6
Continuous
 62
           7
100
AcDbLine
 10
451.261282896488
 20
438.496829055122
 30
0.0
 11
451.261282896487
 21
148.923322797425
 31
0.0
  0
LINE
  5
CD
100
AcDbEntity
  8
0
370
          15
  6
Continuous
 62
           7
100
AcDbLine
 10
451.261282896487
 20
148.923322797425
 30
0.0
 11
447.883431134946
 21
148.923322797425
 31
0.0
  0
ARC
  5
CE
100
AcDbEntity
  8
0
370
          15
  6
Continuous
 62
           7
100
AcDbCircle
 10
447.761282896487
 20
148.923322797425
 30
0.0
 40
3.5
100
AcDbArc
 50
271.999999999996
 51
359.999999999999
  0
LINE
  5
CF
100
AcDbEntity
  8
0
370
          15
  6
Continuous
 62
           7
100
AcDbLine
 10
452.261282896487
 20
174.495789000848
 30
0.0
 11
452.261282896487
 21
202.495789000848
 31
0.0
  0
LINE
  5
D0
100
AcDbEntity
  8
0
370
          15
  6
Continuous
 62
           7
100
AcDbLine
 10
454.261282896487
 20
200.495789000848
 30
0.0
 11
454.261282896487
 21
176.495789000848
 31
0.0
  0
LINE
  5
D1
100
AcDbEntity
  8
0
370
          15
  6
Continuous
 62
           7
100
AcDbLine
 10
70.062459300054
 20
-47.195901174184
 30
0.0
 11
72.062459300054
 21
-49.195901174184
 31
0.0
  0
LINE
  5
D2
100
AcDbEntity
  8
0
370
          15
  6
Continuous
 62
           7
100
AcDbLine
 10
96.062459300054
 20
-49.195901174184
 30
0.0
 11
98.062459300054
 21
-47.195901174184
 31
0.0
  0
LINE
  5
D3
100
AcDbEntity
  8
0
370
          15
  6
Continuous
 62
           7
100
AcDbLine
 10
70.062459300054
 20
-46.195901174184
 30
0.0
 11
70.062459300054
 21
-47.195901174184
 31
0.0
  0
LINE
  5
D4
100
AcDbEntity
  8
0
370
          15
  6
Continuous
 62
           7
100
AcDbLine
 10
98.062459300054
 20
-47.195901174184
 30
0.0
 11
98.062459300054
 21
-46.195901174184
 31
0.0
  0
LINE
  5
D5
100
AcDbEntity
  8
0
370
          15
  6
Continuous
 62
           7
100
AcDbLine
 10
287.264591405487
 20
-16.195901174186
 30
0.0
 11
290.762459300053
 21
-16.195901174186
 31
0.0
  0
LINE
  5
D6
100
AcDbEntity
  8
0
370
          15
  6
Continuous
 62
           7
100
AcDbLine
 10
290.762459300053
 20
-16.195901174186
 30
0.0
 11
290.251842631944
 21
-30.818049412645
 31
0.0
  0
ARC
  5
D7
100
AcDbEntity
  8
0
370
          15
  6
Continuous
 62
           7
100
AcDbCircle
 10
288.74388444676
 20
-2.279839319273
 30
0.0
 40
28.607502092719
100
AcDbArc
 50
266.011341016067
 51
273.021574568915
  0
LINE
  5
D8
100
AcDbEntity
  8
0
370
          15
  6
Continuous
 62
           7
100
AcDbLine
 10
286.753974737377
 20
-30.818049412645
 30
0.0
 11
287.264591405487
 21
-16.195901174186
 31
0.0
  0
LINE
  5
D9
100
AcDbEntity
  8
0
370
          15
  6
Continuous
 62
           7
100
AcDbLine
 10
221.687459300053
 20
-30.818049412645
 30
0.0
 11
286.753974737377
 21
-30.818049412645
 31
0.0
  0
LINE
  5
DA
100
AcDbEntity
  8
0
370
          15
  6
Continuous
 62
           7
100
AcDbLine
 10
221.687459300053
 20
-16.195901174186
 30
0.0
 11
221.687459300053
 21
-30.818049412645
 31
0.0
  0
LINE
  5
DB
100
AcDbEntity
  8
0
370
          15
  6
Continuous
 62
           7
100
AcDbLine
 10
287.264591405487
 20
-16.195901174186
 30
0.0
 11
221.687459300053
 21
-16.195901174186
 31
0.0
  0
LINE
  5
DC
100
AcDbEntity
  8
0
370
          15
  6
Continuous
 62
           7
100
AcDbLine
 10
191.437459300054
 20
-16.195901174186
 30
0.0
 11
191.437459300054
 21
-30.818049412645
 31
0.0
  0
LINE
  5
DD
100
AcDbEntity
  8
0
370
          15
  6
Continuous
 62
           7
100
AcDbLine
 10
-23.312540699947
 20
-30.818049412645
 30
0.0
 11
191.437459300054
 21
-30.818049412645
 31
0.0
  0
LINE
  5
DE
100
AcDbEntity
  8
0
370
          15
  6
Continuous
 62
           7
100
AcDbLine
 10
-23.312540699947
 20
-16.195901174186
 30
0.0
 11
-23.312540699947
 21
-30.818049412645
 31
0.0
  0
LINE
  5
DF
100
AcDbEntity
  8
0
370
          15
  6
Continuous
 62
           7
100
AcDbLine
 10
191.437459300054
 20
-16.195901174186
 30
0.0
 11
-23.312540699947
 21
-16.195901174186
 31
0.0
  0
LINE
  5
E0
100
AcDbEntity
  8
0
370
          15
  6
Continuous
 62
           7
100
AcDbLine
 10
-118.62905613727
 20
-30.818049412645
 30
0.0
 11
-53.562540699947
 21
-30.818049412645
 31
0.0
  0
LINE
  5
E1
100
AcDbEntity
  8
0
370
          15
  6
Continuous
 62
           7
100
AcDbLine
 10
-119.13967280538
 20
-16.195901174186
 30
0.0
 11
-118.62905613727
 21
-30.818049412645
 31
0.0
  0
LINE
  5
E2
100
AcDbEntity
  8
0
370
          15
  6
Continuous
 62
           7
100
AcDbLine
 10
-53.562540699947
 20
-16.195901174186
 30
0.0
 11
-53.562540699947
 21
-30.818049412645
 31
0.0
  0
LINE
  5
E3
100
AcDbEntity
  8
0
370
          15
  6
Continuous
 62
           7
100
AcDbLine
 10
-53.562540699947
 20
-16.195901174186
 30
0.0
 11
-119.13967280538
 21
-16.195901174186
 31
0.0
  0
ARC
  5
E4
100
AcDbEntity
  8
0
370
          15
  6
Continuous
 62
           7
100
AcDbCircle
 10
-120.618965846657
 20
-2.279839315489
 30
0.0
 40
28.607502096494
100
AcDbArc
 50
266.978425431494
 51
273.988658983417
  0
LINE
  5
E5
100
AcDbEntity
  8
0
370
          15
  6
Continuous
 62
           7
100
AcDbLine
 10
-122.126924031837
 20
-30.818049412645
 30
0.0
 11
-122.637540699947
 21
-16.195901174186
 31
0.0
  0
LINE
  5
E6
100
AcDbEntity
  8
0
370
          15
  6
Continuous
 62
           7
100
AcDbLine
 10
-122.637540699946
 20
-16.195901174186
 30
0.0
 11
-119.13967280538
 21
-16.195901174186
 31
0.0
  0
ARC
  5
E7
100
AcDbEntity
  8
0
370
          15
  6
Continuous
 62
           7
100
AcDbCircle
 10
286.753974737377
 20
-30.695901174186
 30
0.0
 40
3.5
100
AcDbArc
 50
270.0
 51
357.999999999841
  0
LINE
  5
E8
100
AcDbEntity
  8
0
370
          15
  6
Continuous
 62
           7
100
AcDbLine
 10
286.753974737377
 20
-30.818049412645
 30
0.0
 11
286.753974737377
 21
-34.195901174186
 31
0.0
  0
LINE
  5
E9
100
AcDbEntity
  8
0
370
          15
  6
Continuous
 62
           7
100
AcDbLine
 10
286.753974737377
 20
-34.195901174186
 30
0.0
 11
221.687459300053
 21
-34.195901174186
 31
0.0
  0
LINE
  5
EA
100
AcDbEntity
  8
0
370
          15
  6
Continuous
 62
           7
100
AcDbLine
 10
221.687459300053
 20
-34.195901174186
 30
0.0
 11
221.687459300053
 21
-30.818049412645
 31
0.0
  0
LINE
  5
EB
100
AcDbEntity
  8
0
370
          15
  6
Continuous
 62
           7
100
AcDbLine
 10
191.437459300054
 20
-34.195901174186
 30
0.0
 11
-23.312540699947
 21
-34.195901174186
 31
0.0
  0
LINE
  5
EC
100
AcDbEntity
  8
0
370
          15
  6
Continuous
 62
           7
100
AcDbLine
 10
-23.312540699947
 20
-34.195901174186
 30
0.0
 11
-23.312540699947
 21
-30.818049412645
 31
0.0
  0
LINE
  5
ED
100
AcDbEntity
  8
0
370
          15
  6
Continuous
 62
           7
100
AcDbLine
 10
191.437459300054
 20
-30.818049412645
 30
0.0
 11
191.437459300054
 21
-34.195901174186
 31
0.0
  0
LINE
  5
EE
100
AcDbEntity
  8
0
370
          15
  6
Continuous
 62
           7
100
AcDbLine
 10
-53.562540699947
 20
-34.195901174186
 30
0.0
 11
-118.629056137271
 21
-34.195901174186
 31
0.0
  0
LINE
  5
EF
100
AcDbEntity
  8
0
370
          15
  6
Continuous
 62
           7
100
AcDbLine
 10
-118.629056137271
 20
-34.195901174186
 30
0.0
 11
-118.62905613727
 21
-30.818049412645
 31
0.0
  0
LINE
  5
F0
100
AcDbEntity
  8
0
370
          15
  6
Continuous
 62
           7
100
AcDbLine
 10
-53.562540699947
 20
-30.818049412645
 30
0.0
 11
-53.562540699947
 21
-34.195901174186
 31
0.0
  0
ARC
  5
F1
100
AcDbEntity
  8
0
370
          15
  6
Continuous
 62
           7
100
AcDbCircle
 10
-118.629056137271
 20
-30.695901174186
 30
0.0
 40
3.5
100
AcDbArc
 50
182.000000000227
 51
270.000000000001
  0
LINE
  5
F2
100
AcDbEntity
  8
0
370
          15
  6
Continuous
 62
           7
100
AcDbLine
 10
286.334925503476
 20
-42.818049412645
 30
0.0
 11
286.636017554635
 21
-34.195901174186
 31
0.0
  0
LINE
  5
F3
100
AcDbEntity
  8
0
370
          15
  6
Continuous
 62
           7
100
AcDbLine
 10
-118.21000690337
 20
-42.818049412645
 30
0.0
 11
286.334925503476
 21
-42.818049412645
 31
0.0
  0
LINE
  5
F4
100
AcDbEntity
  8
0
370
          15
  6
Continuous
 62
           7
100
AcDbLine
 10
-118.511098954528
 20
-34.195901174186
 30
0.0
 11
-118.21000690337
 21
-42.818049412645
 31
0.0
  0
LINE
  5
F5
100
AcDbEntity
  8
0
370
          15
  6
Continuous
 62
           7
100
AcDbLine
 10
191.43745929993
 20
-16.195901174186
 30
0.0
 11
221.687459300053
 21
-16.195901174186
 31
0.0
  0
LINE
  5
F6
100
AcDbEntity
  8
0
370
          15
  6
Continuous
 62
           7
100
AcDbLine
 10
-23.312540699947
 20
-16.195901174186
 30
0.0
 11
-53.562540699947
 21
-16.195901174186
 31
0.0
  0
ARC
  5
F7
100
AcDbEntity
  8
0
370
          15
  6
Continuous
 62
           7
100
AcDbCircle
 10
288.324835212857
 20
-14.279839316576
 30
0.0
 40
28.60750209541
100
AcDbArc
 50
266.011341016445
 51
273.021574568634
  0
LINE
  5
F8
100
AcDbEntity
  8
0
370
          15
  6
Continuous
 62
           7
100
AcDbLine
 10
290.251842631944
 20
-30.818049412645
 30
0.0
 11
289.832793398043
 21
-42.818049412645
 31
0.0
  0
ARC
  5
F9
100
AcDbEntity
  8
0
370
          15
  6
Continuous
 62
           7
100
AcDbCircle
 10
-120.199916612748
 20
-14.27983931832
 30
0.0
 40
28.60750209367
100
AcDbArc
 50
266.97842543118
 51
273.988658983795
  0
LINE
  5
FA
100
AcDbEntity
  8
0
370
          15
  6
Continuous
 62
           7
100
AcDbLine
 10
-121.707874797936
 20
-42.818049412645
 30
0.0
 11
-122.126924031837
 21
-30.818049412645
 31
0.0
  0
ARC
  5
FB
100
AcDbEntity
  8
0
370
          15
  6
Continuous
 62
           7
100
AcDbCircle
 10
286.334925503476
 20
-42.695901174186
 30
0.0
 40
3.5
100
AcDbArc
 50
270.0
 51
357.999999999908
  0
LINE
  5
FC
100
AcDbEntity
  8
0
370
          15
  6
Continuous
 62
           7
100
AcDbLine
 10
286.334925503476
 20
-42.818049412645
 30
0.0
 11
286.334925503476
 21
-46.195901174186
 31
0.0
  0
LINE
  5
FD
100
AcDbEntity
  8
0
370
          15
  6
Continuous
 62
           7
100
AcDbLine
 10
286.334925503476
 20
-46.195901174186
 30
0.0
 11
-118.21000690337
 21
-46.195901174186
 31
0.0
  0
LINE
  5
FE
100
AcDbEntity
  8
0
370
          15
  6
Continuous
 62
           7
100
AcDbLine
 10
-118.21000690337
 20
-42.818049412645
 30
0.0
 11
-118.21000690337
 21
-46.195901174186
 31
0.0
  0
ARC
  5
FF
100
AcDbEntity
  8
0
370
          15
  6
Continuous
 62
           7
100
AcDbCircle
 10
-118.21000690337
 20
-42.695901174186
 30
0.0
 40
3.5
100
AcDbArc
 50
182.000000000159
 51
270.0
  0
LINE
  5
100
100
AcDbEntity
  8
0
370
          15
  6
Continuous
 62
           7
100
AcDbLine
 10
96.062459300054
 20
-49.195901174184
 30
0.0
 11
72.062459300054
 21
-49.195901174184
 31
0.0
  0
LINE
  5
101
100
AcDbEntity
  8
0
370
          15
  6
Continuous
 62
           7
100
AcDbLine
 10
70.062459300054
 20
-47.195901174184
 30
0.0
 11
98.062459300054
 21
-47.195901174184
 31
0.0
  0
LINE
  5
102
100
AcDbEntity
  8
0
370
          15
  6
Continuous
 62
           7
100
AcDbLine
 10
-499.104968505535
 20
454.654517073726
 30
0.0
 11
-499.104968505535
 21
439.683090924577
 31
0.0
  0
LINE
  5
103
100
AcDbEntity
  8
0
370
          15
  6
Continuous
 62
           7
100
AcDbLine
 10
-499.104968505535
 20
454.654517073726
 30
0.0
 11
-498.563696578413
 21
455.195789000848
 31
0.0
  0
LINE
  5
104
100
AcDbEntity
  8
0
370
          15
  6
Continuous
 62
           7
100
AcDbLine
 10
-498.563696578413
 20
455.195789000848
 30
0.0
 11
-498.563696578414
 21
147.195789000848
 31
0.0
  0
LINE
  5
105
100
AcDbEntity
  8
0
370
          15
  6
Continuous
 62
           7
100
AcDbLine
 10
-499.192270429266
 20
147.824362851699
 30
0.0
 11
-498.563696578414
 21
147.195789000848
 31
0.0
  0
LINE
  5
106
100
AcDbEntity
  8
0
370
          15
  6
Continuous
 62
           7
100
AcDbLine
 10
-499.192270429265
 20
439.595789000848
 30
0.0
 11
-499.192270429266
 21
147.824362851699
 31
0.0
  0
LINE
  5
107
100
AcDbEntity
  8
0
370
          15
  6
Continuous
 62
           7
100
AcDbLine
 10
-499.192270429265
 20
439.595789000848
 30
0.0
 11
-499.104968505535
 21
439.683090924577
 31
0.0
  0
LINE
  5
108
100
AcDbEntity
  8
0
370
          15
  6
Continuous
 62
           7
100
AcDbLine
 10
-905.935122727563
 20
147.8243628517
 30
0.0
 11
-906.563696578415
 21
147.195789000849
 31
0.0
  0
LINE
  5
109
100
AcDbEntity
  8
0
370
          15
  6
Continuous
 62
           7
100
AcDbLine
 10
-499.192270429266
 20
147.824362851699
 30
0.0
 11
-905.935122727563
 21
147.8243628517
 31
0.0
  0
LINE
  5
10A
100
AcDbEntity
  8
0
370
          15
  6
Continuous
 62
           7
100
AcDbLine
 10
-498.563696578414
 20
147.195789000848
 30
0.0
 11
-906.563696578415
 21
147.195789000849
 31
0.0
  0
LINE
  5
10B
100
AcDbEntity
  8
0
370
          15
  6
Continuous
 62
           7
100
AcDbLine
 10
-905.935122727563
 20
147.8243628517
 30
0.0
 11
-905.935122727562
 21
439.595789000849
 31
0.0
  0
LINE
  5
10C
100
AcDbEntity
  8
0
370
          15
  6
Continuous
 62
           7
100
AcDbLine
 10
-906.563696578415
 20
147.195789000849
 30
0.0
 11
-906.563696578413
 21
455.195789000849
 31
0.0
  0
LINE
  5
10D
100
AcDbEntity
  8
0
370
          15
  6
Continuous
 62
           7
100
AcDbLine
 10
-906.022424651291
 20
454.654517073727
 30
0.0
 11
-906.563696578413
 21
455.195789000849
 31
0.0
  0
LINE
  5
10E
100
AcDbEntity
  8
0
370
          15
  6
Continuous
 62
           7
100
AcDbLine
 10
-906.022424651291
 20
439.683090924578
 30
0.0
 11
-906.022424651291
 21
454.654517073727
 31
0.0
  0
LINE
  5
10F
100
AcDbEntity
  8
0
370
          15
  6
Continuous
 62
           7
100
AcDbLine
 10
-906.022424651291
 20
439.683090924578
 30
0.0
 11
-905.935122727562
 21
439.595789000849
 31
0.0
  0
LINE
  5
110
100
AcDbEntity
  8
0
370
          15
  6
Continuous
 62
           7
100
AcDbLine
 10
-906.563696578413
 20
455.195789000849
 30
0.0
 11
-843.188696578413
 21
455.195789000849
 31
0.0
  0
LINE
  5
111
100
AcDbEntity
  8
0
370
          15
  6
Continuous
 62
           7
100
AcDbLine
 10
-561.938696578413
 20
455.195789000848
 30
0.0
 11
-498.563696578413
 21
455.195789000848
 31
0.0
  0
LINE
  5
112
100
AcDbEntity
  8
0
370
          15
  6
Continuous
 62
           7
100
AcDbLine
 10
-561.938696578414
 20
440.224362851699
 30
0.0
 11
-561.938696578413
 21
455.195789000848
 31
0.0
  0
LINE
  5
113
100
AcDbEntity
  8
0
370
          15
  6
Continuous
 62
           7
100
AcDbLine
 10
-598.188696578414
 20
440.224362851699
 30
0.0
 11
-561.938696578414
 21
440.224362851699
 31
0.0
  0
LINE
  5
114
100
AcDbEntity
  8
0
370
          15
  6
Continuous
 62
           7
100
AcDbLine
 10
-598.188696578413
 20
455.195789000848
 30
0.0
 11
-598.188696578414
 21
440.224362851699
 31
0.0
  0
LINE
  5
115
100
AcDbEntity
  8
0
370
          15
  6
Continuous
 62
           7
100
AcDbLine
 10
-806.938696578413
 20
455.195789000849
 30
0.0
 11
-598.188696578413
 21
455.195789000848
 31
0.0
  0
LINE
  5
116
100
AcDbEntity
  8
0
370
          15
  6
Continuous
 62
           7
100
AcDbLine
 10
-806.938696578413
 20
455.195789000849
 30
0.0
 11
-806.938696578413
 21
440.2243628517
 31
0.0
  0
LINE
  5
117
100
AcDbEntity
  8
0
370
          15
  6
Continuous
 62
           7
100
AcDbLine
 10
-806.938696578413
 20
440.2243628517
 30
0.0
 11
-843.188696578413
 21
440.2243628517
 31
0.0
  0
LINE
  5
118
100
AcDbEntity
  8
0
370
          15
  6
Continuous
 62
           7
100
AcDbLine
 10
-843.188696578413
 20
440.2243628517
 30
0.0
 11
-843.188696578413
 21
455.195789000849
 31
0.0
  0
ELLIPSE
  5
119
100
AcDbEntity
  8
0
370
          15
  6
Continuous
 62
           7
100
AcDbEllipse
 10
-905.761563173368
 20
147.997922405895
 30
0.0
 11
2.4778899060971753
 21
2.4778899060970616
 31
0.0
210
0.0
220
0.0
230
1.0
 40
0.998782765959
 41
2.3568034777779716
 42
3.9263818294016906
  0
LINE
  5
11A
100
AcDbEntity
  8
0
370
          15
  6
Continuous
 62
           7
100
AcDbLine
 10
-909.263696578415
 20
147.993656895416
 30
0.0
 11
-909.263696578413
 21
454.397921106283
 31
0.0
  0
ELLIPSE
  5
11B
100
AcDbEntity
  8
0
370
          15
  6
Continuous
 62
           7
100
AcDbEllipse
 10
-905.761563173367
 20
454.393655595803
 30
0.0
 11
2.4778899060971753
 21
-2.4778899060971753
 31
0.0
210
0.0
220
0.0
230
1.0
 40
0.998782765959
 41
2.3568034777779308
 42
3.9263818294015826
  0
LINE
  5
11C
100
AcDbEntity
  8
0
370
          15
  6
Continuous
 62
           7
100
AcDbLine
 10
-905.765828683846
 20
457.895789000849
 30
0.0
 11
-840.188696578413
 21
457.895789000849
 31
0.0
  0
LINE
  5
11D
100
AcDbEntity
  8
0
370
          15
  6
Continuous
 62
           7
100
AcDbLine
 10
-840.188696578413
 20
442.9243628517
 30
0.0
 11
-840.188696578413
 21
457.895789000849
 31
0.0
  0
LINE
  5
11E
100
AcDbEntity
  8
0
370
          15
  6
Continuous
 62
           7
100
AcDbLine
 10
-809.93869657829
 20
442.9243628517
 30
0.0
 11
-840.188696578413
 21
442.9243628517
 31
0.0
  0
LINE
  5
11F
100
AcDbEntity
  8
0
370
          15
  6
Continuous
 62
           7
100
AcDbLine
 10
-809.93869657829
 20
442.9243628517
 30
0.0
 11
-809.938696578413
 21
457.895789000849
 31
0.0
  0
LINE
  5
120
100
AcDbEntity
  8
0
370
          15
  6
Continuous
 62
           7
100
AcDbLine
 10
-809.938696578413
 20
457.895789000849
 30
0.0
 11
-595.188696578413
 21
457.895789000848
 31
0.0
  0
LINE
  5
121
100
AcDbEntity
  8
0
370
          15
  6
Continuous
 62
           7
100
AcDbLine
 10
-595.188696578413
 20
442.924362851699
 30
0.0
 11
-595.188696578413
 21
457.895789000848
 31
0.0
  0
LINE
  5
122
100
AcDbEntity
  8
0
370
          15
  6
Continuous
 62
           7
100
AcDbLine
 10
-595.188696578413
 20
442.924362851699
 30
0.0
 11
-564.938696578414
 21
442.924362851699
 31
0.0
  0
LINE
  5
123
100
AcDbEntity
  8
0
370
          15
  6
Continuous
 62
           7
100
AcDbLine
 10
-564.938696578414
 20
442.924362851699
 30
0.0
 11
-564.938696578414
 21
457.895789000848
 31
0.0
  0
LINE
  5
124
100
AcDbEntity
  8
0
370
          15
  6
Continuous
 62
           7
100
AcDbLine
 10
-564.938696578414
 20
457.895789000848
 30
0.0
 11
-499.36156447298
 21
457.895789000848
 31
0.0
  0
ELLIPSE
  5
125
100
AcDbEntity
  8
0
370
          15
  6
Continuous
 62
           7
100
AcDbEllipse
 10
-499.365829983459
 20
454.393655595802
 30
0.0
 11
2.477889906097289
 21
2.4778899060970616
 31
0.0
210
0.0
220
0.0
230
1.0
 40
0.998782765959
 41
5.498396131367782
 42
7.0679744829915334
  0
LINE
  5
126
100
AcDbEntity
  8
0
370
          15
  6
Continuous
 62
           7
100
AcDbLine
 10
-495.863696578414
 20
454.39792110628
 30
0.0
 11
-495.863696578415
 21
147.993656895414
 31
0.0
  0
LINE
  5
127
100
AcDbEntity
  8
0
370
          15
  6
Continuous
 62
           7
100
AcDbLine
 10
-499.361564472981
 20
144.495789000847
 30
0.0
 11
-905.765828683847
 21
144.495789000849
 31
0.0
  0
ELLIPSE
  5
128
100
AcDbEntity
  8
0
370
          15
  6
Continuous
 62
           7
100
AcDbEllipse
 10
-499.36582998346
 20
147.997922405893
 30
0.0
 11
2.4778899060971753
 21
-2.4778899060970616
 31
0.0
210
0.0
220
0.0
230
1.0
 40
0.998782765959
 41
5.4983961313677652
 42
7.067974482991418
  0
LINE
  5
129
100
AcDbEntity
  8
0
370
          15
  6
Continuous
 62
           7
100
AcDbLine
 10
-561.938696578413
 20
454.654517073726
 30
0.0
 11
-499.104968505535
 21
454.654517073726
 31
0.0
  0
LINE
  5
12A
100
AcDbEntity
  8
0
370
          15
  6
Continuous
 62
           7
100
AcDbLine
 10
-598.188696578414
 20
440.224362851699
 30
0.0
 11
-598.188696578413
 21
439.683090924577
 31
0.0
  0
LINE
  5
12B
100
AcDbEntity
  8
0
370
          15
  6
Continuous
 62
           7
100
AcDbLine
 10
-561.938696578413
 20
439.683090924577
 30
0.0
 11
-561.938696578414
 21
440.224362851699
 31
0.0
  0
LINE
  5
12C
100
AcDbEntity
  8
0
370
          15
  6
Continuous
 62
           7
100
AcDbLine
 10
-561.938696578413
 20
439.683090924577
 30
0.0
 11
-598.188696578413
 21
439.683090924577
 31
0.0
  0
LINE
  5
12D
100
AcDbEntity
  8
0
370
          15
  6
Continuous
 62
           7
100
AcDbLine
 10
-806.938696578413
 20
454.654517073727
 30
0.0
 11
-598.188696578413
 21
454.654517073726
 31
0.0
  0
LINE
  5
12E
100
AcDbEntity
  8
0
370
          15
  6
Continuous
 62
           7
100
AcDbLine
 10
-843.188696578413
 20
439.683090924578
 30
0.0
 11
-843.188696578413
 21
440.2243628517
 31
0.0
  0
LINE
  5
12F
100
AcDbEntity
  8
0
370
          15
  6
Continuous
 62
           7
100
AcDbLine
 10
-806.938696578413
 20
440.2243628517
 30
0.0
 11
-806.938696578413
 21
439.683090924578
 31
0.0
  0
LINE
  5
130
100
AcDbEntity
  8
0
370
          15
  6
Continuous
 62
           7
100
AcDbLine
 10
-806.938696578413
 20
439.683090924578
 30
0.0
 11
-843.188696578413
 21
439.683090924578
 31
0.0
  0
LINE
  5
131
100
AcDbEntity
  8
0
370
          15
  6
Continuous
 62
           7
100
AcDbLine
 10
-906.022424651291
 20
454.654517073727
 30
0.0
 11
-843.188696578413
 21
454.654517073727
 31
0.0
  0
LINE
  5
132
100
AcDbEntity
  8
0
370
          15
  6
Continuous
 62
           7
100
AcDbLine
 10
-512.312051563945
 20
166.581785770376
 30
0.0
 11
-505.388250042443
 21
298.695789000848
 31
0.0
  0
LINE
  5
133
100
AcDbEntity
  8
0
370
          15
  6
Continuous
 62
           7
100
AcDbLine
 10
-505.388250042443
 20
298.695789000848
 30
0.0
 11
-512.312051563943
 21
430.809792231309
 31
0.0
  0
SPLINE
  5
134
100
AcDbEntity
  8
0
370
          15
  6
Continuous
 62
           7
100
AcDbSpline
210
0.0
220
0.0
230
1.0
 70
          12
 71
           3
 72
          26
 73
          22
 74
           0
 42
0.00000001
 43
0.00000001
 40
0.0
 40
0.0
 40
0.0
 40
0.0
 40
0.1249999999999932
 40
0.1249999999999932
 40
0.187499999999993
 40
0.187499999999993
 40
0.2499999999999925
 40
0.2499999999999925
 40
0.374999999999992
 40
0.374999999999992
 40
0.499999999999992
 40
0.499999999999992
 40
0.624999999999991
 40
0.624999999999991
 40
0.6875
 40
0.6875
 40
0.75
 40
0.75
 40
0.875
 40
0.875
 40
1.0
 40
1.0
 40
1.0
 40
1.0
 10
-512.31205156394333
 20
430.80979223130856
 30
0.0
 41
1.0
 10
-512.34044158756001
 20
431.35150615249859
 30
0.0
 41
1.0
 10
-512.41974930524282
 20
431.88177866890857
 30
0.0
 41
1.0
 10
-512.61193654884482
 20
432.66073335005592
 30
0.0
 41
1.0
 10
-512.68828836658338
 20
432.91762343352661
 30
0.0
 41
1.0
 10
-512.8660534218584
 20
433.42577220152975
 30
0.0
 41
1.0
 10
-512.9680926823803
 20
433.6781998159089
 30
0.0
 41
1.0
 10
-513.3065725618435
 20
434.41254491591144
 30
0.0
 41
1.0
 10
-513.57567931992185
 20
434.87496106573872
 30
0.0
 41
1.0
 10
-514.19923869101285
 20
435.74647418504787
 30
0.0
 41
1.0
 10
-514.55800229811234
 20
436.15883079721903
 30
0.0
 41
1.0
 10
-515.33635940850286
 20
436.89791192933853
 30
0.0
 41
1.0
 10
-515.75713487229132
 20
437.22797629179939
 30
0.0
 41
1.0
 10
-516.43596283820534
 20
437.66352194086323
 30
0.0
 41
1.0
 10
-516.67156800747625
 20
437.79935019895436
 30
0.0
 41
1.0
 10
-517.15163142377742
 20
438.04629338896859
 30
0.0
 41
1.0
 10
-517.39595335461479
 20
438.15754445869618
 30
0.0
 41
1.0
 10
-518.14146275123437
 20
438.45556772044006
 30
0.0
 41
1.0
 10
-518.65508128155943
 20
438.60693052940462
 30
0.0
 41
1.0
 10
-519.71653913414593
 20
438.81217960975295
 30
0.0
 41
1.0
 10
-520.2571083765913
 20
438.86414276721155
 30
0.0
 41
1.0
 10
-520.79956608072428
 20
438.86414276721155
 30
0.0
 41
1.0
  0
LINE
  5
135
100
AcDbEntity
  8
0
370
          15
  6
Continuous
 62
           7
100
AcDbLine
 10
-520.799566080724
 20
438.864142767212
 30
0.0
 11
-884.327827076102
 21
438.864142767219
 31
0.0
  0
SPLINE
  5
136
100
AcDbEntity
  8
0
370
          15
  6
Continuous
 62
           7
100
AcDbSpline
210
0.0
220
0.0
230
1.0
 70
          12
 71
           3
 72
          26
 73
          22
 74
           0
 42
0.00000001
 43
0.00000001
 40
0.0
 40
0.0
 40
0.0
 40
0.0
 40
0.125000000000003
 40
0.125000000000003
 40
0.1875
 40
0.1875
 40
0.25
 40
0.25
 40
0.375
 40
0.375
 40
0.5
 40
0.5
 40
0.625
 40
0.625
 40
0.6875
 40
0.6875
 40
0.75
 40
0.75
 40
0.875
 40
0.875
 40
1.0
 40
1.0
 40
1.0
 40
1.0
 10
-884.32782707610181
 20
438.86414276721911
 30
0.0
 41
1.0
 10
-884.87028441622397
 20
438.86414276721911
 30
0.0
 41
1.0
 10
-885.40398085782238
 20
438.81269605722269
 30
0.0
 41
1.0
 10
-886.19192631182295
 20
438.66153953766627
 30
0.0
 41
1.0
 10
-886.45246028175438
 20
438.59873694560821
 30
0.0
 41
1.0
 10
-886.96921615368592
 20
438.44780996285067
 30
0.0
 41
1.0
 10
-887.2266381470663
 20
438.35912158416949
 30
0.0
 41
1.0
 10
-887.97769152079195
 20
438.05953823263826
 30
0.0
 41
1.0
 10
-888.45355790487235
 20
437.81500126740241
 30
0.0
 41
1.0
 10
-889.35651122170088
 20
437.2379079352354
 30
0.0
 41
1.0
 10
-889.78707894990885
 20
436.90121707880166
 30
0.0
 41
1.0
 10
-890.56588326069425
 20
436.16260719757008
 30
0.0
 41
1.0
 10
-890.91751696767847
 20
435.75968262596223
 30
0.0
 41
1.0
 10
-891.38799282728837
 20
435.10457966821434
 30
0.0
 41
1.0
 10
-891.53596555930187
 20
434.87640608941126
 30
0.0
 41
1.0
 10
-891.80769490020589
 20
434.40992459132462
 30
0.0
 41
1.0
 10
-891.9315803260904
 20
434.17175992631974
 30
0.0
 41
1.0
 10
-892.2682121044719
 20
433.44286955680388
 30
0.0
 41
1.0
 10
-892.44624819289595
 20
432.93787664017123
 30
0.0
 41
1.0
 10
-892.70676839823977
 20
431.8886153855691
 30
0.0
 41
1.0
 10
-892.78695155021592
 20
431.35150651601805
 30
0.0
 41
1.0
 10
-892.81534159288287
 20
430.80979223131595
 30
0.0
 41
1.0
  0
LINE
  5
137
100
AcDbEntity
  8
0
370
          15
  6
Continuous
 62
           7
100
AcDbLine
 10
-892.815341592883
 20
430.809792231316
 30
0.0
 11
-899.739143114383
 21
298.695789000834
 31
0.0
  0
LINE
  5
138
100
AcDbEntity
  8
0
370
          15
  6
Continuous
 62
           7
100
AcDbLine
 10
-899.739143114383
 20
298.695789000834
 30
0.0
 11
-892.815341592883
 21
166.581785770388
 31
0.0
  0
SPLINE
  5
139
100
AcDbEntity
  8
0
370
          15
  6
Continuous
 62
           7
100
AcDbSpline
210
0.0
220
0.0
230
1.0
 70
          12
 71
           3
 72
          26
 73
          22
 74
           0
 42
0.00000001
 43
0.00000001
 40
0.0
 40
0.0
 40
0.0
 40
0.0
 40
0.125000000000005
 40
0.125000000000005
 40
0.1875000000000035
 40
0.1875000000000035
 40
0.25
 40
0.25
 40
0.375
 40
0.375
 40
0.5
 40
0.5
 40
0.624999999999993
 40
0.624999999999993
 40
0.6875
 40
0.6875
 40
0.75
 40
0.75
 40
0.875
 40
0.875
 40
1.0
 40
1.0
 40
1.0
 40
1.0
 10
-892.81534159288333
 20
166.58178577038785
 30
0.0
 41
1.0
 10
-892.78695156926676
 20
166.04007184919769
 30
0.0
 41
1.0
 10
-892.70764385158384
 20
165.50979933278771
 30
0.0
 41
1.0
 10
-892.51545660798183
 20
164.73084465164067
 30
0.0
 41
1.0
 10
-892.43910479024339
 20
164.47395456816994
 30
0.0
 41
1.0
 10
-892.26133973496837
 20
163.96580580016663
 30
0.0
 41
1.0
 10
-892.15930047444635
 20
163.71337818578741
 30
0.0
 41
1.0
 10
-891.82082059498339
 20
162.97903308578515
 30
0.0
 41
1.0
 10
-891.55171383690481
 20
162.51661693595767
 30
0.0
 41
1.0
 10
-890.9281544658138
 20
161.64510381664843
 30
0.0
 41
1.0
 10
-890.56939085871431
 20
161.23274720447756
 30
0.0
 41
1.0
 10
-889.7910337483238
 20
160.49366607235785
 30
0.0
 41
1.0
 10
-889.37025828453579
 20
160.16360170989702
 30
0.0
 41
1.0
 10
-888.69143031862188
 20
159.72805606083301
 30
0.0
 41
1.0
 10
-888.4558251493504
 20
159.59222780274192
 30
0.0
 41
1.0
 10
-887.97576173304935
 20
159.34528461272794
 30
0.0
 41
1.0
 10
-887.73143980221232
 20
159.23403354300009
 30
0.0
 41
1.0
 10
-886.9859304055924
 20
158.93601028125647
 30
0.0
 41
1.0
 10
-886.47231187526722
 20
158.78464747229191
 30
0.0
 41
1.0
 10
-885.41085402268129
 20
158.57939839194347
 30
0.0
 41
1.0
 10
-884.87028478023535
 20
158.52743523448484
 30
0.0
 41
1.0
 10
-884.32782707610284
 20
158.52743523448484
 30
0.0
 41
1.0
  0
LINE
  5
13A
100
AcDbEntity
  8
0
370
          15
  6
Continuous
 62
           7
100
AcDbLine
 10
-884.327827076103
 20
158.527435234485
 30
0.0
 11
-520.799566080726
 21
158.527435234473
 31
0.0
  0
SPLINE
  5
13B
100
AcDbEntity
  8
0
370
          15
  6
Continuous
 62
           7
100
AcDbSpline
210
0.0
220
0.0
230
1.0
 70
          12
 71
           3
 72
          26
 73
          22
 74
           0
 42
0.00000001
 43
0.00000001
 40
0.0
 40
0.0
 40
0.0
 40
0.0
 40
0.125000000000002
 40
0.125000000000002
 40
0.187500000000007
 40
0.187500000000007
 40
0.2500000000000115
 40
0.2500000000000115
 40
0.375000000000015
 40
0.375000000000015
 40
0.500000000000019
 40
0.500000000000019
 40
0.625000000000022
 40
0.625000000000022
 40
0.68750000000002
 40
0.68750000000002
 40
0.750000000000017
 40
0.750000000000017
 40
0.875
 40
0.875
 40
1.0
 40
1.0
 40
1.0
 40
1.0
 10
-520.79956608072587
 20
158.52743523447305
 30
0.0
 41
1.0
 10
-520.25710874060371
 20
158.52743523447305
 30
0.0
 41
1.0
 10
-519.72341229900587
 20
158.57888194446946
 30
0.0
 41
1.0
 10
-518.93546684500529
 20
158.73003846402557
 30
0.0
 41
1.0
 10
-518.67493287507375
 20
158.79284105608366
 30
0.0
 41
1.0
 10
-518.15817700314233
 20
158.9437680388416
 30
0.0
 41
1.0
 10
-517.90075500976195
 20
159.03245641752252
 30
0.0
 41
1.0
 10
-517.1497016360363
 20
159.33203976905378
 30
0.0
 41
1.0
 10
-516.67383525195578
 20
159.57657673428957
 30
0.0
 41
1.0
 10
-515.77088193512725
 20
160.15367006645664
 30
0.0
 41
1.0
 10
-515.34031420691883
 20
160.49036092289046
 30
0.0
 41
1.0
 10
-514.5615098961332
 20
161.22897080412204
 30
0.0
 41
1.0
 10
-514.20987618914933
 20
161.63189537572978
 30
0.0
 41
1.0
 10
-513.73940032953988
 20
162.2869983334775
 30
0.0
 41
1.0
 10
-513.59142759752638
 20
162.51517191228049
 30
0.0
 41
1.0
 10
-513.31969825662236
 20
162.98165341036724
 30
0.0
 41
1.0
 10
-513.19581283073717
 20
163.2198180753723
 30
0.0
 41
1.0
 10
-512.85918105235623
 20
163.94870844488824
 30
0.0
 41
1.0
 10
-512.68114496393184
 20
164.45370136152096
 30
0.0
 41
1.0
 10
-512.42062475858825
 20
165.50296261612277
 30
0.0
 41
1.0
 10
-512.34044160661233
 20
166.04007148567393
 30
0.0
 41
1.0
 10
-512.31205156394469
 20
166.58178577037592
 30
0.0
 41
1.0
  0
LINE
  5
13C
100
AcDbEntity
  8
0
370
          15
  6
Continuous
 62
           7
100
AcDbLine
 10
-499.104968505535
 20
439.683090924577
 30
0.0
 11
-515.964145664366
 21
439.683090924577
 31
0.0
  0
SPLINE
  5
13D
100
AcDbEntity
  8
0
370
          15
  6
Continuous
 62
           7
100
AcDbSpline
210
0.0
220
0.0
230
1.0
 70
          12
 71
           3
 72
          10
 73
           6
 74
           0
 42
0.00000001
 43
0.00000001
 40
0.0
 40
0.0
 40
0.0
 40
0.0
 40
0.25
 40
0.5
 40
0.68504875312559
 40
0.68504875312559
 40
0.68504875312559
 40
0.68504875312559
 10
-510.3147924944343
 20
430.91446414379448
 30
0.0
 41
1.0
 10
-510.38389808353531
 20
432.23307733531061
 30
0.0
 41
1.0
 10
-511.03389807332485
 20
434.87113371952296
 30
0.0
 41
1.0
 10
-513.18868049965579
 20
437.87747489243219
 30
0.0
 41
1.0
 10
-515.09326388301156
 20
439.23005996142797
 30
0.0
 41
1.0
 10
-515.96414566435669
 20
439.68309092459435
 30
0.0
 41
1.0
  0
LINE
  5
13E
100
AcDbEntity
  8
0
370
          15
  6
Continuous
 62
           7
100
AcDbLine
 10
-503.385505350447
 20
298.695789000847
 30
0.0
 11
-510.314792494434
 21
430.914464143794
 31
0.0
  0
LINE
  5
13F
100
AcDbEntity
  8
0
370
          15
  6
Continuous
 62
           7
100
AcDbLine
 10
-510.314792494436
 20
166.47711385789
 30
0.0
 11
-503.385505350447
 21
298.695789000847
 31
0.0
  0
SPLINE
  5
140
100
AcDbEntity
  8
0
370
          15
  6
Continuous
 62
           7
100
AcDbSpline
210
0.0
220
0.0
230
1.0
 70
          12
 71
           3
 72
          12
 73
           8
 74
           0
 42
0.00000001
 43
0.00000001
 40
0.0
 40
0.0
 40
0.0
 40
0.0
 40
0.25
 40
0.5
 40
0.75
 40
0.875
 40
1.0
 40
1.0
 40
1.0
 40
1.0
 10
-520.79956608072587
 20
156.52743523447302
 30
0.0
 41
1.0
 10
-519.47914329567379
 20
156.52743523447302
 30
0.0
 41
1.0
 10
-516.81068390502776
 20
157.03847921837681
 30
0.0
 41
1.0
 10
-513.40034959884133
 20
159.22207157883992
 30
0.0
 41
1.0
 10
-511.42986639895832
 20
161.97387672574609
 30
0.0
 41
1.0
 10
-510.54984908312639
 20
164.47524264118729
 30
0.0
 41
1.0
 10
-510.34972811742045
 20
165.81050246045567
 30
0.0
 41
1.0
 10
-510.31479249443584
 20
166.47711385788998
 30
0.0
 41
1.0
  0
LINE
  5
141
100
AcDbEntity
  8
0
370
          15
  6
Continuous
 62
           7
100
AcDbLine
 10
-884.327827076103
 20
156.527435234485
 30
0.0
 11
-520.799566080726
 21
156.527435234473
 31
0.0
  0
SPLINE
  5
142
100
AcDbEntity
  8
0
370
          15
  6
Continuous
 62
           7
100
AcDbSpline
210
0.0
220
0.0
230
1.0
 70
          12
 71
           3
 72
          12
 73
           8
 74
           0
 42
0.00000001
 43
0.00000001
 40
0.0
 40
0.0
 40
0.0
 40
0.0
 40
0.25
 40
0.5
 40
0.75
 40
0.875
 40
1.0
 40
1.0
 40
1.0
 40
1.0
 10
-894.81260066239236
 20
166.4771138579022
 30
0.0
 41
1.0
 10
-894.7434950732918
 20
165.15850066638581
 30
0.0
 41
1.0
 10
-894.09349508350192
 20
162.52044428217349
 30
0.0
 41
1.0
 10
-891.73441215345588
 20
159.22906411485843
 30
0.0
 41
1.0
 10
-888.88325113733936
 20
157.40529974747548
 30
0.0
 41
1.0
 10
-886.33925670921735
 20
156.65739984188863
 30
0.0
 41
1.0
 10
-884.99535329502032
 20
156.52743523448495
 30
0.0
 41
1.0
 10
-884.32782707610284
 20
156.52743523448495
 30
0.0
 41
1.0
  0
LINE
  5
143
100
AcDbEntity
  8
0
370
          15
  6
Continuous
 62
           7
100
AcDbLine
 10
-901.741887806379
 20
298.695789000834
 30
0.0
 11
-894.812600662392
 21
166.477113857902
 31
0.0
  0
LINE
  5
144
100
AcDbEntity
  8
0
370
          15
  6
Continuous
 62
           7
100
AcDbLine
 10
-894.812600662392
 20
430.914464143802
 30
0.0
 11
-901.741887806379
 21
298.695789000834
 31
0.0
  0
SPLINE
  5
145
100
AcDbEntity
  8
0
370
          15
  6
Continuous
 62
           7
100
AcDbSpline
210
0.0
220
0.0
230
1.0
 70
          12
 71
           3
 72
          11
 73
           7
 74
           0
 42
0.00000001
 43
0.00000001
 40
0.315449000936314
 40
0.315449000936314
 40
0.315449000936314
 40
0.315449000936314
 40
0.5
 40
0.75
 40
0.875
 40
1.0
 40
1.0
 40
1.0
 40
1.0
 10
-889.16667837858586
 20
439.6830909245989
 30
0.0
 41
1.0
 10
-890.03674977769469
 20
439.23135351752694
 30
0.0
 41
1.0
 10
-891.93338940885792
 20
437.8813417866333
 30
0.0
 41
1.0
 10
-893.69752675786935
 20
435.41770127594589
 30
0.0
 41
1.0
 10
-894.57754407370192
 20
432.91633536050415
 30
0.0
 41
1.0
 10
-894.77766503940779
 20
431.58107554123592
 30
0.0
 41
1.0
 10
-894.8126006623919
 20
430.91446414380187
 30
0.0
 41
1.0
  0
LINE
  5
146
100
AcDbEntity
  8
0
370
          15
  6
Continuous
 62
           7
100
AcDbLine
 10
-889.166678378586
 20
439.683090924599
 30
0.0
 11
-906.022424651291
 21
439.683090924578
 31
0.0
  0
LINE
  5
147
100
AcDbEntity
  8
0
370
          15
  6
Continuous
 62
           7
100
AcDbLine
 10
-884.326670765862
 20
430.363761947109
 30
0.0
 11
-891.227096830674
 21
298.695789000834
 31
0.0
  0
LINE
  5
148
100
AcDbEntity
  8
0
370
          15
  6
Continuous
 62
           7
100
AcDbLine
 10
-520.800722390964
 20
430.363761947102
 30
0.0
 11
-884.326670765862
 21
430.363761947109
 31
0.0
  0
LINE
  5
149
100
AcDbEntity
  8
0
370
          15
  6
Continuous
 62
           7
100
AcDbLine
 10
-513.900296326152
 20
298.695789000848
 30
0.0
 11
-520.800722390964
 21
430.363761947102
 31
0.0
  0
LINE
  5
14A
100
AcDbEntity
  8
0
370
          15
  6
Continuous
 62
           7
100
AcDbLine
 10
-884.326670765862
 20
167.027816054595
 30
0.0
 11
-520.800722390966
 21
167.027816054583
 31
0.0
  0
LINE
  5
14B
100
AcDbEntity
  8
0
370
          15
  6
Continuous
 62
           7
100
AcDbLine
 10
-891.227096830674
 20
298.695789000834
 30
0.0
 11
-884.326670765862
 21
167.027816054595
 31
0.0
  0
LINE
  5
14C
100
AcDbEntity
  8
0
370
          15
  6
Continuous
 62
           7
100
AcDbLine
 10
-522.698651524394
 20
428.363761947102
 30
0.0
 11
-882.428741632432
 21
428.363761947103
 31
0.0
  0
LINE
  5
14D
100
AcDbEntity
  8
0
370
          15
  6
Continuous
 62
           7
100
AcDbLine
 10
-882.428741632432
 20
428.363761947103
 30
0.0
 11
-889.224352138678
 21
298.695789000834
 31
0.0
  0
LINE
  5
14E
100
AcDbEntity
  8
0
370
          15
  6
Continuous
 62
           7
100
AcDbLine
 10
-889.224352138678
 20
298.695789000834
 30
0.0
 11
-882.428741632432
 21
169.027816054584
 31
0.0
  0
LINE
  5
14F
100
AcDbEntity
  8
0
370
          15
  6
Continuous
 62
           7
100
AcDbLine
 10
-882.428741632432
 20
169.027816054584
 30
0.0
 11
-522.698651524396
 21
169.027816054583
 31
0.0
  0
LINE
  5
150
100
AcDbEntity
  8
0
370
          15
  6
Continuous
 62
           7
100
AcDbLine
 10
-522.698651524396
 20
169.027816054583
 30
0.0
 11
-515.903041018148
 21
298.695789000848
 31
0.0
  0
LINE
  5
151
100
AcDbEntity
  8
0
370
          15
  6
Continuous
 62
           7
100
AcDbLine
 10
-515.903041018148
 20
298.695789000848
 30
0.0
 11
-522.698651524394
 21
428.363761947102
 31
0.0
  0
LINE
  5
152
100
AcDbEntity
  8
0
370
          15
  6
Continuous
 62
           7
100
AcDbLine
 10
-520.800722390966
 20
167.027816054583
 30
0.0
 11
-513.900296326152
 21
298.695789000848
 31
0.0
  0
CIRCLE
  5
153
100
AcDbEntity
  8
0
370
          15
  6
Continuous
 62
           7
100
AcDbCircle
 10
-534.863696578414
 20
188.695789000848
 30
0.0
 40
6.0
  0
CIRCLE
  5
154
100
AcDbEntity
  8
0
370
          15
  6
Continuous
 62
           7
100
AcDbCircle
 10
-534.863696578414
 20
188.695789000848
 30
0.0
 40
1.75
  0
CIRCLE
  5
155
100
AcDbEntity
  8
0
370
          15
  6
Continuous
 62
           7
100
AcDbCircle
 10
-534.863696578414
 20
188.695789000848
 30
0.0
 40
6.209460779139
  0
CIRCLE
  5
156
100
AcDbEntity
  8
0
370
          15
  6
Continuous
 62
           7
100
AcDbCircle
 10
-534.863696578414
 20
188.695789000848
 30
0.0
 40
1.540539220861
  0
LINE
  5
157
100
AcDbEntity
  8
0
370
          15
  6
Continuous
 62
           7
100
AcDbLine
 10
-499.524017739436
 20
439.264041690676
 30
0.0
 11
-499.192270429265
 21
439.595789000848
 31
0.0
  0
LINE
  5
158
100
AcDbEntity
  8
0
370
          15
  6
Continuous
 62
           7
100
AcDbLine
 10
-515.231338268954
 20
439.264041690676
 30
0.0
 11
-499.524017739436
 21
439.264041690676
 31
0.0
  0
CIRCLE
  5
159
100
AcDbEntity
  8
0
370
          15
  6
Continuous
 62
           7
100
AcDbCircle
 10
-534.863696578413
 20
408.695789000848
 30
0.0
 40
6.0
  0
CIRCLE
  5
15A
100
AcDbEntity
  8
0
370
          15
  6
Continuous
 62
           7
100
AcDbCircle
 10
-534.863696578413
 20
408.695789000848
 30
0.0
 40
1.75
  0
CIRCLE
  5
15B
100
AcDbEntity
  8
0
370
          15
  6
Continuous
 62
           7
100
AcDbCircle
 10
-534.863696578413
 20
408.695789000848
 30
0.0
 40
6.209460779139
  0
CIRCLE
  5
15C
100
AcDbEntity
  8
0
370
          15
  6
Continuous
 62
           7
100
AcDbCircle
 10
-534.863696578413
 20
408.695789000848
 30
0.0
 40
1.540539220862
  0
CIRCLE
  5
15D
100
AcDbEntity
  8
0
370
          15
  6
Continuous
 62
           7
100
AcDbCircle
 10
-869.863696578414
 20
188.695789000849
 30
0.0
 40
6.209460779138
  0
CIRCLE
  5
15E
100
AcDbEntity
  8
0
370
          15
  6
Continuous
 62
           7
100
AcDbCircle
 10
-869.863696578414
 20
188.695789000849
 30
0.0
 40
6.0
  0
CIRCLE
  5
15F
100
AcDbEntity
  8
0
370
          15
  6
Continuous
 62
           7
100
AcDbCircle
 10
-869.863696578414
 20
188.695789000849
 30
0.0
 40
1.75
  0
CIRCLE
  5
160
100
AcDbEntity
  8
0
370
          15
  6
Continuous
 62
           7
100
AcDbCircle
 10
-869.863696578414
 20
188.695789000849
 30
0.0
 40
1.540539220861
  0
CIRCLE
  5
161
100
AcDbEntity
  8
0
370
          15
  6
Continuous
 62
           7
100
AcDbCircle
 10
-869.863696578413
 20
408.695789000849
 30
0.0
 40
6.209460779139
  0
CIRCLE
  5
162
100
AcDbEntity
  8
0
370
          15
  6
Continuous
 62
           7
100
AcDbCircle
 10
-869.863696578414
 20
408.695789000849
 30
0.0
 40
6.0
  0
CIRCLE
  5
163
100
AcDbEntity
  8
0
370
          15
  6
Continuous
 62
           7
100
AcDbCircle
 10
-869.863696578414
 20
408.695789000849
 30
0.0
 40
1.75
  0
CIRCLE
  5
164
100
AcDbEntity
  8
0
370
          15
  6
Continuous
 62
           7
100
AcDbCircle
 10
-869.863696578413
 20
408.695789000849
 30
0.0
 40
1.540539220861
  0
LINE
  5
165
100
AcDbEntity
  8
0
370
          15
  6
Continuous
 62
           7
100
AcDbLine
 10
-905.60337541739
 20
439.264041690677
 30
0.0
 11
-889.899974936213
 21
439.264041690677
 31
0.0
  0
LINE
  5
166
100
AcDbEntity
  8
0
370
          15
  6
Continuous
 62
           7
100
AcDbLine
 10
-905.60337541739
 20
439.264041690677
 30
0.0
 11
-905.935122727562
 21
439.595789000849
 31
0.0
  0
LINE
  5
167
100
AcDbEntity
  8
0
370
          15
  6
Continuous
 62
           7
100
AcDbLine
 10
-905.603375417391
 20
148.156110161872
 30
0.0
 11
-905.935122727563
 21
147.8243628517
 31
0.0
  0
LINE
  5
168
100
AcDbEntity
  8
0
370
          15
  6
Continuous
 62
           7
100
AcDbLine
 10
-499.524017739437
 20
148.15611016187
 30
0.0
 11
-905.603375417391
 21
148.156110161872
 31
0.0
  0
LINE
  5
169
100
AcDbEntity
  8
0
370
          15
  6
Continuous
 62
           7
100
AcDbLine
 10
-499.524017739437
 20
148.15611016187
 30
0.0
 11
-499.192270429266
 21
147.824362851699
 31
0.0
  0
LINE
  5
16A
100
AcDbEntity
  8
0
370
          15
  6
Continuous
 62
           7
100
AcDbLine
 10
-499.524017739436
 20
439.264041690676
 30
0.0
 11
-499.524017739437
 21
148.15611016187
 31
0.0
  0
LINE
  5
16B
100
AcDbEntity
  8
0
370
          15
  6
Continuous
 62
           7
100
AcDbLine
 10
-905.603375417391
 20
148.156110161872
 30
0.0
 11
-905.60337541739
 21
439.264041690677
 31
0.0
  0
ENDSEC
  0
SECTION
  2
OBJECTS
  0
DICTIONARY
  5
C
100
AcDbDictionary
280
           0
281
           1
  3
ACAD_GROUP
350
D
  3
ACAD_PLOTSTYLENAME
350
E
  3
ACAD_MLINESTYLE
350
17
  3
ACAD_PLOTSETTINGS
350
19
  3
ACAD_LAYOUT
350
1A
  3
ACAD_WIPEOUT_VARS
350
16E
  0
DICTIONARY
  5
D
102
{ACAD_REACTORS
330
C
102
}
100
AcDbDictionary
280
           0
281
           1
  0
DICTIONARY
  5
17
102
{ACAD_REACTORS
330
C
102
}
100
AcDbDictionary
280
           0
281
           1
  3
STANDARD
350
18
  0
MLINESTYLE
  5
18
102
{ACAD_REACTORS
330
17
102
}
100
AcDbMlineStyle
  2
Standard
 70
           0
  3

 62
         256
 51
90.0
 52
90.0
 71
           2
 49
0.5
 62
         256
  6
ByLayer
 49
-0.5
 62
         256
  6
ByLayer
  0
ACDBDICTIONARYWDFLT
  5
E
102
{ACAD_REACTORS
330
C
102
}
100
AcDbDictionary
281
           1
  3
NORMAL
350
F
100
AcDbDictionaryWithDefault
340
F
  0
ACDBPLACEHOLDER
  5
F
102
{ACAD_REACTORS
330
E
102
}
  0
LAYOUT
  5
22
102
{ACAD_REACTORS
330
1A
102
}
100
AcDbPlotSettings
  1

  2

  4

  6

 40
0.0
 41
0.0
 42
0.0
 43
0.0
 44
0.0
 45
0.0
 46
0.0
 47
0.0
 48
0.0
 49
0.0
140
0.0
141
0.0
142
1.0
143
1.0
 70
        1712
 72
           0
 73
           0
 74
           0
  7

 75
           0
147
1.0
148
0.0
149
0.0
100
AcDbLayout
  1
MODEL
 70
           1
 71
           0
 10
0.0
 20
0.0
 11
0.0
 21
0.0
 12
0.0
 22
0.0
 32
0.0
 14
0.0
 24
0.0
 34
0.0
 15
420.0
 25
297.0
 35
0.0
146
0.0
 13
0.0
 23
0.0
 33
0.0
 16
1.0
 26
0.0
 36
0.0
 17
0.0
 27
1.0
 37
0.0
 76
           0
330
1F
331
0
345
0
346
0
  0
LAYOUT
  5
1E
102
{ACAD_REACTORS
330
1A
102
}
100
AcDbPlotSettings
  1

  2

  4

  6

 40
0.0
 41
0.0
 42
0.0
 43
0.0
 44
0.0
 45
0.0
 46
0.0
 47
0.0
 48
0.0
 49
0.0
140
0.0
141
0.0
142
1.0
143
1.0
 70
         688
 72
           0
 73
           0
 74
           5
  7

 75
          16
147
1.0
148
0.0
149
0.0
100
AcDbLayout
  1
LAYOUT1
 70
           1
 71
           1
 10
0.0
 20
0.0
 11
0.0
 21
0.0
 12
0.0
 22
0.0
 32
0.0
 14
0.0
 24
0.0
 34
0.0
 15
0.0
 25
0.0
 35
0.0
146
0.0
 13
0.0
 23
0.0
 33
0.0
 16
1.0
 26
0.0
 36
0.0
 17
0.0
 27
1.0
 37
0.0
 76
           0
330
1B
331
0
345
0
346
0
  0
DICTIONARY
  5
1A
102
{ACAD_REACTORS
330
C
102
}
100
AcDbDictionary
280
           0
281
           1
  3
MODEL
350
22
  3
LAYOUT1
350
1E
  3
LAYOUT2
350
26
  0
DICTIONARY
  5
19
102
{ACAD_REACTORS
330
C
102
}
100
AcDbDictionary
280
           0
281
           1
  0
WIPEOUTVARIABLES
  5
16E
100
AcDbWipeoutVariables
 70
           1
  0
LAYOUT
  5
26
102
{ACAD_REACTORS
330
1A
102
}
100
AcDbPlotSettings
  1

  2

  4

  6

 40
0.0
 41
0.0
 42
0.0
 43
0.0
 44
0.0
 45
0.0
 46
0.0
 47
0.0
 48
0.0
 49
0.0
140
0.0
141
0.0
142
1.0
143
1.0
 70
         688
 72
           0
 73
           0
 74
           5
  7

 75
          16
147
1.0
148
0.0
149
0.0
100
AcDbLayout
  1
LAYOUT2
 70
           1
 71
           2
 10
0.0
 20
0.0
 11
0.0
 21
0.0
 12
0.0
 22
0.0
 32
0.0
 14
0.0
 24
0.0
 34
0.0
 15
0.0
 25
0.0
 35
0.0
146
0.0
 13
0.0
 23
0.0
 33
0.0
 16
1.0
 26
0.0
 36
0.0
 17
0.0
 27
1.0
 37
0.0
 76
           0
330
23
331
0
345
0
346
0
  0
ENDSEC
  0
EOF
