  0
SECTION
  2
HEADER
  9
$ACADVER
  1
AC1015
  9
$ACADMAINTVER
 70
           6
  9
$DWGCODEPAGE
  3
ANSI_1252
  9
$INSBASE
 10
0.0
 20
0.0
 30
0.0
  9
$EXTMIN
 10
-1065.589076068034
 20
-214.174940776712
 30
0.0
  9
$EXTMAX
 10
655.513301739101
 20
772.895071867084
 30
0.0
  9
$LIMMIN
 10
0.0
 20
0.0
  9
$LIMMAX
 10
0.0
 20
0.0
  9
$ORTHOMODE
 70
           0
  9
$REGENMODE
 70
           1
  9
$FILLMODE
 70
           1
  9
$QTEXTMODE
 70
           0
  9
$MIRRTEXT
 70
           1
  9
$LTSCALE
 40
1.0
  9
$ATTMODE
 70
           1
  9
$TEXTSIZE
 40
3.5
  9
$TRACEWID
 40
1.0
  9
$TEXTSTYLE
  7
Standard
  9
$CLAYER
  8
0
  9
$CELTYPE
  6
ByLayer
  9
$CECOLOR
 62
         256
  9
$CELTSCALE
 40
1.0
  9
$DISPSILH
 70
           0
  9
$DIMSCALE
 40
1.0
  9
$DIMASZ
 40
6.0
  9
$DIMEXO
 40
1.0
  9
$DIMDLI
 40
3.75
  9
$DIMRND
 40
0.0
  9
$DIMDLE
 40
0.0
  9
$DIMEXE
 40
1.0
  9
$DIMTP
 40
0.0
  9
$DIMTM
 40
0.0
  9
$DIMTXT
 40
3.5
  9
$DIMCEN
 40
2.5
  9
$DIMTSZ
 40
0.0
  9
$DIMTOL
 70
           0
  9
$DIMLIM
 70
           0
  9
$DIMTIH
 70
           1
  9
$DIMTOH
 70
           1
  9
$DIMSE1
 70
           0
  9
$DIMSE2
 70
           0
  9
$DIMTAD
 70
           1
  9
$DIMZIN
 70
           0
  9
$DIMBLK
  1

  9
$DIMASO
 70
           1
  9
$DIMSHO
 70
           1
  9
$DIMPOST
  1

  9
$DIMAPOST
  1

  9
$DIMALT
 70
           0
  9
$DIMALTD
 70
           3
  9
$DIMALTF
 40
0.03937007874
  9
$DIMLFAC
 40
1.0
  9
$DIMTOFL
 70
           1
  9
$DIMTVP
 40
0.0
  9
$DIMTIX
 70
           0
  9
$DIMSOXD
 70
           0
  9
$DIMSAH
 70
           0
  9
$DIMBLK1
  1

  9
$DIMBLK2
  1

  9
$DIMSTYLE
  2
ISO-25
  9
$DIMCLRD
 70
           0
  9
$DIMCLRE
 70
           0
  9
$DIMCLRT
 70
           0
  9
$DIMTFAC
 40
1.0
  9
$DIMGAP
 40
1.524
  9
$DIMJUST
 70
           0
  9
$DIMSD1
 70
           0
  9
$DIMSD2
 70
           0
  9
$DIMTOLJ
 70
           0
  9
$DIMTZIN
 70
           0
  9
$DIMALTZ
 70
           0
  9
$DIMALTTZ
 70
           0
  9
$DIMUPT
 70
           0
  9
$DIMDEC
 70
           2
  9
$DIMTDEC
 70
           2
  9
$DIMALTU
 70
           2
  9
$DIMALTTD
 70
           3
  9
$DIMTXSTY
  7
Standard
  9
$DIMAUNIT
 70
           0
  9
$DIMADEC
 70
           0
  9
$DIMALTRND
 40
0.0
  9
$DIMAZIN
 70
           0
  9
$DIMDSEP
 70
          44
  9
$DIMATFIT
 70
           3
  9
$DIMFRAC
 70
           0
  9
$DIMLDRBLK
  1

  9
$DIMLUNIT
 70
           2
  9
$DIMLWD
 70
          -2
  9
$DIMLWE
 70
          -2
  9
$DIMTMOVE
 70
           0
  9
$LUNITS
 70
           2
  9
$LUPREC
 70
           2
  9
$SKETCHINC
 40
1.0
  9
$FILLETRAD
 40
10.0
  9
$AUNITS
 70
           0
  9
$AUPREC
 70
           0
  9
$MENU
  1
.
  9
$ELEVATION
 40
0.0
  9
$PELEVATION
 40
0.0
  9
$THICKNESS
 40
0.0
  9
$LIMCHECK
 70
           0
  9
$CHAMFERA
 40
10.0
  9
$CHAMFERB
 40
10.0
  9
$CHAMFERC
 40
20.0
  9
$CHAMFERD
 40
0.0
  9
$SKPOLY
 70
           0
  9
$TDCREATE
 40
2453845.363942465
  9
$TDUCREATE
 40
0.000000000
  9
$TDUPDATE
 40
2453845.589793773
  9
$TDUUPDATE
 40
2453845.506460440
  9
$TDINDWG
 40
0.0008564468
  9
$TDUSRTIMER
 40
0.0008564468
  9
$USRTIMER
 70
           1
  9
$ANGBASE
 50
0.0
  9
$ANGDIR
 70
           0
  9
$PDMODE
 70
           0
  9
$PDSIZE
 40
-1.0
  9
$PLINEWID
 40
0.0
  9
$SPLFRAME
 70
           0
  9
$SPLINETYPE
 70
           6
  9
$SPLINESEGS
 70
           8
  9
$HANDSEED
  5
27C
  9
$SURFTAB1
 70
           6
  9
$SURFTAB2
 70
           6
  9
$SURFTYPE
 70
           6
  9
$SURFU
 70
           6
  9
$SURFV
 70
           6
  9
$UCSBASE
  2

  9
$UCSNAME
  2

  9
$UCSORG
 10
0.0
 20
0.0
 30
0.0
  9
$UCSXDIR
 10
1.0
 20
0.0
 30
0.0
  9
$UCSYDIR
 10
0.0
 20
1.0
 30
0.0
  9
$UCSORTHOREF
  2

  9
$UCSORTHOVIEW
 70
           0
  9
$UCSORGTOP
 10
0.0
 20
0.0
 30
0.0
  9
$UCSORGBOTTOM
 10
0.0
 20
0.0
 30
0.0
  9
$UCSORGLEFT
 10
0.0
 20
0.0
 30
0.0
  9
$UCSORGRIGHT
 10
0.0
 20
0.0
 30
0.0
  9
$UCSORGFRONT
 10
0.0
 20
0.0
 30
0.0
  9
$UCSORGBACK
 10
0.0
 20
0.0
 30
0.0
  9
$PUCSBASE
  2

  9
$PUCSNAME
  2

  9
$PUCSORG
 10
0.0
 20
0.0
 30
0.0
  9
$PUCSXDIR
 10
1.0
 20
0.0
 30
0.0
  9
$PUCSYDIR
 10
0.0
 20
1.0
 30
0.0
  9
$PUCSORTHOREF
  2

  9
$PUCSORTHOVIEW
 70
           0
  9
$PUCSORGTOP
 10
0.0
 20
0.0
 30
0.0
  9
$PUCSORGBOTTOM
 10
0.0
 20
0.0
 30
0.0
  9
$PUCSORGLEFT
 10
0.0
 20
0.0
 30
0.0
  9
$PUCSORGRIGHT
 10
0.0
 20
0.0
 30
0.0
  9
$PUCSORGFRONT
 10
0.0
 20
0.0
 30
0.0
  9
$PUCSORGBACK
 10
0.0
 20
0.0
 30
0.0
  9
$USERI1
 70
           0
  9
$USERI2
 70
           0
  9
$USERI3
 70
           0
  9
$USERI4
 70
           0
  9
$USERI5
 70
           0
  9
$USERR1
 40
0.0
  9
$USERR2
 40
0.0
  9
$USERR3
 40
0.0
  9
$USERR4
 40
0.0
  9
$USERR5
 40
0.0
  9
$WORLDVIEW
 70
           1
  9
$SHADEDGE
 70
           3
  9
$SHADEDIF
 70
          70
  9
$TILEMODE
 70
           1
  9
$MAXACTVP
 70
          64
  9
$PINSBASE
 10
0.0
 20
0.0
 30
0.0
  9
$PLIMCHECK
 70
           0
  9
$PEXTMIN
 10
1.000000000000E+20
 20
1.000000000000E+20
 30
1.000000000000E+20
  9
$PEXTMAX
 10
-1.000000000000E+20
 20
-1.000000000000E+20
 30
-1.000000000000E+20
  9
$PLIMMIN
 10
0.0
 20
0.0
  9
$PLIMMAX
 10
420.0
 20
297.0
  9
$UNITMODE
 70
           0
  9
$VISRETAIN
 70
           1
  9
$PLINEGEN
 70
           0
  9
$PSLTSCALE
 70
           1
  9
$TREEDEPTH
 70
        3020
  9
$CMLSTYLE
  2
Standard
  9
$CMLJUST
 70
           0
  9
$CMLSCALE
 40
20.0
  9
$PROXYGRAPHICS
 70
           1
  9
$MEASUREMENT
 70
           1
  9
$CELWEIGHT
370
          -1
  9
$ENDCAPS
280
           0
  9
$JOINSTYLE
280
           0
  9
$LWDISPLAY
290
           1
  9
$INSUNITS
 70
           4
  9
$HYPERLINKBASE
  1

  9
$STYLESHEET
  1

  9
$XEDIT
290
           0
  9
$CEPSNTYPE
380
           0
  9
$PSTYLEMODE
290
           1
  9
$FINGERPRINTGUID
  2
{E921E166-E860-49D7-8335-E2865DC301EB}
  9
$VERSIONGUID
  2
{FAEB1C32-E019-11D5-929B-00C0DF256EC4}
  9
$EXTNAMES
290
           1
  9
$PSVPSCALE
 40
0.0
  0
ENDSEC
  0
SECTION
  2
CLASSES
  0
CLASS
  1
ACDBDICTIONARYWDFLT
  2
AcDbDictionaryWithDefault
  3
ObjectDBX Classes
 90
        0
280
           0
281
           0
  0
CLASS
  1
ACDBPLACEHOLDER
  2
AcDbPlaceHolder
  3
ObjectDBX Classes
 90
        0
280
           0
281
           0
  0
CLASS
  1
LAYOUT
  2
AcDbLayout
  3
ObjectDBX Classes
 90
        0
280
           0
281
           0
  0
CLASS
  1
LWPOLYLINE
  2
AcDbPolyline
  3
AutoCAD 2000
 90
        0
280
           0
281
           1
  0
CLASS
  1
IMAGE
  2
AcDbRasterImage
  3
ISM
 90
      127
280
           0
281
           1
  0
CLASS
  1
OLE2FRAME
  2
AcDbOle2Frame
  3
AutoCAD 2000
 90
        0
280
           0
281
           1
  0
CLASS
  1
HATCH
  2
AcDbHatch
  3
AutoCAD 2000
 90
        0
280
           0
281
           1
  0
CLASS
  1
DICTIONARYVAR
  2
AcDbDictionaryVar
  3
AutoCAD 2000
 90
        0
280
           0
281
           0
  0
CLASS
  1
RASTERVARIABLES
  2
AcDbRasterVariables
  3
ISM
 90
        0
280
           0
281
           0
  0
CLASS
  1
IMAGEDEF
  2
AcDbRasterImageDef
  3
ISM
 90
        0
280
           0
281
           0
  0
CLASS
  1
IMAGEDEF_REACTOR
  2
AcDbRasterImageDefReactor
  3
ISM
 90
        1
280
           0
281
           0
  0
CLASS
  1
IDBUFFER
  2
AcDbIdBuffer
  3
AutoCAD 2000
 90
        0
280
           0
281
           0
  0
CLASS
  1
SPATIAL_FILTER
  2
AcDbSpatialFilter
  3
AutoCAD 2000
 90
        0
280
           0
281
           0
  0
CLASS
  1
XRECORD
  2
AcDbXrecord
  3
AutoCAD 2000
 90
        0
280
           0
281
           0
  0
CLASS
  1
SORTENTSTABLE
  2
AcDbSortentsTable
  3
AutoCAD 2000
 90
        0
280
           0
281
           0
  0
CLASS
  1
LAYER_INDEX
  2
AcDbLayerIndex
  3
AutoCAD 2000
 90
        0
280
           0
281
           0
  0
CLASS
  1
SPATIAL_INDEX
  2
AcDbSpatialIndex
  3
AutoCAD 2000
 90
        0
280
           0
281
           0
  0
CLASS
  1
OBJECT_PTR
  2
CAseDLPNTableRecord
  3
"ASE-LPNTableRecord"
 90
        1
280
           0
281
           0
  0
CLASS
  1
PLOTSETTINGS
  2
AcDbPlotSettings
  3
AutoCAD 2000
 90
        0
280
           0
281
           0
  0
CLASS
  1
VBA_PROJECT
  2
AcDbVbaProject
  3
acadvba
 90
        0
280
           0
281
           0
  0
CLASS
  1
WIPEOUT
  2
AcDbWipeout
  3
WipeOut|AutoCAD Express Tool|expresstools@autodesk.com
 90
      127
280
           0
281
           1
  0
CLASS
  1
WIPEOUTVARIABLES
  2
AcDbWipeoutVariables
  3
WipeOut|AutoCAD Express Tool|expresstools@autodesk.com
 90
        0
280
           0
281
           0
  0
CLASS
  1
RTEXT
  2
RText
  3
RText|AutoCAD Express Tool|expresstools@autodesk.com
 90
        0
280
           0
281
           1
  0
CLASS
  1
ARCALIGNEDTEXT
  2
AcDbArcAlignedText
  3
ATEXT|AutoCAD Express Tool|expresstools@autodesk.com
 90
        0
280
           0
281
           1
  0
CLASS
  1
DIMASSOC
  2
AcDbDimAssoc
  3
AcDbDimAssoc|Product Desc:     AcDim ARX App For Dimension|Company:          Autodesk, Inc.|WEB Address:      www.autodesk.com
 90
        1
280
           0
281
           0
  0
ENDSEC
  0
SECTION
  2
TABLES
  0
TABLE
  2
VPORT
  5
8
100
AcDbSymbolTable
 70
           1
  0
VPORT
  5
29
100
AcDbSymbolTableRecord
100
AcDbViewportTableRecord
  2
*Active
 70
          64
 10
0.0
 20
0.0
 11
1.0
 21
1.0
 12
-205.037887164466
 22
279.360065545186
 13
0.0
 23
0.0
 14
10.0
 24
10.0
 15
10.0
 25
10.0
 16
0.0
 26
0.0
 36
1.0
 17
0.0
 27
0.0
 37
0.0
 40
1006.811412896672
 41
1.97297297285
 42
50.0
 43
0.0
 44
0.0
 50
0.0
 51
0.0
 71
           0
 72
        2000
 73
           1
 74
           3
 75
           0
 76
           0
 77
           0
 78
           0
281
           0
 65
           0
110
0.0
120
0.0
130
0.0
111
1.0
121
0.0
131
0.0
112
0.0
122
1.0
132
0.0
345
0
346
0
 79
           0
146
0.0
  0
ENDTAB
  0
TABLE
  2
LTYPE
  5
5
100
AcDbSymbolTable
 70
           8
  0
LTYPE
  5
14
100
AcDbSymbolTableRecord
100
AcDbLinetypeTableRecord
  2
ByBlock
 70
          64
  3

 72
          65
 73
           0
 40
0.0
  0
LTYPE
  5
15
100
AcDbSymbolTableRecord
100
AcDbLinetypeTableRecord
  2
ByLayer
 70
          64
  3

 72
          65
 73
           0
 40
0.0
  0
LTYPE
  5
16
100
AcDbSymbolTableRecord
100
AcDbLinetypeTableRecord
  2
Continuous
 70
          64
  3
Solid line
 72
          65
 73
           0
 40
0.0
  0
LTYPE
  5
2A
100
AcDbSymbolTableRecord
100
AcDbLinetypeTableRecord
  2
HIDDEN
 70
          64
  3
Hidden __ __ __ __ __ __ __ __ __ __ __ __ __ __
 72
          65
 73
           2
 40
1.905
 49
1.27
 74
           0
 49
-0.635
 74
           0
  0
LTYPE
  5
2B
100
AcDbSymbolTableRecord
100
AcDbLinetypeTableRecord
  2
PHANTOM
 70
          64
  3
Phantom ______  __  __  ______  __  __  ______
 72
          65
 73
           6
 40
12.7
 49
6.35
 74
           0
 49
-1.27
 74
           0
 49
1.27
 74
           0
 49
-1.27
 74
           0
 49
1.27
 74
           0
 49
-1.27
 74
           0
  0
LTYPE
  5
2C
100
AcDbSymbolTableRecord
100
AcDbLinetypeTableRecord
  2
CENTER
 70
          64
  3
Center ____ _ ____ _ ____ _ ____ _ ____ _ ____
 72
          65
 73
           4
 40
10.16
 49
6.35
 74
           0
 49
-1.27
 74
           0
 49
1.27
 74
           0
 49
-1.27
 74
           0
  0
LTYPE
  5
2D
100
AcDbSymbolTableRecord
100
AcDbLinetypeTableRecord
  2
CENTERX2
 70
          64
  3
Center (2x) ________  __  ________  __  _____
 72
          65
 73
           4
 40
20.32
 49
12.7
 74
           0
 49
-2.54
 74
           0
 49
2.54
 74
           0
 49
-2.54
 74
           0
  0
LTYPE
  5
2E
100
AcDbSymbolTableRecord
100
AcDbLinetypeTableRecord
  2
DOT2
 70
          64
  3
Dot (.5x) ........................................
 72
          65
 73
           2
 40
0.635
 49
0.0
 74
           0
 49
-0.635
 74
           0
  0
ENDTAB
  0
TABLE
  2
LAYER
  5
2
100
AcDbSymbolTable
 70
           2
  0
LAYER
  5
10
100
AcDbSymbolTableRecord
100
AcDbLayerTableRecord
  2
0
 70
          64
 62
           7
  6
Continuous
290
           1
370
          -3
390
F
  0
LAYER
  5
27A
100
AcDbSymbolTableRecord
100
AcDbLayerTableRecord
  2
DEFPOINTS
 70
           0
 62
           7
  6
Continuous
290
           0
370
          -3
390
F
  0
ENDTAB
  0
TABLE
  2
STYLE
  5
3
100
AcDbSymbolTable
 70
           1
  0
STYLE
  5
11
100
AcDbSymbolTableRecord
100
AcDbTextStyleTableRecord
  2
Standard
 70
          64
 40
0.0
 41
1.0
 50
0.0
 71
           0
 42
2.5
  3
TXT
  4

  0
ENDTAB
  0
TABLE
  2
VIEW
  5
6
100
AcDbSymbolTable
 70
           0
  0
ENDTAB
  0
TABLE
  2
UCS
  5
7
100
AcDbSymbolTable
 70
           0
  0
ENDTAB
  0
TABLE
  2
APPID
  5
9
100
AcDbSymbolTable
 70
           1
  0
APPID
  5
12
100
AcDbSymbolTableRecord
100
AcDbRegAppTableRecord
  2
ACAD
 70
          64
  0
ENDTAB
  0
TABLE
  2
DIMSTYLE
  5
A
100
AcDbSymbolTable
 70
           1
100
AcDbDimStyleTable
 71
           0
  0
DIMSTYLE
105
27
100
AcDbSymbolTableRecord
100
AcDbDimStyleTableRecord
  2
ISO-25
 70
          64
  3

  4

 40
1.0
 41
2.5
 42
0.625
 43
3.75
 44
1.25
 45
0.0
 46
0.0
 47
0.0
 48
0.0
 71
           0
 72
           0
 73
           0
 74
           0
 75
           0
 76
           0
 77
           1
 78
           8
 79
           0
140
2.5
141
2.5
142
0.0
143
0.03937007874
144
1.0
145
0.0
146
1.0
147
0.625
148
0.0
170
           0
171
           3
172
           1
173
           0
174
           0
175
           0
176
           0
177
           0
178
           0
179
           0
271
           2
272
           2
273
           2
274
           3
275
           0
276
           0
277
           2
278
          44
279
           0
280
           0
281
           0
282
           0
283
           0
284
           8
285
           0
286
           0
288
           0
289
           3
340
11
341
0
342
0
343
0
344
0
371
          -2
372
          -2
  0
ENDTAB
  0
TABLE
  2
BLOCK_RECORD
  5
1
100
AcDbSymbolTable
 70
           1
  0
BLOCK_RECORD
  5
1F
100
AcDbSymbolTableRecord
100
AcDbBlockTableRecord
  2
*MODEL_SPACE
340
22
  0
BLOCK_RECORD
  5
1B
100
AcDbSymbolTableRecord
100
AcDbBlockTableRecord
  2
*PAPER_SPACE
340
1E
  0
BLOCK_RECORD
  5
23
100
AcDbSymbolTableRecord
100
AcDbBlockTableRecord
  2
*Paper_Space0
340
26
  0
ENDTAB
  0
ENDSEC
  0
SECTION
  2
BLOCKS
  0
BLOCK
  5
20
100
AcDbEntity
  8
0
390
0
100
AcDbBlockBegin
  2
*MODEL_SPACE
 70
           0
 10
0.0
 20
0.0
 30
0.0
  3
*MODEL_SPACE
  1

  0
ENDBLK
  5
21
100
AcDbEntity
  8
0
390
0
100
AcDbBlockEnd
  0
BLOCK
  5
1C
100
AcDbEntity
 67
           1
  8
0
390
0
100
AcDbBlockBegin
  2
*PAPER_SPACE
 70
           0
 10
0.0
 20
0.0
 30
0.0
  3
*PAPER_SPACE
  1

  0
ENDBLK
  5
1D
100
AcDbEntity
 67
           1
  8
0
390
0
100
AcDbBlockEnd
  0
BLOCK
  5
24
100
AcDbEntity
  8
0
100
AcDbBlockBegin
  2
*Paper_Space0
 70
          64
 10
0.0
 20
0.0
 30
0.0
  3
*Paper_Space0
  1

  0
ENDBLK
  5
25
100
AcDbEntity
  8
0
100
AcDbBlockEnd
  0
ENDSEC
  0
SECTION
  2
ENTITIES
  0
LINE
  5
2F
100
AcDbEntity
  8
0
370
          15
  6
Continuous
 62
           7
100
AcDbLine
 10
-71.687492651416
 20
616.895066785788
 30
0.0
 11
-71.687492651416
 21
614.895077633834
 31
0.0
  0
LINE
  5
30
100
AcDbEntity
  8
0
370
          15
  6
Continuous
 62
           7
100
AcDbLine
 10
-61.687487286999
 20
614.895077633834
 30
0.0
 11
-61.687487286999
 21
616.895066785788
 31
0.0
  0
LINE
  5
31
100
AcDbEntity
  8
0
370
          15
  6
Continuous
 62
           7
100
AcDbLine
 10
258.312505560444
 20
616.895066785788
 30
0.0
 11
258.312505560444
 21
614.895077633834
 31
0.0
  0
LINE
  5
32
100
AcDbEntity
  8
0
370
          15
  6
Continuous
 62
           7
100
AcDbLine
 10
268.312510924862
 20
614.895077633834
 30
0.0
 11
268.312510924862
 21
616.895066785788
 31
0.0
  0
LINE
  5
33
100
AcDbEntity
  8
0
370
          15
  6
Continuous
 62
           7
100
AcDbLine
 10
-80.487492603733
 20
614.895077633834
 30
0.0
 11
-80.487492603733
 21
616.895066785788
 31
0.0
  0
LINE
  5
34
100
AcDbEntity
  8
0
370
          15
  6
Continuous
 62
           7
100
AcDbLine
 10
279.51250680022
 20
616.895066785788
 30
0.0
 11
279.51250680022
 21
614.895077633834
 31
0.0
  0
LINE
  5
35
100
AcDbEntity
  8
0
370
          15
  6
Continuous
 62
           7
100
AcDbLine
 10
-109.187486690952
 20
751.895072150206
 30
0.0
 11
-106.587889713718
 21
751.895072150206
 31
0.0
  0
LINE
  5
36
100
AcDbEntity
  8
0
370
          15
  6
Continuous
 62
           7
100
AcDbLine
 10
-106.587889713718
 20
751.895072150206
 30
0.0
 11
-104.276049060299
 21
619.449692058539
 31
0.0
  0
ARC
  5
37
100
AcDbEntity
  8
0
370
          15
  6
Continuous
 62
           7
100
AcDbCircle
 10
-105.755299774588
 20
661.876763058623
 30
0.0
 40
42.452850744348
100
AcDbArc
 50
268.487767849063
 51
271.996850185747
  0
LINE
  5
38
100
AcDbEntity
  8
0
370
          15
  6
Continuous
 62
           7
100
AcDbLine
 10
-106.875646037532
 20
619.449692058539
 30
0.0
 11
-109.187486690952
 21
751.895072150206
 31
0.0
  0
LINE
  5
39
100
AcDbEntity
  8
0
370
          15
  6
Continuous
 62
           7
100
AcDbLine
 10
300.901067333745
 20
619.449692058539
 30
0.0
 11
303.212907987164
 21
751.895072150206
 31
0.0
  0
LINE
  5
3A
100
AcDbEntity
  8
0
370
          15
  6
Continuous
 62
           7
100
AcDbLine
 10
-104.276049060299
 20
619.449692058539
 30
0.0
 11
300.901067333745
 21
619.449692058539
 31
0.0
  0
LINE
  5
3B
100
AcDbEntity
  8
0
370
          15
  6
Continuous
 62
           7
100
AcDbLine
 10
-106.587889713718
 20
751.895072150206
 30
0.0
 11
303.212907987164
 21
751.895072150206
 31
0.0
  0
LINE
  5
3C
100
AcDbEntity
  8
0
370
          15
  6
Continuous
 62
           7
100
AcDbLine
 10
305.812504964398
 20
751.895072150206
 30
0.0
 11
303.500664310978
 21
619.449692058539
 31
0.0
  0
ARC
  5
3D
100
AcDbEntity
  8
0
370
          15
  6
Continuous
 62
           7
100
AcDbCircle
 10
302.380318048029
 20
661.876763068631
 30
0.0
 40
42.452850754349
100
AcDbArc
 50
268.003149814732
 51
271.512232150589
  0
LINE
  5
3E
100
AcDbEntity
  8
0
370
          15
  6
Continuous
 62
           7
100
AcDbLine
 10
303.212907987164
 20
751.895072150206
 30
0.0
 11
305.812504964398
 21
751.895072150206
 31
0.0
  0
ARC
  5
3F
100
AcDbEntity
  8
0
370
          15
  6
Continuous
 62
           7
100
AcDbCircle
 10
-104.276044213867
 20
619.495072150207
 30
0.0
 40
2.6
100
AcDbArc
 50
181.000000000181
 51
270.000000000002
  0
LINE
  5
40
100
AcDbEntity
  8
0
370
          15
  6
Continuous
 62
           7
100
AcDbLine
 10
-104.276049060299
 20
619.449692058539
 30
0.0
 11
-104.276049060299
 21
616.895066785788
 31
0.0
  0
LINE
  5
41
100
AcDbEntity
  8
0
370
          15
  6
Continuous
 62
           7
100
AcDbLine
 10
300.901067333745
 20
619.449692058539
 30
0.0
 11
300.901067333745
 21
616.895066785788
 31
0.0
  0
LINE
  5
42
100
AcDbEntity
  8
0
370
          15
  6
Continuous
 62
           7
100
AcDbLine
 10
300.901067333745
 20
616.895066785788
 30
0.0
 11
-104.276049060299
 21
616.895066785788
 31
0.0
  0
ARC
  5
43
100
AcDbEntity
  8
0
370
          15
  6
Continuous
 62
           7
100
AcDbCircle
 10
300.901062487313
 20
619.495072150207
 30
0.0
 40
2.6
100
AcDbArc
 50
270.0
 51
358.999999999462
  0
LINE
  5
44
100
AcDbEntity
  8
0
370
          15
  6
Continuous
 62
           7
100
AcDbLine
 10
-61.687487286999
 20
614.895077633834
 30
0.0
 11
-71.687492651416
 21
614.895077633834
 31
0.0
  0
LINE
  5
45
100
AcDbEntity
  8
0
370
          15
  6
Continuous
 62
           7
100
AcDbLine
 10
268.312510924862
 20
614.895077633834
 30
0.0
 11
258.312505560444
 21
614.895077633834
 31
0.0
  0
LINE
  5
46
100
AcDbEntity
  8
0
370
          15
  6
Continuous
 62
           7
100
AcDbLine
 10
56.039423572348
 20
764.895072418427
 30
0.0
 11
140.585594701098
 21
764.895072418427
 31
0.0
  0
LINE
  5
47
100
AcDbEntity
  8
0
370
          15
  6
Continuous
 62
           7
100
AcDbLine
 10
140.585594701098
 20
764.895072418427
 30
0.0
 11
140.812509583758
 21
751.895072150206
 31
0.0
  0
LINE
  5
48
100
AcDbEntity
  8
0
370
          15
  6
Continuous
 62
           7
100
AcDbLine
 10
56.039423572348
 20
764.895072418427
 30
0.0
 11
55.812508689688
 21
751.895072150206
 31
0.0
  0
LINE
  5
49
100
AcDbEntity
  8
0
370
          15
  6
Continuous
 62
           7
100
AcDbLine
 10
-88.943245930149
 20
770.895071539259
 30
0.0
 11
-83.451616687252
 21
770.895071539259
 31
0.0
  0
LINE
  5
4A
100
AcDbEntity
  8
0
370
          15
  6
Continuous
 62
           7
100
AcDbLine
 10
-83.451616687252
 20
770.895071539259
 30
0.0
 11
280.076634960698
 21
770.895071539259
 31
0.0
  0
LINE
  5
4B
100
AcDbEntity
  8
0
370
          15
  6
Continuous
 62
           7
100
AcDbLine
 10
280.076634960698
 20
770.895071539259
 30
0.0
 11
285.568264203594
 21
770.895071539259
 31
0.0
  0
LINE
  5
4C
100
AcDbEntity
  8
0
370
          15
  6
Continuous
 62
           7
100
AcDbLine
 10
-95.858815235569
 20
770.895071539259
 30
0.0
 11
-96.190917415096
 21
751.895072150206
 31
0.0
  0
LINE
  5
4D
100
AcDbEntity
  8
0
370
          15
  6
Continuous
 62
           7
100
AcDbLine
 10
-95.858815235569
 20
770.895071539259
 30
0.0
 11
-88.943245930149
 21
770.895071539259
 31
0.0
  0
LINE
  5
4E
100
AcDbEntity
  8
0
370
          15
  6
Continuous
 62
           7
100
AcDbLine
 10
292.483833509014
 20
770.895071539259
 30
0.0
 11
292.815935688541
 21
751.895072150206
 31
0.0
  0
LINE
  5
4F
100
AcDbEntity
  8
0
370
          15
  6
Continuous
 62
           7
100
AcDbLine
 10
285.568264203594
 20
770.895071539259
 30
0.0
 11
292.483833509014
 21
770.895071539259
 31
0.0
  0
LINE
  5
50
100
AcDbEntity
  8
0
370
          15
  6
Continuous
 62
           7
100
AcDbLine
 10
-94.187486094905
 20
614.895077633834
 30
0.0
 11
-94.187486094905
 21
616.895066785788
 31
0.0
  0
LINE
  5
51
100
AcDbEntity
  8
0
370
          15
  6
Continuous
 62
           7
100
AcDbLine
 10
-104.187491459324
 20
614.895077633834
 30
0.0
 11
-104.187491459324
 21
616.895066785788
 31
0.0
  0
LINE
  5
52
100
AcDbEntity
  8
0
370
          15
  6
Continuous
 62
           7
100
AcDbLine
 10
-94.187486094905
 20
614.895077633834
 30
0.0
 11
-104.187491459324
 21
614.895077633834
 31
0.0
  0
LINE
  5
53
100
AcDbEntity
  8
0
370
          15
  6
Continuous
 62
           7
100
AcDbLine
 10
300.81250973277
 20
614.895077633834
 30
0.0
 11
300.81250973277
 21
616.895066785788
 31
0.0
  0
LINE
  5
54
100
AcDbEntity
  8
0
370
          15
  6
Continuous
 62
           7
100
AcDbLine
 10
290.812504368351
 20
614.895077633834
 30
0.0
 11
290.812504368351
 21
616.895066785788
 31
0.0
  0
LINE
  5
55
100
AcDbEntity
  8
0
370
          15
  6
Continuous
 62
           7
100
AcDbLine
 10
300.81250973277
 20
614.895077633834
 30
0.0
 11
290.812504368351
 21
614.895077633834
 31
0.0
  0
LINE
  5
56
100
AcDbEntity
  8
0
370
          15
  6
Continuous
 62
           7
100
AcDbLine
 10
-80.487492603733
 20
614.895077633834
 30
0.0
 11
-94.187486094906
 21
614.895077633834
 31
0.0
  0
LINE
  5
57
100
AcDbEntity
  8
0
370
          15
  6
Continuous
 62
           7
100
AcDbLine
 10
290.812504368351
 20
614.895077633834
 30
0.0
 11
279.51250680022
 21
614.895077633834
 31
0.0
  0
LINE
  5
58
100
AcDbEntity
  8
0
370
          15
  6
Continuous
 62
           7
100
AcDbLine
 10
235.812512116954
 20
770.896289709186
 30
0.0
 11
205.812510924861
 21
770.896289709186
 31
0.0
  0
LINE
  5
59
100
AcDbEntity
  8
0
370
          15
  6
Continuous
 62
           7
100
AcDbLine
 10
235.812512116954
 20
770.896289709186
 30
0.0
 11
235.812512116954
 21
770.895071539259
 31
0.0
  0
LINE
  5
5A
100
AcDbEntity
  8
0
370
          15
  6
Continuous
 62
           7
100
AcDbLine
 10
205.812510924861
 20
770.896289709186
 30
0.0
 11
205.812510924861
 21
770.895071539259
 31
0.0
  0
LINE
  5
5B
100
AcDbEntity
  8
0
370
          15
  6
Continuous
 62
           7
100
AcDbLine
 10
-39.18749384351
 20
772.895071867084
 30
0.0
 11
-9.187492651418
 21
772.895071867084
 31
0.0
  0
LINE
  5
5C
100
AcDbEntity
  8
0
370
          15
  6
Continuous
 62
           7
100
AcDbLine
 10
-9.187492651418
 20
772.895071867084
 30
0.0
 11
-9.187492651417
 21
770.895071539259
 31
0.0
  0
LINE
  5
5D
100
AcDbEntity
  8
0
370
          15
  6
Continuous
 62
           7
100
AcDbLine
 10
-39.18749384351
 20
770.895071539259
 30
0.0
 11
-39.18749384351
 21
772.895071867084
 31
0.0
  0
LINE
  5
5E
100
AcDbEntity
  8
0
370
          15
  6
Continuous
 62
           7
100
AcDbLine
 10
205.812510924861
 20
772.895071867084
 30
0.0
 11
235.812512116954
 21
772.895071867084
 31
0.0
  0
LINE
  5
5F
100
AcDbEntity
  8
0
370
          15
  6
Continuous
 62
           7
100
AcDbLine
 10
235.812512116954
 20
772.895071867084
 30
0.0
 11
235.812512116954
 21
770.896289709186
 31
0.0
  0
LINE
  5
60
100
AcDbEntity
  8
0
370
          15
  6
Continuous
 62
           7
100
AcDbLine
 10
205.812510924861
 20
770.896289709186
 30
0.0
 11
205.812510924861
 21
772.895071867084
 31
0.0
  0
LINE
  5
61
100
AcDbEntity
  8
0
370
          15
  6
Continuous
 62
           7
100
AcDbLine
 10
-83.451616687252
 20
770.895071539259
 30
0.0
 11
-83.766344112827
 21
751.895072150206
 31
0.0
  0
LINE
  5
62
100
AcDbEntity
  8
0
370
          15
  6
Continuous
 62
           7
100
AcDbLine
 10
-89.257973355724
 20
751.895072150206
 30
0.0
 11
-88.943245930149
 21
770.895071539259
 31
0.0
  0
LINE
  5
63
100
AcDbEntity
  8
0
370
          15
  6
Continuous
 62
           7
100
AcDbLine
 10
280.391362386273
 20
751.895072150206
 30
0.0
 11
280.076634960698
 21
770.895071539259
 31
0.0
  0
LINE
  5
64
100
AcDbEntity
  8
0
370
          15
  6
Continuous
 62
           7
100
AcDbLine
 10
285.568264203594
 20
770.895071539259
 30
0.0
 11
285.88299162917
 21
751.895072150206
 31
0.0
  0
LINE
  5
65
100
AcDbEntity
  8
0
370
          15
  6
Continuous
 62
           7
100
AcDbLine
 10
-9.187492651418
 20
419.284476800457
 30
0.0
 11
-39.18749384351
 21
419.284476800457
 31
0.0
  0
LINE
  5
66
100
AcDbEntity
  8
0
370
          15
  6
Continuous
 62
           7
100
AcDbLine
 10
-39.18749384351
 20
422.782345576778
 30
0.0
 11
-9.187492651418
 21
422.782345576778
 31
0.0
  0
LINE
  5
67
100
AcDbEntity
  8
0
370
          15
  6
Continuous
 62
           7
100
AcDbLine
 10
-9.187492651418
 20
422.782345576778
 30
0.0
 11
-9.187492651418
 21
419.284476800457
 31
0.0
  0
LINE
  5
68
100
AcDbEntity
  8
0
370
          15
  6
Continuous
 62
           7
100
AcDbLine
 10
-39.18749384351
 20
419.284476800457
 30
0.0
 11
-39.18749384351
 21
422.782345576778
 31
0.0
  0
LINE
  5
69
100
AcDbEntity
  8
0
370
          15
  6
Continuous
 62
           7
100
AcDbLine
 10
205.812510924861
 20
422.782345576779
 30
0.0
 11
235.812512116954
 21
422.782345576779
 31
0.0
  0
LINE
  5
6A
100
AcDbEntity
  8
0
370
          15
  6
Continuous
 62
           7
100
AcDbLine
 10
235.812512116954
 20
419.284476800458
 30
0.0
 11
205.812510924861
 21
419.284476800458
 31
0.0
  0
LINE
  5
6B
100
AcDbEntity
  8
0
370
          15
  6
Continuous
 62
           7
100
AcDbLine
 10
235.812512116954
 20
422.782345576779
 30
0.0
 11
235.812512116954
 21
419.284476800458
 31
0.0
  0
LINE
  5
6C
100
AcDbEntity
  8
0
370
          15
  6
Continuous
 62
           7
100
AcDbLine
 10
205.812510924861
 20
419.284476800458
 30
0.0
 11
205.812510924861
 21
422.782345576779
 31
0.0
  0
LINE
  5
6D
100
AcDbEntity
  8
0
370
          15
  6
Continuous
 62
           7
100
AcDbLine
 10
-39.18749384351
 20
412.160246534839
 30
0.0
 11
-9.187492651418
 21
412.16024653484
 31
0.0
  0
LINE
  5
6E
100
AcDbEntity
  8
0
370
          15
  6
Continuous
 62
           7
100
AcDbLine
 10
-9.187492651418
 20
419.284476800457
 30
0.0
 11
-9.187492651418
 21
412.16024653484
 31
0.0
  0
LINE
  5
6F
100
AcDbEntity
  8
0
370
          15
  6
Continuous
 62
           7
100
AcDbLine
 10
-39.18749384351
 20
419.284476800457
 30
0.0
 11
-39.18749384351
 21
412.160246534839
 31
0.0
  0
LINE
  5
70
100
AcDbEntity
  8
0
370
          15
  6
Continuous
 62
           7
100
AcDbLine
 10
205.812510924861
 20
412.233873172299
 30
0.0
 11
235.812512116954
 21
412.233873172299
 31
0.0
  0
LINE
  5
71
100
AcDbEntity
  8
0
370
          15
  6
Continuous
 62
           7
100
AcDbLine
 10
235.812512116954
 20
419.284476800458
 30
0.0
 11
235.812512116954
 21
412.233873172299
 31
0.0
  0
LINE
  5
72
100
AcDbEntity
  8
0
370
          15
  6
Continuous
 62
           7
100
AcDbLine
 10
205.812510924861
 20
419.284476800458
 30
0.0
 11
205.812510924861
 21
412.233873172299
 31
0.0
  0
LINE
  5
73
100
AcDbEntity
  8
0
370
          15
  6
Continuous
 62
           7
100
AcDbLine
 10
235.812512116954
 20
410.090445442693
 30
0.0
 11
205.812510924861
 21
410.090445442693
 31
0.0
  0
LINE
  5
74
100
AcDbEntity
  8
0
370
          15
  6
Continuous
 62
           7
100
AcDbLine
 10
235.812512116954
 20
412.233873172299
 30
0.0
 11
235.812512116954
 21
410.090445442693
 31
0.0
  0
LINE
  5
75
100
AcDbEntity
  8
0
370
          15
  6
Continuous
 62
           7
100
AcDbLine
 10
205.812510924861
 20
410.090445442693
 30
0.0
 11
205.812510924861
 21
412.233873172299
 31
0.0
  0
LINE
  5
76
100
AcDbEntity
  8
0
370
          15
  6
Continuous
 62
           7
100
AcDbLine
 10
-9.187492651417
 20
410.087882442966
 30
0.0
 11
-39.18749384351
 21
410.087882442966
 31
0.0
  0
LINE
  5
77
100
AcDbEntity
  8
0
370
          15
  6
Continuous
 62
           7
100
AcDbLine
 10
-9.187492651418
 20
412.16024653484
 30
0.0
 11
-9.187492651417
 21
410.087882442966
 31
0.0
  0
LINE
  5
78
100
AcDbEntity
  8
0
370
          15
  6
Continuous
 62
           7
100
AcDbLine
 10
-39.18749384351
 20
410.087882442966
 30
0.0
 11
-39.18749384351
 21
412.160246534839
 31
0.0
  0
LINE
  5
79
100
AcDbEntity
  8
0
370
          15
  6
Continuous
 62
           7
100
AcDbLine
 10
205.812510924861
 20
409.426911635892
 30
0.0
 11
235.812512116954
 21
409.426911635892
 31
0.0
  0
LINE
  5
7A
100
AcDbEntity
  8
0
370
          15
  6
Continuous
 62
           7
100
AcDbLine
 10
235.812512116954
 20
410.090445442693
 30
0.0
 11
235.812512116954
 21
409.426911635892
 31
0.0
  0
LINE
  5
7B
100
AcDbEntity
  8
0
370
          15
  6
Continuous
 62
           7
100
AcDbLine
 10
205.812510924861
 20
410.090445442693
 30
0.0
 11
205.812510924861
 21
409.426911635892
 31
0.0
  0
LINE
  5
7C
100
AcDbEntity
  8
0
370
          15
  6
Continuous
 62
           7
100
AcDbLine
 10
280.076634960697
 20
401.295258565442
 30
0.0
 11
282.586124616191
 21
403.93970803787
 31
0.0
  0
ELLIPSE
  5
7D
100
AcDbEntity
  8
0
370
          15
  6
Continuous
 62
           7
100
AcDbEllipse
 10
282.5845317386
 20
398.43886664447
 30
0.0
 11
3.7870461411051792
 21
3.9907139570196932
 31
0.0
210
0.0
220
0.0
230
1.0
 40
0.99971059904
 41
5.5241158846411942
 42
7.0422590098070224
  0
LINE
  5
7E
100
AcDbEntity
  8
0
370
          15
  6
Continuous
 62
           7
100
AcDbLine
 10
288.077709155605
 20
398.728310032384
 30
0.0
 11
285.568264203594
 21
396.08390526344
 31
0.0
  0
ELLIPSE
  5
7F
100
AcDbEntity
  8
0
370
          15
  6
Continuous
 62
           7
100
AcDbEllipse
 10
280.075049662422
 20
395.794424307844
 30
0.0
 11
3.7870461411051792
 21
3.9907139570195227
 31
0.0
210
0.0
220
0.0
230
1.0
 40
0.99971059904
 41
5.5241116045520284
 42
7.0422590098068998
  0
LINE
  5
80
100
AcDbEntity
  8
0
370
          15
  6
Continuous
 62
           7
100
AcDbLine
 10
-88.94324593015
 20
396.083905263439
 30
0.0
 11
-91.452690882161
 21
398.728310032383
 31
0.0
  0
ELLIPSE
  5
81
100
AcDbEntity
  8
0
370
          15
  6
Continuous
 62
           7
100
AcDbEllipse
 10
-85.959513465157
 20
398.438866644462
 30
0.0
 11
-3.7870461411051792
 21
3.990713957019409
 31
0.0
210
0.0
220
0.0
230
1.0
 40
0.99971059904
 41
5.5241116045522567
 42
7.0422547297168219
  0
LINE
  5
82
100
AcDbEntity
  8
0
370
          15
  6
Continuous
 62
           7
100
AcDbLine
 10
-85.961106342747
 20
403.939708037869
 30
0.0
 11
-83.451616687253
 21
401.295258565441
 31
0.0
  0
ELLIPSE
  5
83
100
AcDbEntity
  8
0
370
          15
  6
Continuous
 62
           7
100
AcDbEllipse
 10
-83.450031388979
 20
395.794424307837
 30
0.0
 11
-3.7870461411051792
 21
3.9907139570195227
 31
0.0
210
0.0
220
0.0
230
1.0
 40
0.99971059904
 41
5.5241116045522736
 42
7.0422590098071396
  0
LINE
  5
84
100
AcDbEntity
  8
0
370
          15
  6
Continuous
 62
           7
100
AcDbLine
 10
-46.500283402875
 20
403.939708037869
 30
0.0
 11
-85.961106342747
 21
403.939708037869
 31
0.0
  0
LINE
  5
85
100
AcDbEntity
  8
0
370
          15
  6
Continuous
 62
           7
100
AcDbLine
 10
-46.500283402875
 20
403.939708037869
 30
0.0
 11
-44.187489075139
 21
401.626913710133
 31
0.0
  0
LINE
  5
86
100
AcDbEntity
  8
0
370
          15
  6
Continuous
 62
           7
100
AcDbLine
 10
240.812507348583
 20
401.626913710133
 30
0.0
 11
-44.187489075139
 21
401.626913710133
 31
0.0
  0
LINE
  5
87
100
AcDbEntity
  8
0
370
          15
  6
Continuous
 62
           7
100
AcDbLine
 10
243.125301676318
 20
403.93970803787
 30
0.0
 11
240.812507348583
 21
401.626913710133
 31
0.0
  0
LINE
  5
88
100
AcDbEntity
  8
0
370
          15
  6
Continuous
 62
           7
100
AcDbLine
 10
282.586124616191
 20
403.93970803787
 30
0.0
 11
243.125301676318
 21
403.93970803787
 31
0.0
  0
LINE
  5
89
100
AcDbEntity
  8
0
370
          15
  6
Continuous
 62
           7
100
AcDbLine
 10
280.076634960697
 20
401.295258565442
 30
0.0
 11
-83.451616687253
 21
401.295258565441
 31
0.0
  0
ELLIPSE
  5
8A
100
AcDbEntity
  8
0
370
          15
  6
Continuous
 62
           7
100
AcDbEllipse
 10
-84.399140509608
 20
131.459240055537
 30
0.0
 11
1.3771076876747657
 21
1.4511687116432199
 31
0.0
210
0.0
220
0.0
230
1.0
 40
0.99971059904
 41
2.3825189509624529
 42
3.9006663562173247
  0
LINE
  5
8B
100
AcDbEntity
  8
0
370
          15
  6
Continuous
 62
           7
100
AcDbLine
 10
-84.399717969372
 20
129.458933039203
 30
0.0
 11
281.024736242817
 21
129.458933039205
 31
0.0
  0
ELLIPSE
  5
8C
100
AcDbEntity
  8
0
370
          15
  6
Continuous
 62
           7
100
AcDbEllipse
 10
281.024158783054
 20
131.459240055549
 30
0.0
 11
-1.3771076876747657
 21
1.4511687116433336
 31
0.0
210
0.0
220
0.0
230
1.0
 40
0.99971059904
 41
2.3825189509624969
 42
3.9006663562173318
  0
LINE
  5
8D
100
AcDbEntity
  8
0
370
          15
  6
Continuous
 62
           7
100
AcDbLine
 10
283.021685557888
 20
131.353973312871
 30
0.0
 11
289.980021195934
 21
264.126908401595
 31
0.0
  0
LINE
  5
8E
100
AcDbEntity
  8
0
370
          15
  6
Continuous
 62
           7
100
AcDbLine
 10
289.980021195934
 20
264.126908401595
 30
0.0
 11
283.021685557887
 21
396.899848146932
 31
0.0
  0
ELLIPSE
  5
8F
100
AcDbEntity
  8
0
370
          15
  6
Continuous
 62
           7
100
AcDbEllipse
 10
281.024158783053
 20
396.794576635888
 30
0.0
 11
1.3771076876747657
 21
1.4511687116432768
 31
0.0
210
0.0
220
0.0
230
1.0
 40
0.99971059904
 41
5.5241116045522336
 42
7.0422590098068945
  0
LINE
  5
90
100
AcDbEntity
  8
0
370
          15
  6
Continuous
 62
           7
100
AcDbLine
 10
281.024736242816
 20
398.794888420598
 30
0.0
 11
-84.399717969373
 21
398.794888420597
 31
0.0
  0
ELLIPSE
  5
91
100
AcDbEntity
  8
0
370
          15
  6
Continuous
 62
           7
100
AcDbEllipse
 10
-84.39914050961
 20
396.79457663588
 30
0.0
 11
-1.377107687675192
 21
1.4511687116430494
 31
0.0
210
0.0
220
0.0
230
1.0
 40
0.99971059904
 41
5.5241116045520089
 42
7.0422590098067452
  0
LINE
  5
92
100
AcDbEntity
  8
0
370
          15
  6
Continuous
 62
           7
100
AcDbLine
 10
-86.396667284443
 20
396.89984814693
 30
0.0
 11
-93.355002922489
 21
264.126908401593
 31
0.0
  0
LINE
  5
93
100
AcDbEntity
  8
0
370
          15
  6
Continuous
 62
           7
100
AcDbLine
 10
-93.355002922489
 20
264.126908401593
 30
0.0
 11
-86.396667284443
 21
131.35397331287
 31
0.0
  0
ELLIPSE
  5
94
100
AcDbEntity
  8
0
370
          15
  6
Continuous
 62
           7
100
AcDbEllipse
 10
-83.450031388977
 20
132.459392383581
 30
0.0
 11
3.7870461411051792
 21
3.9907139570195227
 31
0.0
210
0.0
220
0.0
230
1.0
 40
0.99971059904
 41
2.3825189509622668
 42
3.9006663562171333
  0
LINE
  5
95
100
AcDbEntity
  8
0
370
          15
  6
Continuous
 62
           7
100
AcDbLine
 10
-95.858815235569
 20
264.126908401593
 30
0.0
 11
-88.943245930149
 21
132.169916196361
 31
0.0
  0
LINE
  5
96
100
AcDbEntity
  8
0
370
          15
  6
Continuous
 62
           7
100
AcDbLine
 10
-88.94324593015
 20
396.083905263439
 30
0.0
 11
-95.858815235569
 21
264.126908401593
 31
0.0
  0
LINE
  5
97
100
AcDbEntity
  8
0
370
          15
  6
Continuous
 62
           7
100
AcDbLine
 10
292.483833509014
 20
264.126908401595
 30
0.0
 11
285.568264203594
 21
396.08390526344
 31
0.0
  0
LINE
  5
98
100
AcDbEntity
  8
0
370
          15
  6
Continuous
 62
           7
100
AcDbLine
 10
285.568264203594
 20
132.169916196362
 30
0.0
 11
292.483833509014
 21
264.126908401595
 31
0.0
  0
ELLIPSE
  5
99
100
AcDbEntity
  8
0
370
          15
  6
Continuous
 62
           7
100
AcDbEllipse
 10
280.075049662422
 20
132.459392383593
 30
0.0
 11
-3.7870461411060319
 21
3.9907139570188974
 31
0.0
210
0.0
220
0.0
230
1.0
 40
0.99971059904
 41
2.3825189509623956
 42
3.9006663562171613
  0
LINE
  5
9A
100
AcDbEntity
  8
0
370
          15
  6
Continuous
 62
           7
100
AcDbLine
 10
-83.451616687252
 20
126.958547993198
 30
0.0
 11
280.076634960698
 21
126.958547993199
 31
0.0
  0
LINE
  5
9B
100
AcDbEntity
  8
0
370
          15
  6
Continuous
 62
           7
100
AcDbLine
 10
283.021685557887
 20
396.899848146932
 30
0.0
 11
280.747425632999
 21
394.503264589803
 31
0.0
  0
ELLIPSE
  5
9C
100
AcDbEntity
  8
0
370
          15
  6
Continuous
 62
           7
100
AcDbEllipse
 10
278.749888888273
 20
394.397996221244
 30
0.0
 11
1.3771076876744814
 21
1.4511687116436178
 31
0.0
210
0.0
220
0.0
230
1.0
 40
0.99971059904
 41
5.5241116045520489
 42
7.0422590098069042
  0
LINE
  5
9D
100
AcDbEntity
  8
0
370
          15
  6
Continuous
 62
           7
100
AcDbLine
 10
278.750461416767
 20
396.39830486347
 30
0.0
 11
281.024736242816
 21
398.794888420598
 31
0.0
  0
LINE
  5
9E
100
AcDbEntity
  8
0
370
          15
  6
Continuous
 62
           7
100
AcDbLine
 10
240.624931531474
 20
396.150438948171
 30
0.0
 11
250.612509327457
 21
396.150438948171
 31
0.0
  0
LINE
  5
9F
100
AcDbEntity
  8
0
370
          15
  6
Continuous
 62
           7
100
AcDbLine
 10
240.624931531474
 20
396.150438948171
 30
0.0
 11
238.355767803714
 21
398.419602675931
 31
0.0
  0
LINE
  5
A0
100
AcDbEntity
  8
0
370
          15
  6
Continuous
 62
           7
100
AcDbLine
 10
238.355767803714
 20
398.419602675931
 30
0.0
 11
-41.73074953027
 21
398.41960267593
 31
0.0
  0
LINE
  5
A1
100
AcDbEntity
  8
0
370
          15
  6
Continuous
 62
           7
100
AcDbLine
 10
-43.999913258031
 20
396.15043894817
 30
0.0
 11
-41.73074953027
 21
398.41960267593
 31
0.0
  0
LINE
  5
A2
100
AcDbEntity
  8
0
370
          15
  6
Continuous
 62
           7
100
AcDbLine
 10
-53.987491054013
 20
396.15043894817
 30
0.0
 11
-43.999913258031
 21
396.15043894817
 31
0.0
  0
LINE
  5
A3
100
AcDbEntity
  8
0
370
          15
  6
Continuous
 62
           7
100
AcDbLine
 10
-53.987491054013
 20
396.398304863468
 30
0.0
 11
-82.125443143323
 21
396.398304863468
 31
0.0
  0
LINE
  5
A4
100
AcDbEntity
  8
0
370
          15
  6
Continuous
 62
           7
100
AcDbLine
 10
-84.399717969373
 20
398.794888420597
 30
0.0
 11
-82.125443143323
 21
396.398304863468
 31
0.0
  0
LINE
  5
A5
100
AcDbEntity
  8
0
370
          15
  6
Continuous
 62
           7
100
AcDbLine
 10
278.750461416767
 20
396.39830486347
 30
0.0
 11
250.612509327457
 21
396.39830486347
 31
0.0
  0
LINE
  5
A6
100
AcDbEntity
  8
0
370
          15
  6
Continuous
 62
           7
100
AcDbLine
 10
-95.858815235569
 20
264.126908401593
 30
0.0
 11
-96.190917415096
 21
264.126908401594
 31
0.0
  0
LINE
  5
A7
100
AcDbEntity
  8
0
370
          15
  6
Continuous
 62
           7
100
AcDbLine
 10
-90.572807115986
 20
371.326907439724
 30
0.0
 11
-96.190917415096
 21
264.126908401594
 31
0.0
  0
LINE
  5
A8
100
AcDbEntity
  8
0
370
          15
  6
Continuous
 62
           7
100
AcDbLine
 10
-92.767569345906
 20
373.63970176746
 30
0.0
 11
-90.572807115986
 21
371.326907439724
 31
0.0
  0
LINE
  5
A9
100
AcDbEntity
  8
0
370
          15
  6
Continuous
 62
           7
100
AcDbLine
 10
-91.976079267934
 20
388.742147846714
 30
0.0
 11
-92.767569345906
 21
373.63970176746
 31
0.0
  0
ELLIPSE
  5
AA
100
AcDbEntity
  8
0
370
          15
  6
Continuous
 62
           7
100
AcDbEllipse
 10
-82.12487061483
 20
394.397996221237
 30
0.0
 11
-1.377107687675192
 21
1.4511687116428789
 31
0.0
210
0.0
220
0.0
230
1.0
 40
0.99971059904
 41
5.5241116045517469
 42
7.0422590098068385
  0
LINE
  5
AB
100
AcDbEntity
  8
0
370
          15
  6
Continuous
 62
           7
100
AcDbLine
 10
-84.122407359555
 20
394.503264589802
 30
0.0
 11
-86.396667284443
 21
396.89984814693
 31
0.0
  0
LINE
  5
AC
100
AcDbEntity
  8
0
370
          15
  6
Continuous
 62
           7
100
AcDbLine
 10
289.39258761935
 20
373.639701767461
 30
0.0
 11
288.601097541378
 21
388.742147846716
 31
0.0
  0
LINE
  5
AD
100
AcDbEntity
  8
0
370
          15
  6
Continuous
 62
           7
100
AcDbLine
 10
289.39258761935
 20
373.639701767461
 30
0.0
 11
287.197825389431
 21
371.326907439725
 31
0.0
  0
LINE
  5
AE
100
AcDbEntity
  8
0
370
          15
  6
Continuous
 62
           7
100
AcDbLine
 10
292.815935688541
 20
264.126908401595
 30
0.0
 11
287.197825389431
 21
371.326907439725
 31
0.0
  0
LINE
  5
AF
100
AcDbEntity
  8
0
370
          15
  6
Continuous
 62
           7
100
AcDbLine
 10
292.483833509014
 20
264.126908401595
 30
0.0
 11
292.815935688541
 21
264.126908401595
 31
0.0
  0
LINE
  5
B0
100
AcDbEntity
  8
0
370
          15
  6
Continuous
 62
           7
100
AcDbLine
 10
-85.359844488575
 20
370.891458256737
 30
0.0
 11
-87.489846271947
 21
368.870167894855
 31
0.0
  0
LINE
  5
B1
100
AcDbEntity
  8
0
370
          15
  6
Continuous
 62
           7
100
AcDbLine
 10
-87.489846271947
 20
368.870167894855
 30
0.0
 11
-92.979210538342
 21
264.126908401594
 31
0.0
  0
LINE
  5
B2
100
AcDbEntity
  8
0
370
          15
  6
Continuous
 62
           7
100
AcDbLine
 10
-93.355002922489
 20
264.126908401593
 30
0.0
 11
-92.979210538342
 21
264.126908401594
 31
0.0
  0
LINE
  5
B3
100
AcDbEntity
  8
0
370
          15
  6
Continuous
 62
           7
100
AcDbLine
 10
-84.122407359555
 20
394.503264589802
 30
0.0
 11
-85.359844488575
 21
370.891458256737
 31
0.0
  0
LINE
  5
B4
100
AcDbEntity
  8
0
370
          15
  6
Continuous
 62
           7
100
AcDbLine
 10
289.980021195934
 20
264.126908401595
 30
0.0
 11
289.604228811787
 21
264.126908401595
 31
0.0
  0
LINE
  5
B5
100
AcDbEntity
  8
0
370
          15
  6
Continuous
 62
           7
100
AcDbLine
 10
289.604228811787
 20
264.126908401595
 30
0.0
 11
284.114864545391
 21
368.870167894857
 31
0.0
  0
LINE
  5
B6
100
AcDbEntity
  8
0
370
          15
  6
Continuous
 62
           7
100
AcDbLine
 10
281.984862762019
 20
370.891458256738
 30
0.0
 11
284.114864545391
 21
368.870167894857
 31
0.0
  0
LINE
  5
B7
100
AcDbEntity
  8
0
370
          15
  6
Continuous
 62
           7
100
AcDbLine
 10
281.984862762019
 20
370.891458256738
 30
0.0
 11
280.747425632999
 21
394.503264589803
 31
0.0
  0
LINE
  5
B8
100
AcDbEntity
  8
0
370
          15
  6
Continuous
 62
           7
100
AcDbLine
 10
-92.979210538342
 20
264.126908401594
 30
0.0
 11
-87.411242646648
 21
157.883650525108
 31
0.0
  0
LINE
  5
B9
100
AcDbEntity
  8
0
370
          15
  6
Continuous
 62
           7
100
AcDbLine
 10
-85.281240863277
 20
155.862352712647
 30
0.0
 11
-87.411242646648
 21
157.883650525108
 31
0.0
  0
LINE
  5
BA
100
AcDbEntity
  8
0
370
          15
  6
Continuous
 62
           7
100
AcDbLine
 10
-85.281240863277
 20
155.862352712647
 30
0.0
 11
-84.122407359554
 21
133.750556869999
 31
0.0
  0
LINE
  5
BB
100
AcDbEntity
  8
0
370
          15
  6
Continuous
 62
           7
100
AcDbLine
 10
-86.396667284443
 20
131.35397331287
 30
0.0
 11
-84.122407359554
 21
133.750556869999
 31
0.0
  0
LINE
  5
BC
100
AcDbEntity
  8
0
370
          15
  6
Continuous
 62
           7
100
AcDbLine
 10
287.119221764134
 20
155.426910980241
 30
0.0
 11
292.815935688541
 21
264.126908401595
 31
0.0
  0
LINE
  5
BD
100
AcDbEntity
  8
0
370
          15
  6
Continuous
 62
           7
100
AcDbLine
 10
289.313969092892
 20
153.114109201925
 30
0.0
 11
287.119221764134
 21
155.426910980241
 31
0.0
  0
LINE
  5
BE
100
AcDbEntity
  8
0
370
          15
  6
Continuous
 62
           7
100
AcDbLine
 10
288.88183541827
 20
144.868499501245
 30
0.0
 11
289.313969092892
 21
153.114109201925
 31
0.0
  0
LINE
  5
BF
100
AcDbEntity
  8
0
370
          15
  6
Continuous
 62
           7
100
AcDbLine
 10
288.780954556988
 20
144.74449203779
 30
0.0
 11
288.23227890067
 21
134.275092645185
 31
0.0
  0
LINE
  5
C0
100
AcDbEntity
  8
0
370
          15
  6
Continuous
 62
           7
100
AcDbLine
 10
288.077753859089
 20
129.525466723936
 30
0.0
 11
288.319644408749
 21
134.141220613019
 31
0.0
  0
LINE
  5
C1
100
AcDbEntity
  8
0
370
          15
  6
Continuous
 62
           7
100
AcDbLine
 10
285.568264203594
 20
132.169916196362
 30
0.0
 11
288.077753859089
 21
129.525466723936
 31
0.0
  0
LINE
  5
C2
100
AcDbEntity
  8
0
370
          15
  6
Continuous
 62
           7
100
AcDbLine
 10
281.906259136723
 20
155.862352712648
 30
0.0
 11
284.036260920094
 21
157.883650525109
 31
0.0
  0
LINE
  5
C3
100
AcDbEntity
  8
0
370
          15
  6
Continuous
 62
           7
100
AcDbLine
 10
284.036260920094
 20
157.883650525109
 30
0.0
 11
289.604228811787
 21
264.126908401595
 31
0.0
  0
LINE
  5
C4
100
AcDbEntity
  8
0
370
          15
  6
Continuous
 62
           7
100
AcDbLine
 10
280.747425633
 20
133.75055687
 30
0.0
 11
283.021685557888
 21
131.353973312871
 31
0.0
  0
LINE
  5
C5
100
AcDbEntity
  8
0
370
          15
  6
Continuous
 62
           7
100
AcDbLine
 10
280.747425633
 20
133.75055687
 30
0.0
 11
281.906259136723
 21
155.862352712648
 31
0.0
  0
LINE
  5
C6
100
AcDbEntity
  8
0
370
          15
  6
Continuous
 62
           7
100
AcDbLine
 10
-92.155936283542
 20
144.744492037788
 30
0.0
 11
-91.607260627224
 21
134.275092645184
 31
0.0
  0
LINE
  5
C7
100
AcDbEntity
  8
0
370
          15
  6
Continuous
 62
           7
100
AcDbLine
 10
-92.688950819446
 20
153.114109201924
 30
0.0
 11
-92.256817144825
 21
144.868499501244
 31
0.0
  0
LINE
  5
C8
100
AcDbEntity
  8
0
370
          15
  6
Continuous
 62
           7
100
AcDbLine
 10
-92.688950819446
 20
153.114109201924
 30
0.0
 11
-90.494203490688
 21
155.42691098024
 31
0.0
  0
LINE
  5
C9
100
AcDbEntity
  8
0
370
          15
  6
Continuous
 62
           7
100
AcDbLine
 10
-96.190917415096
 20
264.126908401594
 30
0.0
 11
-90.494203490688
 21
155.42691098024
 31
0.0
  0
LINE
  5
CA
100
AcDbEntity
  8
0
370
          15
  6
Continuous
 62
           7
100
AcDbLine
 10
-91.452735585644
 20
129.525466723934
 30
0.0
 11
-88.943245930149
 21
132.169916196361
 31
0.0
  0
LINE
  5
CB
100
AcDbEntity
  8
0
370
          15
  6
Continuous
 62
           7
100
AcDbLine
 10
-91.694626135303
 20
134.141220613018
 30
0.0
 11
-91.452735585644
 21
129.525466723934
 31
0.0
  0
LINE
  5
CC
100
AcDbEntity
  8
0
370
          15
  6
Continuous
 62
           7
100
AcDbLine
 10
281.024736242817
 20
129.458933039205
 30
0.0
 11
278.750461416767
 21
131.855516596334
 31
0.0
  0
ELLIPSE
  5
CD
100
AcDbEntity
  8
0
370
          15
  6
Continuous
 62
           7
100
AcDbEllipse
 10
278.749888888273
 20
133.855820470194
 30
0.0
 11
-1.3771076876747657
 21
1.4511687116432483
 31
0.0
210
0.0
220
0.0
230
1.0
 40
0.99971059904
 41
2.3825189509622526
 42
3.9006663562172226
  0
ELLIPSE
  5
CE
100
AcDbEntity
  8
0
370
          15
  6
Continuous
 62
           7
100
AcDbEllipse
 10
-82.124870614828
 20
133.855820470182
 30
0.0
 11
1.3771076876749078
 21
1.4511687116432483
 31
0.0
210
0.0
220
0.0
230
1.0
 40
0.99971059904
 41
2.3825189509623526
 42
3.9006663562174482
  0
LINE
  5
CF
100
AcDbEntity
  8
0
370
          15
  6
Continuous
 62
           7
100
AcDbLine
 10
-82.125443143322
 20
131.855516596333
 30
0.0
 11
-84.399717969372
 21
129.458933039203
 31
0.0
  0
ELLIPSE
  5
D0
100
AcDbEntity
  8
0
370
          15
  6
Continuous
 62
           7
100
AcDbEllipse
 10
282.5845317386
 20
129.814950046969
 30
0.0
 11
-3.7870461411057477
 21
3.990713957018869
 31
0.0
210
0.0
220
0.0
230
1.0
 40
0.99971059904
 41
2.3825189509622953
 42
3.9006663562171946
  0
LINE
  5
D1
100
AcDbEntity
  8
0
370
          15
  6
Continuous
 62
           7
100
AcDbLine
 10
282.586124616192
 20
124.314113421934
 30
0.0
 11
280.076634960698
 21
126.958547993199
 31
0.0
  0
LINE
  5
D2
100
AcDbEntity
  8
0
370
          15
  6
Continuous
 62
           7
100
AcDbLine
 10
-82.125443143322
 20
131.855516596333
 30
0.0
 11
-53.987491054012
 21
131.855516596333
 31
0.0
  0
LINE
  5
D3
100
AcDbEntity
  8
0
370
          15
  6
Continuous
 62
           7
100
AcDbLine
 10
-43.99991325803
 20
132.103382511631
 30
0.0
 11
-53.987491054012
 21
132.103382511631
 31
0.0
  0
LINE
  5
D4
100
AcDbEntity
  8
0
370
          15
  6
Continuous
 62
           7
100
AcDbLine
 10
-43.99991325803
 20
132.103382511631
 30
0.0
 11
-41.730749530269
 21
129.834218783871
 31
0.0
  0
LINE
  5
D5
100
AcDbEntity
  8
0
370
          15
  6
Continuous
 62
           7
100
AcDbLine
 10
-41.730749530269
 20
129.834218783871
 30
0.0
 11
58.269251959847
 21
129.834218783871
 31
0.0
  0
LINE
  5
D6
100
AcDbEntity
  8
0
370
          15
  6
Continuous
 62
           7
100
AcDbLine
 10
58.496166842507
 20
129.607303901211
 30
0.0
 11
58.269251959847
 21
129.834218783871
 31
0.0
  0
LINE
  5
D7
100
AcDbEntity
  8
0
370
          15
  6
Continuous
 62
           7
100
AcDbLine
 10
58.496166842507
 20
129.607303901211
 30
0.0
 11
138.128851430939
 21
129.607303901211
 31
0.0
  0
LINE
  5
D8
100
AcDbEntity
  8
0
370
          15
  6
Continuous
 62
           7
100
AcDbLine
 10
138.355766313599
 20
129.834218783871
 30
0.0
 11
138.128851430939
 21
129.607303901211
 31
0.0
  0
LINE
  5
D9
100
AcDbEntity
  8
0
370
          15
  6
Continuous
 62
           7
100
AcDbLine
 10
138.355766313599
 20
129.834218783871
 30
0.0
 11
238.355767803715
 21
129.834218783872
 31
0.0
  0
LINE
  5
DA
100
AcDbEntity
  8
0
370
          15
  6
Continuous
 62
           7
100
AcDbLine
 10
240.624931531476
 20
132.103382511632
 30
0.0
 11
238.355767803715
 21
129.834218783872
 31
0.0
  0
LINE
  5
DB
100
AcDbEntity
  8
0
370
          15
  6
Continuous
 62
           7
100
AcDbLine
 10
250.612509327458
 20
132.103382511632
 30
0.0
 11
240.624931531476
 21
132.103382511632
 31
0.0
  0
LINE
  5
DC
100
AcDbEntity
  8
0
370
          15
  6
Continuous
 62
           7
100
AcDbLine
 10
250.612509327458
 20
131.855516596334
 30
0.0
 11
278.750461416767
 21
131.855516596334
 31
0.0
  0
LINE
  5
DD
100
AcDbEntity
  8
0
370
          15
  6
Continuous
 62
           7
100
AcDbLine
 10
-83.451616687252
 20
126.958547993198
 30
0.0
 11
-85.961106342747
 21
124.314113421932
 31
0.0
  0
ELLIPSE
  5
DE
100
AcDbEntity
  8
0
370
          15
  6
Continuous
 62
           7
100
AcDbEllipse
 10
-85.959513465155
 20
129.814950046957
 30
0.0
 11
3.7870461411050371
 21
3.9907139570195227
 31
0.0
210
0.0
220
0.0
230
1.0
 40
0.99971059904
 41
2.3825189509622029
 42
3.9006663562172217
  0
LINE
  5
DF
100
AcDbEntity
  8
0
370
          15
  6
Continuous
 62
           7
100
AcDbLine
 10
243.125301676319
 20
124.314113421934
 30
0.0
 11
261.484143214749
 21
124.314113421934
 31
0.0
  0
LINE
  5
E0
100
AcDbEntity
  8
0
370
          15
  6
Continuous
 62
           7
100
AcDbLine
 10
243.125301676319
 20
124.314113421934
 30
0.0
 11
240.812507348583
 21
126.626907749669
 31
0.0
  0
LINE
  5
E1
100
AcDbEntity
  8
0
370
          15
  6
Continuous
 62
           7
100
AcDbLine
 10
140.812509583758
 20
126.626907749669
 30
0.0
 11
240.812507348583
 21
126.626907749669
 31
0.0
  0
LINE
  5
E2
100
AcDbEntity
  8
0
370
          15
  6
Continuous
 62
           7
100
AcDbLine
 10
140.812509583758
 20
126.626907749669
 30
0.0
 11
140.585594701098
 21
126.853822632328
 31
0.0
  0
LINE
  5
E3
100
AcDbEntity
  8
0
370
          15
  6
Continuous
 62
           7
100
AcDbLine
 10
56.039423572348
 20
126.853822632328
 30
0.0
 11
140.585594701098
 21
126.853822632328
 31
0.0
  0
LINE
  5
E4
100
AcDbEntity
  8
0
370
          15
  6
Continuous
 62
           7
100
AcDbLine
 10
56.039423572348
 20
126.853822632328
 30
0.0
 11
55.812508689688
 21
126.626907749668
 31
0.0
  0
LINE
  5
E5
100
AcDbEntity
  8
0
370
          15
  6
Continuous
 62
           7
100
AcDbLine
 10
-44.187489075138
 20
126.626907749668
 30
0.0
 11
55.812508689688
 21
126.626907749668
 31
0.0
  0
LINE
  5
E6
100
AcDbEntity
  8
0
370
          15
  6
Continuous
 62
           7
100
AcDbLine
 10
-46.500283402874
 20
124.314113421933
 30
0.0
 11
-44.187489075138
 21
126.626907749668
 31
0.0
  0
LINE
  5
E7
100
AcDbEntity
  8
0
370
          15
  6
Continuous
 62
           7
100
AcDbLine
 10
-64.859124941303
 20
124.314113421933
 30
0.0
 11
-46.500283402874
 21
124.314113421933
 31
0.0
  0
LINE
  5
E8
100
AcDbEntity
  8
0
370
          15
  6
Continuous
 62
           7
100
AcDbLine
 10
-85.961106342747
 20
124.314113421932
 30
0.0
 11
-68.515854997112
 21
124.314113421933
 31
0.0
  0
LINE
  5
E9
100
AcDbEntity
  8
0
370
          15
  6
Continuous
 62
           7
100
AcDbLine
 10
265.140873270558
 20
124.314113421934
 30
0.0
 11
282.586124616192
 21
124.314113421934
 31
0.0
  0
LINE
  5
EA
100
AcDbEntity
  8
0
370
          15
  6
Continuous
 62
           7
100
AcDbLine
 10
-9.187492651417
 20
409.426911635891
 30
0.0
 11
-39.18749384351
 21
409.426911635891
 31
0.0
  0
LINE
  5
EB
100
AcDbEntity
  8
0
370
          15
  6
Continuous
 62
           7
100
AcDbLine
 10
-9.187492651417
 20
410.087882442966
 30
0.0
 11
-9.187492651417
 21
409.426911635891
 31
0.0
  0
LINE
  5
EC
100
AcDbEntity
  8
0
370
          15
  6
Continuous
 62
           7
100
AcDbLine
 10
-39.18749384351
 20
410.087882442966
 30
0.0
 11
-39.18749384351
 21
409.426911635891
 31
0.0
  0
LINE
  5
ED
100
AcDbEntity
  8
0
370
          15
  6
Continuous
 62
           7
100
AcDbLine
 10
-9.187492651418
 20
423.397718830601
 30
0.0
 11
-39.18749384351
 21
423.397718830601
 31
0.0
  0
LINE
  5
EE
100
AcDbEntity
  8
0
370
          15
  6
Continuous
 62
           7
100
AcDbLine
 10
-9.187492651418
 20
423.397718830601
 30
0.0
 11
-9.187492651418
 21
422.782345576778
 31
0.0
  0
LINE
  5
EF
100
AcDbEntity
  8
0
370
          15
  6
Continuous
 62
           7
100
AcDbLine
 10
-39.18749384351
 20
423.397718830601
 30
0.0
 11
-39.18749384351
 21
422.782345576778
 31
0.0
  0
LINE
  5
F0
100
AcDbEntity
  8
0
370
          15
  6
Continuous
 62
           7
100
AcDbLine
 10
205.812510924861
 20
423.397718830602
 30
0.0
 11
235.812512116954
 21
423.397718830602
 31
0.0
  0
LINE
  5
F1
100
AcDbEntity
  8
0
370
          15
  6
Continuous
 62
           7
100
AcDbLine
 10
235.812512116954
 20
423.397718830602
 30
0.0
 11
235.812512116954
 21
422.782345576779
 31
0.0
  0
LINE
  5
F2
100
AcDbEntity
  8
0
370
          15
  6
Continuous
 62
           7
100
AcDbLine
 10
205.812510924861
 20
423.397718830602
 30
0.0
 11
205.812510924861
 21
422.782345576779
 31
0.0
  0
LINE
  5
F3
100
AcDbEntity
  8
0
370
          15
  6
Continuous
 62
           7
100
AcDbLine
 10
140.585594701098
 20
117.185472412602
 30
0.0
 11
140.812509583758
 21
116.958557529942
 31
0.0
  0
LINE
  5
F4
100
AcDbEntity
  8
0
370
          15
  6
Continuous
 62
           7
100
AcDbLine
 10
140.585594701098
 20
117.185472412602
 30
0.0
 11
140.585594701098
 21
126.853822632328
 31
0.0
  0
LINE
  5
F5
100
AcDbEntity
  8
0
370
          15
  6
Continuous
 62
           7
100
AcDbLine
 10
140.812509583758
 20
116.958557529942
 30
0.0
 11
140.812509583758
 21
126.626907749669
 31
0.0
  0
LINE
  5
F6
100
AcDbEntity
  8
0
370
          15
  6
Continuous
 62
           7
100
AcDbLine
 10
56.039423572348
 20
117.185472412602
 30
0.0
 11
55.812508689688
 21
116.958557529942
 31
0.0
  0
LINE
  5
F7
100
AcDbEntity
  8
0
370
          15
  6
Continuous
 62
           7
100
AcDbLine
 10
55.812508689688
 20
126.626907749668
 30
0.0
 11
55.812508689688
 21
116.958557529942
 31
0.0
  0
LINE
  5
F8
100
AcDbEntity
  8
0
370
          15
  6
Continuous
 62
           7
100
AcDbLine
 10
56.039423572348
 20
126.853822632328
 30
0.0
 11
56.039423572348
 21
117.185472412602
 31
0.0
  0
LINE
  5
F9
100
AcDbEntity
  8
0
370
          15
  6
Continuous
 62
           7
100
AcDbLine
 10
56.039423572348
 20
117.185472412602
 30
0.0
 11
140.585594701098
 21
117.185472412602
 31
0.0
  0
LINE
  5
FA
100
AcDbEntity
  8
0
370
          15
  6
Continuous
 62
           7
100
AcDbLine
 10
55.812508689688
 20
116.958557529942
 30
0.0
 11
140.812509583758
 21
116.958557529942
 31
0.0
  0
LINE
  5
FB
100
AcDbEntity
  8
0
370
          15
  6
Continuous
 62
           7
100
AcDbLine
 10
240.812507348583
 20
126.626907749669
 30
0.0
 11
240.812507348584
 21
111.626907153623
 31
0.0
  0
LINE
  5
FC
100
AcDbEntity
  8
0
370
          15
  6
Continuous
 62
           7
100
AcDbLine
 10
240.812507348584
 20
111.626907153623
 30
0.0
 11
303.312507348583
 21
111.626907153623
 31
0.0
  0
LINE
  5
FD
100
AcDbEntity
  8
0
370
          15
  6
Continuous
 62
           7
100
AcDbLine
 10
303.312507348583
 20
111.626907153623
 30
0.0
 11
303.312507348583
 21
155.426910980241
 31
0.0
  0
LINE
  5
FE
100
AcDbEntity
  8
0
370
          15
  6
Continuous
 62
           7
100
AcDbLine
 10
303.312507348583
 20
155.426910980241
 30
0.0
 11
287.119221764134
 21
155.426910980241
 31
0.0
  0
LINE
  5
FF
100
AcDbEntity
  8
0
370
          15
  6
Continuous
 62
           7
100
AcDbLine
 10
287.197825389431
 20
371.326907439725
 30
0.0
 11
303.312507348583
 21
371.326907439725
 31
0.0
  0
LINE
  5
100
100
AcDbEntity
  8
0
370
          15
  6
Continuous
 62
           7
100
AcDbLine
 10
303.312507348583
 20
371.326907439725
 30
0.0
 11
303.312507348582
 21
421.626909537809
 31
0.0
  0
LINE
  5
101
100
AcDbEntity
  8
0
370
          15
  6
Continuous
 62
           7
100
AcDbLine
 10
303.312507348582
 20
421.626909537809
 30
0.0
 11
240.812507348583
 21
421.626909537808
 31
0.0
  0
LINE
  5
102
100
AcDbEntity
  8
0
370
          15
  6
Continuous
 62
           7
100
AcDbLine
 10
240.812507348583
 20
421.626909537808
 30
0.0
 11
240.812507348583
 21
401.626913710133
 31
0.0
  0
LINE
  5
103
100
AcDbEntity
  8
0
370
          15
  6
Continuous
 62
           7
100
AcDbLine
 10
-44.187489075139
 20
401.626913710133
 30
0.0
 11
-44.187489075139
 21
421.626909537807
 31
0.0
  0
LINE
  5
104
100
AcDbEntity
  8
0
370
          15
  6
Continuous
 62
           7
100
AcDbLine
 10
-44.187489075139
 20
421.626909537807
 30
0.0
 11
-106.687489075139
 21
421.626909537807
 31
0.0
  0
LINE
  5
105
100
AcDbEntity
  8
0
370
          15
  6
Continuous
 62
           7
100
AcDbLine
 10
-106.687489075139
 20
421.626909537807
 30
0.0
 11
-106.687489075139
 21
371.326907439724
 31
0.0
  0
LINE
  5
106
100
AcDbEntity
  8
0
370
          15
  6
Continuous
 62
           7
100
AcDbLine
 10
-106.687489075139
 20
371.326907439724
 30
0.0
 11
-90.572807115986
 21
371.326907439724
 31
0.0
  0
LINE
  5
107
100
AcDbEntity
  8
0
370
          15
  6
Continuous
 62
           7
100
AcDbLine
 10
-90.494203490688
 20
155.42691098024
 30
0.0
 11
-106.687489075138
 21
155.426910980239
 31
0.0
  0
LINE
  5
108
100
AcDbEntity
  8
0
370
          15
  6
Continuous
 62
           7
100
AcDbLine
 10
-106.687489075138
 20
155.426910980239
 30
0.0
 11
-106.687489075138
 21
111.626907153621
 31
0.0
  0
LINE
  5
109
100
AcDbEntity
  8
0
370
          15
  6
Continuous
 62
           7
100
AcDbLine
 10
-106.687489075138
 20
111.626907153621
 30
0.0
 11
-44.187489075138
 21
111.626907153622
 31
0.0
  0
LINE
  5
10A
100
AcDbEntity
  8
0
370
          15
  6
Continuous
 62
           7
100
AcDbLine
 10
-44.187489075138
 20
111.626907153622
 30
0.0
 11
-44.187489075138
 21
126.626907749668
 31
0.0
  0
ELLIPSE
  5
10B
100
AcDbEntity
  8
0
370
          15
  6
Continuous
 62
           7
100
AcDbEllipse
 10
-106.587094810363
 20
111.727304398628
 30
0.0
 11
1.8390376918407014
 21
1.8390376918412699
 31
0.0
210
0.0
220
0.0
230
1.0
 40
0.999695459882
 41
2.3563467834397116
 42
3.9268385237395798
  0
LINE
  5
10C
100
AcDbEntity
  8
0
370
          15
  6
Continuous
 62
           7
100
AcDbLine
 10
-109.187486690953
 20
421.527310176387
 30
0.0
 11
-109.187486690952
 21
111.726506515041
 31
0.0
  0
ELLIPSE
  5
10D
100
AcDbEntity
  8
0
370
          15
  6
Continuous
 62
           7
100
AcDbEllipse
 10
-106.587094810364
 20
421.5265122928
 30
0.0
 11
1.8390376918411278
 21
-1.8390376918406446
 31
0.0
210
0.0
220
0.0
230
1.0
 40
0.999695459882
 41
2.3563467834398049
 42
3.926838523739673
  0
LINE
  5
10E
100
AcDbEntity
  8
0
370
          15
  6
Continuous
 62
           7
100
AcDbLine
 10
303.212907987163
 20
424.126907153623
 30
0.0
 11
-106.587889713719
 21
424.126907153621
 31
0.0
  0
ELLIPSE
  5
10F
100
AcDbEntity
  8
0
370
          15
  6
Continuous
 62
           7
100
AcDbEllipse
 10
303.212113083808
 20
421.526512292802
 30
0.0
 11
1.8390376918407014
 21
1.8390376918410993
 31
0.0
210
0.0
220
0.0
230
1.0
 40
0.999695459882
 41
5.4979394370295571
 42
7.0684311773293569
  0
LINE
  5
110
100
AcDbEntity
  8
0
370
          15
  6
Continuous
 62
           7
100
AcDbLine
 10
305.812504964398
 20
111.726506515042
 30
0.0
 11
305.812504964397
 21
421.527310176389
 31
0.0
  0
ELLIPSE
  5
111
100
AcDbEntity
  8
0
370
          15
  6
Continuous
 62
           7
100
AcDbEllipse
 10
303.212113083809
 20
111.72730439863
 30
0.0
 11
1.8390376918412699
 21
-1.8390376918406304
 31
0.0
210
0.0
220
0.0
230
1.0
 40
0.999695459882
 41
5.4979394370295731
 42
7.0684311773293347
  0
LINE
  5
112
100
AcDbEntity
  8
0
370
          15
  6
Continuous
 62
           7
100
AcDbLine
 10
-106.587889713718
 20
109.126909537807
 30
0.0
 11
303.212907987164
 21
109.126909537808
 31
0.0
  0
LINE
  5
113
100
AcDbEntity
  8
0
370
          15
  6
Continuous
 62
           7
100
AcDbLine
 10
-104.374694747403
 20
419.314115210072
 30
0.0
 11
-68.515854997113
 21
419.314115210072
 31
0.0
  0
LINE
  5
114
100
AcDbEntity
  8
0
370
          15
  6
Continuous
 62
           7
100
AcDbLine
 10
-104.374694747403
 20
419.314115210072
 30
0.0
 11
-106.687489075139
 21
421.626909537807
 31
0.0
  0
LINE
  5
115
100
AcDbEntity
  8
0
370
          15
  6
Continuous
 62
           7
100
AcDbLine
 10
-46.500283402875
 20
419.314115210072
 30
0.0
 11
-44.187489075139
 21
421.626909537807
 31
0.0
  0
LINE
  5
116
100
AcDbEntity
  8
0
370
          15
  6
Continuous
 62
           7
100
AcDbLine
 10
-64.859124941304
 20
419.314115210072
 30
0.0
 11
-46.500283402875
 21
419.314115210072
 31
0.0
  0
LINE
  5
117
100
AcDbEntity
  8
0
370
          15
  6
Continuous
 62
           7
100
AcDbLine
 10
243.125301676318
 20
419.314115210073
 30
0.0
 11
240.812507348583
 21
421.626909537808
 31
0.0
  0
LINE
  5
118
100
AcDbEntity
  8
0
370
          15
  6
Continuous
 62
           7
100
AcDbLine
 10
243.125301676318
 20
403.93970803787
 30
0.0
 11
243.125301676318
 21
419.314115210073
 31
0.0
  0
LINE
  5
119
100
AcDbEntity
  8
0
370
          15
  6
Continuous
 62
           7
100
AcDbLine
 10
301.093977766559
 20
401.41430394222
 30
0.0
 11
301.093977766559
 21
386.83950798084
 31
0.0
  0
LINE
  5
11A
100
AcDbEntity
  8
0
370
          15
  6
Continuous
 62
           7
100
AcDbLine
 10
300.999713020847
 20
419.314115210073
 30
0.0
 11
300.999713020847
 21
401.4817018943
 31
0.0
  0
LINE
  5
11B
100
AcDbEntity
  8
0
370
          15
  6
Continuous
 62
           7
100
AcDbLine
 10
300.999713020847
 20
419.314115210073
 30
0.0
 11
303.312507348582
 21
421.626909537809
 31
0.0
  0
LINE
  5
11C
100
AcDbEntity
  8
0
370
          15
  6
Continuous
 62
           7
100
AcDbLine
 10
300.999713020847
 20
373.639701767461
 30
0.0
 11
303.312507348583
 21
371.326907439725
 31
0.0
  0
LINE
  5
11D
100
AcDbEntity
  8
0
370
          15
  6
Continuous
 62
           7
100
AcDbLine
 10
300.999713020847
 20
386.772117479341
 30
0.0
 11
300.999713020847
 21
373.639701767461
 31
0.0
  0
LINE
  5
11E
100
AcDbEntity
  8
0
370
          15
  6
Continuous
 62
           7
100
AcDbLine
 10
243.125301676318
 20
419.314115210073
 30
0.0
 11
261.484143214748
 21
419.314115210073
 31
0.0
  0
LINE
  5
11F
100
AcDbEntity
  8
0
370
          15
  6
Continuous
 62
           7
100
AcDbLine
 10
265.140873270556
 20
419.314115210073
 30
0.0
 11
300.999713020847
 21
419.314115210073
 31
0.0
  0
LINE
  5
120
100
AcDbEntity
  8
0
370
          15
  6
Continuous
 62
           7
100
AcDbLine
 10
-46.500283402875
 20
419.314115210072
 30
0.0
 11
-46.500283402875
 21
403.939708037869
 31
0.0
  0
LINE
  5
121
100
AcDbEntity
  8
0
370
          15
  6
Continuous
 62
           7
100
AcDbLine
 10
-104.374694747403
 20
373.63970176746
 30
0.0
 11
-104.374694747403
 21
386.77211747934
 31
0.0
  0
LINE
  5
122
100
AcDbEntity
  8
0
370
          15
  6
Continuous
 62
           7
100
AcDbLine
 10
-104.374694747403
 20
373.63970176746
 30
0.0
 11
-106.687489075139
 21
371.326907439724
 31
0.0
  0
LINE
  5
123
100
AcDbEntity
  8
0
370
          15
  6
Continuous
 62
           7
100
AcDbLine
 10
-104.374694747403
 20
401.481701894299
 30
0.0
 11
-104.374694747403
 21
419.314115210072
 31
0.0
  0
LINE
  5
124
100
AcDbEntity
  8
0
370
          15
  6
Continuous
 62
           7
100
AcDbLine
 10
-104.468959493115
 20
401.414303942219
 30
0.0
 11
-104.468959493115
 21
386.839507980839
 31
0.0
  0
LINE
  5
125
100
AcDbEntity
  8
0
370
          15
  6
Continuous
 62
           7
100
AcDbLine
 10
-92.767569345906
 20
373.63970176746
 30
0.0
 11
-104.374694747403
 21
373.63970176746
 31
0.0
  0
LINE
  5
126
100
AcDbEntity
  8
0
370
          15
  6
Continuous
 62
           7
100
AcDbLine
 10
300.999713020847
 20
373.639701767461
 30
0.0
 11
289.39258761935
 21
373.639701767461
 31
0.0
  0
LINE
  5
127
100
AcDbEntity
  8
0
370
          15
  6
Continuous
 62
           7
100
AcDbLine
 10
291.164082365559
 20
153.725041909711
 30
0.0
 11
300.460931735562
 21
153.725041909711
 31
0.0
  0
LINE
  5
128
100
AcDbEntity
  8
0
370
          15
  6
Continuous
 62
           7
100
AcDbLine
 10
289.313969092892
 20
153.114109201925
 30
0.0
 11
290.934172349499
 21
153.114109201925
 31
0.0
  0
LINE
  5
129
100
AcDbEntity
  8
0
370
          15
  6
Continuous
 62
           7
100
AcDbLine
 10
300.999713020848
 20
153.114109201925
 30
0.0
 11
303.312507348583
 21
155.426910980241
 31
0.0
  0
LINE
  5
12A
100
AcDbEntity
  8
0
370
          15
  6
Continuous
 62
           7
100
AcDbLine
 10
300.690856652783
 20
153.114109201925
 30
0.0
 11
300.999713020848
 21
153.114109201925
 31
0.0
  0
LINE
  5
12B
100
AcDbEntity
  8
0
370
          15
  6
Continuous
 62
           7
100
AcDbLine
 10
-103.835913462116
 20
153.72504190971
 30
0.0
 11
-94.539064092113
 21
153.72504190971
 31
0.0
  0
LINE
  5
12C
100
AcDbEntity
  8
0
370
          15
  6
Continuous
 62
           7
100
AcDbLine
 10
-104.374694747402
 20
153.114109201923
 30
0.0
 11
-104.065838379337
 21
153.114109201923
 31
0.0
  0
LINE
  5
12D
100
AcDbEntity
  8
0
370
          15
  6
Continuous
 62
           7
100
AcDbLine
 10
-104.374694747402
 20
153.114109201923
 30
0.0
 11
-106.687489075138
 21
155.426910980239
 31
0.0
  0
LINE
  5
12E
100
AcDbEntity
  8
0
370
          15
  6
Continuous
 62
           7
100
AcDbLine
 10
-94.309154076053
 20
153.114109201924
 30
0.0
 11
-92.688950819446
 21
153.114109201924
 31
0.0
  0
LINE
  5
12F
100
AcDbEntity
  8
0
370
          15
  6
Continuous
 62
           7
100
AcDbLine
 10
301.09397776656
 20
131.839512749212
 30
0.0
 11
301.09397776656
 21
146.414308710592
 31
0.0
  0
LINE
  5
130
100
AcDbEntity
  8
0
370
          15
  6
Continuous
 62
           7
100
AcDbLine
 10
300.999713020848
 20
153.114109201925
 30
0.0
 11
300.999713020848
 21
146.481699212091
 31
0.0
  0
LINE
  5
131
100
AcDbEntity
  8
0
370
          15
  6
Continuous
 62
           7
100
AcDbLine
 10
300.999713020848
 20
113.939701481359
 30
0.0
 11
303.312507348583
 21
111.626907153623
 31
0.0
  0
LINE
  5
132
100
AcDbEntity
  8
0
370
          15
  6
Continuous
 62
           7
100
AcDbLine
 10
300.999713020848
 20
131.772114797132
 30
0.0
 11
300.999713020848
 21
113.939701481359
 31
0.0
  0
LINE
  5
133
100
AcDbEntity
  8
0
370
          15
  6
Continuous
 62
           7
100
AcDbLine
 10
-104.374694747402
 20
113.939701481358
 30
0.0
 11
-104.374694747402
 21
131.772114797131
 31
0.0
  0
LINE
  5
134
100
AcDbEntity
  8
0
370
          15
  6
Continuous
 62
           7
100
AcDbLine
 10
-104.374694747402
 20
113.939701481358
 30
0.0
 11
-106.687489075138
 21
111.626907153621
 31
0.0
  0
LINE
  5
135
100
AcDbEntity
  8
0
370
          15
  6
Continuous
 62
           7
100
AcDbLine
 10
-104.374694747402
 20
146.48169921209
 30
0.0
 11
-104.374694747402
 21
153.114109201923
 31
0.0
  0
LINE
  5
136
100
AcDbEntity
  8
0
370
          15
  6
Continuous
 62
           7
100
AcDbLine
 10
-104.468959493114
 20
131.83951274921
 30
0.0
 11
-104.468959493114
 21
146.41430871059
 31
0.0
  0
LINE
  5
137
100
AcDbEntity
  8
0
370
          15
  6
Continuous
 62
           7
100
AcDbLine
 10
243.125301676319
 20
113.939701481359
 30
0.0
 11
240.812507348584
 21
111.626907153623
 31
0.0
  0
LINE
  5
138
100
AcDbEntity
  8
0
370
          15
  6
Continuous
 62
           7
100
AcDbLine
 10
243.125301676319
 20
113.939701481359
 30
0.0
 11
243.125301676319
 21
124.314113421934
 31
0.0
  0
LINE
  5
139
100
AcDbEntity
  8
0
370
          15
  6
Continuous
 62
           7
100
AcDbLine
 10
-46.500283402874
 20
113.939701481358
 30
0.0
 11
-44.187489075138
 21
111.626907153622
 31
0.0
  0
LINE
  5
13A
100
AcDbEntity
  8
0
370
          15
  6
Continuous
 62
           7
100
AcDbLine
 10
-46.500283402874
 20
124.314113421933
 30
0.0
 11
-46.500283402874
 21
113.939701481358
 31
0.0
  0
LINE
  5
13B
100
AcDbEntity
  8
0
370
          15
  6
Continuous
 62
           7
100
AcDbLine
 10
300.999713020848
 20
113.939701481359
 30
0.0
 11
265.140873270558
 21
113.939701481359
 31
0.0
  0
LINE
  5
13C
100
AcDbEntity
  8
0
370
          15
  6
Continuous
 62
           7
100
AcDbLine
 10
261.484143214749
 20
113.939701481359
 30
0.0
 11
243.125301676319
 21
113.939701481359
 31
0.0
  0
LINE
  5
13D
100
AcDbEntity
  8
0
370
          15
  6
Continuous
 62
           7
100
AcDbLine
 10
-46.500283402874
 20
113.939701481358
 30
0.0
 11
-64.859124941303
 21
113.939701481358
 31
0.0
  0
LINE
  5
13E
100
AcDbEntity
  8
0
370
          15
  6
Continuous
 62
           7
100
AcDbLine
 10
-68.515854997112
 20
113.939701481358
 30
0.0
 11
-104.374694747402
 21
113.939701481358
 31
0.0
  0
CIRCLE
  5
13F
100
AcDbEntity
  8
0
370
          15
  6
Continuous
 62
           7
100
AcDbCircle
 10
263.312509136722
 20
414.126908345716
 30
0.0
 40
5.5
  0
CIRCLE
  5
140
100
AcDbEntity
  8
0
370
          15
  6
Continuous
 62
           7
100
AcDbCircle
 10
-66.687490863278
 20
414.126908345715
 30
0.0
 40
5.5
  0
CIRCLE
  5
141
100
AcDbEntity
  8
0
370
          15
  6
Continuous
 62
           7
100
AcDbCircle
 10
-99.187490863278
 20
381.626908345715
 30
0.0
 40
5.1
  0
CIRCLE
  5
142
100
AcDbEntity
  8
0
370
          15
  6
Continuous
 62
           7
100
AcDbCircle
 10
295.812509136722
 20
381.626908345716
 30
0.0
 40
5.1
  0
ARC
  5
143
100
AcDbEntity
  8
0
370
          15
  6
Continuous
 62
           7
100
AcDbCircle
 10
-99.187490863277
 20
151.626908345715
 30
0.0
 40
5.1
100
AcDbArc
 50
155.707297845334
 51
24.292702154663
  0
ARC
  5
144
100
AcDbEntity
  8
0
370
          15
  6
Continuous
 62
           7
100
AcDbCircle
 10
295.812509136723
 20
151.626908345716
 30
0.0
 40
5.1
100
AcDbArc
 50
155.70729784533
 51
24.292702154662
  0
CIRCLE
  5
145
100
AcDbEntity
  8
0
370
          15
  6
Continuous
 62
           7
100
AcDbCircle
 10
-66.687490863277
 20
119.126908345715
 30
0.0
 40
5.5
  0
CIRCLE
  5
146
100
AcDbEntity
  8
0
370
          15
  6
Continuous
 62
           7
100
AcDbCircle
 10
263.312509136723
 20
119.126908345716
 30
0.0
 40
5.5
  0
CIRCLE
  5
147
100
AcDbEntity
  8
0
370
          15
  6
Continuous
 62
           7
100
AcDbCircle
 10
260.812509136722
 20
376.626908345716
 30
0.0
 40
3.0
  0
LINE
  5
148
100
AcDbEntity
  8
0
370
          15
  6
Continuous
 62
           7
100
AcDbLine
 10
260.812503176258
 20
366.426906450288
 30
0.0
 11
284.242910223529
 21
366.426906450288
 31
0.0
  0
ARC
  5
149
100
AcDbEntity
  8
0
370
          15
  6
Continuous
 62
           7
100
AcDbCircle
 10
260.812509136722
 20
376.626908345716
 30
0.0
 40
10.2
100
AcDbArc
 50
180.000000000001
 51
270.000000000001
  0
LINE
  5
14A
100
AcDbEntity
  8
0
370
          15
  6
Continuous
 62
           7
100
AcDbLine
 10
250.612509327457
 20
396.39830486347
 30
0.0
 11
250.612509327457
 21
376.626907749669
 31
0.0
  0
CIRCLE
  5
14B
100
AcDbEntity
  8
0
370
          15
  6
Continuous
 62
           7
100
AcDbCircle
 10
-64.187490863278
 20
376.626908345715
 30
0.0
 40
3.0
  0
ARC
  5
14C
100
AcDbEntity
  8
0
370
          15
  6
Continuous
 62
           7
100
AcDbCircle
 10
-64.187490863278
 20
376.626908345715
 30
0.0
 40
10.2
100
AcDbArc
 50
270.000000000001
 51
360.0
  0
LINE
  5
14D
100
AcDbEntity
  8
0
370
          15
  6
Continuous
 62
           7
100
AcDbLine
 10
-87.617891950085
 20
366.426906450287
 30
0.0
 11
-64.187484902814
 21
366.426906450287
 31
0.0
  0
LINE
  5
14E
100
AcDbEntity
  8
0
370
          15
  6
Continuous
 62
           7
100
AcDbLine
 10
-53.987491054013
 20
376.626907749668
 30
0.0
 11
-53.987491054013
 21
396.398304863468
 31
0.0
  0
CIRCLE
  5
14F
100
AcDbEntity
  8
0
370
          15
  6
Continuous
 62
           7
100
AcDbCircle
 10
-64.187490863277
 20
151.626908345715
 30
0.0
 40
3.0
  0
LINE
  5
150
100
AcDbEntity
  8
0
370
          15
  6
Continuous
 62
           7
100
AcDbLine
 10
-64.187484902813
 20
161.826907558934
 30
0.0
 11
-87.617891950084
 21
161.826907558933
 31
0.0
  0
ARC
  5
151
100
AcDbEntity
  8
0
370
          15
  6
Continuous
 62
           7
100
AcDbCircle
 10
-64.187490863277
 20
151.626908345715
 30
0.0
 40
10.2
100
AcDbArc
 50
0.0
 51
90.0
  0
LINE
  5
152
100
AcDbEntity
  8
0
370
          15
  6
Continuous
 62
           7
100
AcDbLine
 10
-53.987491054012
 20
131.855516596333
 30
0.0
 11
-53.987491054012
 21
151.626906259552
 31
0.0
  0
CIRCLE
  5
153
100
AcDbEntity
  8
0
370
          15
  6
Continuous
 62
           7
100
AcDbCircle
 10
260.812509136723
 20
151.626908345716
 30
0.0
 40
3.0
  0
LINE
  5
154
100
AcDbEntity
  8
0
370
          15
  6
Continuous
 62
           7
100
AcDbLine
 10
250.612509327458
 20
151.626906259553
 30
0.0
 11
250.612509327458
 21
131.855516596334
 31
0.0
  0
LINE
  5
155
100
AcDbEntity
  8
0
370
          15
  6
Continuous
 62
           7
100
AcDbLine
 10
284.24291022353
 20
161.826907558935
 30
0.0
 11
260.812503176258
 21
161.826907558935
 31
0.0
  0
ARC
  5
156
100
AcDbEntity
  8
0
370
          15
  6
Continuous
 62
           7
100
AcDbCircle
 10
260.812509136723
 20
151.626908345716
 30
0.0
 40
10.2
100
AcDbArc
 50
90.0
 51
180.0
  0
ARC
  5
157
100
AcDbEntity
  8
0
370
          15
  6
Continuous
 62
           7
100
AcDbCircle
 10
-99.187490863278
 20
394.126908345715
 30
0.0
 40
9.0
100
AcDbArc
 50
234.067692215515
 51
249.858392740276
  0
ARC
  5
158
100
AcDbEntity
  8
0
370
          15
  6
Continuous
 62
           7
100
AcDbCircle
 10
-99.187490863278
 20
394.126908345715
 30
0.0
 40
9.0
100
AcDbArc
 50
30.557309761925
 51
125.932307784486
  0
LINE
  5
159
100
AcDbEntity
  8
0
370
          15
  6
Continuous
 62
           7
100
AcDbLine
 10
-91.958138269856
 20
388.766272826687
 30
0.0
 11
-91.437402290776
 21
398.702501221195
 31
0.0
  0
ARC
  5
15A
100
AcDbEntity
  8
0
370
          15
  6
Continuous
 62
           7
100
AcDbCircle
 10
-99.187490863278
 20
394.126908345715
 30
0.0
 40
9.0
100
AcDbArc
 50
290.141607259725
 51
323.442690238081
  0
CIRCLE
  5
15B
100
AcDbEntity
  8
0
370
          15
  6
Continuous
 62
           7
100
AcDbCircle
 10
-99.187490863278
 20
394.126908345715
 30
0.0
 40
3.1
  0
ARC
  5
15C
100
AcDbEntity
  8
0
370
          15
  6
Continuous
 62
           7
100
AcDbCircle
 10
295.812509136722
 20
394.126908345716
 30
0.0
 40
9.0
100
AcDbArc
 50
290.141607259724
 51
305.932307784486
  0
ARC
  5
15D
100
AcDbEntity
  8
0
370
          15
  6
Continuous
 62
           7
100
AcDbCircle
 10
295.812509136722
 20
394.126908345716
 30
0.0
 40
9.0
100
AcDbArc
 50
216.55730976192
 51
249.858392740275
  0
CIRCLE
  5
15E
100
AcDbEntity
  8
0
370
          15
  6
Continuous
 62
           7
100
AcDbCircle
 10
295.812509136722
 20
394.126908345716
 30
0.0
 40
3.1
  0
ARC
  5
15F
100
AcDbEntity
  8
0
370
          15
  6
Continuous
 62
           7
100
AcDbCircle
 10
295.812509136722
 20
394.126908345716
 30
0.0
 40
9.0
100
AcDbArc
 50
54.067692215514
 51
149.442690238078
  0
LINE
  5
160
100
AcDbEntity
  8
0
370
          15
  6
Continuous
 62
           7
100
AcDbLine
 10
288.06242056422
 20
398.702501221197
 30
0.0
 11
288.5831565433
 21
388.766272826688
 31
0.0
  0
ARC
  5
161
100
AcDbEntity
  8
0
370
          15
  6
Continuous
 62
           7
100
AcDbCircle
 10
295.812509136723
 20
139.126908345716
 30
0.0
 40
9.0
100
AcDbArc
 50
54.067692215515
 51
69.858392740276
  0
ARC
  5
162
100
AcDbEntity
  8
0
370
          15
  6
Continuous
 62
           7
100
AcDbCircle
 10
295.812509136723
 20
139.126908345716
 30
0.0
 40
9.0
100
AcDbArc
 50
212.621742243871
 51
305.932307784487
  0
ARC
  5
163
100
AcDbEntity
  8
0
370
          15
  6
Continuous
 62
           7
100
AcDbCircle
 10
295.812509136723
 20
139.126908345716
 30
0.0
 40
9.0
100
AcDbArc
 50
110.141607259724
 51
141.37825775613
  0
CIRCLE
  5
164
100
AcDbEntity
  8
0
370
          15
  6
Continuous
 62
           7
100
AcDbCircle
 10
295.812509136723
 20
139.126908345716
 30
0.0
 40
3.1
  0
ARC
  5
165
100
AcDbEntity
  8
0
370
          15
  6
Continuous
 62
           7
100
AcDbCircle
 10
-99.187490863277
 20
139.126908345715
 30
0.0
 40
9.0
100
AcDbArc
 50
234.067692215516
 51
327.378257756121
  0
ARC
  5
166
100
AcDbEntity
  8
0
370
          15
  6
Continuous
 62
           7
100
AcDbCircle
 10
-99.187490863277
 20
139.126908345715
 30
0.0
 40
9.0
100
AcDbArc
 50
38.621742243883
 51
69.858392740275
  0
CIRCLE
  5
167
100
AcDbEntity
  8
0
370
          15
  6
Continuous
 62
           7
100
AcDbCircle
 10
-99.187490863277
 20
139.126908345715
 30
0.0
 40
3.1
  0
ARC
  5
168
100
AcDbEntity
  8
0
370
          15
  6
Continuous
 62
           7
100
AcDbCircle
 10
-99.187490863277
 20
139.126908345715
 30
0.0
 40
9.0
100
AcDbArc
 50
110.141607259725
 51
125.932307784486
  0
CIRCLE
  5
169
100
AcDbEntity
  8
0
370
          15
  6
Continuous
 62
           7
100
AcDbCircle
 10
295.812509136722
 20
414.126908345716
 30
0.0
 40
4.0
  0
CIRCLE
  5
16A
100
AcDbEntity
  8
0
370
          15
  6
Continuous
 62
           7
100
AcDbCircle
 10
-99.187490863278
 20
414.126908345715
 30
0.0
 40
4.0
  0
CIRCLE
  5
16B
100
AcDbEntity
  8
0
370
          15
  6
Continuous
 62
           7
100
AcDbCircle
 10
-99.187490863277
 20
119.126908345715
 30
0.0
 40
4.0
  0
CIRCLE
  5
16C
100
AcDbEntity
  8
0
370
          15
  6
Continuous
 62
           7
100
AcDbCircle
 10
295.812509136723
 20
119.126908345716
 30
0.0
 40
4.0
  0
LINE
  5
16D
100
AcDbEntity
  8
0
370
          15
  6
Continuous
 62
           7
100
AcDbLine
 10
-331.184182988952
 20
134.126915498273
 30
0.0
 11
-329.184193836998
 21
134.126915498273
 31
0.0
  0
LINE
  5
16E
100
AcDbEntity
  8
0
370
          15
  6
Continuous
 62
           7
100
AcDbLine
 10
-329.184193836998
 20
156.626908941763
 30
0.0
 11
-331.184182988952
 21
156.626908941763
 31
0.0
  0
LINE
  5
16F
100
AcDbEntity
  8
0
370
          15
  6
Continuous
 62
           7
100
AcDbLine
 10
-331.184182988953
 20
376.62690774967
 30
0.0
 11
-329.184193836998
 21
376.62690774967
 31
0.0
  0
LINE
  5
170
100
AcDbEntity
  8
0
370
          15
  6
Continuous
 62
           7
100
AcDbLine
 10
-329.184193836999
 20
399.126901193159
 30
0.0
 11
-331.184182988953
 21
399.126901193159
 31
0.0
  0
LINE
  5
171
100
AcDbEntity
  8
0
370
          15
  6
Continuous
 62
           7
100
AcDbLine
 10
-331.184182988953
 20
171.626909537809
 30
0.0
 11
-329.184193836998
 21
171.626909537809
 31
0.0
  0
LINE
  5
172
100
AcDbEntity
  8
0
370
          15
  6
Continuous
 62
           7
100
AcDbLine
 10
-329.184193836998
 20
186.626910133855
 30
0.0
 11
-331.184182988953
 21
186.626910133855
 31
0.0
  0
LINE
  5
173
100
AcDbEntity
  8
0
370
          15
  6
Continuous
 62
           7
100
AcDbLine
 10
-331.184182988953
 20
341.626911325948
 30
0.0
 11
-329.184193836998
 21
341.626911325948
 31
0.0
  0
LINE
  5
174
100
AcDbEntity
  8
0
370
          15
  6
Continuous
 62
           7
100
AcDbLine
 10
-329.184193836998
 20
356.626911921995
 30
0.0
 11
-331.184182988953
 21
356.626911921995
 31
0.0
  0
LINE
  5
175
100
AcDbEntity
  8
0
370
          15
  6
Continuous
 62
           7
100
AcDbLine
 10
-331.184182988952
 20
114.126904769437
 30
0.0
 11
-329.184193836998
 21
114.126904769437
 31
0.0
  0
LINE
  5
176
100
AcDbEntity
  8
0
370
          15
  6
Continuous
 62
           7
100
AcDbLine
 10
-329.184193836998
 20
124.126910133855
 30
0.0
 11
-331.184182988952
 21
124.126910133855
 31
0.0
  0
LINE
  5
177
100
AcDbEntity
  8
0
370
          15
  6
Continuous
 62
           7
100
AcDbLine
 10
-331.184182988953
 20
409.126906557577
 30
0.0
 11
-329.184193836998
 21
409.126906557577
 31
0.0
  0
LINE
  5
178
100
AcDbEntity
  8
0
370
          15
  6
Continuous
 62
           7
100
AcDbLine
 10
-329.184193836998
 20
419.126911921995
 30
0.0
 11
-331.184182988953
 21
419.126911921995
 31
0.0
  0
LINE
  5
179
100
AcDbEntity
  8
0
370
          15
  6
Continuous
 62
           7
100
AcDbLine
 10
-466.18418835337
 20
109.126909537808
 30
0.0
 11
-466.18418835337
 21
111.726506515042
 31
0.0
  0
LINE
  5
17A
100
AcDbEntity
  8
0
370
          15
  6
Continuous
 62
           7
100
AcDbLine
 10
-466.18418835337
 20
111.726506515042
 30
0.0
 11
-333.738808261703
 21
114.038362069624
 31
0.0
  0
ARC
  5
17B
100
AcDbEntity
  8
0
370
          15
  6
Continuous
 62
           7
100
AcDbCircle
 10
-376.166204865896
 20
112.559100881701
 30
0.0
 40
42.45317651568
100
AcDbArc
 50
358.003150999576
 51
1.99684900043
  0
LINE
  5
17C
100
AcDbEntity
  8
0
370
          15
  6
Continuous
 62
           7
100
AcDbLine
 10
-333.738808261703
 20
111.438750191228
 30
0.0
 11
-466.18418835337
 21
109.126909537808
 31
0.0
  0
LINE
  5
17D
100
AcDbEntity
  8
0
370
          15
  6
Continuous
 62
           7
100
AcDbLine
 10
-466.18418835337
 20
111.726506515042
 30
0.0
 11
-466.184188353371
 21
421.527310176389
 31
0.0
  0
LINE
  5
17E
100
AcDbEntity
  8
0
370
          15
  6
Continuous
 62
           7
100
AcDbLine
 10
-333.738808261704
 20
419.215454621809
 30
0.0
 11
-466.184188353371
 21
421.527310176389
 31
0.0
  0
LINE
  5
17F
100
AcDbEntity
  8
0
370
          15
  6
Continuous
 62
           7
100
AcDbLine
 10
-333.738808261703
 20
114.038362069624
 30
0.0
 11
-333.738808261704
 21
419.215454621809
 31
0.0
  0
LINE
  5
180
100
AcDbEntity
  8
0
370
          15
  6
Continuous
 62
           7
100
AcDbLine
 10
-466.184188353371
 20
424.126907153623
 30
0.0
 11
-333.738808261704
 21
421.815066500204
 31
0.0
  0
ARC
  5
181
100
AcDbEntity
  8
0
370
          15
  6
Continuous
 62
           7
100
AcDbCircle
 10
-376.166204864751
 20
420.694715809748
 30
0.0
 40
42.453176514537
100
AcDbArc
 50
358.003150999494
 51
1.996849000507
  0
LINE
  5
182
100
AcDbEntity
  8
0
370
          15
  6
Continuous
 62
           7
100
AcDbLine
 10
-466.184188353371
 20
421.527310176389
 30
0.0
 11
-466.184188353371
 21
424.126907153623
 31
0.0
  0
LINE
  5
183
100
AcDbEntity
  8
0
370
          15
  6
Continuous
 62
           7
100
AcDbLine
 10
-333.738808261703
 20
114.038362069624
 30
0.0
 11
-331.184182988952
 21
114.038362069624
 31
0.0
  0
ARC
  5
184
100
AcDbEntity
  8
0
370
          15
  6
Continuous
 62
           7
100
AcDbCircle
 10
-333.78418835337
 20
114.038354995126
 30
0.0
 40
2.6
100
AcDbArc
 50
271.000000000002
 51
359.999999999999
  0
LINE
  5
185
100
AcDbEntity
  8
0
370
          15
  6
Continuous
 62
           7
100
AcDbLine
 10
-333.738808261704
 20
419.215454621809
 30
0.0
 11
-331.184182988953
 21
419.215454621809
 31
0.0
  0
LINE
  5
186
100
AcDbEntity
  8
0
370
          15
  6
Continuous
 62
           7
100
AcDbLine
 10
-331.184182988953
 20
419.215454621809
 30
0.0
 11
-331.184182988952
 21
114.038362069624
 31
0.0
  0
ARC
  5
187
100
AcDbEntity
  8
0
370
          15
  6
Continuous
 62
           7
100
AcDbCircle
 10
-333.784188353371
 20
419.215461696306
 30
0.0
 40
2.6
100
AcDbArc
 50
0.0
 51
89.0
  0
LINE
  5
188
100
AcDbEntity
  8
0
370
          15
  6
Continuous
 62
           7
100
AcDbLine
 10
-329.184193836998
 20
139.126910729902
 30
0.0
 11
-331.184182988952
 21
139.126910729902
 31
0.0
  0
LINE
  5
189
100
AcDbEntity
  8
0
370
          15
  6
Continuous
 62
           7
100
AcDbLine
 10
-329.184193836998
 20
139.126910729902
 30
0.0
 11
-329.184193836998
 21
134.126915498273
 31
0.0
  0
LINE
  5
18A
100
AcDbEntity
  8
0
370
          15
  6
Continuous
 62
           7
100
AcDbLine
 10
-329.184193836998
 20
151.626906259554
 30
0.0
 11
-331.184182988952
 21
151.626906259554
 31
0.0
  0
LINE
  5
18B
100
AcDbEntity
  8
0
370
          15
  6
Continuous
 62
           7
100
AcDbLine
 10
-329.184193836998
 20
151.626906259554
 30
0.0
 11
-329.184193836998
 21
139.126910729902
 31
0.0
  0
LINE
  5
18C
100
AcDbEntity
  8
0
370
          15
  6
Continuous
 62
           7
100
AcDbLine
 10
-329.184193836998
 20
156.626908941763
 30
0.0
 11
-329.184193836998
 21
151.626906259554
 31
0.0
  0
LINE
  5
18D
100
AcDbEntity
  8
0
370
          15
  6
Continuous
 62
           7
100
AcDbLine
 10
-329.184193836999
 20
394.12690596153
 30
0.0
 11
-331.184182988953
 21
394.12690596153
 31
0.0
  0
LINE
  5
18E
100
AcDbEntity
  8
0
370
          15
  6
Continuous
 62
           7
100
AcDbLine
 10
-329.184193836999
 20
394.12690596153
 30
0.0
 11
-329.184193836998
 21
381.626910431879
 31
0.0
  0
LINE
  5
18F
100
AcDbEntity
  8
0
370
          15
  6
Continuous
 62
           7
100
AcDbLine
 10
-329.184193836998
 20
381.626910431879
 30
0.0
 11
-331.184182988953
 21
381.626910431879
 31
0.0
  0
LINE
  5
190
100
AcDbEntity
  8
0
370
          15
  6
Continuous
 62
           7
100
AcDbLine
 10
-329.184193836998
 20
381.626910431879
 30
0.0
 11
-329.184193836998
 21
376.62690774967
 31
0.0
  0
LINE
  5
191
100
AcDbEntity
  8
0
370
          15
  6
Continuous
 62
           7
100
AcDbLine
 10
-329.184193836999
 20
399.126901193159
 30
0.0
 11
-329.184193836999
 21
394.12690596153
 31
0.0
  0
LINE
  5
192
100
AcDbEntity
  8
0
370
          15
  6
Continuous
 62
           7
100
AcDbLine
 10
-329.184193836998
 20
186.626910133855
 30
0.0
 11
-329.184193836998
 21
171.626909537809
 31
0.0
  0
LINE
  5
193
100
AcDbEntity
  8
0
370
          15
  6
Continuous
 62
           7
100
AcDbLine
 10
-329.184193836998
 20
356.626911921995
 30
0.0
 11
-329.184193836998
 21
341.626911325948
 31
0.0
  0
LINE
  5
194
100
AcDbEntity
  8
0
370
          15
  6
Continuous
 62
           7
100
AcDbLine
 10
-485.184187742423
 20
264.126908401595
 30
0.0
 11
-466.184188353371
 21
264.126908401595
 31
0.0
  0
LINE
  5
195
100
AcDbEntity
  8
0
370
          15
  6
Continuous
 62
           7
100
AcDbLine
 10
-485.184187742423
 20
132.169916196362
 30
0.0
 11
-485.184187742423
 21
264.126908401595
 31
0.0
  0
LINE
  5
196
100
AcDbEntity
  8
0
370
          15
  6
Continuous
 62
           7
100
AcDbLine
 10
-485.184187742423
 20
264.126908401595
 30
0.0
 11
-485.184187742424
 21
396.08390526344
 31
0.0
  0
LINE
  5
197
100
AcDbEntity
  8
0
370
          15
  6
Continuous
 62
           7
100
AcDbLine
 10
-466.18418835337
 20
126.626907749669
 30
0.0
 11
-485.184187742423
 21
126.958547993199
 31
0.0
  0
LINE
  5
198
100
AcDbEntity
  8
0
370
          15
  6
Continuous
 62
           7
100
AcDbLine
 10
-485.184187742423
 20
126.958547993199
 30
0.0
 11
-485.184187742423
 21
132.169916196362
 31
0.0
  0
LINE
  5
199
100
AcDbEntity
  8
0
370
          15
  6
Continuous
 62
           7
100
AcDbLine
 10
-485.184187742424
 20
401.295258565442
 30
0.0
 11
-466.184188353371
 21
401.626913710134
 31
0.0
  0
LINE
  5
19A
100
AcDbEntity
  8
0
370
          15
  6
Continuous
 62
           7
100
AcDbLine
 10
-485.184187742424
 20
396.08390526344
 30
0.0
 11
-485.184187742424
 21
401.295258565442
 31
0.0
  0
LINE
  5
19B
100
AcDbEntity
  8
0
370
          15
  6
Continuous
 62
           7
100
AcDbLine
 10
-329.184193836998
 20
124.126910133855
 30
0.0
 11
-329.184193836998
 21
114.126904769437
 31
0.0
  0
LINE
  5
19C
100
AcDbEntity
  8
0
370
          15
  6
Continuous
 62
           7
100
AcDbLine
 10
-329.184193836998
 20
414.126901789205
 30
0.0
 11
-329.184193836998
 21
409.126906557577
 31
0.0
  0
LINE
  5
19D
100
AcDbEntity
  8
0
370
          15
  6
Continuous
 62
           7
100
AcDbLine
 10
-329.184193836998
 20
419.126911921995
 30
0.0
 11
-329.184193836998
 21
414.126901789205
 31
0.0
  0
ARC
  5
19E
100
AcDbEntity
  8
0
370
          15
  6
Continuous
 62
           7
100
AcDbCircle
 10
-483.684188353371
 20
419.284478079414
 30
0.0
 40
3.5
100
AcDbArc
 50
92.000000000001
 51
180.0
  0
LINE
  5
19F
100
AcDbEntity
  8
0
370
          15
  6
Continuous
 62
           7
100
AcDbLine
 10
-466.184188353371
 20
423.397718830602
 30
0.0
 11
-483.806336971473
 21
422.782345576779
 31
0.0
  0
LINE
  5
1A0
100
AcDbEntity
  8
0
370
          15
  6
Continuous
 62
           7
100
AcDbLine
 10
-487.184188070249
 20
412.233873172299
 30
0.0
 11
-485.185405912351
 21
410.090445442693
 31
0.0
  0
LINE
  5
1A1
100
AcDbEntity
  8
0
370
          15
  6
Continuous
 62
           7
100
AcDbLine
 10
-487.184188070249
 20
419.284476800458
 30
0.0
 11
-487.184188070249
 21
412.233873172299
 31
0.0
  0
LINE
  5
1A2
100
AcDbEntity
  8
0
370
          15
  6
Continuous
 62
           7
100
AcDbLine
 10
-485.185405912351
 20
410.090445442693
 30
0.0
 11
-466.184188353371
 21
409.426911635892
 31
0.0
  0
LINE
  5
1A3
100
AcDbEntity
  8
0
370
          15
  6
Continuous
 62
           7
100
AcDbLine
 10
-479.184188621591
 20
117.185472412602
 30
0.0
 11
-479.184188621591
 21
126.853822632328
 31
0.0
  0
LINE
  5
1A4
100
AcDbEntity
  8
0
370
          15
  6
Continuous
 62
           7
100
AcDbLine
 10
-479.184188621591
 20
117.185472412602
 30
0.0
 11
-466.18418835337
 21
116.958557529942
 31
0.0
  0
LINE
  5
1A5
100
AcDbEntity
  8
0
370
          15
  6
Continuous
 62
           7
100
AcDbLine
 10
-487.184188070248
 20
412.16024653484
 30
0.0
 11
-486.166733058642
 21
411.142795248524
 31
0.0
  0
LINE
  5
1A6
100
AcDbEntity
  8
0
370
          15
  6
Continuous
 62
           7
100
AcDbLine
 10
-487.184188070248
 20
412.233873172298
 30
0.0
 11
-487.184188070248
 21
412.16024653484
 31
0.0
  0
LINE
  5
1A7
100
AcDbEntity
  8
0
370
          15
  6
Continuous
 62
           7
100
AcDbLine
 10
-485.184187742423
 20
132.169916196362
 30
0.0
 11
-466.18418835337
 21
131.838261051671
 31
0.0
  0
LINE
  5
1A8
100
AcDbEntity
  8
0
370
          15
  6
Continuous
 62
           7
100
AcDbLine
 10
-466.184188353371
 20
396.415545506971
 30
0.0
 11
-485.184187742424
 21
396.08390526344
 31
0.0
  0
CIRCLE
  5
1A9
100
AcDbEntity
  8
0
370
          15
  6
Continuous
 62
           7
100
AcDbCircle
 10
-660.589076068034
 20
151.626908345715
 30
0.0
 40
2.6
  0
LINE
  5
1AA
100
AcDbEntity
  8
0
370
          15
  6
Continuous
 62
           7
100
AcDbLine
 10
-655.589075471988
 20
139.126910729901
 30
0.0
 11
-655.589075471988
 21
151.626906259552
 31
0.0
  0
ARC
  5
1AB
100
AcDbEntity
  8
0
370
          15
  6
Continuous
 62
           7
100
AcDbCircle
 10
-660.589076068034
 20
139.126908345715
 30
0.0
 40
5.0
100
AcDbArc
 50
180.0
 51
360.0
  0
LINE
  5
1AC
100
AcDbEntity
  8
0
370
          15
  6
Continuous
 62
           7
100
AcDbLine
 10
-665.589080836406
 20
151.626906259552
 30
0.0
 11
-665.589080836406
 21
139.126910729901
 31
0.0
  0
ARC
  5
1AD
100
AcDbEntity
  8
0
370
          15
  6
Continuous
 62
           7
100
AcDbCircle
 10
-660.589076068034
 20
151.626908345715
 30
0.0
 40
5.0
100
AcDbArc
 50
0.0
 51
180.0
  0
CIRCLE
  5
1AE
100
AcDbEntity
  8
0
370
          15
  6
Continuous
 62
           7
100
AcDbCircle
 10
-660.589076068034
 20
139.126908345715
 30
0.0
 40
3.1
  0
CIRCLE
  5
1AF
100
AcDbEntity
  8
0
370
          15
  6
Continuous
 62
           7
100
AcDbCircle
 10
-693.089076068034
 20
119.126908345715
 30
0.0
 40
3.6
  0
CIRCLE
  5
1B0
100
AcDbEntity
  8
0
370
          15
  6
Continuous
 62
           7
100
AcDbCircle
 10
-693.089076068034
 20
119.126908345715
 30
0.0
 40
5.0
  0
CIRCLE
  5
1B1
100
AcDbEntity
  8
0
370
          15
  6
Continuous
 62
           7
100
AcDbCircle
 10
-671.789076068034
 20
179.126908345715
 30
0.0
 40
3.0
  0
CIRCLE
  5
1B2
100
AcDbEntity
  8
0
370
          15
  6
Continuous
 62
           7
100
AcDbCircle
 10
-671.789076068034
 20
179.126908345715
 30
0.0
 40
7.5
  0
CIRCLE
  5
1B3
100
AcDbEntity
  8
0
370
          15
  6
Continuous
 62
           7
100
AcDbCircle
 10
-671.789076068034
 20
349.126908345715
 30
0.0
 40
3.0
  0
CIRCLE
  5
1B4
100
AcDbEntity
  8
0
370
          15
  6
Continuous
 62
           7
100
AcDbCircle
 10
-671.789076068034
 20
349.126908345715
 30
0.0
 40
7.5
  0
CIRCLE
  5
1B5
100
AcDbEntity
  8
0
370
          15
  6
Continuous
 62
           7
100
AcDbCircle
 10
-660.589076068033
 20
394.126908345715
 30
0.0
 40
3.1
  0
LINE
  5
1B6
100
AcDbEntity
  8
0
370
          15
  6
Continuous
 62
           7
100
AcDbLine
 10
-655.589075471987
 20
381.626910431877
 30
0.0
 11
-655.589075471987
 21
394.126905961529
 31
0.0
  0
LINE
  5
1B7
100
AcDbEntity
  8
0
370
          15
  6
Continuous
 62
           7
100
AcDbLine
 10
-665.589080836405
 20
394.126905961529
 30
0.0
 11
-665.589080836405
 21
381.626910431877
 31
0.0
  0
ARC
  5
1B8
100
AcDbEntity
  8
0
370
          15
  6
Continuous
 62
           7
100
AcDbCircle
 10
-660.589076068033
 20
394.126908345715
 30
0.0
 40
5.0
100
AcDbArc
 50
0.0
 51
180.0
  0
CIRCLE
  5
1B9
100
AcDbEntity
  8
0
370
          15
  6
Continuous
 62
           7
100
AcDbCircle
 10
-660.589076068033
 20
381.626908345715
 30
0.0
 40
2.6
  0
ARC
  5
1BA
100
AcDbEntity
  8
0
370
          15
  6
Continuous
 62
           7
100
AcDbCircle
 10
-660.589076068033
 20
381.626908345715
 30
0.0
 40
5.0
100
AcDbArc
 50
180.0
 51
360.0
  0
CIRCLE
  5
1BB
100
AcDbEntity
  8
0
370
          15
  6
Continuous
 62
           7
100
AcDbCircle
 10
-693.089076068033
 20
414.126908345715
 30
0.0
 40
3.6
  0
CIRCLE
  5
1BC
100
AcDbEntity
  8
0
370
          15
  6
Continuous
 62
           7
100
AcDbCircle
 10
-693.089076068033
 20
414.126908345715
 30
0.0
 40
5.0
  0
CIRCLE
  5
1BD
100
AcDbEntity
  8
0
370
          15
  6
Continuous
 62
           7
100
AcDbCircle
 10
-1023.089076068034
 20
119.126908345716
 30
0.0
 40
3.6
  0
CIRCLE
  5
1BE
100
AcDbEntity
  8
0
370
          15
  6
Continuous
 62
           7
100
AcDbCircle
 10
-1023.089076068034
 20
119.126908345716
 30
0.0
 40
5.0
  0
CIRCLE
  5
1BF
100
AcDbEntity
  8
0
370
          15
  6
Continuous
 62
           7
100
AcDbCircle
 10
-1055.589076068034
 20
139.126908345716
 30
0.0
 40
3.1
  0
LINE
  5
1C0
100
AcDbEntity
  8
0
370
          15
  6
Continuous
 62
           7
100
AcDbLine
 10
-1060.589076664081
 20
151.626906259554
 30
0.0
 11
-1060.589076664081
 21
139.126910729902
 31
0.0
  0
ARC
  5
1C1
100
AcDbEntity
  8
0
370
          15
  6
Continuous
 62
           7
100
AcDbCircle
 10
-1055.589076068034
 20
151.626908345716
 30
0.0
 40
5.0
100
AcDbArc
 50
0.0
 51
180.0
  0
LINE
  5
1C2
100
AcDbEntity
  8
0
370
          15
  6
Continuous
 62
           7
100
AcDbLine
 10
-1050.589071299663
 20
139.126910729902
 30
0.0
 11
-1050.589071299663
 21
151.626906259554
 31
0.0
  0
ARC
  5
1C3
100
AcDbEntity
  8
0
370
          15
  6
Continuous
 62
           7
100
AcDbCircle
 10
-1055.589076068034
 20
139.126908345716
 30
0.0
 40
5.0
100
AcDbArc
 50
180.0
 51
360.0
  0
CIRCLE
  5
1C4
100
AcDbEntity
  8
0
370
          15
  6
Continuous
 62
           7
100
AcDbCircle
 10
-1055.589076068034
 20
151.626908345716
 30
0.0
 40
2.6
  0
CIRCLE
  5
1C5
100
AcDbEntity
  8
0
370
          15
  6
Continuous
 62
           7
100
AcDbCircle
 10
-1046.789076068034
 20
179.126908345716
 30
0.0
 40
3.0
  0
CIRCLE
  5
1C6
100
AcDbEntity
  8
0
370
          15
  6
Continuous
 62
           7
100
AcDbCircle
 10
-1046.789076068034
 20
179.126908345716
 30
0.0
 40
7.5
  0
CIRCLE
  5
1C7
100
AcDbEntity
  8
0
370
          15
  6
Continuous
 62
           7
100
AcDbCircle
 10
-1046.789076068034
 20
349.126908345716
 30
0.0
 40
3.0
  0
CIRCLE
  5
1C8
100
AcDbEntity
  8
0
370
          15
  6
Continuous
 62
           7
100
AcDbCircle
 10
-1046.789076068034
 20
349.126908345716
 30
0.0
 40
7.5
  0
CIRCLE
  5
1C9
100
AcDbEntity
  8
0
370
          15
  6
Continuous
 62
           7
100
AcDbCircle
 10
-1023.089076068033
 20
414.126908345716
 30
0.0
 40
3.6
  0
CIRCLE
  5
1CA
100
AcDbEntity
  8
0
370
          15
  6
Continuous
 62
           7
100
AcDbCircle
 10
-1023.089076068033
 20
414.126908345716
 30
0.0
 40
5.0
  0
CIRCLE
  5
1CB
100
AcDbEntity
  8
0
370
          15
  6
Continuous
 62
           7
100
AcDbCircle
 10
-1055.589076068033
 20
381.626908345716
 30
0.0
 40
2.6
  0
LINE
  5
1CC
100
AcDbEntity
  8
0
370
          15
  6
Continuous
 62
           7
100
AcDbLine
 10
-1060.58907666408
 20
394.12690596153
 30
0.0
 11
-1060.58907666408
 21
381.626910431879
 31
0.0
  0
ARC
  5
1CD
100
AcDbEntity
  8
0
370
          15
  6
Continuous
 62
           7
100
AcDbCircle
 10
-1055.589076068033
 20
394.126908345716
 30
0.0
 40
5.0
100
AcDbArc
 50
0.0
 51
180.0
  0
LINE
  5
1CE
100
AcDbEntity
  8
0
370
          15
  6
Continuous
 62
           7
100
AcDbLine
 10
-1050.589071299662
 20
381.626910431879
 30
0.0
 11
-1050.589071299662
 21
394.12690596153
 31
0.0
  0
ARC
  5
1CF
100
AcDbEntity
  8
0
370
          15
  6
Continuous
 62
           7
100
AcDbCircle
 10
-1055.589076068033
 20
381.626908345716
 30
0.0
 40
5.0
100
AcDbArc
 50
180.0
 51
360.0
  0
CIRCLE
  5
1D0
100
AcDbEntity
  8
0
370
          15
  6
Continuous
 62
           7
100
AcDbCircle
 10
-1055.589076068033
 20
394.126908345716
 30
0.0
 40
3.1
  0
LINE
  5
1D1
100
AcDbEntity
  8
0
370
          15
  6
Continuous
 62
           7
100
AcDbLine
 10
-655.500517871013
 20
114.038362069622
 30
0.0
 11
-652.900920893779
 21
114.038362069622
 31
0.0
  0
ARC
  5
1D2
100
AcDbEntity
  8
0
370
          15
  6
Continuous
 62
           7
100
AcDbCircle
 10
-655.501515760547
 20
114.039345054935
 30
0.0
 40
2.600595055161
100
AcDbArc
 50
270.021985299109
 51
359.978191142879
  0
LINE
  5
1D3
100
AcDbEntity
  8
0
370
          15
  6
Continuous
 62
           7
100
AcDbLine
 10
-655.500517871013
 20
111.438750191227
 30
0.0
 11
-655.500517871013
 21
114.038362069622
 31
0.0
  0
LINE
  5
1D4
100
AcDbEntity
  8
0
370
          15
  6
Continuous
 62
           7
100
AcDbLine
 10
-655.500517871013
 20
114.038362069622
 30
0.0
 11
-655.500517871012
 21
419.215454621807
 31
0.0
  0
LINE
  5
1D5
100
AcDbEntity
  8
0
370
          15
  6
Continuous
 62
           7
100
AcDbLine
 10
-655.500517871012
 20
419.215454621807
 30
0.0
 11
-652.900920893778
 21
419.215454621807
 31
0.0
  0
LINE
  5
1D6
100
AcDbEntity
  8
0
370
          15
  6
Continuous
 62
           7
100
AcDbLine
 10
-652.900920893778
 20
419.215454621807
 30
0.0
 11
-652.900920893779
 21
114.038362069622
 31
0.0
  0
LINE
  5
1D7
100
AcDbEntity
  8
0
370
          15
  6
Continuous
 62
           7
100
AcDbLine
 10
-655.500517871013
 20
111.438750191227
 30
0.0
 11
-1060.677634265056
 21
111.438750191228
 31
0.0
  0
LINE
  5
1D8
100
AcDbEntity
  8
0
370
          15
  6
Continuous
 62
           7
100
AcDbLine
 10
-1060.677634265056
 20
111.438750191228
 30
0.0
 11
-1060.677634265056
 21
114.038362069624
 31
0.0
  0
LINE
  5
1D9
100
AcDbEntity
  8
0
370
          15
  6
Continuous
 62
           7
100
AcDbLine
 10
-1060.677634265056
 20
114.038362069624
 30
0.0
 11
-655.500517871013
 21
114.038362069622
 31
0.0
  0
CIRCLE
  5
1DA
100
AcDbEntity
  8
0
370
          15
  6
Continuous
 62
           7
100
AcDbCircle
 10
-1055.589076068033
 20
414.126908345716
 30
0.0
 40
4.0
  0
CIRCLE
  5
1DB
100
AcDbEntity
  8
0
370
          15
  6
Continuous
 62
           7
100
AcDbCircle
 10
-1055.589076068034
 20
119.126908345716
 30
0.0
 40
4.0
  0
CIRCLE
  5
1DC
100
AcDbEntity
  8
0
370
          15
  6
Continuous
 62
           7
100
AcDbCircle
 10
-660.589076068033
 20
414.126908345715
 30
0.0
 40
4.0
  0
LINE
  5
1DD
100
AcDbEntity
  8
0
370
          15
  6
Continuous
 62
           7
100
AcDbLine
 10
-1060.677634265055
 20
419.215454621809
 30
0.0
 11
-1060.677634265056
 21
114.038362069624
 31
0.0
  0
LINE
  5
1DE
100
AcDbEntity
  8
0
370
          15
  6
Continuous
 62
           7
100
AcDbLine
 10
-655.500517871012
 20
419.215454621807
 30
0.0
 11
-1060.677634265055
 21
419.215454621809
 31
0.0
  0
CIRCLE
  5
1DF
100
AcDbEntity
  8
0
370
          15
  6
Continuous
 62
           7
100
AcDbCircle
 10
-660.589076068034
 20
119.126908345715
 30
0.0
 40
4.0
  0
LINE
  5
1E0
100
AcDbEntity
  8
0
370
          15
  6
Continuous
 62
           7
100
AcDbLine
 10
-655.500517871012
 20
419.215454621807
 30
0.0
 11
-655.500517871012
 21
421.815066500202
 31
0.0
  0
ARC
  5
1E1
100
AcDbEntity
  8
0
370
          15
  6
Continuous
 62
           7
100
AcDbCircle
 10
-655.501515760538
 20
419.214471636491
 30
0.0
 40
2.600595055164
100
AcDbArc
 50
0.021809552002
 51
89.978014701076
  0
LINE
  5
1E2
100
AcDbEntity
  8
0
370
          15
  6
Continuous
 62
           7
100
AcDbLine
 10
-1060.677634265055
 20
419.215454621809
 30
0.0
 11
-1060.677634265055
 21
421.815066500204
 31
0.0
  0
LINE
  5
1E3
100
AcDbEntity
  8
0
370
          15
  6
Continuous
 62
           7
100
AcDbLine
 10
-1060.677634265055
 20
421.815066500204
 30
0.0
 11
-655.500517871012
 21
421.815066500202
 31
0.0
  0
LINE
  5
1E4
100
AcDbEntity
  8
0
370
          15
  6
Continuous
 62
           7
100
AcDbLine
 10
-1063.27723124229
 20
114.038362069624
 30
0.0
 11
-1060.677634265056
 21
114.038362069624
 31
0.0
  0
ARC
  5
1E5
100
AcDbEntity
  8
0
370
          15
  6
Continuous
 62
           7
100
AcDbCircle
 10
-1060.676636375508
 20
114.039345054952
 30
0.0
 40
2.600595055176
100
AcDbArc
 50
180.021808976728
 51
269.978014700598
  0
LINE
  5
1E6
100
AcDbEntity
  8
0
370
          15
  6
Continuous
 62
           7
100
AcDbLine
 10
-1063.27723124229
 20
114.038362069624
 30
0.0
 11
-1063.277231242289
 21
419.215454621809
 31
0.0
  0
LINE
  5
1E7
100
AcDbEntity
  8
0
370
          15
  6
Continuous
 62
           7
100
AcDbLine
 10
-1063.277231242289
 20
419.215454621809
 30
0.0
 11
-1060.677634265055
 21
419.215454621809
 31
0.0
  0
ARC
  5
1E8
100
AcDbEntity
  8
0
370
          15
  6
Continuous
 62
           7
100
AcDbCircle
 10
-1060.676636375495
 20
419.214471636455
 30
0.0
 40
2.600595055202
100
AcDbArc
 50
90.021985299662
 51
179.978190235447
  0
ELLIPSE
  5
1E9
100
AcDbEntity
  8
0
370
          15
  6
Continuous
 62
           7
100
AcDbEllipse
 10
-653.189472120947
 20
111.727304398628
 30
0.0
 11
-1.8390376918406446
 21
1.8390376918412699
 31
0.0
210
0.0
220
0.0
230
1.0
 40
0.999695459882
 41
2.3563467834400869
 42
3.9268385237398888
  0
LINE
  5
1EA
100
AcDbEntity
  8
0
370
          15
  6
Continuous
 62
           7
100
AcDbLine
 10
-653.188677217593
 20
109.126909537807
 30
0.0
 11
-655.500517871013
 21
111.438750191227
 31
0.0
  0
LINE
  5
1EB
100
AcDbEntity
  8
0
370
          15
  6
Continuous
 62
           7
100
AcDbLine
 10
-652.900920893779
 20
114.038362069622
 30
0.0
 11
-650.589080240359
 21
111.726506515041
 31
0.0
  0
ELLIPSE
  5
1EC
100
AcDbEntity
  8
0
370
          15
  6
Continuous
 62
           7
100
AcDbEllipse
 10
-653.189472120946
 20
421.5265122928
 30
0.0
 11
1.8390376918410993
 21
1.8390376918405877
 31
0.0
210
0.0
220
0.0
230
1.0
 40
0.999695459882
 41
5.4979394370298023
 42
7.068431177329626
  0
LINE
  5
1ED
100
AcDbEntity
  8
0
370
          15
  6
Continuous
 62
           7
100
AcDbLine
 10
-650.589080240357
 20
421.527310176387
 30
0.0
 11
-652.900920893778
 21
419.215454621807
 31
0.0
  0
LINE
  5
1EE
100
AcDbEntity
  8
0
370
          15
  6
Continuous
 62
           7
100
AcDbLine
 10
-655.500517871012
 20
421.815066500202
 30
0.0
 11
-653.188677217591
 21
424.126907153621
 31
0.0
  0
ELLIPSE
  5
1EF
100
AcDbEntity
  8
0
370
          15
  6
Continuous
 62
           7
100
AcDbEllipse
 10
-1062.988680015119
 20
111.72730439863
 30
0.0
 11
1.839037691841213
 21
1.8390376918406304
 31
0.0
210
0.0
220
0.0
230
1.0
 40
0.999695459882
 41
2.3563467834400256
 42
3.926838523739856
  0
LINE
  5
1F0
100
AcDbEntity
  8
0
370
          15
  6
Continuous
 62
           7
100
AcDbLine
 10
-1065.589071895708
 20
111.726506515042
 30
0.0
 11
-1063.27723124229
 21
114.038362069624
 31
0.0
  0
LINE
  5
1F1
100
AcDbEntity
  8
0
370
          15
  6
Continuous
 62
           7
100
AcDbLine
 10
-1060.677634265056
 20
111.438750191228
 30
0.0
 11
-1062.989474918474
 21
109.126909537808
 31
0.0
  0
ELLIPSE
  5
1F2
100
AcDbEntity
  8
0
370
          15
  6
Continuous
 62
           7
100
AcDbEllipse
 10
-1062.988680015119
 20
421.526512292802
 30
0.0
 11
-1.8390376918405309
 21
1.8390376918410993
 31
0.0
210
0.0
220
0.0
230
1.0
 40
0.999695459882
 41
5.4979394370298316
 42
7.0684311773296535
  0
LINE
  5
1F3
100
AcDbEntity
  8
0
370
          15
  6
Continuous
 62
           7
100
AcDbLine
 10
-1062.989474918473
 20
424.126907153623
 30
0.0
 11
-1060.677634265055
 21
421.815066500204
 31
0.0
  0
LINE
  5
1F4
100
AcDbEntity
  8
0
370
          15
  6
Continuous
 62
           7
100
AcDbLine
 10
-1063.277231242289
 20
419.215454621809
 30
0.0
 11
-1065.589071895707
 21
421.527310176389
 31
0.0
  0
LINE
  5
1F5
100
AcDbEntity
  8
0
370
          15
  6
Continuous
 62
           7
100
AcDbLine
 10
-653.188677217593
 20
109.126909537807
 30
0.0
 11
-1062.989474918474
 21
109.126909537808
 31
0.0
  0
LINE
  5
1F6
100
AcDbEntity
  8
0
370
          15
  6
Continuous
 62
           7
100
AcDbLine
 10
-650.589080240357
 20
421.527310176387
 30
0.0
 11
-650.589080240359
 21
111.726506515041
 31
0.0
  0
LINE
  5
1F7
100
AcDbEntity
  8
0
370
          15
  6
Continuous
 62
           7
100
AcDbLine
 10
-1062.989474918473
 20
424.126907153623
 30
0.0
 11
-653.188677217591
 21
424.126907153621
 31
0.0
  0
LINE
  5
1F8
100
AcDbEntity
  8
0
370
          15
  6
Continuous
 62
           7
100
AcDbLine
 10
-1065.589071895708
 20
111.726506515042
 30
0.0
 11
-1065.589071895707
 21
421.527310176389
 31
0.0
  0
CIRCLE
  5
1F9
100
AcDbEntity
  8
0
370
          15
  6
Continuous
 62
           7
100
AcDbCircle
 10
-660.589076068034
 20
151.626908345715
 30
0.0
 40
1.65
  0
CIRCLE
  5
1FA
100
AcDbEntity
  8
0
370
          15
  6
Continuous
 62
           7
100
AcDbCircle
 10
-693.089076068034
 20
119.126908345715
 30
0.0
 40
3.0
  0
CIRCLE
  5
1FB
100
AcDbEntity
  8
0
370
          15
  6
Continuous
 62
           7
100
AcDbCircle
 10
-660.589076068033
 20
381.626908345715
 30
0.0
 40
1.65
  0
CIRCLE
  5
1FC
100
AcDbEntity
  8
0
370
          15
  6
Continuous
 62
           7
100
AcDbCircle
 10
-693.089076068033
 20
414.126908345715
 30
0.0
 40
3.0
  0
CIRCLE
  5
1FD
100
AcDbEntity
  8
0
370
          15
  6
Continuous
 62
           7
100
AcDbCircle
 10
-1023.089076068034
 20
119.126908345716
 30
0.0
 40
3.0
  0
CIRCLE
  5
1FE
100
AcDbEntity
  8
0
370
          15
  6
Continuous
 62
           7
100
AcDbCircle
 10
-1055.589076068034
 20
151.626908345716
 30
0.0
 40
1.65
  0
CIRCLE
  5
1FF
100
AcDbEntity
  8
0
370
          15
  6
Continuous
 62
           7
100
AcDbCircle
 10
-1023.089076068033
 20
414.126908345716
 30
0.0
 40
3.0
  0
CIRCLE
  5
200
100
AcDbEntity
  8
0
370
          15
  6
Continuous
 62
           7
100
AcDbCircle
 10
-1055.589076068033
 20
381.626908345716
 30
0.0
 40
1.65
  0
LINE
  5
201
100
AcDbEntity
  8
0
370
          15
  6
Continuous
 62
           7
100
AcDbLine
 10
268.312510924861
 20
-58.174935695416
 30
0.0
 11
268.312510924861
 21
-56.174946543462
 31
0.0
  0
LINE
  5
202
100
AcDbEntity
  8
0
370
          15
  6
Continuous
 62
           7
100
AcDbLine
 10
258.312505560443
 20
-56.174946543462
 30
0.0
 11
258.312505560443
 21
-58.174935695416
 31
0.0
  0
LINE
  5
203
100
AcDbEntity
  8
0
370
          15
  6
Continuous
 62
           7
100
AcDbLine
 10
-61.687487286999
 20
-58.174935695416
 30
0.0
 11
-61.687487286999
 21
-56.174946543462
 31
0.0
  0
LINE
  5
204
100
AcDbEntity
  8
0
370
          15
  6
Continuous
 62
           7
100
AcDbLine
 10
-71.687492651418
 20
-56.174946543462
 30
0.0
 11
-71.687492651418
 21
-58.174935695416
 31
0.0
  0
LINE
  5
205
100
AcDbEntity
  8
0
370
          15
  6
Continuous
 62
           7
100
AcDbLine
 10
279.51250680022
 20
-56.174946543461
 30
0.0
 11
279.51250680022
 21
-58.174935695416
 31
0.0
  0
LINE
  5
206
100
AcDbEntity
  8
0
370
          15
  6
Continuous
 62
           7
100
AcDbLine
 10
-80.487492603734
 20
-58.174935695416
 30
0.0
 11
-80.487492603734
 21
-56.174946543461
 31
0.0
  0
LINE
  5
207
100
AcDbEntity
  8
0
370
          15
  6
Continuous
 62
           7
100
AcDbLine
 10
305.812504964397
 20
-193.174941059834
 30
0.0
 11
303.212907987163
 21
-193.174941059834
 31
0.0
  0
LINE
  5
208
100
AcDbEntity
  8
0
370
          15
  6
Continuous
 62
           7
100
AcDbLine
 10
303.212907987163
 20
-193.174941059834
 30
0.0
 11
300.901067333743
 21
-60.729560968167
 31
0.0
  0
ARC
  5
209
100
AcDbEntity
  8
0
370
          15
  6
Continuous
 62
           7
100
AcDbCircle
 10
302.380318048087
 20
-103.156631964814
 30
0.0
 40
42.452850740915
100
AcDbArc
 50
88.487767849013
 51
91.996850185981
  0
LINE
  5
20A
100
AcDbEntity
  8
0
370
          15
  6
Continuous
 62
           7
100
AcDbLine
 10
303.500664310977
 20
-60.729560968167
 30
0.0
 11
305.812504964397
 21
-193.174941059834
 31
0.0
  0
LINE
  5
20B
100
AcDbEntity
  8
0
370
          15
  6
Continuous
 62
           7
100
AcDbLine
 10
303.212907987163
 20
-193.174941059834
 30
0.0
 11
-106.587889713719
 21
-193.174941059834
 31
0.0
  0
LINE
  5
20C
100
AcDbEntity
  8
0
370
          15
  6
Continuous
 62
           7
100
AcDbLine
 10
-104.2760490603
 20
-60.729560968167
 30
0.0
 11
-106.587889713719
 21
-193.174941059834
 31
0.0
  0
LINE
  5
20D
100
AcDbEntity
  8
0
370
          15
  6
Continuous
 62
           7
100
AcDbLine
 10
300.901067333743
 20
-60.729560968167
 30
0.0
 11
-104.2760490603
 21
-60.729560968167
 31
0.0
  0
LINE
  5
20E
100
AcDbEntity
  8
0
370
          15
  6
Continuous
 62
           7
100
AcDbLine
 10
-109.187486690953
 20
-193.174941059834
 30
0.0
 11
-106.875646037534
 21
-60.729560968167
 31
0.0
  0
ARC
  5
20F
100
AcDbEntity
  8
0
370
          15
  6
Continuous
 62
           7
100
AcDbCircle
 10
-105.755299774643
 20
-103.156631971485
 30
0.0
 40
42.452850747582
100
AcDbArc
 50
88.003149814333
 51
91.51223215075
  0
LINE
  5
210
100
AcDbEntity
  8
0
370
          15
  6
Continuous
 62
           7
100
AcDbLine
 10
-106.587889713719
 20
-193.174941059834
 30
0.0
 11
-109.187486690953
 21
-193.174941059834
 31
0.0
  0
LINE
  5
211
100
AcDbEntity
  8
0
370
          15
  6
Continuous
 62
           7
100
AcDbLine
 10
235.812512116954
 20
-193.174941059834
 30
0.0
 11
235.812512116954
 21
-210.797089677936
 31
0.0
  0
LINE
  5
212
100
AcDbEntity
  8
0
370
          15
  6
Continuous
 62
           7
100
AcDbLine
 10
205.812510924861
 20
-210.797089677936
 30
0.0
 11
235.812512116954
 21
-210.797089677936
 31
0.0
  0
LINE
  5
213
100
AcDbEntity
  8
0
370
          15
  6
Continuous
 62
           7
100
AcDbLine
 10
205.812510924861
 20
-193.174941059834
 30
0.0
 11
205.812510924861
 21
-210.797089677936
 31
0.0
  0
LINE
  5
214
100
AcDbEntity
  8
0
370
          15
  6
Continuous
 62
           7
100
AcDbLine
 10
-39.18749384351
 20
-210.797089677936
 30
0.0
 11
-9.187492651418
 21
-210.797089677936
 31
0.0
  0
LINE
  5
215
100
AcDbEntity
  8
0
370
          15
  6
Continuous
 62
           7
100
AcDbLine
 10
-39.18749384351
 20
-193.174941059834
 30
0.0
 11
-39.18749384351
 21
-210.797089677936
 31
0.0
  0
LINE
  5
216
100
AcDbEntity
  8
0
370
          15
  6
Continuous
 62
           7
100
AcDbLine
 10
-9.187492651418
 20
-193.174941059834
 30
0.0
 11
-9.187492651418
 21
-210.797089677936
 31
0.0
  0
LINE
  5
217
100
AcDbEntity
  8
0
370
          15
  6
Continuous
 62
           7
100
AcDbLine
 10
235.812512116954
 20
-214.174940776712
 30
0.0
 11
205.812510924861
 21
-214.174940776712
 31
0.0
  0
LINE
  5
218
100
AcDbEntity
  8
0
370
          15
  6
Continuous
 62
           7
100
AcDbLine
 10
205.812510924861
 20
-214.174940776712
 30
0.0
 11
205.812510924861
 21
-210.797089677936
 31
0.0
  0
LINE
  5
219
100
AcDbEntity
  8
0
370
          15
  6
Continuous
 62
           7
100
AcDbLine
 10
235.812512116954
 20
-210.797089677936
 30
0.0
 11
235.812512116954
 21
-214.174940776712
 31
0.0
  0
LINE
  5
21A
100
AcDbEntity
  8
0
370
          15
  6
Continuous
 62
           7
100
AcDbLine
 10
-9.187492651418
 20
-214.174940776712
 30
0.0
 11
-39.18749384351
 21
-214.174940776712
 31
0.0
  0
LINE
  5
21B
100
AcDbEntity
  8
0
370
          15
  6
Continuous
 62
           7
100
AcDbLine
 10
-39.18749384351
 20
-214.174940776712
 30
0.0
 11
-39.18749384351
 21
-210.797089677936
 31
0.0
  0
LINE
  5
21C
100
AcDbEntity
  8
0
370
          15
  6
Continuous
 62
           7
100
AcDbLine
 10
-9.187492651418
 20
-210.797089677936
 30
0.0
 11
-9.187492651418
 21
-214.174940776712
 31
0.0
  0
ARC
  5
21D
100
AcDbEntity
  8
0
370
          15
  6
Continuous
 62
           7
100
AcDbCircle
 10
300.901062487312
 20
-60.774941059834
 30
0.0
 40
2.6
100
AcDbArc
 50
1.00000000018
 51
90.0
  0
LINE
  5
21E
100
AcDbEntity
  8
0
370
          15
  6
Continuous
 62
           7
100
AcDbLine
 10
300.901067333743
 20
-58.174935695416
 30
0.0
 11
300.901067333743
 21
-60.729560968167
 31
0.0
  0
LINE
  5
21F
100
AcDbEntity
  8
0
370
          15
  6
Continuous
 62
           7
100
AcDbLine
 10
-104.2760490603
 20
-58.174935695416
 30
0.0
 11
300.901067333743
 21
-58.174935695416
 31
0.0
  0
LINE
  5
220
100
AcDbEntity
  8
0
370
          15
  6
Continuous
 62
           7
100
AcDbLine
 10
-104.2760490603
 20
-58.174935695416
 30
0.0
 11
-104.2760490603
 21
-60.729560968167
 31
0.0
  0
ARC
  5
221
100
AcDbEntity
  8
0
370
          15
  6
Continuous
 62
           7
100
AcDbCircle
 10
-104.276044213868
 20
-60.774941059834
 30
0.0
 40
2.6
100
AcDbArc
 50
90.0
 51
178.999999999821
  0
LINE
  5
222
100
AcDbEntity
  8
0
370
          15
  6
Continuous
 62
           7
100
AcDbLine
 10
258.312505560443
 20
-56.174946543462
 30
0.0
 11
268.312510924861
 21
-56.174946543462
 31
0.0
  0
LINE
  5
223
100
AcDbEntity
  8
0
370
          15
  6
Continuous
 62
           7
100
AcDbLine
 10
-71.687492651418
 20
-56.174946543462
 30
0.0
 11
-61.687487286999
 21
-56.174946543462
 31
0.0
  0
LINE
  5
224
100
AcDbEntity
  8
0
370
          15
  6
Continuous
 62
           7
100
AcDbLine
 10
285.568264203594
 20
-212.174940448886
 30
0.0
 11
280.076634960697
 21
-212.174940448886
 31
0.0
  0
LINE
  5
225
100
AcDbEntity
  8
0
370
          15
  6
Continuous
 62
           7
100
AcDbLine
 10
280.076634960697
 20
-212.174940448886
 30
0.0
 11
235.812512116954
 21
-212.174940448886
 31
0.0
  0
LINE
  5
226
100
AcDbEntity
  8
0
370
          15
  6
Continuous
 62
           7
100
AcDbLine
 10
205.812510924861
 20
-212.174940448886
 30
0.0
 11
-9.187492651417
 21
-212.174940448886
 31
0.0
  0
LINE
  5
227
100
AcDbEntity
  8
0
370
          15
  6
Continuous
 62
           7
100
AcDbLine
 10
-39.18749384351
 20
-212.174940448886
 30
0.0
 11
-83.451616687253
 21
-212.174940448886
 31
0.0
  0
LINE
  5
228
100
AcDbEntity
  8
0
370
          15
  6
Continuous
 62
           7
100
AcDbLine
 10
-83.451616687253
 20
-212.174940448886
 30
0.0
 11
-88.94324593015
 21
-212.174940448886
 31
0.0
  0
LINE
  5
229
100
AcDbEntity
  8
0
370
          15
  6
Continuous
 62
           7
100
AcDbLine
 10
290.812504368351
 20
-56.174946543461
 30
0.0
 11
290.812504368351
 21
-58.174935695416
 31
0.0
  0
LINE
  5
22A
100
AcDbEntity
  8
0
370
          15
  6
Continuous
 62
           7
100
AcDbLine
 10
290.812504368351
 20
-56.174946543461
 30
0.0
 11
300.812509732768
 21
-56.174946543461
 31
0.0
  0
LINE
  5
22B
100
AcDbEntity
  8
0
370
          15
  6
Continuous
 62
           7
100
AcDbLine
 10
300.812509732768
 20
-56.174946543461
 30
0.0
 11
300.812509732768
 21
-58.174935695416
 31
0.0
  0
LINE
  5
22C
100
AcDbEntity
  8
0
370
          15
  6
Continuous
 62
           7
100
AcDbLine
 10
-104.187491459325
 20
-56.174946543461
 30
0.0
 11
-104.187491459325
 21
-58.174935695416
 31
0.0
  0
LINE
  5
22D
100
AcDbEntity
  8
0
370
          15
  6
Continuous
 62
           7
100
AcDbLine
 10
-104.187491459325
 20
-56.174946543461
 30
0.0
 11
-94.187486094906
 21
-56.174946543461
 31
0.0
  0
LINE
  5
22E
100
AcDbEntity
  8
0
370
          15
  6
Continuous
 62
           7
100
AcDbLine
 10
-94.187486094906
 20
-56.174946543461
 30
0.0
 11
-94.187486094906
 21
-58.174935695416
 31
0.0
  0
LINE
  5
22F
100
AcDbEntity
  8
0
370
          15
  6
Continuous
 62
           7
100
AcDbLine
 10
292.483833509014
 20
-212.174940448885
 30
0.0
 11
292.815935688541
 21
-193.174941059833
 31
0.0
  0
LINE
  5
230
100
AcDbEntity
  8
0
370
          15
  6
Continuous
 62
           7
100
AcDbLine
 10
292.483833509014
 20
-212.174940448885
 30
0.0
 11
285.568264203594
 21
-212.174940448886
 31
0.0
  0
LINE
  5
231
100
AcDbEntity
  8
0
370
          15
  6
Continuous
 62
           7
100
AcDbLine
 10
-95.858815235569
 20
-212.174940448885
 30
0.0
 11
-96.190917415096
 21
-193.174941059833
 31
0.0
  0
LINE
  5
232
100
AcDbEntity
  8
0
370
          15
  6
Continuous
 62
           7
100
AcDbLine
 10
-88.94324593015
 20
-212.174940448886
 30
0.0
 11
-95.858815235569
 21
-212.174940448885
 31
0.0
  0
LINE
  5
233
100
AcDbEntity
  8
0
370
          15
  6
Continuous
 62
           7
100
AcDbLine
 10
279.51250680022
 20
-56.174946543461
 30
0.0
 11
290.812504368351
 21
-56.174946543461
 31
0.0
  0
LINE
  5
234
100
AcDbEntity
  8
0
370
          15
  6
Continuous
 62
           7
100
AcDbLine
 10
-94.187486094906
 20
-56.174946543461
 30
0.0
 11
-80.487492603734
 21
-56.174946543461
 31
0.0
  0
LINE
  5
235
100
AcDbEntity
  8
0
370
          15
  6
Continuous
 62
           7
100
AcDbLine
 10
280.076634960697
 20
-212.174940448886
 30
0.0
 11
280.391362386272
 21
-193.174941059834
 31
0.0
  0
LINE
  5
236
100
AcDbEntity
  8
0
370
          15
  6
Continuous
 62
           7
100
AcDbLine
 10
285.882991629169
 20
-193.174941059834
 30
0.0
 11
285.568264203594
 21
-212.174940448886
 31
0.0
  0
LINE
  5
237
100
AcDbEntity
  8
0
370
          15
  6
Continuous
 62
           7
100
AcDbLine
 10
-83.766344112828
 20
-193.174941059834
 30
0.0
 11
-83.451616687253
 21
-212.174940448886
 31
0.0
  0
LINE
  5
238
100
AcDbEntity
  8
0
370
          15
  6
Continuous
 62
           7
100
AcDbLine
 10
-88.94324593015
 20
-212.174940448886
 30
0.0
 11
-89.257973355725
 21
-193.174941059834
 31
0.0
  0
LINE
  5
239
100
AcDbEntity
  8
0
370
          15
  6
Continuous
 62
           7
100
AcDbLine
 10
499.513296374683
 20
399.126901193157
 30
0.0
 11
497.513307222729
 21
399.126901193157
 31
0.0
  0
LINE
  5
23A
100
AcDbEntity
  8
0
370
          15
  6
Continuous
 62
           7
100
AcDbLine
 10
497.513307222729
 20
376.626907749668
 30
0.0
 11
499.513296374683
 21
376.626907749668
 31
0.0
  0
LINE
  5
23B
100
AcDbEntity
  8
0
370
          15
  6
Continuous
 62
           7
100
AcDbLine
 10
499.513296374682
 20
156.626908941761
 30
0.0
 11
497.513307222728
 21
156.626908941761
 31
0.0
  0
LINE
  5
23C
100
AcDbEntity
  8
0
370
          15
  6
Continuous
 62
           7
100
AcDbLine
 10
497.513307222728
 20
134.126915498272
 30
0.0
 11
499.513296374682
 21
134.126915498272
 31
0.0
  0
LINE
  5
23D
100
AcDbEntity
  8
0
370
          15
  6
Continuous
 62
           7
100
AcDbLine
 10
499.513296374683
 20
356.626911921993
 30
0.0
 11
497.513307222729
 21
356.626911921993
 31
0.0
  0
LINE
  5
23E
100
AcDbEntity
  8
0
370
          15
  6
Continuous
 62
           7
100
AcDbLine
 10
497.513307222728
 20
341.626911325947
 30
0.0
 11
499.513296374683
 21
341.626911325947
 31
0.0
  0
LINE
  5
23F
100
AcDbEntity
  8
0
370
          15
  6
Continuous
 62
           7
100
AcDbLine
 10
499.513296374682
 20
186.626910133854
 30
0.0
 11
497.513307222728
 21
186.626910133854
 31
0.0
  0
LINE
  5
240
100
AcDbEntity
  8
0
370
          15
  6
Continuous
 62
           7
100
AcDbLine
 10
497.513307222728
 20
171.626909537808
 30
0.0
 11
499.513296374682
 21
171.626909537808
 31
0.0
  0
LINE
  5
241
100
AcDbEntity
  8
0
370
          15
  6
Continuous
 62
           7
100
AcDbLine
 10
499.513296374683
 20
419.126911921994
 30
0.0
 11
497.513307222729
 21
419.126911921994
 31
0.0
  0
LINE
  5
242
100
AcDbEntity
  8
0
370
          15
  6
Continuous
 62
           7
100
AcDbLine
 10
497.513307222729
 20
409.126906557575
 30
0.0
 11
499.513296374683
 21
409.126906557575
 31
0.0
  0
LINE
  5
243
100
AcDbEntity
  8
0
370
          15
  6
Continuous
 62
           7
100
AcDbLine
 10
499.513296374682
 20
124.126910133854
 30
0.0
 11
497.513307222728
 21
124.126910133854
 31
0.0
  0
LINE
  5
244
100
AcDbEntity
  8
0
370
          15
  6
Continuous
 62
           7
100
AcDbLine
 10
497.513307222727
 20
114.126904769436
 30
0.0
 11
499.513296374682
 21
114.126904769436
 31
0.0
  0
LINE
  5
245
100
AcDbEntity
  8
0
370
          15
  6
Continuous
 62
           7
100
AcDbLine
 10
634.513301739102
 20
424.126907153621
 30
0.0
 11
634.513301739102
 21
421.527310176387
 31
0.0
  0
LINE
  5
246
100
AcDbEntity
  8
0
370
          15
  6
Continuous
 62
           7
100
AcDbLine
 10
634.513301739102
 20
421.527310176387
 30
0.0
 11
502.067921647434
 21
419.215454621807
 31
0.0
  0
ARC
  5
247
100
AcDbEntity
  8
0
370
          15
  6
Continuous
 62
           7
100
AcDbCircle
 10
544.49531826114
 20
420.694715809685
 30
0.0
 40
42.453176525187
100
AcDbArc
 50
178.003151000078
 51
181.996848999923
  0
LINE
  5
248
100
AcDbEntity
  8
0
370
          15
  6
Continuous
 62
           7
100
AcDbLine
 10
502.067921647434
 20
421.815066500202
 30
0.0
 11
634.513301739102
 21
424.126907153621
 31
0.0
  0
LINE
  5
249
100
AcDbEntity
  8
0
370
          15
  6
Continuous
 62
           7
100
AcDbLine
 10
634.513301739102
 20
421.527310176387
 30
0.0
 11
634.5133017391
 21
111.726506515041
 31
0.0
  0
LINE
  5
24A
100
AcDbEntity
  8
0
370
          15
  6
Continuous
 62
           7
100
AcDbLine
 10
502.067921647433
 20
114.038362069622
 30
0.0
 11
634.5133017391
 21
111.726506515041
 31
0.0
  0
LINE
  5
24B
100
AcDbEntity
  8
0
370
          15
  6
Continuous
 62
           7
100
AcDbLine
 10
502.067921647434
 20
419.215454621807
 30
0.0
 11
502.067921647433
 21
114.038362069622
 31
0.0
  0
LINE
  5
24C
100
AcDbEntity
  8
0
370
          15
  6
Continuous
 62
           7
100
AcDbLine
 10
634.5133017391
 20
109.126909537807
 30
0.0
 11
502.067921647433
 21
111.438750191227
 31
0.0
  0
ARC
  5
24D
100
AcDbEntity
  8
0
370
          15
  6
Continuous
 62
           7
100
AcDbCircle
 10
544.49531825029
 20
112.559100881683
 30
0.0
 40
42.453176514346
100
AcDbArc
 50
178.003150999484
 51
181.996849000517
  0
LINE
  5
24E
100
AcDbEntity
  8
0
370
          15
  6
Continuous
 62
           7
100
AcDbLine
 10
634.5133017391
 20
111.726506515041
 30
0.0
 11
634.5133017391
 21
109.126909537807
 31
0.0
  0
ARC
  5
24F
100
AcDbEntity
  8
0
370
          15
  6
Continuous
 62
           7
100
AcDbCircle
 10
502.113301739101
 20
419.215461696305
 30
0.0
 40
2.6
100
AcDbArc
 50
91.000000000006
 51
180.0
  0
LINE
  5
250
100
AcDbEntity
  8
0
370
          15
  6
Continuous
 62
           7
100
AcDbLine
 10
499.513296374683
 20
419.215454621807
 30
0.0
 11
502.067921647434
 21
419.215454621807
 31
0.0
  0
LINE
  5
251
100
AcDbEntity
  8
0
370
          15
  6
Continuous
 62
           7
100
AcDbLine
 10
499.513296374682
 20
114.038362069622
 30
0.0
 11
499.513296374683
 21
419.215454621807
 31
0.0
  0
LINE
  5
252
100
AcDbEntity
  8
0
370
          15
  6
Continuous
 62
           7
100
AcDbLine
 10
499.513296374682
 20
114.038362069622
 30
0.0
 11
502.067921647433
 21
114.038362069622
 31
0.0
  0
ARC
  5
253
100
AcDbEntity
  8
0
370
          15
  6
Continuous
 62
           7
100
AcDbCircle
 10
502.1133017391
 20
114.038354995125
 30
0.0
 40
2.6
100
AcDbArc
 50
180.0
 51
269.000000000001
  0
LINE
  5
254
100
AcDbEntity
  8
0
370
          15
  6
Continuous
 62
           7
100
AcDbLine
 10
497.513307222729
 20
394.126905961529
 30
0.0
 11
499.513296374683
 21
394.126905961529
 31
0.0
  0
LINE
  5
255
100
AcDbEntity
  8
0
370
          15
  6
Continuous
 62
           7
100
AcDbLine
 10
497.513307222729
 20
394.126905961529
 30
0.0
 11
497.513307222729
 21
399.126901193157
 31
0.0
  0
LINE
  5
256
100
AcDbEntity
  8
0
370
          15
  6
Continuous
 62
           7
100
AcDbLine
 10
497.513307222729
 20
381.626910431877
 30
0.0
 11
499.513296374683
 21
381.626910431877
 31
0.0
  0
LINE
  5
257
100
AcDbEntity
  8
0
370
          15
  6
Continuous
 62
           7
100
AcDbLine
 10
497.513307222729
 20
381.626910431877
 30
0.0
 11
497.513307222729
 21
394.126905961529
 31
0.0
  0
LINE
  5
258
100
AcDbEntity
  8
0
370
          15
  6
Continuous
 62
           7
100
AcDbLine
 10
497.513307222729
 20
376.626907749668
 30
0.0
 11
497.513307222729
 21
381.626910431877
 31
0.0
  0
LINE
  5
259
100
AcDbEntity
  8
0
370
          15
  6
Continuous
 62
           7
100
AcDbLine
 10
497.513307222728
 20
139.126910729901
 30
0.0
 11
499.513296374682
 21
139.126910729901
 31
0.0
  0
LINE
  5
25A
100
AcDbEntity
  8
0
370
          15
  6
Continuous
 62
           7
100
AcDbLine
 10
497.513307222728
 20
151.626906259552
 30
0.0
 11
499.513296374682
 21
151.626906259552
 31
0.0
  0
LINE
  5
25B
100
AcDbEntity
  8
0
370
          15
  6
Continuous
 62
           7
100
AcDbLine
 10
497.513307222728
 20
139.126910729901
 30
0.0
 11
497.513307222728
 21
151.626906259552
 31
0.0
  0
LINE
  5
25C
100
AcDbEntity
  8
0
370
          15
  6
Continuous
 62
           7
100
AcDbLine
 10
497.513307222728
 20
151.626906259552
 30
0.0
 11
497.513307222728
 21
156.626908941761
 31
0.0
  0
LINE
  5
25D
100
AcDbEntity
  8
0
370
          15
  6
Continuous
 62
           7
100
AcDbLine
 10
497.513307222728
 20
134.126915498272
 30
0.0
 11
497.513307222728
 21
139.126910729901
 31
0.0
  0
LINE
  5
25E
100
AcDbEntity
  8
0
370
          15
  6
Continuous
 62
           7
100
AcDbLine
 10
653.513301128153
 20
264.126908401593
 30
0.0
 11
634.513301739101
 21
264.126908401594
 31
0.0
  0
LINE
  5
25F
100
AcDbEntity
  8
0
370
          15
  6
Continuous
 62
           7
100
AcDbLine
 10
653.513301128154
 20
396.083905263439
 30
0.0
 11
653.513301128153
 21
264.126908401593
 31
0.0
  0
LINE
  5
260
100
AcDbEntity
  8
0
370
          15
  6
Continuous
 62
           7
100
AcDbLine
 10
653.513301128153
 20
264.126908401593
 30
0.0
 11
653.513301128153
 21
132.169916196361
 31
0.0
  0
LINE
  5
261
100
AcDbEntity
  8
0
370
          15
  6
Continuous
 62
           7
100
AcDbLine
 10
497.513307222729
 20
349.12691162397
 30
0.0
 11
497.513307222729
 21
356.626911921993
 31
0.0
  0
LINE
  5
262
100
AcDbEntity
  8
0
370
          15
  6
Continuous
 62
           7
100
AcDbLine
 10
497.513307222728
 20
341.626911325947
 30
0.0
 11
497.513307222729
 21
349.12691162397
 31
0.0
  0
LINE
  5
263
100
AcDbEntity
  8
0
370
          15
  6
Continuous
 62
           7
100
AcDbLine
 10
497.513307222728
 20
179.126909835831
 30
0.0
 11
497.513307222728
 21
186.626910133854
 31
0.0
  0
LINE
  5
264
100
AcDbEntity
  8
0
370
          15
  6
Continuous
 62
           7
100
AcDbLine
 10
497.513307222728
 20
171.626909537808
 30
0.0
 11
497.513307222728
 21
179.126909835831
 31
0.0
  0
LINE
  5
265
100
AcDbEntity
  8
0
370
          15
  6
Continuous
 62
           7
100
AcDbLine
 10
653.513301128153
 20
126.958547993198
 30
0.0
 11
634.5133017391
 21
126.626907749668
 31
0.0
  0
LINE
  5
266
100
AcDbEntity
  8
0
370
          15
  6
Continuous
 62
           7
100
AcDbLine
 10
653.513301128153
 20
132.169916196361
 30
0.0
 11
653.513301128153
 21
126.958547993198
 31
0.0
  0
LINE
  5
267
100
AcDbEntity
  8
0
370
          15
  6
Continuous
 62
           7
100
AcDbLine
 10
634.513301739101
 20
401.626913710132
 30
0.0
 11
653.513301128154
 21
401.295258565441
 31
0.0
  0
LINE
  5
268
100
AcDbEntity
  8
0
370
          15
  6
Continuous
 62
           7
100
AcDbLine
 10
653.513301128154
 20
401.295258565441
 30
0.0
 11
653.513301128154
 21
396.083905263439
 31
0.0
  0
LINE
  5
269
100
AcDbEntity
  8
0
370
          15
  6
Continuous
 62
           7
100
AcDbLine
 10
497.513307222729
 20
414.126901789204
 30
0.0
 11
497.513307222729
 21
419.126911921994
 31
0.0
  0
LINE
  5
26A
100
AcDbEntity
  8
0
370
          15
  6
Continuous
 62
           7
100
AcDbLine
 10
497.513307222729
 20
409.126906557575
 30
0.0
 11
497.513307222729
 21
414.126901789204
 31
0.0
  0
LINE
  5
26B
100
AcDbEntity
  8
0
370
          15
  6
Continuous
 62
           7
100
AcDbLine
 10
497.513307222727
 20
114.126904769436
 30
0.0
 11
497.513307222728
 21
124.126910133854
 31
0.0
  0
ARC
  5
26C
100
AcDbEntity
  8
0
370
          15
  6
Continuous
 62
           7
100
AcDbCircle
 10
652.013301739101
 20
419.284478079413
 30
0.0
 40
3.5
100
AcDbArc
 50
0.0
 51
88.000000000004
  0
LINE
  5
26D
100
AcDbEntity
  8
0
370
          15
  6
Continuous
 62
           7
100
AcDbLine
 10
655.513301455979
 20
419.284476800457
 30
0.0
 11
655.513301455979
 21
412.160246534839
 31
0.0
  0
LINE
  5
26E
100
AcDbEntity
  8
0
370
          15
  6
Continuous
 62
           7
100
AcDbLine
 10
653.440933638816
 20
410.087882442966
 30
0.0
 11
655.513301455979
 21
412.160246534839
 31
0.0
  0
LINE
  5
26F
100
AcDbEntity
  8
0
370
          15
  6
Continuous
 62
           7
100
AcDbLine
 10
653.440933638816
 20
410.087882442966
 30
0.0
 11
634.513301739101
 21
409.426911635891
 31
0.0
  0
LINE
  5
270
100
AcDbEntity
  8
0
370
          15
  6
Continuous
 62
           7
100
AcDbLine
 10
634.513301739101
 20
423.397718830601
 30
0.0
 11
652.135450357203
 21
422.782345576778
 31
0.0
  0
LINE
  5
271
100
AcDbEntity
  8
0
370
          15
  6
Continuous
 62
           7
100
AcDbLine
 10
647.51330200732
 20
117.185472412602
 30
0.0
 11
634.5133017391
 21
116.958557529942
 31
0.0
  0
LINE
  5
272
100
AcDbEntity
  8
0
370
          15
  6
Continuous
 62
           7
100
AcDbLine
 10
647.513302007321
 20
126.853822632328
 30
0.0
 11
647.51330200732
 21
117.185472412602
 31
0.0
  0
LINE
  5
273
100
AcDbEntity
  8
0
370
          15
  6
Continuous
 62
           7
100
AcDbLine
 10
653.51451929808
 20
410.090445442693
 30
0.0
 11
654.495846444372
 21
411.142795248524
 31
0.0
  0
LINE
  5
274
100
AcDbEntity
  8
0
370
          15
  6
Continuous
 62
           7
100
AcDbLine
 10
653.51451929808
 20
410.090445442693
 30
0.0
 11
653.440933638815
 21
410.087882442967
 31
0.0
  0
LINE
  5
275
100
AcDbEntity
  8
0
370
          15
  6
Continuous
 62
           7
100
AcDbLine
 10
653.513301128154
 20
396.083905263439
 30
0.0
 11
634.513301739101
 21
396.415545506969
 31
0.0
  0
LINE
  5
276
100
AcDbEntity
  8
0
370
          15
  6
Continuous
 62
           7
100
AcDbLine
 10
634.5133017391
 20
131.83826105167
 30
0.0
 11
653.513301128153
 21
132.169916196361
 31
0.0
  0
ENDSEC
  0
SECTION
  2
OBJECTS
  0
DICTIONARY
  5
C
100
AcDbDictionary
280
           0
281
           1
  3
ACAD_GROUP
350
D
  3
ACAD_PLOTSTYLENAME
350
E
  3
ACAD_MLINESTYLE
350
17
  3
ACAD_PLOTSETTINGS
350
19
  3
ACAD_LAYOUT
350
1A
  3
ACAD_WIPEOUT_VARS
350
279
  0
DICTIONARY
  5
D
102
{ACAD_REACTORS
330
C
102
}
100
AcDbDictionary
280
           0
281
           1
  0
DICTIONARY
  5
17
102
{ACAD_REACTORS
330
C
102
}
100
AcDbDictionary
280
           0
281
           1
  3
STANDARD
350
18
  0
MLINESTYLE
  5
18
102
{ACAD_REACTORS
330
17
102
}
100
AcDbMlineStyle
  2
Standard
 70
           0
  3

 62
         256
 51
90.0
 52
90.0
 71
           2
 49
0.5
 62
         256
  6
ByLayer
 49
-0.5
 62
         256
  6
ByLayer
  0
ACDBDICTIONARYWDFLT
  5
E
102
{ACAD_REACTORS
330
C
102
}
100
AcDbDictionary
281
           1
  3
NORMAL
350
F
100
AcDbDictionaryWithDefault
340
F
  0
ACDBPLACEHOLDER
  5
F
102
{ACAD_REACTORS
330
E
102
}
  0
LAYOUT
  5
22
102
{ACAD_REACTORS
330
1A
102
}
100
AcDbPlotSettings
  1

  2

  4

  6

 40
0.0
 41
0.0
 42
0.0
 43
0.0
 44
0.0
 45
0.0
 46
0.0
 47
0.0
 48
0.0
 49
0.0
140
0.0
141
0.0
142
1.0
143
1.0
 70
        1712
 72
           0
 73
           0
 74
           0
  7

 75
           0
147
1.0
148
0.0
149
0.0
100
AcDbLayout
  1
MODEL
 70
           1
 71
           0
 10
0.0
 20
0.0
 11
0.0
 21
0.0
 12
0.0
 22
0.0
 32
0.0
 14
0.0
 24
0.0
 34
0.0
 15
420.0
 25
297.0
 35
0.0
146
0.0
 13
0.0
 23
0.0
 33
0.0
 16
1.0
 26
0.0
 36
0.0
 17
0.0
 27
1.0
 37
0.0
 76
           0
330
1F
331
0
345
0
346
0
  0
LAYOUT
  5
1E
102
{ACAD_REACTORS
330
1A
102
}
100
AcDbPlotSettings
  1

  2

  4

  6

 40
0.0
 41
0.0
 42
0.0
 43
0.0
 44
0.0
 45
0.0
 46
0.0
 47
0.0
 48
0.0
 49
0.0
140
0.0
141
0.0
142
1.0
143
1.0
 70
         688
 72
           0
 73
           0
 74
           5
  7

 75
          16
147
1.0
148
0.0
149
0.0
100
AcDbLayout
  1
LAYOUT1
 70
           1
 71
           1
 10
0.0
 20
0.0
 11
0.0
 21
0.0
 12
0.0
 22
0.0
 32
0.0
 14
0.0
 24
0.0
 34
0.0
 15
0.0
 25
0.0
 35
0.0
146
0.0
 13
0.0
 23
0.0
 33
0.0
 16
1.0
 26
0.0
 36
0.0
 17
0.0
 27
1.0
 37
0.0
 76
           0
330
1B
331
0
345
0
346
0
  0
DICTIONARY
  5
1A
102
{ACAD_REACTORS
330
C
102
}
100
AcDbDictionary
280
           0
281
           1
  3
MODEL
350
22
  3
LAYOUT1
350
1E
  3
LAYOUT2
350
26
  0
DICTIONARY
  5
19
102
{ACAD_REACTORS
330
C
102
}
100
AcDbDictionary
280
           0
281
           1
  0
WIPEOUTVARIABLES
  5
279
100
AcDbWipeoutVariables
 70
           1
  0
LAYOUT
  5
26
102
{ACAD_REACTORS
330
1A
102
}
100
AcDbPlotSettings
  1

  2

  4

  6

 40
0.0
 41
0.0
 42
0.0
 43
0.0
 44
0.0
 45
0.0
 46
0.0
 47
0.0
 48
0.0
 49
0.0
140
0.0
141
0.0
142
1.0
143
1.0
 70
         688
 72
           0
 73
           0
 74
           5
  7

 75
          16
147
1.0
148
0.0
149
0.0
100
AcDbLayout
  1
LAYOUT2
 70
           1
 71
           2
 10
0.0
 20
0.0
 11
0.0
 21
0.0
 12
0.0
 22
0.0
 32
0.0
 14
0.0
 24
0.0
 34
0.0
 15
0.0
 25
0.0
 35
0.0
146
0.0
 13
0.0
 23
0.0
 33
0.0
 16
1.0
 26
0.0
 36
0.0
 17
0.0
 27
1.0
 37
0.0
 76
           0
330
23
331
0
345
0
346
0
  0
ENDSEC
  0
EOF
