  0
SECTION
  2
HEADER
  9
$ACADVER
  1
AC1009
  9
$INSBASE
 10
0.0
 20
0.0
 30
0.0
  9
$EXTMIN
 10
-429.722459
 20
-31.123781
 30
-1.242857
  9
$EXTMAX
 10
778.309225
 20
834.269454
 30
0.0
  9
$LIMMIN
 10
0.0
 20
0.0
  9
$LIMMAX
 10
1260.0
 20
890.0
  9
$ORTHOMODE
 70
     1
  9
$REGENMODE
 70
     1
  9
$FILLMODE
 70
     1
  9
$QTEXTMODE
 70
     0
  9
$MIRRTEXT
 70
     1
  9
$DRAGMODE
 70
     2
  9
$LTSCALE
 40
7.0
  9
$OSMODE
 70
    32
  9
$ATTMODE
 70
     1
  9
$TEXTSIZE
 40
5.0
  9
$TRACEWID
 40
0.05
  9
$TEXTSTYLE
  7
CAEISO
  9
$CLAYER
  8
L32
  9
$CELTYPE
  6
BYLAYER
  9
$CECOLOR
 62
   256
  9
$DIMSCALE
 40
1.0
  9
$DIMASZ
 40
3.5
  9
$DIMEXO
 40
0.5
  9
$DIMDLI
 40
0.4
  9
$DIMRND
 40
0.0
  9
$DIMDLE
 40
0.0
  9
$DIMEXE
 40
0.5
  9
$DIMTP
 40
0.0
  9
$DIMTM
 40
0.0
  9
$DIMTXT
 40
3.5
  9
$DIMCEN
 40
0.0
  9
$DIMTSZ
 40
0.0
  9
$DIMTOL
 70
     0
  9
$DIMLIM
 70
     0
  9
$DIMTIH
 70
     0
  9
$DIMTOH
 70
     0
  9
$DIMSE1
 70
     0
  9
$DIMSE2
 70
     0
  9
$DIMTAD
 70
     1
  9
$DIMZIN
 70
    12
  9
$DIMBLK
  1

  9
$DIMASO
 70
     1
  9
$DIMSHO
 70
     1
  9
$DIMPOST
  1

  9
$DIMAPOST
  1

  9
$DIMALT
 70
     0
  9
$DIMALTD
 70
     2
  9
$DIMALTF
 40
25.4
  9
$DIMLFAC
 40
1.0
  9
$DIMTOFL
 70
     0
  9
$DIMTVP
 40
0.0
  9
$DIMTIX
 70
     0
  9
$DIMSOXD
 70
     0
  9
$DIMSAH
 70
     0
  9
$DIMBLK1
  1

  9
$DIMBLK2
  1

  9
$DIMSTYLE
  2
ACADUS
  9
$DIMCLRD
 70
     0
  9
$DIMCLRE
 70
     0
  9
$DIMCLRT
 70
     3
  9
$DIMTFAC
 40
0.257143
  9
$DIMGAP
 40
2.0
  9
$LUNITS
 70
     2
  9
$LUPREC
 70
     1
  9
$SKETCHINC
 40
1.0
  9
$FILLETRAD
 40
0.0
  9
$AUNITS
 70
     0
  9
$AUPREC
 70
     1
  9
$MENU
  1
CAESAR
  9
$ELEVATION
 40
0.0
  9
$PELEVATION
 40
0.0
  9
$THICKNESS
 40
0.0
  9
$LIMCHECK
 70
     0
  9
$BLIPMODE
 70
     0
  9
$CHAMFERA
 40
5.0
  9
$CHAMFERB
 40
5.0
  9
$SKPOLY
 70
     0
  9
$TDCREATE
 40
2450484.546573
  9
$TDUPDATE
 40
2452229.561534
  9
$TDINDWG
 40
0.550514
  9
$TDUSRTIMER
 40
0.550514
  9
$USRTIMER
 70
     1
  9
$ANGBASE
 50
0.0
  9
$ANGDIR
 70
     0
  9
$PDMODE
 70
     0
  9
$PDSIZE
 40
0.0
  9
$PLINEWID
 40
0.0
  9
$COORDS
 70
     2
  9
$SPLFRAME
 70
     0
  9
$SPLINETYPE
 70
     6
  9
$SPLINESEGS
 70
     8
  9
$ATTDIA
 70
     0
  9
$ATTREQ
 70
     1
  9
$HANDLING
 70
     1
  9
$HANDSEED
  5
2DD841
  9
$SURFTAB1
 70
     6
  9
$SURFTAB2
 70
     6
  9
$SURFTYPE
 70
     6
  9
$SURFU
 70
     6
  9
$SURFV
 70
     6
  9
$UCSNAME
  2

  9
$UCSORG
 10
516.0
 20
452.0
 30
0.0
  9
$UCSXDIR
 10
1.0
 20
0.0
 30
0.0
  9
$UCSYDIR
 10
0.0
 20
1.0
 30
0.0
  9
$PUCSNAME
  2

  9
$PUCSORG
 10
0.0
 20
0.0
 30
0.0
  9
$PUCSXDIR
 10
1.0
 20
0.0
 30
0.0
  9
$PUCSYDIR
 10
0.0
 20
1.0
 30
0.0
  9
$USERI1
 70
     0
  9
$USERI2
 70
     0
  9
$USERI3
 70
     0
  9
$USERI4
 70
     0
  9
$USERI5
 70
     0
  9
$USERR1
 40
1.0
  9
$USERR2
 40
0.0
  9
$USERR3
 40
3.5
  9
$USERR4
 40
5.0
  9
$USERR5
 40
0.0
  9
$WORLDVIEW
 70
     1
  9
$SHADEDGE
 70
     3
  9
$SHADEDIF
 70
    70
  9
$TILEMODE
 70
     1
  9
$MAXACTVP
 70
    16
  9
$PLIMCHECK
 70
     0
  9
$PEXTMIN
 10
39.0
 20
61.0
 30
0.0
  9
$PEXTMAX
 10
347.0
 20
271.0
 30
0.0
  9
$PLIMMIN
 10
0.0
 20
0.0
  9
$PLIMMAX
 10
80.322902
 20
286.150337
  9
$UNITMODE
 70
     0
  9
$VISRETAIN
 70
     0
  9
$PLINEGEN
 70
     0
  9
$PSLTSCALE
 70
     0
  0
ENDSEC
  0
SECTION
  2
TABLES
  0
TABLE
  2
VPORT
 70
     2
  0
VPORT
  2
*ACTIVE
 70
     0
 10
0.0
 20
0.0
 11
1.0
 21
1.0
 12
174.255236
 22
401.545603
 13
0.0
 23
0.0
 14
1.0
 24
1.0
 15
10.0
 25
10.0
 16
0.0
 26
0.0
 36
1.0
 17
0.0
 27
0.0
 37
0.0
 40
874.245877
 41
1.589527
 42
50.0
 43
0.0
 44
0.0
 50
0.0
 51
0.0
 71
     0
 72
  1000
 73
     1
 74
     0
 75
     0
 76
     0
 77
     0
 78
     0
  0
ENDTAB
  0
TABLE
  2
LTYPE
 70
     4
  0
LTYPE
  2
CONTINUOUS
 70
     0
  3
Solid line
 72
    65
 73
     0
 40
0.0
  0
LTYPE
  2
CENTER
 70
     0
  3
____ _ ____ _ ____ _ ____ _ ____ _ ____ _ ____ 
 72
    65
 73
     4
 40
2.0
 49
1.25
 49
-0.25
 49
0.25
 49
-0.25
  0
LTYPE
  2
DASHED
 70
     0
  3
__ __ __ __ __ __ __ __ __ __ __ __ __ __ __ __
 72
    65
 73
     2
 40
0.75
 49
0.5
 49
-0.25
  0
LTYPE
  2
PHANTOM
 70
     0
  3
______  __  __  ______  __  __  ______  __  __ 
 72
    65
 73
     6
 40
2.5
 49
1.25
 49
-0.25
 49
0.25
 49
-0.25
 49
0.25
 49
-0.25
  0
ENDTAB
  0
TABLE
  2
LAYER
 70
    10
  0
LAYER
  2
0
 70
     0
 62
     7
  6
CONTINUOUS
  0
LAYER
  2
L1
 70
     0
 62
     7
  6
CONTINUOUS
  0
LAYER
  2
L4
 70
     0
 62
     1
  6
DASHED
  0
LAYER
  2
L6
 70
     0
 62
     1
  6
CENTER
  0
LAYER
  2
L7
 70
     0
 62
     1
  6
PHANTOM
  0
LAYER
  2
L22
 70
     0
 62
     1
  6
CONTINUOUS
  0
LAYER
  2
L32
 70
     0
 62
     3
  6
CONTINUOUS
  0
LAYER
  2
DEFPOINTS
 70
     0
 62
     7
  6
CONTINUOUS
  0
LAYER
  2
AME_FRZ
 70
     0
 62
     7
  6
CONTINUOUS
  0
LAYER
  2
AM_VIS
 70
     0
 62
     6
  6
CONTINUOUS
  0
ENDTAB
  0
TABLE
  2
STYLE
 70
     2
  0
STYLE
  2
STANDARD
 70
     0
 40
0.0
 41
1.0
 50
0.0
 71
     0
 42
5.0
  3
CAEISO.SHX
  4

  0
STYLE
  2
CAEISO
 70
     0
 40
0.0
 41
1.0
 50
0.0
 71
     0
 42
5.0
  3
CAEISO.SHX
  4

  0
ENDTAB
  0
TABLE
  2
VIEW
 70
     0
  0
ENDTAB
  0
TABLE
  2
UCS
 70
     0
  0
ENDTAB
  0
TABLE
  2
APPID
 70
     2
  0
APPID
  2
ACAD
 70
     0
  0
APPID
  2
AME_SOL
 70
     0
  0
ENDTAB
  0
TABLE
  2
DIMSTYLE
 70
     1
  0
DIMSTYLE
  2
ACADUS
 70
     0
  3

  4

  5

  6

  7

 40
1.0
 41
4.0
 42
0.1
 43
0.4
 44
0.2
 45
0.0
 46
0.0
 47
0.0
 48
0.0
140
7.0
141
0.0
142
0.0
143
25.4
144
1.0
145
0.0
146
0.257143
147
2.0
 71
     0
 72
     0
 73
     0
 74
     0
 75
     0
 76
     0
 77
     1
 78
    12
170
     0
171
     2
172
     0
173
     0
174
     0
175
     0
176
     0
177
     0
178
     3
  0
ENDTAB
  0
ENDSEC
  0
SECTION
  2
BLOCKS
  0
BLOCK
  8
0
  2
$MODEL_SPACE
 70
     0
 10
0.0
 20
0.0
 30
0.0
  3
$MODEL_SPACE
  1

  0
ENDBLK
  5
2DCC55
  8
0
  0
BLOCK
 67
     1
  8
0
  2
$PAPER_SPACE
 70
     0
 10
0.0
 20
0.0
 30
0.0
  3
$PAPER_SPACE
  1

  0
ENDBLK
  5
2DCC53
 67
     1
  8
0
  0
BLOCK
  8
0
  2
AME_NIL
 70
     0
 10
0.0
 20
0.0
 30
0.0
  3
AME_NIL
  1
AME_NIL
  0
ENDBLK
  5
232A
  8
0
  0
BLOCK
  8
0
  2
AME_SOL
 70
     0
 10
0.0
 20
0.0
 30
0.0
  3
AME_SOL
  1
AME_SOL
  0
ENDBLK
  5
232D
  8
0
  0
BLOCK
  8
0
  2
GEOTOL
 70
     0
 10
0.0
 20
0.0
 30
0.0
  3
GEOTOL
  1

  0
ENDBLK
  5
1B08B
  8
0
  0
ENDSEC
  0
SECTION
  2
ENTITIES
  0
INSERT
  5
9C4F
  8
AME_FRZ
  2
AME_NIL
 10
0.0
 20
0.0
 30
0.0
  0
INSERT
  5
9C50
  8
AME_FRZ
  2
AME_SOL
 10
0.0
 20
0.0
 30
0.0
1001
AME_SOL
1000
R2.1
1000
AME2
1000
sq cm
1070
     3
1070
     0
1070
     3
1000
wire
1040
45.0
1000
U
1040
1.0
1000
cm
1000
gm
1000
MILD_STEEL
1070
    25
1000
CSG
1070
     1
1070
     3
1070
     3
1070
     3
1070
     0
1000
cu cm
1070
     1
1070
     0
1005
9C4F
  0
INSERT
  5
1BC31
  8
L32
  2
GEOTOL
 10
681.050366
 20
573.102193
 30
0.0
  0
LINE
  5
1BC32
  8
L1
 10
360.876937
 20
700.572837
 30
0.0
 11
557.376937
 21
700.572837
 31
0.0
  0
ARC
  5
1BC33
  8
L1
 10
360.876937
 20
698.072837
 30
0.0
 40
2.5
 50
90.0
 51
180.0
  0
LINE
  5
1BC34
  8
L1
 10
358.376937
 20
698.072837
 30
0.0
 11
358.376937
 21
401.572837
 31
0.0
  0
LINE
  5
1BC35
  8
L1
 10
360.376937
 20
698.072837
 30
0.0
 11
360.376937
 21
401.572837
 31
0.0
  0
ARC
  5
1BC36
  8
L1
 10
360.876937
 20
698.072837
 30
0.0
 40
0.5
 50
90.0
 51
180.0
  0
LINE
  5
1BC37
  8
L1
 10
360.876937
 20
698.572837
 30
0.0
 11
557.376937
 21
698.572837
 31
0.0
  0
LINE
  5
1BC38
  8
L1
 10
368.876937
 20
692.572837
 30
0.0
 11
557.376937
 21
692.572837
 31
0.0
  0
ARC
  5
1BC39
  8
L1
 10
368.876937
 20
690.072837
 30
0.0
 40
2.5
 50
90.0
 51
180.0
  0
LINE
  5
1BC3A
  8
L1
 10
366.376937
 20
401.572837
 30
0.0
 11
366.376937
 21
690.072837
 31
0.0
  0
LINE
  5
1BC3B
  8
L6
 10
557.376937
 20
401.572837
 30
0.0
 11
557.376937
 21
714.892265
 31
0.0
  0
LINE
  5
1BC3C
  8
L6
 10
344.21038
 20
401.572837
 30
0.0
 11
557.376937
 21
401.572837
 31
0.0
  0
ARC
  5
1BC3D
  8
L1
 62
     2
 10
368.876937
 20
690.072837
 30
0.0
 40
8.5
 50
90.0
 51
180.0
  0
LINE
  5
1BC3E
  8
L1
 10
368.876937
 20
691.072837
 30
0.0
 11
557.376937
 21
691.072837
 31
0.0
  0
LINE
  5
1BC3F
  8
L1
 10
367.876937
 20
401.572837
 30
0.0
 11
367.876937
 21
690.072837
 31
0.0
  0
ARC
  5
1BC40
  8
L1
 10
368.876937
 20
690.072837
 30
0.0
 40
1.0
 50
90.0
 51
180.0
  0
LINE
  5
1BC42
  8
L6
 10
-77.251146
 20
-31.123781
 30
0.0
 11
-77.251146
 21
46.556984
 31
0.0
  0
LINE
  5
1BC43
  8
L1
 10
213.561323
 20
700.572837
 30
0.0
 11
220.401434
 21
700.214361
 31
0.0
  0
LINE
  5
1BC44
  8
L1
 10
221.315023
 20
699.474551
 30
0.0
 11
222.344794
 21
695.631393
 31
0.0
  0
LINE
  5
1BC45
  8
L1
 10
210.061323
 20
692.542292
 30
0.0
 11
210.061323
 21
684.241976
 31
0.0
  0
LINE
  5
1BC46
  8
L1
 10
263.561323
 20
401.572837
 30
0.0
 11
263.561323
 21
690.279396
 31
0.0
  0
LINE
  5
1BC47
  8
L1
 10
261.064749
 20
692.910235
 30
0.0
 11
223.258384
 21
694.891583
 31
0.0
  0
LINE
  5
1BC48
  8
L1
 10
210.061323
 20
692.542292
 30
0.0
 11
213.561323
 21
692.572837
 31
0.0
  0
ARC
  5
1BC49
  8
L1
 10
223.31072
 20
695.890213
 30
0.0
 40
1.0
 50
195.0
 51
267.0
  0
ARC
  5
1BC4A
  8
L1
 10
220.349098
 20
699.215732
 30
0.0
 40
1.0
 50
15.0
 51
87.0
  0
LINE
  5
1BC4B
  8
L1
 10
745.876937
 20
691.072837
 30
0.0
 11
557.376937
 21
691.072837
 31
0.0
  0
LINE
  5
1BC4C
  8
L1
 10
753.876937
 20
698.572837
 30
0.0
 11
557.376937
 21
698.572837
 31
0.0
  0
LINE
  5
1BC4D
  8
L1
 10
745.876937
 20
692.572837
 30
0.0
 11
557.376937
 21
692.572837
 31
0.0
  0
LINE
  5
1BC4E
  8
L1
 10
753.876937
 20
700.572837
 30
0.0
 11
557.376937
 21
700.572837
 31
0.0
  0
LINE
  5
1BC4F
  8
L6
 10
778.309225
 20
401.572837
 30
0.0
 11
557.376937
 21
401.572837
 31
0.0
  0
LINE
  5
1BC50
  8
L1
 10
746.876937
 20
401.572837
 30
0.0
 11
746.876937
 21
690.072837
 31
0.0
  0
LINE
  5
1BC51
  8
L1
 10
754.376937
 20
698.072837
 30
0.0
 11
754.376937
 21
401.572837
 31
0.0
  0
LINE
  5
1BC52
  8
L1
 10
748.376937
 20
401.572837
 30
0.0
 11
748.376937
 21
690.072837
 31
0.0
  0
ARC
  5
1BC54
  8
L1
 10
745.876937
 20
690.072837
 30
0.0
 40
1.0
 50
0.0
 51
90.0
  0
ARC
  5
1BC55
  8
L1
 62
     2
 10
745.876937
 20
690.072837
 30
0.0
 40
8.5
 50
0.0
 51
90.0
  0
ARC
  5
1BC56
  8
L1
 10
745.876937
 20
690.072837
 30
0.0
 40
2.5
 50
0.0
 51
90.0
  0
ARC
  5
1BC57
  8
L1
 10
753.876937
 20
698.072837
 30
0.0
 40
2.5
 50
0.0
 51
90.0
  0
ARC
  5
1BC58
  8
L1
 10
753.876937
 20
698.072837
 30
0.0
 40
0.5
 50
0.0
 51
90.0
  0
LINE
  5
1BC59
  8
L1
 10
468.876937
 20
112.072837
 30
0.0
 11
557.376937
 21
112.072837
 31
0.0
  0
LINE
  5
1BC5A
  8
L1
 10
460.876937
 20
104.572837
 30
0.0
 11
557.376937
 21
104.572837
 31
0.0
  0
LINE
  5
1BC5B
  8
L1
 10
468.876937
 20
110.572837
 30
0.0
 11
557.376937
 21
110.572837
 31
0.0
  0
LINE
  5
1BC5C
  8
L1
 10
460.876937
 20
102.572837
 30
0.0
 11
557.376937
 21
102.572837
 31
0.0
  0
LINE
  5
1BC5D
  8
L1
 10
367.876937
 20
401.572837
 30
0.0
 11
367.876937
 21
263.072837
 31
0.0
  0
LINE
  5
1BC5E
  8
L1
 10
360.376937
 20
255.072837
 30
0.0
 11
360.376937
 21
401.572837
 31
0.0
  0
LINE
  5
1BC5F
  8
L1
 10
366.376937
 20
401.572837
 30
0.0
 11
366.376937
 21
263.072837
 31
0.0
  0
LINE
  5
1BC60
  8
L1
 10
358.376937
 20
255.072837
 30
0.0
 11
358.376937
 21
401.572837
 31
0.0
  0
ARC
  5
1BC61
  8
L1
 10
368.876937
 20
113.072837
 30
0.0
 40
1.0
 50
180.0
 51
270.0
  0
ARC
  5
1BC62
  8
L1
 62
     2
 10
368.849197
 20
113.072837
 30
0.0
 40
8.5
 50
180.0
 51
270.0
  0
ARC
  5
1BC63
  8
L1
 10
368.876937
 20
113.072837
 30
0.0
 40
2.5
 50
180.0
 51
270.0
  0
ARC
  5
1BC64
  8
L1
 10
360.876937
 20
105.072837
 30
0.0
 40
2.5
 50
180.0
 51
270.0
  0
ARC
  5
1BC65
  8
L1
 10
360.876937
 20
105.072837
 30
0.0
 40
0.5
 50
180.0
 51
270.0
  0
LINE
  5
1BC67
  8
L1
 10
748.376937
 20
401.572837
 30
0.0
 11
748.376937
 21
113.072837
 31
0.0
  0
LINE
  5
1BC68
  8
L1
 10
754.376937
 20
105.072837
 30
0.0
 11
754.376937
 21
401.572837
 31
0.0
  0
LINE
  5
1BC69
  8
L1
 10
746.876937
 20
401.572837
 30
0.0
 11
746.876937
 21
113.072837
 31
0.0
  0
LINE
  5
1BC6A
  8
L6
 10
557.376937
 20
401.572837
 30
0.0
 11
557.376937
 21
85.685428
 31
0.0
  0
LINE
  5
1BC6B
  8
L1
 10
753.876937
 20
102.572837
 30
0.0
 11
557.376937
 21
102.572837
 31
0.0
  0
LINE
  5
1BC6C
  8
L1
 10
745.876937
 20
110.572837
 30
0.0
 11
557.376937
 21
110.572837
 31
0.0
  0
LINE
  5
1BC6D
  8
L1
 10
753.876937
 20
104.572837
 30
0.0
 11
557.376937
 21
104.572837
 31
0.0
  0
LINE
  5
1BC6E
  8
L1
 10
745.876937
 20
112.072837
 30
0.0
 11
557.376937
 21
112.072837
 31
0.0
  0
ARC
  5
1BC6F
  8
L1
 10
745.876937
 20
113.072837
 30
0.0
 40
2.5
 50
270.0
 51
0.0
  0
ARC
  5
1BC72
  8
L1
 10
753.876937
 20
105.072837
 30
0.0
 40
2.5
 50
270.0
 51
0.0
  0
ARC
  5
1BC73
  8
L1
 10
753.876937
 20
105.072837
 30
0.0
 40
0.5
 50
270.0
 51
0.0
  0
LINE
  5
1BC74
  8
L1
 10
263.561323
 20
690.279396
 30
0.0
 11
261.064749
 21
692.910235
 31
0.0
  0
LINE
  5
1BC82
  8
L1
 10
114.086253
 20
-12.204609
 30
0.0
 11
-77.251146
 21
-12.204609
 31
0.0
  0
LINE
  5
1BC83
  8
L1
 10
121.390379
 20
28.458706
 30
0.0
 11
-77.251146
 21
28.458706
 31
0.0
  0
LINE
  5
1BC85
  8
L1
 10
118.402892
 20
102.572837
 30
0.0
 11
-78.097108
 21
102.572837
 31
0.0
  0
LINE
  5
1BC86
  8
L1
 10
120.902892
 20
105.072837
 30
0.0
 11
120.902892
 21
401.572837
 31
0.0
  0
ARC
  5
1BC87
  8
L1
 10
118.402892
 20
105.072837
 30
0.0
 40
2.5
 50
270.0
 51
0.0
  0
LINE
  5
1BC88
  8
L1
 10
-274.597108
 20
102.572837
 30
0.0
 11
-78.097108
 21
102.572837
 31
0.0
  0
ARC
  5
1BC89
  8
L1
 10
-274.597108
 20
105.072837
 30
0.0
 40
2.5
 50
180.0
 51
270.0
  0
LINE
  5
1BC8B
  8
L6
 10
-78.097108
 20
401.572837
 30
0.0
 11
-78.097108
 21
88.301492
 31
0.0
  0
LINE
  5
1BC8C
  8
L6
 10
132.976438
 20
401.572837
 30
0.0
 11
-78.097108
 21
401.572837
 31
0.0
  0
LINE
  5
1BC8D
  8
L6
 10
-290.469135
 20
401.572837
 30
0.0
 11
-78.097108
 21
401.572837
 31
0.0
  0
LINE
  5
1BC8E
  8
L1
 10
-269.434507
 20
401.572837
 30
0.0
 11
-269.434507
 21
112.735438
 31
0.0
  0
LINE
  5
1BC93
  8
L1
 10
112.721639
 20
108.25409
 30
0.0
 11
-268.915854
 21
108.25409
 31
0.0
  0
LINE
  5
1BC94
  8
L1
 10
-266.934507
 20
110.235438
 30
0.0
 11
110.740291
 21
110.235438
 31
0.0
  0
LINE
  5
1BC97
  8
L1
 10
115.221639
 20
110.75409
 30
0.0
 11
115.221639
 21
401.572837
 31
0.0
  0
LINE
  5
1BC98
  8
L1
 10
113.240291
 20
401.572837
 30
0.0
 11
113.240291
 21
112.735438
 31
0.0
  0
ARC
  5
1BC9E
  8
L1
 10
112.721639
 20
110.75409
 30
0.0
 40
2.5
 50
270.0
 51
0.0
  0
ARC
  5
1BC9F
  8
L1
 10
110.740291
 20
112.735438
 30
0.0
 40
2.5
 50
270.0
 51
0.0
  0
ARC
  5
1BCA0
  8
L1
 10
-268.915854
 20
110.75409
 30
0.0
 40
2.5
 50
180.0
 51
270.0
  0
ARC
  5
1BCA1
  8
L1
 10
-266.934507
 20
112.735438
 30
0.0
 40
2.5
 50
180.0
 51
270.0
  0
LINE
  5
1BCA3
  8
L1
 10
-269.434507
 20
401.572837
 30
0.0
 11
-269.434507
 21
690.410235
 31
0.0
  0
LINE
  5
1BCA6
  8
L1
 10
113.240291
 20
401.572837
 30
0.0
 11
113.240291
 21
690.410235
 31
0.0
  0
LINE
  5
1BCA7
  8
L1
 10
115.221639
 20
692.391583
 30
0.0
 11
115.221639
 21
401.572837
 31
0.0
  0
LINE
  5
1BCAB
  8
L1
 10
120.902892
 20
698.072837
 30
0.0
 11
120.902892
 21
401.572837
 31
0.0
  0
LINE
  5
1BCAD
  8
L1
 10
-266.934507
 20
692.910235
 30
0.0
 11
110.740291
 21
692.910235
 31
0.0
  0
LINE
  5
1BCAE
  8
L1
 10
112.721639
 20
694.891583
 30
0.0
 11
-268.915854
 21
694.891583
 31
0.0
  0
LINE
  5
1BCB0
  8
L1
 10
-274.597108
 20
700.572837
 30
0.0
 11
-78.097108
 21
700.572837
 31
0.0
  0
LINE
  5
1BCB1
  8
L1
 10
118.402892
 20
700.572837
 30
0.0
 11
-78.097108
 21
700.572837
 31
0.0
  0
ARC
  5
1BCB2
  8
L1
 10
110.740291
 20
690.410235
 30
0.0
 40
2.5
 50
0.0
 51
90.0
  0
ARC
  5
1BCB5
  8
L1
 10
118.402892
 20
698.072837
 30
0.0
 40
2.5
 50
0.0
 51
90.0
  0
ARC
  5
1BCB6
  8
L1
 10
112.721639
 20
692.391583
 30
0.0
 40
2.5
 50
0.0
 51
90.0
  0
ARC
  5
1BCB7
  8
L1
 10
-266.934507
 20
690.410235
 30
0.0
 40
2.5
 50
90.0
 51
180.0
  0
ARC
  5
1BCB9
  8
L1
 10
-268.915854
 20
692.391583
 30
0.0
 40
2.5
 50
90.0
 51
180.0
  0
ARC
  5
1BCBB
  8
L1
 10
-274.597108
 20
698.072837
 30
0.0
 40
2.5
 50
90.0
 51
180.0
  0
LINE
  5
1BCBC
  8
L6
 10
-78.097108
 20
401.572837
 30
0.0
 11
-78.097108
 21
705.72519
 31
0.0
  0
LINE
  5
1BCCC
  8
L6
 10
276.808959
 20
401.572837
 30
0.0
 11
200.286442
 21
401.572837
 31
0.0
  0
ARC
  5
1BCCD
  8
L1
 10
120.39175
 20
28.511042
 30
0.0
 40
1.0
 50
285.0
 51
357.0
  0
LINE
  5
1BCCE
  8
L1
 10
121.748854
 20
35.298817
 30
0.0
 11
121.390379
 21
28.458706
 31
0.0
  0
LINE
  5
1BCCF
  8
L1
 10
120.650569
 20
27.545116
 30
0.0
 11
116.807411
 21
26.515345
 31
0.0
  0
LINE
  5
1BCD0
  8
L1
 10
121.748854
 20
35.298817
 30
0.0
 11
-77.251146
 21
35.298817
 31
0.0
  0
ARC
  5
1BCD1
  8
L1
 10
117.06623
 20
25.549419
 30
0.0
 40
1.0
 50
105.0
 51
177.0
  0
LINE
  5
1BCD2
  8
L1
 10
114.086253
 20
-12.204609
 30
0.0
 11
116.067601
 21
25.601755
 31
0.0
  0
LINE
  5
1BCD3
  8
L1
 10
111.455413
 20
-14.701183
 30
0.0
 11
114.086253
 21
-12.204609
 31
0.0
  0
LINE
  5
1BCD4
  8
L1
 10
-77.251146
 20
-14.701183
 30
0.0
 11
111.455413
 21
-14.701183
 31
0.0
  0
LINE
  5
1BCD5
  8
L1
 10
113.71831
 20
38.798817
 30
0.0
 11
113.748854
 21
35.298817
 31
0.0
  0
LINE
  5
1BCD6
  8
L1
 10
113.71831
 20
38.798817
 30
0.0
 11
105.41831
 21
38.798817
 31
0.0
  0
LINE
  5
1BCE1
  8
L1
 10
-277.097108
 20
698.072837
 30
0.0
 11
-277.097108
 21
105.072837
 31
0.0
  0
LINE
  5
1BCF0
  8
L1
 10
-271.415854
 20
110.75409
 30
0.0
 11
-271.415854
 21
401.572837
 31
0.0
  0
LINE
  5
1BD01
  8
L1
 10
213.561323
 20
700.572837
 30
0.0
 11
213.561323
 21
401.572837
 31
0.0
  0
LINE
  5
1BD02
  8
L1
 10
210.061323
 20
677.24171
 30
0.0
 11
210.061323
 21
426.572837
 31
0.0
  0
LINE
  5
1BD04
  8
L1
 10
220.401434
 20
700.214361
 30
0.0
 11
220.401434
 21
401.572837
 31
0.0
  0
LINE
  5
1BD1A
  8
L1
 10
261.064749
 20
692.910235
 30
0.0
 11
261.064749
 21
401.572837
 31
0.0
  0
LINE
  5
1BD9A
  8
L1
 10
119.732258
 20
18.258706
 30
0.0
 11
120.85582
 21
18.258706
 31
0.0
  0
LINE
  5
1BD9B
  8
L1
 10
121.390379
 20
28.458706
 30
0.0
 11
120.85582
 21
18.258706
 31
0.0
  0
ARC
  5
1BD9D
  8
L1
 10
117.282768
 20
18.258706
 30
0.0
 40
2.0
 50
11.536959
 51
90.0
  0
ARC
  5
1BD9E
  8
L1
 10
119.732258
 20
18.758706
 30
0.0
 40
0.5
 50
191.536959
 51
270.0
  0
LINE
  5
1BD9F
  8
L1
 10
117.282768
 20
20.258706
 30
0.0
 11
115.787583
 21
20.258706
 31
0.0
  0
LINE
  5
1BDA0
  8
L1
 10
120.009858
 20
636.81742
 30
0.0
 11
120.009858
 21
639.81742
 31
0.0
  0
LINE
  5
1BDA1
  8
L1
 10
118.886295
 20
636.81742
 30
0.0
 11
118.886295
 21
639.81742
 31
0.0
  0
LINE
  5
1BDA5
  8
L1
 10
118.886295
 20
664.30574
 30
0.0
 11
116.436806
 21
664.572837
 31
0.0
  0
LINE
  5
1BDA6
  8
L1
 10
116.436806
 20
664.572837
 30
0.0
 11
120.402368
 21
664.572837
 31
0.0
  0
LINE
  5
1BDA7
  8
L1
 10
120.009858
 20
664.30574
 30
0.0
 11
118.886295
 21
664.30574
 31
0.0
  0
LINE
  5
1BDA8
  8
L1
 10
120.402368
 20
664.572837
 30
0.0
 11
120.009858
 21
664.30574
 31
0.0
  0
LINE
  5
1BDA9
  8
L1
 10
116.436806
 20
636.550324
 30
0.0
 11
120.402368
 21
636.550324
 31
0.0
  0
LINE
  5
1BDAA
  8
L1
 10
118.886295
 20
636.81742
 30
0.0
 11
116.436806
 21
636.550324
 31
0.0
  0
LINE
  5
1BDAB
  8
L1
 10
120.402368
 20
636.550324
 30
0.0
 11
120.009858
 21
636.81742
 31
0.0
  0
LINE
  5
1BDAC
  8
L1
 10
120.009858
 20
636.81742
 30
0.0
 11
118.886295
 21
636.81742
 31
0.0
  0
LINE
  5
1BDAE
  8
L1
 10
-429.722459
 20
401.572837
 30
0.0
 11
-429.722459
 21
690.279396
 31
0.0
  0
LINE
  5
1BDB0
  8
L1
 10
-427.225885
 20
692.910235
 30
0.0
 11
-427.225885
 21
401.572837
 31
0.0
  0
LINE
  5
1BDB5
  8
L1
 10
-379.722459
 20
700.572837
 30
0.0
 11
-379.722459
 21
401.572837
 31
0.0
  0
LINE
  5
1BDB6
  8
L1
 10
-376.222459
 20
692.542292
 30
0.0
 11
-376.222459
 21
684.242292
 31
0.0
  0
LINE
  5
1BDB8
  8
L1
 10
-386.562569
 20
700.214361
 30
0.0
 11
-386.562569
 21
664.572837
 31
0.0
  0
LINE
  5
1BDBF
  8
L1
 10
-427.225885
 20
692.910235
 30
0.0
 11
-389.41952
 21
694.891583
 31
0.0
  0
LINE
  5
1BDC0
  8
L1
 10
-376.222459
 20
692.542292
 30
0.0
 11
-379.722459
 21
692.572837
 31
0.0
  0
LINE
  5
1BDC1
  8
L1
 10
-379.722459
 20
700.572837
 30
0.0
 11
-386.562569
 21
700.214361
 31
0.0
  0
LINE
  5
1BDC2
  8
L1
 10
-387.476159
 20
699.474551
 30
0.0
 11
-388.50593
 21
695.631393
 31
0.0
  0
ARC
  5
1BDC3
  8
L1
 10
-389.471856
 20
695.890213
 30
0.0
 40
1.0
 50
273.0
 51
345.0
  0
ARC
  5
1BDC4
  8
L1
 10
-386.510234
 20
699.215732
 30
0.0
 40
1.0
 50
93.0
 51
165.0
  0
LINE
  5
1BDC5
  8
L1
 10
-429.722459
 20
690.279396
 30
0.0
 11
-427.225885
 21
692.910235
 31
0.0
  0
LINE
  5
1BDC6
  8
L1
 10
-386.562569
 20
636.641975
 30
0.0
 11
-386.562569
 21
466.318882
 31
0.0
  0
LINE
  5
1BDC8
  8
L1
 10
-386.562569
 20
142.015379
 30
0.0
 11
-386.562569
 21
163.152807
 31
0.0
1001
ACAD
1000
ASC_BOUNDS
1002
{
1070
    19
1002
}
  0
LINE
  5
1BDC9
  8
L1
 10
-379.722459
 20
102.572837
 30
0.0
 11
-379.722459
 21
401.572837
 31
0.0
  0
LINE
  5
1BDCA
  8
L1
 10
-376.222459
 20
110.603381
 30
0.0
 11
-376.222459
 21
118.903697
 31
0.0
  0
LINE
  5
1BDCB
  8
L1
 10
-427.225885
 20
110.235438
 30
0.0
 11
-427.225885
 21
401.572837
 31
0.0
  0
LINE
  5
1BDCD
  8
L1
 10
-429.722459
 20
401.572837
 30
0.0
 11
-429.722459
 21
112.866278
 31
0.0
  0
LINE
  5
1BDCF
  8
L1
 10
-386.562569
 20
166.503698
 30
0.0
 11
-386.562569
 21
336.664487
 31
0.0
  0
LINE
  5
1BDD1
  8
L1
 10
-383.062569
 20
166.595349
 30
0.0
 11
-393.262569
 21
166.328253
 31
0.0
1001
ACAD
1000
ASC_BOUNDS
1002
{
1070
    19
1002
}
  0
LINE
  5
1BDD2
  8
L1
 10
-383.062569
 20
163.061156
 30
0.0
 11
-393.262569
 21
163.328253
 31
0.0
1001
ACAD
1000
ASC_BOUNDS
1002
{
1070
    19
1002
}
  0
LINE
  5
1BDD3
  8
L1
 10
-393.262569
 20
166.328253
 30
0.0
 11
-393.262569
 21
163.328253
 31
0.0
1001
ACAD
1000
ASC_BOUNDS
1002
{
1070
    19
1002
}
  0
LINE
  5
1BDD8
  8
L1
 10
-386.562569
 20
102.931312
 30
0.0
 11
-386.562569
 21
138.572837
 31
0.0
  0
LINE
  5
1BDD9
  8
L1
 10
-383.062569
 20
138.572837
 30
0.0
 11
-393.262569
 21
138.839933
 31
0.0
1001
ACAD
1000
ASC_BOUNDS
1002
{
1070
    19
1002
}
  0
LINE
  5
1BDDA
  8
L1
 10
-393.262569
 20
141.839933
 30
0.0
 11
-393.262569
 21
138.839933
 31
0.0
1001
ACAD
1000
ASC_BOUNDS
1002
{
1070
    19
1002
}
  0
LINE
  5
1BDDB
  8
L1
 10
-383.062569
 20
142.107029
 30
0.0
 11
-393.262569
 21
141.839933
 31
0.0
1001
ACAD
1000
ASC_BOUNDS
1002
{
1070
    19
1002
}
  0
LINE
  5
1BDE2
  8
L1
 10
-427.225885
 20
110.235438
 30
0.0
 11
-389.41952
 21
108.25409
 31
0.0
  0
LINE
  5
1BDE3
  8
L1
 10
-429.722459
 20
112.866278
 30
0.0
 11
-427.225885
 21
110.235438
 31
0.0
  0
LINE
  5
1BDE4
  8
L1
 10
-379.722459
 20
102.572837
 30
0.0
 11
-386.562569
 21
102.931312
 31
0.0
  0
ARC
  5
1BDE5
  8
L1
 10
-386.510234
 20
103.929941
 30
0.0
 40
1.0
 50
195.0
 51
267.0
  0
ARC
  5
1BDE6
  8
L1
 10
-389.471856
 20
107.25546
 30
0.0
 40
1.0
 50
15.0
 51
87.0
  0
LINE
  5
1BDE7
  8
L1
 10
-387.476159
 20
103.671122
 30
0.0
 11
-388.50593
 21
107.51428
 31
0.0
  0
LINE
  5
1BDE8
  8
L1
 10
-376.222459
 20
110.603381
 30
0.0
 11
-379.722459
 21
110.572837
 31
0.0
  0
LINE
  5
1BDEB
  8
L1
 10
-386.562569
 20
661.130294
 30
0.0
 11
-386.562569
 21
639.992866
 31
0.0
1001
ACAD
1000
ASC_BOUNDS
1002
{
1070
    19
1002
}
  0
LINE
  5
1BDEC
  8
L1
 10
-383.062569
 20
661.038644
 30
0.0
 11
-393.262569
 21
661.30574
 31
0.0
1001
ACAD
1000
ASC_BOUNDS
1002
{
1070
    19
1002
}
  0
LINE
  5
1BDED
  8
L1
 10
-383.062569
 20
664.572837
 30
0.0
 11
-393.262569
 21
664.30574
 31
0.0
1001
ACAD
1000
ASC_BOUNDS
1002
{
1070
    19
1002
}
  0
LINE
  5
1BDEE
  8
L1
 10
-393.262569
 20
661.30574
 30
0.0
 11
-393.262569
 21
664.30574
 31
0.0
1001
ACAD
1000
ASC_BOUNDS
1002
{
1070
    19
1002
}
  0
LINE
  5
1BDEF
  8
L1
 10
-383.062569
 20
640.084517
 30
0.0
 11
-393.262569
 21
639.81742
 31
0.0
1001
ACAD
1000
ASC_BOUNDS
1002
{
1070
    19
1002
}
  0
LINE
  5
1BDF0
  8
L1
 10
-383.062569
 20
636.550324
 30
0.0
 11
-393.262569
 21
636.81742
 31
0.0
1001
ACAD
1000
ASC_BOUNDS
1002
{
1070
    19
1002
}
  0
LINE
  5
1BDF1
  8
L1
 10
-393.262569
 20
636.81742
 30
0.0
 11
-393.262569
 21
639.81742
 31
0.0
1001
ACAD
1000
ASC_BOUNDS
1002
{
1070
    19
1002
}
  0
LINE
  5
1BDF2
  8
L1
 10
118.886295
 20
661.30574
 30
0.0
 11
116.436806
 21
661.038644
 31
0.0
  0
LINE
  5
1BDF3
  8
L1
 10
116.436806
 20
661.038644
 30
0.0
 11
120.402368
 21
661.038644
 31
0.0
  0
LINE
  5
1BDF4
  8
L1
 10
120.402368
 20
661.038644
 30
0.0
 11
120.009858
 21
661.30574
 31
0.0
  0
LINE
  5
1BDF5
  8
L1
 10
120.009858
 20
661.30574
 30
0.0
 11
118.886295
 21
661.30574
 31
0.0
  0
LINE
  5
1BDF6
  8
L1
 10
118.886295
 20
639.81742
 30
0.0
 11
116.436806
 21
640.084517
 31
0.0
  0
LINE
  5
1BDF7
  8
L1
 10
120.402368
 20
640.084517
 30
0.0
 11
120.009858
 21
639.81742
 31
0.0
  0
LINE
  5
1BDF8
  8
L1
 10
120.009858
 20
639.81742
 30
0.0
 11
118.886295
 21
639.81742
 31
0.0
  0
LINE
  5
1BDF9
  8
L1
 10
116.436806
 20
640.084517
 30
0.0
 11
120.402368
 21
640.084517
 31
0.0
  0
LINE
  5
1BDFB
  8
L1
 10
118.886295
 20
661.30574
 30
0.0
 11
118.886295
 21
664.30574
 31
0.0
  0
LINE
  5
1BDFC
  8
L1
 10
120.009858
 20
661.30574
 30
0.0
 11
120.009858
 21
664.30574
 31
0.0
  0
LINE
  5
1BE02
  8
L1
 10
120.009858
 20
166.328253
 30
0.0
 11
120.009858
 21
163.328253
 31
0.0
  0
LINE
  5
1BE03
  8
L1
 10
118.886295
 20
166.328253
 30
0.0
 11
118.886295
 21
163.328253
 31
0.0
  0
LINE
  5
1BE05
  8
L1
 10
116.436806
 20
163.061156
 30
0.0
 11
120.402368
 21
163.061156
 31
0.0
  0
LINE
  5
1BE06
  8
L1
 10
120.009858
 20
163.328253
 30
0.0
 11
118.886295
 21
163.328253
 31
0.0
  0
LINE
  5
1BE07
  8
L1
 10
120.402368
 20
163.061156
 30
0.0
 11
120.009858
 21
163.328253
 31
0.0
  0
LINE
  5
1BE08
  8
L1
 10
118.886295
 20
163.328253
 30
0.0
 11
116.436806
 21
163.061156
 31
0.0
  0
LINE
  5
1BE09
  8
L1
 10
118.886295
 20
166.328253
 30
0.0
 11
116.436806
 21
166.595349
 31
0.0
  0
LINE
  5
1BE0A
  8
L1
 10
120.402368
 20
166.595349
 30
0.0
 11
120.009858
 21
166.328253
 31
0.0
  0
LINE
  5
1BE0B
  8
L1
 10
120.009858
 20
166.328253
 30
0.0
 11
118.886295
 21
166.328253
 31
0.0
  0
LINE
  5
1BE0C
  8
L1
 10
116.436806
 20
166.595349
 30
0.0
 11
120.402368
 21
166.595349
 31
0.0
  0
LINE
  5
1BE0E
  8
L1
 10
120.009858
 20
141.839933
 30
0.0
 11
120.009858
 21
138.839933
 31
0.0
  0
LINE
  5
1BE0F
  8
L1
 10
118.886295
 20
141.839933
 30
0.0
 11
118.886295
 21
138.839933
 31
0.0
  0
LINE
  5
1BE11
  8
L1
 10
120.009858
 20
141.839933
 30
0.0
 11
118.886295
 21
141.839933
 31
0.0
  0
LINE
  5
1BE12
  8
L1
 10
120.402368
 20
142.107029
 30
0.0
 11
120.009858
 21
141.839933
 31
0.0
  0
LINE
  5
1BE13
  8
L1
 10
116.436806
 20
142.107029
 30
0.0
 11
120.402368
 21
142.107029
 31
0.0
  0
LINE
  5
1BE14
  8
L1
 10
118.886295
 20
141.839933
 30
0.0
 11
116.436806
 21
142.107029
 31
0.0
  0
LINE
  5
1BE15
  8
L1
 10
118.886295
 20
138.839933
 30
0.0
 11
116.436806
 21
138.572837
 31
0.0
  0
LINE
  5
1BE16
  8
L1
 10
120.009858
 20
138.839933
 30
0.0
 11
118.886295
 21
138.839933
 31
0.0
  0
LINE
  5
1BE17
  8
L1
 10
120.402368
 20
138.572837
 30
0.0
 11
120.009858
 21
138.839933
 31
0.0
  0
LINE
  5
1BE18
  8
L1
 10
116.436806
 20
138.572837
 30
0.0
 11
120.402368
 21
138.572837
 31
0.0
  0
LINE
  5
1BEDE
  8
L22
 10
-77.251146
 20
55.616654
 30
0.0
 11
-77.251146
 21
67.944622
 31
0.0
  0
LINE
  5
1BF21
  8
L1
 10
103.025053
 20
-14.958227
 30
0.0
 11
89.909204
 21
-14.958227
 31
0.0
  0
LINE
  5
1DE37
  8
L1
 10
368.876937
 20
112.072837
 30
0.0
 11
468.876937
 21
112.072837
 31
0.0
  0
LINE
  5
1DE38
  8
L1
 10
368.876937
 20
110.572837
 30
0.0
 11
468.876937
 21
110.572837
 31
0.0
  0
LINE
  5
1DE3D
  8
L1
 10
360.876937
 20
104.572837
 30
0.0
 11
460.876937
 21
104.572837
 31
0.0
  0
LINE
  5
1DE3E
  8
L1
 10
360.876937
 20
102.572837
 30
0.0
 11
460.876937
 21
102.572837
 31
0.0
  0
LINE
  5
1DE3F
  8
L1
 10
358.376937
 20
255.072837
 30
0.0
 11
358.376937
 21
105.072837
 31
0.0
  0
LINE
  5
1DE40
  8
L1
 10
358.376937
 20
105.072837
 30
0.0
 11
358.376937
 21
105.072837
 31
0.0
  0
LINE
  5
1DE41
  8
L1
 10
360.376937
 20
255.072837
 30
0.0
 11
360.376937
 21
105.072837
 31
0.0
  0
LINE
  5
1DE42
  8
L1
 10
366.376937
 20
263.072837
 30
0.0
 11
366.376937
 21
113.072837
 31
0.0
  0
LINE
  5
1DE43
  8
L1
 10
367.876937
 20
263.072837
 30
0.0
 11
367.876937
 21
113.072837
 31
0.0
  0
POINT
  5
1E601
  8
DEFPOINTS
  6
BYBLOCK
 62
     0
 10
-393.262569
 20
166.328253
 30
0.0
  0
POINT
  5
1E804
  8
DEFPOINTS
  6
BYBLOCK
 62
     0
 10
-383.062569
 20
138.572837
 30
0.0
  0
POINT
  5
1E805
  8
DEFPOINTS
  6
BYBLOCK
 62
     0
 10
-393.262569
 20
138.839933
 30
0.0
  0
POINT
  5
1E807
  8
DEFPOINTS
  6
BYBLOCK
 62
     0
 10
-393.262569
 20
138.839933
 30
0.0
  0
POINT
  5
1E810
  8
DEFPOINTS
  6
BYBLOCK
 62
     0
 10
-383.062569
 20
142.107029
 30
0.0
  0
POINT
  5
1E811
  8
DEFPOINTS
  6
BYBLOCK
 62
     0
 10
-393.649491
 20
141.839933
 30
0.0
  0
POINT
  5
1E813
  8
DEFPOINTS
  6
BYBLOCK
 62
     0
 10
-393.262569
 20
141.839933
 30
0.0
  0
POINT
  5
1E81B
  8
DEFPOINTS
  6
BYBLOCK
 62
     0
 10
-393.262569
 20
163.328253
 30
0.0
  0
POINT
  5
1E8C6
  8
DEFPOINTS
  6
BYBLOCK
 62
     0
 10
458.376937
 20
105.072837
 30
0.0
  0
POINT
  5
1E91A
  8
DEFPOINTS
  6
BYBLOCK
 62
     0
 10
-393.262569
 20
639.81742
 30
0.0
  0
POINT
  5
1E922
  8
DEFPOINTS
  6
BYBLOCK
 62
     0
 10
-393.262569
 20
664.30574
 30
0.0
  0
POINT
  5
1E923
  8
DEFPOINTS
  6
BYBLOCK
 62
     0
 10
-393.262569
 20
661.30574
 30
0.0
  0
POINT
  5
1E969
  8
DEFPOINTS
  6
BYBLOCK
 62
     0
 10
261.064749
 20
692.910235
 30
0.0
  0
POINT
  5
1E96A
  8
DEFPOINTS
  6
BYBLOCK
 62
     0
 10
223.758384
 20
694.891583
 30
0.0
  0
POINT
  5
1E96C
  8
DEFPOINTS
  6
BYBLOCK
 62
     0
 10
223.258384
 20
694.891583
 30
0.0
  0
LINE
  5
1E9EC
  8
L1
 10
-271.415854
 20
692.391583
 30
0.0
 11
-271.415854
 21
401.572837
 31
0.0
  0
LINE
  5
473BA
  8
L1
 10
366.376937
 20
119.959164
 30
0.0
 11
367.876937
 21
119.959164
 31
0.0
  0
LINE
  5
473BB
  8
L1
 10
366.376937
 20
128.392407
 30
0.0
 11
367.876937
 21
128.392407
 31
0.0
  0
LINE
  5
473BC
  8
L1
 10
375.495612
 20
110.572837
 30
0.0
 11
375.495612
 21
112.072837
 31
0.0
  0
LINE
  5
473BD
  8
L1
 10
383.928855
 20
110.572837
 30
0.0
 11
383.928855
 21
112.072837
 31
0.0
  0
LINE
  5
47934
  8
L1
 10
105.41831
 20
35.298817
 30
0.0
 11
105.41831
 21
38.798817
 31
0.0
  0
LINE
  5
47936
  8
L1
 10
98.41831
 20
38.798817
 30
0.0
 11
-77.251146
 21
38.798817
 31
0.0
  0
LINE
  5
4BFB3
  8
L1
 10
746.888464
 20
681.293321
 30
0.0
 11
748.376937
 21
681.293321
 31
0.0
  0
LINE
  5
4BFB4
  8
L1
 10
737.047647
 20
691.072837
 30
0.0
 11
737.047647
 21
692.572837
 31
0.0
  0
LINE
  5
4BFB5
  8
L1
 10
728.118016
 20
691.072837
 30
0.0
 11
728.118016
 21
692.572837
 31
0.0
  0
LINE
  5
4DC73
  8
L1
 10
376.259915
 20
692.572837
 30
0.0
 11
376.259915
 21
691.072837
 31
0.0
  0
LINE
  5
4DC74
  8
L1
 10
366.376937
 20
681.632129
 30
0.0
 11
367.876937
 21
681.632129
 31
0.0
  0
LINE
  5
4DC75
  8
L1
 10
385.597179
 20
692.572837
 30
0.0
 11
385.597179
 21
691.072837
 31
0.0
  0
LINE
  5
4DC76
  8
L1
 10
366.376937
 20
672.461033
 30
0.0
 11
367.876937
 21
672.461033
 31
0.0
  0
LINE
  5
4DC77
  8
L1
 10
366.376937
 20
426.567565
 30
0.0
 11
367.876937
 21
426.567565
 31
0.0
  0
LINE
  5
4DC78
  8
L1
 10
366.376937
 20
376.893748
 30
0.0
 11
367.876937
 21
376.893748
 31
0.0
  0
LINE
  5
4E438
  8
AM_VIS
 10
-411.195167
 20
417.008494
 30
-1.242857
 11
-402.980881
 21
417.008494
 31
-1.242857
  0
LINE
  5
4E439
  8
AM_VIS
 10
-402.980881
 20
416.821323
 30
-1.242857
 11
-411.195167
 21
416.821323
 31
-1.242857
  0
ARC
  5
4E43A
  8
AM_VIS
 10
-402.980881
 20
419.142751
 30
-1.242857
 40
2.134258
 50
270.0
 51
0.0
  0
ARC
  5
4E43B
  8
AM_VIS
 10
-402.980881
 20
419.142751
 30
-1.242857
 40
2.321429
 50
270.0
 51
0.0
  0
LINE
  5
4E43C
  8
AM_VIS
 10
-400.846623
 20
419.142751
 30
-1.242857
 11
-400.846623
 21
428.154124
 31
-1.242857
  0
LINE
  5
4E43D
  8
AM_VIS
 10
-400.659452
 20
428.154124
 30
-1.242857
 11
-400.659452
 21
419.142751
 31
-1.242857
  0
ARC
  5
4E43E
  8
AM_VIS
 10
-402.980881
 20
428.154124
 30
-1.242857
 40
2.134258
 50
0.0
 51
90.0
  0
ARC
  5
4E43F
  8
AM_VIS
 10
-402.980881
 20
428.154124
 30
-1.242857
 40
2.321429
 50
0.0
 51
90.0
  0
LINE
  5
4E440
  8
AM_VIS
 10
-402.980881
 20
430.288382
 30
-1.242857
 11
-411.195167
 21
430.288382
 31
-1.242857
  0
LINE
  5
4E441
  8
AM_VIS
 10
-411.195167
 20
430.475553
 30
-1.242857
 11
-402.980881
 21
430.475553
 31
-1.242857
  0
ARC
  5
4E442
  8
AM_VIS
 10
-411.195167
 20
428.154124
 30
-1.242857
 40
2.134258
 50
90.0
 51
180.0
  0
ARC
  5
4E443
  8
AM_VIS
 10
-411.195167
 20
428.154124
 30
-1.242857
 40
2.321429
 50
90.0
 51
180.0
  0
LINE
  5
4E444
  8
AM_VIS
 10
-413.329425
 20
428.154124
 30
-1.242857
 11
-413.329425
 21
419.142751
 31
-1.242857
  0
LINE
  5
4E445
  8
AM_VIS
 10
-413.516595
 20
419.142751
 30
-1.242857
 11
-413.516595
 21
428.154124
 31
-1.242857
  0
ARC
  5
4E446
  8
AM_VIS
 10
-411.195167
 20
419.142751
 30
-1.242857
 40
2.134258
 50
180.0
 51
270.0
  0
ARC
  5
4E447
  8
AM_VIS
 10
-411.195167
 20
419.142751
 30
-1.242857
 40
2.321429
 50
180.0
 51
270.0
  0
LINE
  5
4E448
  8
AM_VIS
 10
-400.846623
 20
390.56418
 30
-1.242857
 11
-400.846623
 21
401.805581
 31
-1.242857
  0
LINE
  5
4E449
  8
AM_VIS
 10
-400.659452
 20
390.377009
 30
-1.242857
 11
-400.846623
 21
390.56418
 31
-1.242857
  0
LINE
  5
4E44A
  8
AM_VIS
 10
-400.659452
 20
401.805581
 30
-1.242857
 11
-400.659452
 21
390.377009
 31
-1.242857
  0
ARC
  5
4E44B
  8
AM_VIS
 10
-402.980881
 20
401.805581
 30
-1.242857
 40
2.134258
 50
0.0
 51
180.0
  0
ARC
  5
4E44C
  8
AM_VIS
 10
-402.980881
 20
401.805581
 30
-1.242857
 40
2.321429
 50
0.0
 51
180.0
  0
LINE
  5
4E44D
  8
AM_VIS
 10
-405.115139
 20
401.805581
 30
-1.242857
 11
-405.115139
 21
390.56418
 31
-1.242857
  0
LINE
  5
4E44E
  8
AM_VIS
 10
-405.30231
 20
390.377009
 30
-1.242857
 11
-405.30231
 21
401.805581
 31
-1.242857
  0
LINE
  5
4E44F
  8
AM_VIS
 10
-405.30231
 20
390.377009
 30
-1.242857
 11
-405.115139
 21
390.56418
 31
-1.242857
  0
LINE
  5
4E450
  8
AM_VIS
 10
-405.115139
 20
390.56418
 30
-1.242857
 11
-400.846623
 21
390.56418
 31
-1.242857
  0
LINE
  5
4E451
  8
AM_VIS
 10
-400.659452
 20
390.377009
 30
-1.242857
 11
-405.30231
 21
390.377009
 31
-1.242857
  0
LINE
  5
4E452
  8
AM_VIS
 10
-409.060909
 20
390.56418
 30
-1.242857
 11
-409.060909
 21
401.805581
 31
-1.242857
  0
LINE
  5
4E453
  8
AM_VIS
 10
-408.873738
 20
390.377009
 30
-1.242857
 11
-409.060909
 21
390.56418
 31
-1.242857
  0
LINE
  5
4E454
  8
AM_VIS
 10
-408.873738
 20
401.805581
 30
-1.242857
 11
-408.873738
 21
390.377009
 31
-1.242857
  0
ARC
  5
4E455
  8
AM_VIS
 10
-411.195167
 20
401.805581
 30
-1.242857
 40
2.134258
 50
0.0
 51
180.0
  0
ARC
  5
4E456
  8
AM_VIS
 10
-411.195167
 20
401.805581
 30
-1.242857
 40
2.321429
 50
0.0
 51
180.0
  0
LINE
  5
4E457
  8
AM_VIS
 10
-413.329425
 20
401.805581
 30
-1.242857
 11
-413.329425
 21
390.56418
 31
-1.242857
  0
LINE
  5
4E458
  8
AM_VIS
 10
-413.516595
 20
390.377009
 30
-1.242857
 11
-413.516595
 21
401.805581
 31
-1.242857
  0
LINE
  5
4E459
  8
AM_VIS
 10
-413.516595
 20
390.377009
 30
-1.242857
 11
-413.329425
 21
390.56418
 31
-1.242857
  0
LINE
  5
4E45A
  8
AM_VIS
 10
-413.329425
 20
390.56418
 30
-1.242857
 11
-409.060909
 21
390.56418
 31
-1.242857
  0
LINE
  5
4E45B
  8
AM_VIS
 10
-408.873738
 20
390.377009
 30
-1.242857
 11
-413.516595
 21
390.377009
 31
-1.242857
  0
LINE
  5
4E45C
  8
AM_VIS
 10
-410.747701
 20
446.448438
 30
-1.242857
 11
-416.900853
 21
452.168544
 31
-1.242857
  0
LINE
  5
4E45D
  8
AM_VIS
 10
-417.088024
 20
452.076225
 30
-1.242857
 11
-416.900853
 21
452.168544
 31
-1.242857
  0
LINE
  5
4E45E
  8
AM_VIS
 10
-411.055218
 20
446.448438
 30
-1.242857
 11
-417.088024
 21
452.076225
 31
-1.242857
  0
LINE
  5
4E45F
  8
AM_VIS
 10
-411.055218
 20
446.448438
 30
-1.242857
 11
-410.747701
 21
446.448438
 31
-1.242857
  0
LINE
  5
4E460
  8
AM_VIS
 10
-416.900853
 20
440.728332
 30
-1.242857
 11
-410.747701
 21
446.448438
 31
-1.242857
  0
LINE
  5
4E461
  8
AM_VIS
 10
-417.088024
 20
440.820651
 30
-1.242857
 11
-411.055218
 21
446.448438
 31
-1.242857
  0
LINE
  5
4E462
  8
AM_VIS
 10
-417.088024
 20
440.820651
 30
-1.242857
 11
-416.900853
 21
440.728332
 31
-1.242857
  0
LINE
  5
4E463
  8
AM_VIS
 10
-416.900853
 20
452.168544
 30
-1.242857
 11
-416.900853
 21
457.783246
 31
-1.242857
  0
LINE
  5
4E464
  8
AM_VIS
 10
-417.088024
 20
458.162724
 30
-1.242857
 11
-416.900853
 21
457.783246
 31
-1.242857
  0
LINE
  5
4E465
  8
AM_VIS
 10
-417.088024
 20
452.076225
 30
-1.242857
 11
-417.088024
 21
458.162724
 31
-1.242857
  0
LINE
  5
4E466
  8
AM_VIS
 10
-407.088024
 20
449.255789
 30
-1.242857
 11
-397.275194
 21
457.783246
 31
-1.242857
  0
LINE
  5
4E467
  8
AM_VIS
 10
-397.088024
 20
458.162724
 30
-1.242857
 11
-397.275194
 21
457.783246
 31
-1.242857
  0
LINE
  5
4E468
  8
AM_VIS
 10
-407.088024
 20
449.491687
 30
-1.242857
 11
-397.088024
 21
458.162724
 31
-1.242857
  0
LINE
  5
4E469
  8
AM_VIS
 10
-407.088024
 20
449.491687
 30
-1.242857
 11
-407.088024
 21
449.255789
 31
-1.242857
  0
LINE
  5
4E46A
  8
AM_VIS
 10
-416.900853
 20
457.783246
 30
-1.242857
 11
-407.088024
 21
449.255789
 31
-1.242857
  0
LINE
  5
4E46B
  8
AM_VIS
 10
-417.088024
 20
458.162724
 30
-1.242857
 11
-407.088024
 21
449.491687
 31
-1.242857
  0
LINE
  5
4E46C
  8
AM_VIS
 10
-397.275194
 20
457.783246
 30
-1.242857
 11
-397.275194
 21
452.168544
 31
-1.242857
  0
LINE
  5
4E46D
  8
AM_VIS
 10
-397.088024
 20
452.076225
 30
-1.242857
 11
-397.275194
 21
452.168544
 31
-1.242857
  0
LINE
  5
4E46E
  8
AM_VIS
 10
-397.088024
 20
458.162724
 30
-1.242857
 11
-397.088024
 21
452.076225
 31
-1.242857
  0
LINE
  5
4E46F
  8
AM_VIS
 10
-403.428347
 20
446.448438
 30
-1.242857
 11
-397.275194
 21
440.728332
 31
-1.242857
  0
LINE
  5
4E470
  8
AM_VIS
 10
-397.088024
 20
440.820651
 30
-1.242857
 11
-397.275194
 21
440.728332
 31
-1.242857
  0
LINE
  5
4E471
  8
AM_VIS
 10
-403.120829
 20
446.448438
 30
-1.242857
 11
-397.088024
 21
440.820651
 31
-1.242857
  0
LINE
  5
4E472
  8
AM_VIS
 10
-403.120829
 20
446.448438
 30
-1.242857
 11
-403.428347
 21
446.448438
 31
-1.242857
  0
LINE
  5
4E473
  8
AM_VIS
 10
-397.275194
 20
452.168544
 30
-1.242857
 11
-403.428347
 21
446.448438
 31
-1.242857
  0
LINE
  5
4E474
  8
AM_VIS
 10
-397.088024
 20
452.076225
 30
-1.242857
 11
-403.120829
 21
446.448438
 31
-1.242857
  0
LINE
  5
4E475
  8
AM_VIS
 10
-397.275194
 20
440.728332
 30
-1.242857
 11
-397.275194
 21
435.11363
 31
-1.242857
  0
LINE
  5
4E476
  8
AM_VIS
 10
-397.088024
 20
434.734152
 30
-1.242857
 11
-397.275194
 21
435.11363
 31
-1.242857
  0
LINE
  5
4E477
  8
AM_VIS
 10
-397.088024
 20
440.820651
 30
-1.242857
 11
-397.088024
 21
434.734152
 31
-1.242857
  0
LINE
  5
4E478
  8
AM_VIS
 10
-407.088024
 20
443.641087
 30
-1.242857
 11
-416.900853
 21
435.11363
 31
-1.242857
  0
LINE
  5
4E479
  8
AM_VIS
 10
-417.088024
 20
434.734152
 30
-1.242857
 11
-416.900853
 21
435.11363
 31
-1.242857
  0
LINE
  5
4E47A
  8
AM_VIS
 10
-407.088024
 20
443.405189
 30
-1.242857
 11
-417.088024
 21
434.734152
 31
-1.242857
  0
LINE
  5
4E47B
  8
AM_VIS
 10
-407.088024
 20
443.405189
 30
-1.242857
 11
-407.088024
 21
443.641087
 31
-1.242857
  0
LINE
  5
4E47C
  8
AM_VIS
 10
-397.275194
 20
435.11363
 30
-1.242857
 11
-407.088024
 21
443.641087
 31
-1.242857
  0
LINE
  5
4E47D
  8
AM_VIS
 10
-397.088024
 20
434.734152
 30
-1.242857
 11
-407.088024
 21
443.405189
 31
-1.242857
  0
LINE
  5
4E47E
  8
AM_VIS
 10
-416.900853
 20
435.11363
 30
-1.242857
 11
-416.900853
 21
440.728332
 31
-1.242857
  0
LINE
  5
4E47F
  8
AM_VIS
 10
-417.088024
 20
434.734152
 30
-1.242857
 11
-417.088024
 21
440.820651
 31
-1.242857
  0
LINE
  5
4E480
  8
AM_VIS
 10
-416.900853
 20
418.348438
 30
-1.242857
 11
-416.900853
 21
428.948438
 31
-1.242857
  0
LINE
  5
4E481
  8
AM_VIS
 10
-417.088024
 20
418.348438
 30
-1.242857
 11
-417.088024
 21
428.948438
 31
-1.242857
  0
ARC
  5
4E482
  8
AM_VIS
 10
-411.373738
 20
428.948438
 30
-1.242857
 40
5.527115
 50
90.0
 51
180.0
  0
ARC
  5
4E483
  8
AM_VIS
 10
-411.373738
 20
428.948438
 30
-1.242857
 40
5.714286
 50
90.0
 51
180.0
  0
LINE
  5
4E484
  8
AM_VIS
 10
-411.373738
 20
434.475553
 30
-1.242857
 11
-402.80231
 21
434.475553
 31
-1.242857
  0
LINE
  5
4E485
  8
AM_VIS
 10
-411.373738
 20
434.662724
 30
-1.242857
 11
-402.80231
 21
434.662724
 31
-1.242857
  0
ARC
  5
4E486
  8
AM_VIS
 10
-402.80231
 20
428.948438
 30
-1.242857
 40
5.527115
 50
0.0
 51
90.0
  0
ARC
  5
4E487
  8
AM_VIS
 10
-402.80231
 20
428.948438
 30
-1.242857
 40
5.714286
 50
0.0
 51
90.0
  0
LINE
  5
4E488
  8
AM_VIS
 10
-397.275194
 20
428.948438
 30
-1.242857
 11
-397.275194
 21
418.348438
 31
-1.242857
  0
LINE
  5
4E489
  8
AM_VIS
 10
-397.088024
 20
428.948438
 30
-1.242857
 11
-397.088024
 21
418.348438
 31
-1.242857
  0
ARC
  5
4E48A
  8
AM_VIS
 10
-402.80231
 20
418.348438
 30
-1.242857
 40
5.527115
 50
270.0
 51
0.0
  0
ARC
  5
4E48B
  8
AM_VIS
 10
-402.80231
 20
418.348438
 30
-1.242857
 40
5.714286
 50
270.0
 51
0.0
  0
LINE
  5
4E48C
  8
AM_VIS
 10
-402.80231
 20
412.821323
 30
-1.242857
 11
-411.373738
 21
412.821323
 31
-1.242857
  0
LINE
  5
4E48D
  8
AM_VIS
 10
-402.80231
 20
412.634152
 30
-1.242857
 11
-411.373738
 21
412.634152
 31
-1.242857
  0
ARC
  5
4E48E
  8
AM_VIS
 10
-411.373738
 20
418.348438
 30
-1.242857
 40
5.527115
 50
180.0
 51
270.0
  0
ARC
  5
4E48F
  8
AM_VIS
 10
-411.373738
 20
418.348438
 30
-1.242857
 40
5.714286
 50
180.0
 51
270.0
  0
LINE
  5
4E490
  8
AM_VIS
 10
-416.900853
 20
351.992751
 30
-1.242857
 11
-416.900853
 21
373.046982
 31
-1.242857
  0
LINE
  5
4E491
  8
AM_VIS
 10
-417.088024
 20
373.234152
 30
-1.242857
 11
-416.900853
 21
373.046982
 31
-1.242857
  0
LINE
  5
4E492
  8
AM_VIS
 10
-417.088024
 20
351.805581
 30
-1.242857
 11
-417.088024
 21
373.234152
 31
-1.242857
  0
LINE
  5
4E493
  8
AM_VIS
 10
-417.088024
 20
351.805581
 30
-1.242857
 11
-416.900853
 21
351.992751
 31
-1.242857
  0
LINE
  5
4E494
  8
AM_VIS
 10
-416.900853
 20
373.046982
 30
-1.242857
 11
-413.703766
 21
373.046982
 31
-1.242857
  0
LINE
  5
4E495
  8
AM_VIS
 10
-413.516595
 20
373.234152
 30
-1.242857
 11
-413.703766
 21
373.046982
 31
-1.242857
  0
LINE
  5
4E496
  8
AM_VIS
 10
-417.088024
 20
373.234152
 30
-1.242857
 11
-413.516595
 21
373.234152
 31
-1.242857
  0
LINE
  5
4E497
  8
AM_VIS
 10
-413.703766
 20
373.046982
 30
-1.242857
 11
-413.703766
 21
356.61841
 31
-1.242857
  0
LINE
  5
4E498
  8
AM_VIS
 10
-413.516595
 20
356.805581
 30
-1.242857
 11
-413.703766
 21
356.61841
 31
-1.242857
  0
LINE
  5
4E499
  8
AM_VIS
 10
-413.516595
 20
373.234152
 30
-1.242857
 11
-413.516595
 21
356.805581
 31
-1.242857
  0
LINE
  5
4E49A
  8
AM_VIS
 10
-408.686567
 20
356.61841
 30
-1.242857
 11
-408.686567
 21
370.904124
 31
-1.242857
  0
LINE
  5
4E49B
  8
AM_VIS
 10
-408.873738
 20
371.091295
 30
-1.242857
 11
-408.686567
 21
370.904124
 31
-1.242857
  0
LINE
  5
4E49C
  8
AM_VIS
 10
-408.873738
 20
356.805581
 30
-1.242857
 11
-408.873738
 21
371.091295
 31
-1.242857
  0
LINE
  5
4E49D
  8
AM_VIS
 10
-408.873738
 20
356.805581
 30
-1.242857
 11
-408.686567
 21
356.61841
 31
-1.242857
  0
LINE
  5
4E49E
  8
AM_VIS
 10
-413.703766
 20
356.61841
 30
-1.242857
 11
-408.686567
 21
356.61841
 31
-1.242857
  0
LINE
  5
4E49F
  8
AM_VIS
 10
-413.516595
 20
356.805581
 30
-1.242857
 11
-408.873738
 21
356.805581
 31
-1.242857
  0
LINE
  5
4E4A0
  8
AM_VIS
 10
-408.686567
 20
370.904124
 30
-1.242857
 11
-405.48948
 21
370.904124
 31
-1.242857
  0
LINE
  5
4E4A1
  8
AM_VIS
 10
-405.30231
 20
371.091295
 30
-1.242857
 11
-405.48948
 21
370.904124
 31
-1.242857
  0
LINE
  5
4E4A2
  8
AM_VIS
 10
-408.873738
 20
371.091295
 30
-1.242857
 11
-405.30231
 21
371.091295
 31
-1.242857
  0
LINE
  5
4E4A3
  8
AM_VIS
 10
-405.48948
 20
356.61841
 30
-1.242857
 11
-397.275194
 21
356.61841
 31
-1.242857
  0
LINE
  5
4E4A4
  8
AM_VIS
 10
-397.088024
 20
356.805581
 30
-1.242857
 11
-397.275194
 21
356.61841
 31
-1.242857
  0
LINE
  5
4E4A5
  8
AM_VIS
 10
-405.30231
 20
356.805581
 30
-1.242857
 11
-397.088024
 21
356.805581
 31
-1.242857
  0
LINE
  5
4E4A6
  8
AM_VIS
 10
-405.30231
 20
356.805581
 30
-1.242857
 11
-405.48948
 21
356.61841
 31
-1.242857
  0
LINE
  5
4E4A7
  8
AM_VIS
 10
-405.48948
 20
370.904124
 30
-1.242857
 11
-405.48948
 21
356.61841
 31
-1.242857
  0
LINE
  5
4E4A8
  8
AM_VIS
 10
-405.30231
 20
371.091295
 30
-1.242857
 11
-405.30231
 21
356.805581
 31
-1.242857
  0
LINE
  5
4E4A9
  8
AM_VIS
 10
-397.275194
 20
356.61841
 30
-1.242857
 11
-397.275194
 21
351.992751
 31
-1.242857
  0
LINE
  5
4E4AA
  8
AM_VIS
 10
-397.088024
 20
351.805581
 30
-1.242857
 11
-397.275194
 21
351.992751
 31
-1.242857
  0
LINE
  5
4E4AB
  8
AM_VIS
 10
-397.088024
 20
356.805581
 30
-1.242857
 11
-397.088024
 21
351.805581
 31
-1.242857
  0
LINE
  5
4E4AC
  8
AM_VIS
 10
-397.275194
 20
351.992751
 30
-1.242857
 11
-416.900853
 21
351.992751
 31
-1.242857
  0
LINE
  5
4E4AD
  8
AM_VIS
 10
-397.088024
 20
351.805581
 30
-1.242857
 11
-417.088024
 21
351.805581
 31
-1.242857
  0
LINE
  5
4E4AE
  8
AM_VIS
 10
-416.900853
 20
376.992751
 30
-1.242857
 11
-416.900853
 21
381.61841
 31
-1.242857
  0
LINE
  5
4E4AF
  8
AM_VIS
 10
-417.088024
 20
381.805581
 30
-1.242857
 11
-416.900853
 21
381.61841
 31
-1.242857
  0
LINE
  5
4E4B0
  8
AM_VIS
 10
-417.088024
 20
376.805581
 30
-1.242857
 11
-417.088024
 21
381.805581
 31
-1.242857
  0
LINE
  5
4E4B1
  8
AM_VIS
 10
-417.088024
 20
376.805581
 30
-1.242857
 11
-416.900853
 21
376.992751
 31
-1.242857
  0
LINE
  5
4E4B2
  8
AM_VIS
 10
-416.900853
 20
381.61841
 30
-1.242857
 11
-397.275194
 21
381.61841
 31
-1.242857
  0
LINE
  5
4E4B3
  8
AM_VIS
 10
-397.088024
 20
381.805581
 30
-1.242857
 11
-397.275194
 21
381.61841
 31
-1.242857
  0
LINE
  5
4E4B4
  8
AM_VIS
 10
-417.088024
 20
381.805581
 30
-1.242857
 11
-397.088024
 21
381.805581
 31
-1.242857
  0
LINE
  5
4E4B5
  8
AM_VIS
 10
-397.275194
 20
381.61841
 30
-1.242857
 11
-397.275194
 21
376.992751
 31
-1.242857
  0
LINE
  5
4E4B6
  8
AM_VIS
 10
-397.088024
 20
376.805581
 30
-1.242857
 11
-397.275194
 21
376.992751
 31
-1.242857
  0
LINE
  5
4E4B7
  8
AM_VIS
 10
-397.088024
 20
381.805581
 30
-1.242857
 11
-397.088024
 21
376.805581
 31
-1.242857
  0
LINE
  5
4E4B8
  8
AM_VIS
 10
-397.275194
 20
376.992751
 30
-1.242857
 11
-416.900853
 21
376.992751
 31
-1.242857
  0
LINE
  5
4E4B9
  8
AM_VIS
 10
-397.088024
 20
376.805581
 30
-1.242857
 11
-417.088024
 21
376.805581
 31
-1.242857
  0
ARC
  5
4E4BA
  8
AM_VIS
 10
-411.373738
 20
403.948438
 30
-1.242857
 40
5.527115
 50
41.409622
 51
180.0
  0
ARC
  5
4E4BB
  8
AM_VIS
 10
-411.373738
 20
403.948438
 30
-1.242857
 40
5.714286
 50
41.409622
 51
180.0
  0
ARC
  5
4E4BC
  8
AM_VIS
 10
-402.80231
 20
403.948438
 30
-1.242857
 40
5.527115
 50
0.0
 51
138.590378
  0
ARC
  5
4E4BD
  8
AM_VIS
 10
-402.80231
 20
403.948438
 30
-1.242857
 40
5.714286
 50
0.0
 51
138.590378
  0
LINE
  5
4E4BE
  8
AM_VIS
 10
-407.228402
 20
407.604281
 30
-1.242857
 11
-407.088024
 21
407.445107
 31
-1.242857
  0
LINE
  5
4E4BF
  8
AM_VIS
 10
-407.088024
 20
407.728083
 30
-1.242857
 11
-407.088024
 21
407.445107
 31
-1.242857
  0
LINE
  5
4E4C0
  8
AM_VIS
 10
-407.088024
 20
407.445107
 30
-1.242857
 11
-406.947646
 21
407.604281
 31
-1.242857
  0
LINE
  5
4E4C1
  8
AM_VIS
 10
-397.275194
 20
403.948438
 30
-1.242857
 11
-397.275194
 21
385.56418
 31
-1.242857
  0
LINE
  5
4E4C2
  8
AM_VIS
 10
-397.088024
 20
385.377009
 30
-1.242857
 11
-397.275194
 21
385.56418
 31
-1.242857
  0
LINE
  5
4E4C3
  8
AM_VIS
 10
-397.088024
 20
403.948438
 30
-1.242857
 11
-397.088024
 21
385.377009
 31
-1.242857
  0
LINE
  5
4E4C4
  8
AM_VIS
 10
-397.275194
 20
385.56418
 30
-1.242857
 11
-416.900853
 21
385.56418
 31
-1.242857
  0
LINE
  5
4E4C5
  8
AM_VIS
 10
-417.088024
 20
385.377009
 30
-1.242857
 11
-416.900853
 21
385.56418
 31
-1.242857
  0
LINE
  5
4E4C6
  8
AM_VIS
 10
-397.088024
 20
385.377009
 30
-1.242857
 11
-417.088024
 21
385.377009
 31
-1.242857
  0
LINE
  5
4E4C7
  8
AM_VIS
 10
-416.900853
 20
385.56418
 30
-1.242857
 11
-416.900853
 21
403.948438
 31
-1.242857
  0
LINE
  5
4E4C8
  8
AM_VIS
 10
-417.088024
 20
385.377009
 30
-1.242857
 11
-417.088024
 21
403.948438
 31
-1.242857
  0
LINE
  5
52CFD
  8
L1
 10
-383.062569
 20
441.922213
 30
0.0
 11
-393.262569
 21
441.655117
 31
0.0
1001
ACAD
1000
ASC_BOUNDS
1002
{
1070
    19
1002
}
  0
LINE
  5
52CFE
  8
L1
 10
-383.062569
 20
438.388021
 30
0.0
 11
-393.262569
 21
438.655117
 31
0.0
1001
ACAD
1000
ASC_BOUNDS
1002
{
1070
    19
1002
}
  0
POINT
  5
52CFF
  8
DEFPOINTS
  6
BYBLOCK
 62
     0
 10
-393.262569
 20
441.655117
 30
0.0
  0
LINE
  5
52D00
  8
L1
 10
-393.262569
 20
438.655117
 30
0.0
 11
-393.262569
 21
441.655117
 31
0.0
1001
ACAD
1000
ASC_BOUNDS
1002
{
1070
    19
1002
}
  0
LINE
  5
52D01
  8
L1
 10
-383.062569
 20
466.410533
 30
0.0
 11
-393.262569
 21
466.143437
 31
0.0
1001
ACAD
1000
ASC_BOUNDS
1002
{
1070
    19
1002
}
  0
LINE
  5
52D02
  8
L1
 10
-383.062569
 20
462.87634
 30
0.0
 11
-393.262569
 21
463.143437
 31
0.0
1001
ACAD
1000
ASC_BOUNDS
1002
{
1070
    19
1002
}
  0
POINT
  5
52D03
  8
DEFPOINTS
  6
BYBLOCK
 62
     0
 10
-393.262569
 20
466.143437
 30
0.0
  0
POINT
  5
52D04
  8
DEFPOINTS
  6
BYBLOCK
 62
     0
 10
-393.262569
 20
463.143437
 30
0.0
  0
LINE
  5
52D05
  8
L1
 10
-393.262569
 20
463.143437
 30
0.0
 11
-393.262569
 21
466.143437
 31
0.0
1001
ACAD
1000
ASC_BOUNDS
1002
{
1070
    19
1002
}
  0
LINE
  5
52D06
  8
L1
 10
-386.562569
 20
462.967991
 30
0.0
 11
-386.562569
 21
441.830563
 31
0.0
  0
LINE
  5
52D08
  8
L1
 10
-386.562569
 20
438.479671
 30
0.0
 11
-386.562569
 21
401.572837
 31
0.0
  0
LINE
  5
52D0C
  8
L1
 10
-383.062569
 20
340.107029
 30
0.0
 11
-393.262569
 21
339.839933
 31
0.0
1001
ACAD
1000
ASC_BOUNDS
1002
{
1070
    19
1002
}
  0
LINE
  5
52D0D
  8
L1
 10
-383.062569
 20
336.572837
 30
0.0
 11
-393.262569
 21
336.839933
 31
0.0
1001
ACAD
1000
ASC_BOUNDS
1002
{
1070
    19
1002
}
  0
POINT
  5
52D0E
  8
DEFPOINTS
  6
BYBLOCK
 62
     0
 10
-393.262569
 20
339.839933
 30
0.0
  0
POINT
  5
52D0F
  8
DEFPOINTS
  6
BYBLOCK
 62
     0
 10
-393.649491
 20
339.839933
 30
0.0
  0
POINT
  5
52D10
  8
DEFPOINTS
  6
BYBLOCK
 62
     0
 10
-393.262569
 20
336.839933
 30
0.0
  0
POINT
  5
52D11
  8
DEFPOINTS
  6
BYBLOCK
 62
     0
 10
-393.262569
 20
336.839933
 30
0.0
  0
LINE
  5
52D12
  8
L1
 10
-393.262569
 20
339.839933
 30
0.0
 11
-393.262569
 21
336.839933
 31
0.0
1001
ACAD
1000
ASC_BOUNDS
1002
{
1070
    19
1002
}
  0
POINT
  5
52D13
  8
DEFPOINTS
  6
BYBLOCK
 62
     0
 10
-383.062569
 20
340.107029
 30
0.0
  0
POINT
  5
52D14
  8
DEFPOINTS
  6
BYBLOCK
 62
     0
 10
-383.062569
 20
336.572837
 30
0.0
  0
LINE
  5
52D1A
  8
L1
 10
-383.062569
 20
361.061156
 30
0.0
 11
-393.262569
 21
361.328253
 31
0.0
1001
ACAD
1000
ASC_BOUNDS
1002
{
1070
    19
1002
}
  0
LINE
  5
52D1B
  8
L1
 10
-383.062569
 20
364.595349
 30
0.0
 11
-393.262569
 21
364.328253
 31
0.0
1001
ACAD
1000
ASC_BOUNDS
1002
{
1070
    19
1002
}
  0
POINT
  5
52D1C
  8
DEFPOINTS
  6
BYBLOCK
 62
     0
 10
-393.262569
 20
361.328253
 30
0.0
  0
POINT
  5
52D1D
  8
DEFPOINTS
  6
BYBLOCK
 62
     0
 10
-393.262569
 20
364.328253
 30
0.0
  0
LINE
  5
52D1E
  8
L1
 10
-393.262569
 20
364.328253
 30
0.0
 11
-393.262569
 21
361.328253
 31
0.0
1001
ACAD
1000
ASC_BOUNDS
1002
{
1070
    19
1002
}
  0
LINE
  5
52D24
  8
L1
 10
-386.562569
 20
340.015379
 30
0.0
 11
-386.562569
 21
361.152807
 31
0.0
  0
LINE
  5
52D27
  8
L1
 10
-386.562569
 20
364.503698
 30
0.0
 11
-386.562569
 21
401.572837
 31
0.0
  0
LINE
  5
52D2D
  8
L1
 10
116.436806
 20
336.572837
 30
0.0
 11
120.402368
 21
336.572837
 31
0.0
  0
LINE
  5
52D2E
  8
L1
 10
120.402368
 20
336.572837
 30
0.0
 11
120.009858
 21
336.839933
 31
0.0
  0
LINE
  5
52D2F
  8
L1
 10
120.009858
 20
336.839933
 30
0.0
 11
118.886295
 21
336.839933
 31
0.0
  0
LINE
  5
52D30
  8
L1
 10
118.886295
 20
336.839933
 30
0.0
 11
116.436806
 21
336.572837
 31
0.0
  0
LINE
  5
52D31
  8
L1
 10
118.886295
 20
339.839933
 30
0.0
 11
116.436806
 21
340.107029
 31
0.0
  0
LINE
  5
52D32
  8
L1
 10
116.436806
 20
340.107029
 30
0.0
 11
120.402368
 21
340.107029
 31
0.0
  0
LINE
  5
52D33
  8
L1
 10
120.402368
 20
340.107029
 30
0.0
 11
120.009858
 21
339.839933
 31
0.0
  0
LINE
  5
52D34
  8
L1
 10
120.009858
 20
339.839933
 30
0.0
 11
118.886295
 21
339.839933
 31
0.0
  0
LINE
  5
52D36
  8
L1
 10
118.886295
 20
339.839933
 30
0.0
 11
118.886295
 21
336.839933
 31
0.0
  0
LINE
  5
52D37
  8
L1
 10
120.009858
 20
339.839933
 30
0.0
 11
120.009858
 21
336.839933
 31
0.0
  0
LINE
  5
52D39
  8
L1
 10
116.436806
 20
364.595349
 30
0.0
 11
120.402368
 21
364.595349
 31
0.0
  0
LINE
  5
52D3A
  8
L1
 10
120.009858
 20
364.328253
 30
0.0
 11
118.886295
 21
364.328253
 31
0.0
  0
LINE
  5
52D3B
  8
L1
 10
120.402368
 20
364.595349
 30
0.0
 11
120.009858
 21
364.328253
 31
0.0
  0
LINE
  5
52D3C
  8
L1
 10
118.886295
 20
364.328253
 30
0.0
 11
116.436806
 21
364.595349
 31
0.0
  0
LINE
  5
52D3D
  8
L1
 10
118.886295
 20
361.328253
 30
0.0
 11
116.436806
 21
361.061156
 31
0.0
  0
LINE
  5
52D3E
  8
L1
 10
120.402368
 20
361.061156
 30
0.0
 11
120.009858
 21
361.328253
 31
0.0
  0
LINE
  5
52D3F
  8
L1
 10
120.009858
 20
361.328253
 30
0.0
 11
118.886295
 21
361.328253
 31
0.0
  0
LINE
  5
52D40
  8
L1
 10
116.436806
 20
361.061156
 30
0.0
 11
120.402368
 21
361.061156
 31
0.0
  0
LINE
  5
52D42
  8
L1
 10
118.886295
 20
364.328253
 30
0.0
 11
118.886295
 21
361.328253
 31
0.0
  0
LINE
  5
52D43
  8
L1
 10
120.009858
 20
364.328253
 30
0.0
 11
120.009858
 21
361.328253
 31
0.0
  0
LINE
  5
52D47
  8
L1
 10
116.436806
 20
441.922213
 30
0.0
 11
120.402368
 21
441.922213
 31
0.0
  0
LINE
  5
52D48
  8
L1
 10
120.009858
 20
441.655117
 30
0.0
 11
118.886295
 21
441.655117
 31
0.0
  0
LINE
  5
52D49
  8
L1
 10
120.402368
 20
441.922213
 30
0.0
 11
120.009858
 21
441.655117
 31
0.0
  0
LINE
  5
52D4A
  8
L1
 10
118.886295
 20
441.655117
 30
0.0
 11
116.436806
 21
441.922213
 31
0.0
  0
LINE
  5
52D4B
  8
L1
 10
120.009858
 20
438.655117
 30
0.0
 11
118.886295
 21
438.655117
 31
0.0
  0
LINE
  5
52D4C
  8
L1
 10
120.402368
 20
438.388021
 30
0.0
 11
120.009858
 21
438.655117
 31
0.0
  0
LINE
  5
52D4D
  8
L1
 10
118.886295
 20
438.655117
 30
0.0
 11
116.436806
 21
438.388021
 31
0.0
  0
LINE
  5
52D4E
  8
L1
 10
116.436806
 20
438.388021
 30
0.0
 11
120.402368
 21
438.388021
 31
0.0
  0
LINE
  5
52D51
  8
L1
 10
118.886295
 20
438.655117
 30
0.0
 11
118.886295
 21
441.655117
 31
0.0
  0
LINE
  5
52D52
  8
L1
 10
120.009858
 20
438.655117
 30
0.0
 11
120.009858
 21
441.655117
 31
0.0
  0
LINE
  5
52D53
  8
L1
 10
120.402368
 20
466.410533
 30
0.0
 11
120.009858
 21
466.143437
 31
0.0
  0
LINE
  5
52D54
  8
L1
 10
120.009858
 20
466.143437
 30
0.0
 11
118.886295
 21
466.143437
 31
0.0
  0
LINE
  5
52D55
  8
L1
 10
116.436806
 20
466.410533
 30
0.0
 11
120.402368
 21
466.410533
 31
0.0
  0
LINE
  5
52D56
  8
L1
 10
118.886295
 20
466.143437
 30
0.0
 11
116.436806
 21
466.410533
 31
0.0
  0
LINE
  5
52D57
  8
L1
 10
120.009858
 20
463.143437
 30
0.0
 11
118.886295
 21
463.143437
 31
0.0
  0
LINE
  5
52D58
  8
L1
 10
120.402368
 20
462.87634
 30
0.0
 11
120.009858
 21
463.143437
 31
0.0
  0
LINE
  5
52D59
  8
L1
 10
116.436806
 20
462.87634
 30
0.0
 11
120.402368
 21
462.87634
 31
0.0
  0
LINE
  5
52D5A
  8
L1
 10
118.886295
 20
463.143437
 30
0.0
 11
116.436806
 21
462.87634
 31
0.0
  0
LINE
  5
52D5C
  8
L1
 10
120.009858
 20
463.143437
 30
0.0
 11
120.009858
 21
466.143437
 31
0.0
  0
LINE
  5
52D5D
  8
L1
 10
118.886295
 20
463.143437
 30
0.0
 11
118.886295
 21
466.143437
 31
0.0
  0
LINE
  5
530E1
  8
L1
 10
756.376937
 20
105.072837
 30
0.0
 11
756.376937
 21
698.072837
 31
0.0
  0
LINE
  5
2DB0FA
  8
L1
 10
-376.222459
 20
118.903697
 30
0.0
 11
-379.794889
 21
118.87252
 31
0.0
  0
LINE
  5
2DB0FB
  8
L1
 10
-376.222459
 20
125.903963
 30
0.0
 11
-379.855975
 21
125.872254
 31
0.0
  0
LINE
  5
2DB0FC
  8
L1
 10
-376.222459
 20
125.903963
 30
0.0
 11
-376.222459
 21
376.572837
 31
0.0
  0
LINE
  5
2DB102
  8
L1
 10
98.41831
 20
35.298817
 30
0.0
 11
98.41831
 21
38.798817
 31
0.0
  0
LINE
  5
2DB93E
  8
L1
 10
210.061323
 20
684.241976
 30
0.0
 11
213.633753
 21
684.273153
 31
0.0
  0
LINE
  5
2DB93F
  8
L1
 10
210.061323
 20
677.24171
 30
0.0
 11
213.694839
 21
677.273419
 31
0.0
  0
LINE
  5
2DB943
  8
L1
 10
213.561323
 20
426.572837
 30
0.0
 11
210.061323
 21
426.572837
 31
0.0
  0
LINE
  5
2DBD0B
  8
L1
 10
-379.722459
 20
684.242292
 30
0.0
 11
-376.222459
 21
684.242292
 31
0.0
  0
LINE
  5
2DBD0C
  8
L1
 10
-379.722459
 20
677.242292
 30
0.0
 11
-376.222459
 21
677.242292
 31
0.0
  0
LINE
  5
2DBD0D
  8
L1
 10
-376.222459
 20
677.242292
 30
0.0
 11
-376.222459
 21
426.572837
 31
0.0
  0
LINE
  5
2DBD0F
  8
L1
 10
-376.222459
 20
426.572837
 30
0.0
 11
-379.722459
 21
426.572837
 31
0.0
  0
LINE
  5
2DBD10
  8
L1
 10
-376.222459
 20
376.572837
 30
0.0
 11
-379.722459
 21
376.572837
 31
0.0
  0
LINE
  5
2DD699
  8
L4
 10
210.061323
 20
691.072837
 30
0.0
 11
258.623211
 21
689.300718
 31
0.0
1001
ACAD
1000
ASC_BOUNDS
1002
{
1070
    19
1002
}
  0
LINE
  5
2DD6CD
  8
L4
 10
259.561323
 20
401.572837
 30
0.0
 11
259.561323
 21
687.973876
 31
0.0
1001
ACAD
1000
ASC_BOUNDS
1002
{
1070
    19
1002
}
  0
POINT
  5
2DD7B5
  8
L22
 10
747.775397
 20
111.44623
 30
0.0
  0
LINE
  5
2DD7D6
  8
L1
 10
213.561323
 20
102.572837
 30
0.0
 11
213.561323
 21
401.572837
 31
0.0
  0
LINE
  5
2DD7D7
  8
L1
 10
220.401434
 20
102.931312
 30
0.0
 11
220.401434
 21
401.572837
 31
0.0
  0
LINE
  5
2DD7D8
  8
L1
 10
221.315023
 20
103.671122
 30
0.0
 11
222.344794
 21
107.51428
 31
0.0
  0
LINE
  5
2DD7DA
  8
L1
 10
210.061323
 20
125.903963
 30
0.0
 11
210.061323
 21
376.572837
 31
0.0
  0
LINE
  5
2DD7DB
  8
L4
 10
259.561323
 20
401.572837
 30
0.0
 11
259.561323
 21
115.171797
 31
0.0
1001
ACAD
1000
ASC_BOUNDS
1002
{
1070
    19
1002
}
  0
LINE
  5
2DD7DC
  8
L1
 10
261.064749
 20
110.235438
 30
0.0
 11
261.064749
 21
401.572837
 31
0.0
  0
LINE
  5
2DD7DD
  8
L1
 10
263.561323
 20
401.572837
 30
0.0
 11
263.561323
 21
112.866278
 31
0.0
  0
LINE
  5
2DD7DE
  8
L1
 10
213.561323
 20
376.572837
 30
0.0
 11
210.061323
 21
376.572837
 31
0.0
  0
LINE
  5
2DD7DF
  8
L4
 10
210.061323
 20
112.072837
 30
0.0
 11
258.623211
 21
113.844955
 31
0.0
1001
ACAD
1000
ASC_BOUNDS
1002
{
1070
    19
1002
}
  0
LINE
  5
2DD7E0
  8
L1
 10
261.064749
 20
110.235438
 30
0.0
 11
223.258384
 21
108.25409
 31
0.0
  0
LINE
  5
2DD7E1
  8
L1
 10
210.061323
 20
110.603381
 30
0.0
 11
210.061323
 21
118.903697
 31
0.0
  0
LINE
  5
2DD7E2
  8
L1
 10
210.061323
 20
125.903963
 30
0.0
 11
213.694839
 21
125.872254
 31
0.0
  0
LINE
  5
2DD7E3
  8
L1
 10
210.061323
 20
118.903697
 30
0.0
 11
213.633753
 21
118.87252
 31
0.0
  0
LINE
  5
2DD7E4
  8
L1
 10
210.061323
 20
110.603381
 30
0.0
 11
213.561323
 21
110.572837
 31
0.0
  0
POINT
  5
2DD7E5
  8
DEFPOINTS
  6
BYBLOCK
 62
     0
 10
223.258384
 20
108.25409
 30
0.0
  0
POINT
  5
2DD7E6
  8
DEFPOINTS
  6
BYBLOCK
 62
     0
 10
223.758384
 20
108.25409
 30
0.0
  0
ARC
  5
2DD7E7
  8
L1
 10
223.31072
 20
107.25546
 30
0.0
 40
1.0
 50
93.0
 51
165.0
  0
POINT
  5
2DD7E8
  8
DEFPOINTS
  6
BYBLOCK
 62
     0
 10
261.064749
 20
110.235438
 30
0.0
  0
LINE
  5
2DD7E9
  8
L1
 10
263.561323
 20
112.866278
 30
0.0
 11
261.064749
 21
110.235438
 31
0.0
  0
LINE
  5
2DD7EA
  8
L1
 10
213.561323
 20
102.572837
 30
0.0
 11
220.401434
 21
102.931312
 31
0.0
  0
ARC
  5
2DD7EB
  8
L1
 10
220.349098
 20
103.929941
 30
0.0
 40
1.0
 50
273.0
 51
345.0
  0
LINE
  5
2DD7EC
  8
L1
 10
-276.251146
 20
35.298817
 30
0.0
 11
-77.251146
 21
35.298817
 31
0.0
  0
LINE
  5
2DD7ED
  8
L1
 10
-252.920602
 20
38.798817
 30
0.0
 11
-77.251146
 21
38.798817
 31
0.0
  0
LINE
  5
2DD7EE
  8
L1
 10
-257.527345
 20
-14.958227
 30
0.0
 11
-244.411496
 21
-14.958227
 31
0.0
  0
LINE
  5
2DD7EF
  8
L1
 10
-77.251146
 20
-14.701183
 30
0.0
 11
-265.957705
 21
-14.701183
 31
0.0
  0
LINE
  5
2DD7F1
  8
L1
 10
-275.892671
 20
28.458706
 30
0.0
 11
-77.251146
 21
28.458706
 31
0.0
  0
LINE
  5
2DD7F2
  8
L1
 10
-268.588545
 20
-12.204609
 30
0.0
 11
-77.251146
 21
-12.204609
 31
0.0
  0
LINE
  5
2DD7F3
  8
L1
 10
-268.588545
 20
-12.204609
 30
0.0
 11
-270.569892
 21
25.601755
 31
0.0
  0
LINE
  5
2DD7F4
  8
L1
 10
-265.957705
 20
-14.701183
 30
0.0
 11
-268.588545
 21
-12.204609
 31
0.0
  0
LINE
  5
2DD7F5
  8
L1
 10
-276.251146
 20
35.298817
 30
0.0
 11
-275.892671
 21
28.458706
 31
0.0
  0
LINE
  5
2DD7F6
  8
L1
 10
-271.785059
 20
20.258706
 30
0.0
 11
-270.289875
 21
20.258706
 31
0.0
  0
ARC
  5
2DD7F7
  8
L1
 10
-274.234549
 20
18.758706
 30
0.0
 40
0.5
 50
270.0
 51
348.463041
  0
ARC
  5
2DD7F8
  8
L1
 10
-271.785059
 20
18.258706
 30
0.0
 40
2.0
 50
90.0
 51
168.463041
  0
LINE
  5
2DD7F9
  8
L1
 10
-275.892671
 20
28.458706
 30
0.0
 11
-275.358111
 21
18.258706
 31
0.0
  0
LINE
  5
2DD7FA
  8
L1
 10
-274.234549
 20
18.258706
 30
0.0
 11
-275.358111
 21
18.258706
 31
0.0
  0
ARC
  5
2DD7FB
  8
L1
 10
-271.568522
 20
25.549419
 30
0.0
 40
1.0
 50
3.0
 51
75.0
  0
LINE
  5
2DD7FC
  8
L1
 10
-275.15286
 20
27.545116
 30
0.0
 11
-271.309703
 21
26.515345
 31
0.0
  0
ARC
  5
2DD7FD
  8
L1
 10
-274.894041
 20
28.511042
 30
0.0
 40
1.0
 50
183.0
 51
255.0
  0
LINE
  5
2DD7FE
  8
L1
 10
-268.220602
 20
38.798817
 30
0.0
 11
-259.920602
 21
38.798817
 31
0.0
  0
LINE
  5
2DD7FF
  8
L1
 10
-252.920602
 20
35.298817
 30
0.0
 11
-252.920602
 21
38.798817
 31
0.0
  0
LINE
  5
2DD800
  8
L1
 10
-259.920602
 20
35.298817
 30
0.0
 11
-259.920602
 21
38.798817
 31
0.0
  0
LINE
  5
2DD801
  8
L1
 10
-268.220602
 20
38.798817
 30
0.0
 11
-268.251146
 21
35.298817
 31
0.0
  0
LINE
  5
2DD804
  8
L1
 10
-268.588545
 20
815.350282
 30
0.0
 11
-77.251146
 21
815.350282
 31
0.0
  0
LINE
  5
2DD805
  8
L1
 10
-275.892671
 20
774.686967
 30
0.0
 11
-77.251146
 21
774.686967
 31
0.0
  0
LINE
  5
2DD806
  8
L1
 10
-77.251146
 20
817.846856
 30
0.0
 11
-265.957705
 21
817.846856
 31
0.0
  0
LINE
  5
2DD807
  8
L1
 10
-252.920602
 20
764.346856
 30
0.0
 11
-77.251146
 21
764.346856
 31
0.0
  0
LINE
  5
2DD808
  8
L1
 10
-276.251146
 20
767.846856
 30
0.0
 11
-77.251146
 21
767.846856
 31
0.0
  0
LINE
  5
2DD809
  8
L1
 10
-257.527345
 20
818.1039
 30
0.0
 11
-244.411496
 21
818.1039
 31
0.0
  0
LINE
  5
2DD80A
  8
L1
 10
-268.588545
 20
815.350282
 30
0.0
 11
-270.569892
 21
777.543918
 31
0.0
  0
LINE
  5
2DD80B
  8
L1
 10
-265.957705
 20
817.846856
 30
0.0
 11
-268.588545
 21
815.350282
 31
0.0
  0
LINE
  5
2DD80C
  8
L1
 10
-276.251146
 20
767.846856
 30
0.0
 11
-275.892671
 21
774.686967
 31
0.0
  0
ARC
  5
2DD80D
  8
L1
 10
-274.894041
 20
774.634631
 30
0.0
 40
1.0
 50
105.0
 51
177.0
  0
LINE
  5
2DD80E
  8
L1
 10
-275.15286
 20
775.600557
 30
0.0
 11
-271.309703
 21
776.630328
 31
0.0
  0
ARC
  5
2DD80F
  8
L1
 10
-271.568522
 20
777.596254
 30
0.0
 40
1.0
 50
285.0
 51
357.0
  0
LINE
  5
2DD810
  8
L1
 10
-274.234549
 20
784.886967
 30
0.0
 11
-275.358111
 21
784.886967
 31
0.0
  0
LINE
  5
2DD811
  8
L1
 10
-275.892671
 20
774.686967
 30
0.0
 11
-275.358111
 21
784.886967
 31
0.0
  0
ARC
  5
2DD812
  8
L1
 10
-271.785059
 20
784.886967
 30
0.0
 40
2.0
 50
191.536959
 51
270.0
  0
ARC
  5
2DD813
  8
L1
 10
-274.234549
 20
784.386967
 30
0.0
 40
0.5
 50
11.536959
 51
90.0
  0
LINE
  5
2DD814
  8
L1
 10
-271.785059
 20
782.886967
 30
0.0
 11
-270.289875
 21
782.886967
 31
0.0
  0
LINE
  5
2DD815
  8
L1
 10
-268.220602
 20
764.346856
 30
0.0
 11
-268.251146
 21
767.846856
 31
0.0
  0
LINE
  5
2DD816
  8
L1
 10
-259.920602
 20
767.846856
 30
0.0
 11
-259.920602
 21
764.346856
 31
0.0
  0
LINE
  5
2DD817
  8
L1
 10
-252.920602
 20
767.846856
 30
0.0
 11
-252.920602
 21
764.346856
 31
0.0
  0
LINE
  5
2DD818
  8
L1
 10
-268.220602
 20
764.346856
 30
0.0
 11
-259.920602
 21
764.346856
 31
0.0
  0
LINE
  5
2DD819
  8
L1
 10
121.748854
 20
767.846856
 30
0.0
 11
-77.251146
 21
767.846856
 31
0.0
  0
LINE
  5
2DD81A
  8
L1
 10
98.41831
 20
764.346856
 30
0.0
 11
-77.251146
 21
764.346856
 31
0.0
  0
LINE
  5
2DD81B
  8
L1
 10
103.025053
 20
818.1039
 30
0.0
 11
89.909204
 21
818.1039
 31
0.0
  0
LINE
  5
2DD81C
  8
L1
 10
-77.251146
 20
817.846856
 30
0.0
 11
111.455413
 21
817.846856
 31
0.0
  0
LINE
  5
2DD81D
  8
L1
 10
121.390379
 20
774.686967
 30
0.0
 11
-77.251146
 21
774.686967
 31
0.0
  0
LINE
  5
2DD81E
  8
L1
 10
114.086253
 20
815.350282
 30
0.0
 11
-77.251146
 21
815.350282
 31
0.0
  0
LINE
  5
2DD81F
  8
L6
 10
-77.251146
 20
834.269454
 30
0.0
 11
-77.251146
 21
756.588689
 31
0.0
  0
LINE
  5
2DD820
  8
L1
 10
114.086253
 20
815.350282
 30
0.0
 11
116.067601
 21
777.543918
 31
0.0
  0
LINE
  5
2DD821
  8
L1
 10
111.455413
 20
817.846856
 30
0.0
 11
114.086253
 21
815.350282
 31
0.0
  0
LINE
  5
2DD822
  8
L1
 10
121.748854
 20
767.846856
 30
0.0
 11
121.390379
 21
774.686967
 31
0.0
  0
LINE
  5
2DD823
  8
L1
 10
117.282768
 20
782.886967
 30
0.0
 11
115.787583
 21
782.886967
 31
0.0
  0
ARC
  5
2DD824
  8
L1
 10
119.732258
 20
784.386967
 30
0.0
 40
0.5
 50
90.0
 51
168.463041
  0
ARC
  5
2DD825
  8
L1
 10
117.282768
 20
784.886967
 30
0.0
 40
2.0
 50
270.0
 51
348.463041
  0
LINE
  5
2DD826
  8
L1
 10
121.390379
 20
774.686967
 30
0.0
 11
120.85582
 21
784.886967
 31
0.0
  0
LINE
  5
2DD827
  8
L1
 10
119.732258
 20
784.886967
 30
0.0
 11
120.85582
 21
784.886967
 31
0.0
  0
ARC
  5
2DD828
  8
L1
 10
117.06623
 20
777.596254
 30
0.0
 40
1.0
 50
183.0
 51
255.0
  0
LINE
  5
2DD829
  8
L1
 10
120.650569
 20
775.600557
 30
0.0
 11
116.807411
 21
776.630328
 31
0.0
  0
ARC
  5
2DD82A
  8
L1
 10
120.39175
 20
774.634631
 30
0.0
 40
1.0
 50
3.0
 51
75.0
  0
LINE
  5
2DD82B
  8
L1
 10
113.71831
 20
764.346856
 30
0.0
 11
105.41831
 21
764.346856
 31
0.0
  0
LINE
  5
2DD82C
  8
L1
 10
98.41831
 20
767.846856
 30
0.0
 11
98.41831
 21
764.346856
 31
0.0
  0
LINE
  5
2DD82D
  8
L1
 10
105.41831
 20
767.846856
 30
0.0
 11
105.41831
 21
764.346856
 31
0.0
  0
LINE
  5
2DD82E
  8
L1
 10
113.71831
 20
764.346856
 30
0.0
 11
113.748854
 21
767.846856
 31
0.0
  0
VIEWPORT
  5
1
 67
     1
  8
0
 10
203.593023
 20
164.5
 30
0.0
 40
335.186047
 41
213.0
 68
    -1
 69
     1
1001
ACAD
1000
MVIEW
1002
{
1070
    16
1010
0.0
1020
0.0
1030
0.0
1010
0.0
1020
0.0
1030
1.0
1040
0.0
1040
213.0
1040
203.593023
1040
164.5
1040
50.0
1040
0.0
1040
0.0
1070
     0
1070
   100
1070
     1
1070
     1
1070
     1
1070
     1
1070
     0
1070
     0
1040
0.0
1040
0.0
1040
0.0
1040
1.0
1040
1.0
1040
100.0
1040
100.0
1070
     0
1002
{
1002
}
1002
}
  0
VIEWPORT
  5
54E5B
 67
     1
  8
L7
 10
117.5
 20
164.0
 30
0.0
 40
153.0
 41
204.0
 68
     1
 69
     2
1001
ACAD
1000
MVIEW
1002
{
1070
    16
1010
0.0
1020
0.0
1030
0.0
1010
0.0
1020
0.0
1030
1.0
1040
0.0
1040
1020.0
1040
-154.369534
1040
321.832884
1040
50.0
1040
0.0
1040
0.0
1070
     0
1070
  1000
1070
     1
1070
     0
1070
     0
1070
     0
1070
     0
1070
     0
1040
0.0
1040
0.0
1040
0.0
1040
1.0
1040
1.0
1040
10.0
1040
10.0
1070
     0
1002
{
1002
}
1002
}
  0
VIEWPORT
  5
54E5C
 67
     1
  8
L7
 10
270.5
 20
164.0
 30
0.0
 40
153.0
 41
204.0
 68
     2
 69
     3
1001
ACAD
1000
MVIEW
1002
{
1070
    16
1010
0.0
1020
0.0
1030
0.0
1010
0.0
1020
0.0
1030
1.0
1040
0.0
1040
1020.0
1040
506.011239
1040
315.909368
1040
50.0
1040
0.0
1040
0.0
1070
     0
1070
  1000
1070
     1
1070
     0
1070
     0
1070
     0
1070
     0
1070
     0
1040
0.0
1040
0.0
1040
0.0
1040
1.0
1040
1.0
1040
10.0
1040
10.0
1070
     0
1002
{
1002
}
1002
}
  0
ENDSEC
  0
EOF
