  0
SECTION
  2
HEADER
  9
$ACADVER
  1
AC1009
  9
$INSBASE
 10
0.0
 20
0.0
 30
0.0
  9
$EXTMIN
 10
115.64697
 20
-108.751073
 30
0.0
  9
$EXTMAX
 10
1893.67222
 20
782.473667
 30
0.0
  9
$LIMMIN
 10
0.0
 20
0.0
  9
$LIMMAX
 10
420.0
 20
297.0
  9
$ORTHOMODE
 70
     1
  9
$REGENMODE
 70
     1
  9
$FILLMODE
 70
     1
  9
$QTEXTMODE
 70
     0
  9
$MIRRTEXT
 70
     1
  9
$DRAGMODE
 70
     2
  9
$LTSCALE
 40
7.0
  9
$OSMODE
 70
   163
  9
$ATTMODE
 70
     1
  9
$TEXTSIZE
 40
5.0
  9
$TRACEWID
 40
1.0
  9
$TEXTSTYLE
  7
STANDARD
  9
$CLAYER
  8
L1
  9
$CELTYPE
  6
BYLAYER
  9
$CECOLOR
 62
   256
  9
$DIMSCALE
 40
1.0
  9
$DIMASZ
 40
3.5
  9
$DIMEXO
 40
0.625
  9
$DIMDLI
 40
3.75
  9
$DIMRND
 40
0.0
  9
$DIMDLE
 40
0.0
  9
$DIMEXE
 40
1.25
  9
$DIMTP
 40
0.0
  9
$DIMTM
 40
0.0
  9
$DIMTXT
 40
3.5
  9
$DIMCEN
 40
2.5
  9
$DIMTSZ
 40
0.0
  9
$DIMTOL
 70
     0
  9
$DIMLIM
 70
     0
  9
$DIMTIH
 70
     1
  9
$DIMTOH
 70
     0
  9
$DIMSE1
 70
     0
  9
$DIMSE2
 70
     0
  9
$DIMTAD
 70
     1
  9
$DIMZIN
 70
     8
  9
$DIMBLK
  1

  9
$DIMASO
 70
     1
  9
$DIMSHO
 70
     1
  9
$DIMPOST
  1

  9
$DIMAPOST
  1

  9
$DIMALT
 70
     0
  9
$DIMALTD
 70
     2
  9
$DIMALTF
 40
0.0394
  9
$DIMLFAC
 40
1.0
  9
$DIMTOFL
 70
     1
  9
$DIMTVP
 40
1.0
  9
$DIMTIX
 70
     0
  9
$DIMSOXD
 70
     0
  9
$DIMSAH
 70
     0
  9
$DIMBLK1
  1

  9
$DIMBLK2
  1

  9
$DIMSTYLE
  2
ISO-25
  9
$DIMCLRD
 70
     0
  9
$DIMCLRE
 70
     0
  9
$DIMCLRT
 70
     0
  9
$DIMTFAC
 40
1.0
  9
$DIMGAP
 40
0.625
  9
$LUNITS
 70
     2
  9
$LUPREC
 70
     4
  9
$SKETCHINC
 40
1.0
  9
$FILLETRAD
 40
1.0
  9
$AUNITS
 70
     0
  9
$AUPREC
 70
     0
  9
$MENU
  1
.
  9
$ELEVATION
 40
0.0
  9
$PELEVATION
 40
0.0
  9
$THICKNESS
 40
0.0
  9
$LIMCHECK
 70
     0
  9
$BLIPMODE
 70
     1
  9
$CHAMFERA
 40
10.0
  9
$CHAMFERB
 40
10.0
  9
$SKPOLY
 70
     0
  9
$TDCREATE
 40
2450987.625434
  9
$TDUPDATE
 40
2452425.384046
  9
$TDINDWG
 40
3.23293
  9
$TDUSRTIMER
 40
3.23293
  9
$USRTIMER
 70
     1
  9
$ANGBASE
 50
0.0
  9
$ANGDIR
 70
     0
  9
$PDMODE
 70
     0
  9
$PDSIZE
 40
0.0
  9
$PLINEWID
 40
0.0
  9
$COORDS
 70
     2
  9
$SPLFRAME
 70
     0
  9
$SPLINETYPE
 70
     6
  9
$SPLINESEGS
 70
     8
  9
$ATTDIA
 70
     0
  9
$ATTREQ
 70
     1
  9
$HANDLING
 70
     1
  9
$HANDSEED
  5
15E89
  9
$SURFTAB1
 70
     6
  9
$SURFTAB2
 70
     6
  9
$SURFTYPE
 70
     6
  9
$SURFU
 70
     6
  9
$SURFV
 70
     6
  9
$UCSNAME
  2

  9
$UCSORG
 10
0.0
 20
0.0
 30
0.0
  9
$UCSXDIR
 10
1.0
 20
0.0
 30
0.0
  9
$UCSYDIR
 10
0.0
 20
1.0
 30
0.0
  9
$PUCSNAME
  2

  9
$PUCSORG
 10
0.0
 20
0.0
 30
0.0
  9
$PUCSXDIR
 10
1.0
 20
0.0
 30
0.0
  9
$PUCSYDIR
 10
0.0
 20
1.0
 30
0.0
  9
$USERI1
 70
     0
  9
$USERI2
 70
     0
  9
$USERI3
 70
     0
  9
$USERI4
 70
     0
  9
$USERI5
 70
     0
  9
$USERR1
 40
1.0
  9
$USERR2
 40
0.0
  9
$USERR3
 40
3.5
  9
$USERR4
 40
0.0
  9
$USERR5
 40
0.0
  9
$WORLDVIEW
 70
     1
  9
$SHADEDGE
 70
     3
  9
$SHADEDIF
 70
    70
  9
$TILEMODE
 70
     1
  9
$MAXACTVP
 70
    16
  9
$PLIMCHECK
 70
     0
  9
$PEXTMIN
 10
1.000000E+020
 20
1.000000E+020
 30
1.000000E+020
  9
$PEXTMAX
 10
-1.000000E+020
 20
-1.000000E+020
 30
-1.000000E+020
  9
$PLIMMIN
 10
0.0
 20
0.0
  9
$PLIMMAX
 10
420.0
 20
297.0
  9
$UNITMODE
 70
     0
  9
$VISRETAIN
 70
     0
  9
$PLINEGEN
 70
     0
  9
$PSLTSCALE
 70
     1
  0
ENDSEC
  0
SECTION
  2
TABLES
  0
TABLE
  2
VPORT
 70
     2
  0
VPORT
  2
*ACTIVE
 70
     0
 10
0.0
 20
0.0
 11
1.0
 21
1.0
 12
1004.632183
 22
336.859093
 13
252.670998
 23
256.261297
 14
0.0001
 24
0.0001
 15
10.0
 25
10.0
 16
0.0
 26
0.0
 36
1.0
 17
0.0
 27
0.0
 37
0.0
 40
1125.829609
 41
1.589527
 42
50.0
 43
0.0
 44
0.0
 50
90.0
 51
0.0
 71
     0
 72
   100
 73
     1
 74
     0
 75
     0
 76
     0
 77
     0
 78
     1
  0
ENDTAB
  0
TABLE
  2
LTYPE
 70
     2
  0
LTYPE
  2
CONTINUOUS
 70
     0
  3
Solid line
 72
    65
 73
     0
 40
0.0
  0
LTYPE
  2
CENTER
 70
     0
  3
____ _ ____ _ ____ _ ____ _ ____ _ ____ _ ____ 
 72
    65
 73
     4
 40
2.0
 49
1.25
 49
-0.25
 49
0.25
 49
-0.25
  0
ENDTAB
  0
TABLE
  2
LAYER
 70
     6
  0
LAYER
  2
0
 70
     0
 62
     7
  6
CONTINUOUS
  0
LAYER
  2
L6
 70
     0
 62
     1
  6
CENTER
  0
LAYER
  2
L1
 70
     0
 62
     7
  6
CONTINUOUS
  0
LAYER
  2
L32
 70
     0
 62
     3
  6
CONTINUOUS
  0
LAYER
  2
AME_FRZ
 70
     0
 62
     7
  6
CONTINUOUS
  0
LAYER
  2
DEFPOINTS
 70
     0
 62
     7
  6
CONTINUOUS
  0
ENDTAB
  0
TABLE
  2
STYLE
 70
     1
  0
STYLE
  2
STANDARD
 70
     0
 40
5.0
 41
1.0
 50
0.0
 71
     0
 42
5.0
  3
ISOCP
  4

  0
ENDTAB
  0
TABLE
  2
VIEW
 70
     0
  0
ENDTAB
  0
TABLE
  2
UCS
 70
     0
  0
ENDTAB
  0
TABLE
  2
APPID
 70
     7
  0
APPID
  2
ACAD
 70
     0
  0
APPID
  2
AD_DRAW
 70
     0
  0
APPID
  2
DESIGNERASSEMBLIES
 70
     0
  0
APPID
  2
MCAD_NO_VIS
 70
     0
  0
APPID
  2
ASURF_PCURVE_APPNAME
 70
     0
  0
APPID
  2
AME_SOL
 70
     0
  0
APPID
  2
ACAD_TEMP_GRAPHIC
 70
     0
  0
ENDTAB
  0
TABLE
  2
DIMSTYLE
 70
     2
  0
DIMSTYLE
  2
STANDARD
 70
     0
  3

  4

  5

  6

  7

 40
1.0
 41
0.18
 42
0.0625
 43
0.38
 44
0.18
 45
0.0
 46
0.0
 47
0.0
 48
0.0
140
0.18
141
0.09
142
0.0
143
25.4
144
1.0
145
0.0
146
1.0
147
0.09
 71
     0
 72
     0
 73
     1
 74
     1
 75
     0
 76
     0
 77
     0
 78
     0
170
     0
171
     2
172
     0
173
     0
174
     0
175
     0
176
     0
177
     0
178
     0
  0
DIMSTYLE
  2
ISO-25
 70
     0
  3

  4

  5

  6

  7

 40
1.0
 41
2.5
 42
0.625
 43
3.75
 44
1.25
 45
0.0
 46
0.0
 47
0.0
 48
0.0
140
2.5
141
2.5
142
0.0
143
0.0394
144
1.0
145
1.0
146
1.0
147
0.625
 71
     0
 72
     0
 73
     1
 74
     0
 75
     0
 76
     0
 77
     1
 78
     8
170
     0
171
     2
172
     1
173
     0
174
     0
175
     0
176
     0
177
     0
178
     0
  0
ENDTAB
  0
ENDSEC
  0
SECTION
  2
BLOCKS
  0
BLOCK
  8
0
  2
$MODEL_SPACE
 70
     0
 10
0.0
 20
0.0
 30
0.0
  3
$MODEL_SPACE
  1

  0
ENDBLK
  5
15E83
  8
0
  0
BLOCK
 67
     1
  8
0
  2
$PAPER_SPACE
 70
     0
 10
0.0
 20
0.0
 30
0.0
  3
$PAPER_SPACE
  1

  0
ENDBLK
  5
15E81
 67
     1
  8
0
  0
BLOCK
  8
0
  2
AME_NIL
 70
     0
 10
0.0
 20
0.0
 30
0.0
  3
AME_NIL
  1
AME_NIL
  0
ENDBLK
  5
4E9
  8
0
  0
BLOCK
  8
0
  2
AME_SOL
 70
     0
 10
0.0
 20
0.0
 30
0.0
  3
AME_SOL
  1
AME_SOL
  0
ENDBLK
  5
4EC
  8
0
  0
BLOCK
  8
0
  2
GEOTOL
 70
     0
 10
0.0
 20
0.0
 30
0.0
  3
GEOTOL
  1

  0
ENDBLK
  5
4EF
  8
0
  0
BLOCK
  8
0
  2
*D3
 70
     1
 10
0.0
 20
0.0
 30
0.0
  3
*D3
  1

  0
LINE
  5
15E33
  8
0
  6
BYBLOCK
 62
     0
 10
370.846999
 20
533.986297
 30
0.0
 11
370.846999
 21
560.219049
 31
0.0
  0
LINE
  5
15E34
  8
0
  6
BYBLOCK
 62
     0
 10
968.060197
 20
533.986297
 30
0.0
 11
968.060197
 21
560.219049
 31
0.0
  0
LINE
  5
15E35
  8
0
  6
BYBLOCK
 62
     0
 10
374.346999
 20
558.969049
 30
0.0
 11
964.560197
 21
558.969049
 31
0.0
  0
SOLID
  5
15E36
  8
0
  6
BYBLOCK
 62
     0
 10
374.346999
 20
559.552383
 30
0.0
 11
374.346999
 21
558.385716
 31
0.0
 12
370.846999
 22
558.969049
 32
0.0
 13
370.846999
 23
558.969049
 33
0.0
  0
SOLID
  5
15E37
  8
0
  6
BYBLOCK
 62
     0
 10
964.560197
 20
559.552383
 30
0.0
 11
964.560197
 21
558.385716
 31
0.0
 12
968.060197
 22
558.969049
 32
0.0
 13
968.060197
 23
558.969049
 33
0.0
  0
TEXT
  5
15E38
  8
0
  6
BYBLOCK
 62
     0
 10
656.794714
 20
559.59575
 30
0.0
 40
5.0
  1
597.2132
  0
POINT
  5
15E3A
  8
DEFPOINTS
  6
BYBLOCK
 62
     0
 10
370.846999
 20
533.361297
 30
0.0
  0
POINT
  5
15E3B
  8
DEFPOINTS
  6
BYBLOCK
 62
     0
 10
968.060197
 20
533.361297
 30
0.0
  0
POINT
  5
15E3C
  8
DEFPOINTS
  6
BYBLOCK
 62
     0
 10
968.060197
 20
558.969049
 30
0.0
  0
ENDBLK
  5
15E3D
  8
0
  0
BLOCK
  8
0
  2
*D4
 70
     1
 10
0.0
 20
0.0
 30
0.0
  3
*D4
  1

  0
LINE
  5
15E41
  8
0
  6
BYBLOCK
 62
     0
 10
966.185197
 20
137.861297
 30
0.0
 11
988.73274
 21
137.861297
 31
0.0
  0
LINE
  5
15E42
  8
0
  6
BYBLOCK
 62
     0
 10
966.185197
 20
535.861297
 30
0.0
 11
988.73274
 21
535.861297
 31
0.0
  0
LINE
  5
15E43
  8
0
  6
BYBLOCK
 62
     0
 10
987.48274
 20
141.361297
 30
0.0
 11
987.48274
 21
333.736297
 31
0.0
  0
LINE
  5
15E44
  8
0
  6
BYBLOCK
 62
     0
 10
987.48274
 20
532.361297
 30
0.0
 11
987.48274
 21
339.986297
 31
0.0
  0
SOLID
  5
15E45
  8
0
  6
BYBLOCK
 62
     0
 10
986.899406
 20
141.361297
 30
0.0
 11
988.066073
 21
141.361297
 31
0.0
 12
987.48274
 22
137.861297
 32
0.0
 13
987.48274
 23
137.861297
 33
0.0
  0
SOLID
  5
15E46
  8
0
  6
BYBLOCK
 62
     0
 10
986.899406
 20
532.361297
 30
0.0
 11
988.066073
 21
532.361297
 31
0.0
 12
987.48274
 22
535.861297
 32
0.0
 13
987.48274
 23
535.861297
 33
0.0
  0
TEXT
  5
15E47
  8
0
  6
BYBLOCK
 62
     0
 10
982.224004
 20
334.361297
 30
0.0
 40
5.0
  1
398
  0
POINT
  5
15E48
  8
DEFPOINTS
  6
BYBLOCK
 62
     0
 10
965.560197
 20
137.861297
 30
0.0
  0
POINT
  5
15E49
  8
DEFPOINTS
  6
BYBLOCK
 62
     0
 10
965.560197
 20
535.861297
 30
0.0
  0
POINT
  5
15E4A
  8
DEFPOINTS
  6
BYBLOCK
 62
     0
 10
987.48274
 20
535.861297
 30
0.0
  0
ENDBLK
  5
15E4B
  8
0
  0
ENDSEC
  0
SECTION
  2
ENTITIES
  0
INSERT
  5
1CF2
  8
AME_FRZ
  2
AME_NIL
 10
-836.383753
 20
-948.001316
 30
0.0
  0
INSERT
  5
1CF3
  8
AME_FRZ
  2
AME_SOL
 10
-836.383753
 20
-948.001316
 30
0.0
1001
AME_SOL
1000
R2.1
1000
AME2
1000
sq cm
1070
     3
1070
     0
1070
     3
1000
wire
1040
45.0
1000
U
1040
1.0
1000
cm
1000
gm
1000
MILD_STEEL
1070
    25
1000
CSG
1070
     1
1070
     3
1070
     3
1070
     3
1070
     0
1000
cu cm
1070
     1
1070
     0
1005
1CF2
  0
INSERT
  5
1CF4
  8
L32
  2
GEOTOL
 10
-155.333386
 20
-374.899123
 30
0.0
  0
INSERT
  5
6092
  8
AME_FRZ
  2
AME_NIL
 10
239.192492
 20
-2092.381962
 30
0.0
  0
INSERT
  5
6093
  8
AME_FRZ
  2
AME_SOL
 10
239.192492
 20
-2092.381962
 30
0.0
1001
AME_SOL
1000
R2.1
1000
AME2
1000
sq cm
1070
     3
1070
     0
1070
     3
1000
wire
1040
45.0
1000
U
1040
1.0
1000
cm
1000
gm
1000
MILD_STEEL
1070
    25
1000
CSG
1070
     1
1070
     3
1070
     3
1070
     3
1070
     0
1000
cu cm
1070
     1
1070
     0
1005
6092
  0
INSERT
  5
6094
  8
L32
  2
GEOTOL
 10
920.242859
 20
-1519.27977
 30
0.0
  0
INSERT
  5
6847
  8
AME_FRZ
  2
AME_NIL
 10
2818.884855
 20
-646.517712
 30
0.0
  0
INSERT
  5
6848
  8
AME_FRZ
  2
AME_SOL
 10
2818.884855
 20
-646.517712
 30
0.0
1001
AME_SOL
1000
R2.1
1000
AME2
1000
sq cm
1070
     3
1070
     0
1070
     3
1000
wire
1040
45.0
1000
U
1040
1.0
1000
cm
1000
gm
1000
MILD_STEEL
1070
    25
1000
CSG
1070
     1
1070
     3
1070
     3
1070
     3
1070
     0
1000
cu cm
1070
     1
1070
     0
1005
6847
  0
LINE
  5
75FB
  8
L1
 10
473.060197
 20
466.861297
 30
0.0
 11
515.060197
 21
466.861297
 31
0.0
  0
LINE
  5
7604
  8
L1
 10
473.060197
 20
206.861297
 30
0.0
 11
515.060197
 21
206.861297
 31
0.0
  0
CIRCLE
  5
7611
  8
L1
 10
519.060197
 20
516.861297
 30
0.0
 40
2.1
  0
CIRCLE
  5
7612
  8
L1
 10
519.060197
 20
516.861297
 30
0.0
 40
2.4
  0
CIRCLE
  5
7613
  8
L1
 10
569.060197
 20
516.861297
 30
0.0
 40
2.4
  0
CIRCLE
  5
7614
  8
L1
 10
569.060197
 20
516.861297
 30
0.0
 40
2.1
  0
CIRCLE
  5
7615
  8
L1
 10
719.060197
 20
516.861297
 30
0.0
 40
2.1
  0
CIRCLE
  5
7616
  8
L1
 10
719.060197
 20
516.861297
 30
0.0
 40
2.4
  0
ARC
  5
7618
  8
L1
 10
569.060197
 20
516.861297
 30
0.0
 40
5.0
 50
188.626927
 51
351.373073
  0
ARC
  5
7619
  8
L1
 10
519.060197
 20
516.861297
 30
0.0
 40
5.0
 50
188.626927
 51
351.373073
  0
ARC
  5
761A
  8
L1
 10
719.060197
 20
516.861297
 30
0.0
 40
5.0
 50
188.626927
 51
351.373073
  0
CIRCLE
  5
761D
  8
L1
 10
769.060197
 20
516.861297
 30
0.0
 40
2.4
  0
CIRCLE
  5
761E
  8
L1
 10
769.060197
 20
516.861297
 30
0.0
 40
2.1
  0
CIRCLE
  5
761F
  8
L1
 10
919.060197
 20
516.861297
 30
0.0
 40
2.4
  0
CIRCLE
  5
7620
  8
L1
 10
919.060197
 20
516.861297
 30
0.0
 40
2.1
  0
LINE
  5
7621
  8
L1
 10
957.060197
 20
516.861297
 30
0.0
 11
957.060197
 21
514.361297
 31
0.0
  0
LINE
  5
7622
  8
L1
 10
959.060197
 20
516.861297
 30
0.0
 11
959.060197
 21
514.361297
 31
0.0
  0
ARC
  5
7623
  8
L1
 10
955.060197
 20
522.861297
 30
0.0
 40
6.0
 50
180.0
 51
270.0
  0
ARC
  5
7626
  8
L1
 10
955.060197
 20
522.861297
 30
0.0
 40
8.5
 50
180.0
 51
270.0
  0
ARC
  5
7627
  8
L1
 10
919.060197
 20
516.861297
 30
0.0
 40
5.0
 50
188.626927
 51
351.373073
  0
ARC
  5
762A
  8
L1
 10
769.060197
 20
516.861297
 30
0.0
 40
5.0
 50
188.626927
 51
351.373073
  0
LINE
  5
762E
  8
L1
 10
964.060197
 20
336.861297
 30
0.0
 11
964.060197
 21
526.861297
 31
0.0
  0
ARC
  5
7635
  8
L1
 10
959.060197
 20
146.861297
 30
0.0
 40
5.0
 50
270.0
 51
0.0
  0
ARC
  5
7638
  8
L1
 10
959.060197
 20
146.861297
 30
0.0
 40
2.0
 50
270.0
 51
0.0
  0
LINE
  5
763C
  8
L1
 10
964.060197
 20
336.861297
 30
0.0
 11
964.060197
 21
146.861297
 31
0.0
  0
LINE
  5
7647
  8
L1
 10
889.060197
 20
330.861297
 30
0.0
 11
899.060197
 21
320.861297
 31
0.0
  0
LINE
  5
7649
  8
L1
 10
961.060197
 20
336.861297
 30
0.0
 11
961.060197
 21
160.361297
 31
0.0
  0
LINE
  5
764B
  8
L1
 10
724.003627
 20
157.611297
 30
0.0
 11
729.060197
 21
157.611297
 31
0.0
  0
LINE
  5
764C
  8
L1
 10
729.060197
 20
156.111297
 30
0.0
 11
724.003627
 21
156.111297
 31
0.0
  0
LINE
  5
764E
  8
L1
 10
945.560197
 20
144.861297
 30
0.0
 11
668.907189
 21
144.861297
 31
0.0
  0
LINE
  5
764F
  8
L1
 10
959.060197
 20
141.861297
 30
0.0
 11
669.060189
 21
141.861297
 31
0.0
  0
LINE
  5
7650
  8
L1
 10
723.060197
 20
206.861297
 30
0.0
 11
765.060197
 21
206.861297
 31
0.0
  0
LINE
  5
7651
  8
L1
 10
899.060197
 20
232.861297
 30
0.0
 11
899.060197
 21
212.518151
 31
0.0
  0
LINE
  5
7654
  8
L1
 10
773.060197
 20
206.861297
 30
0.0
 11
815.060197
 21
206.861297
 31
0.0
  0
LINE
  5
7656
  8
L1
 10
949.810197
 20
176.861297
 30
0.0
 11
949.810197
 21
181.917867
 31
0.0
  0
LINE
  5
7657
  8
L1
 10
948.310197
 20
181.917867
 30
0.0
 11
948.310197
 21
176.861297
 31
0.0
  0
LINE
  5
7659
  8
L1
 10
929.060197
 20
156.111297
 30
0.0
 11
924.003627
 21
156.111297
 31
0.0
  0
LINE
  5
765A
  8
L1
 10
924.003627
 20
157.611297
 30
0.0
 11
929.060197
 21
157.611297
 31
0.0
  0
LINE
  5
765F
  8
L1
 10
961.060197
 20
155.861297
 30
0.0
 11
961.060197
 21
146.861297
 31
0.0
  0
ARC
  5
7662
  8
L1
 10
955.060197
 20
150.861297
 30
0.0
 40
6.0
 50
90.0
 51
180.0
  0
ARC
  5
7663
  8
L1
 10
955.060197
 20
150.861297
 30
0.0
 40
8.5
 50
90.0
 51
180.0
  0
ARC
  5
7665
  8
L1
 10
945.560197
 20
145.861297
 30
0.0
 40
1.0
 50
270.0
 51
0.0
  0
LINE
  5
7666
  8
L1
 10
946.560197
 20
150.861297
 30
0.0
 11
946.560197
 21
145.861297
 31
0.0
  0
LINE
  5
7667
  8
L1
 10
949.060197
 20
150.861297
 30
0.0
 11
949.060197
 21
145.861297
 31
0.0
  0
LINE
  5
7668
  8
L1
 10
949.060197
 20
148.861297
 30
0.0
 11
946.560197
 21
148.861297
 31
0.0
  0
LINE
  5
7669
  8
L1
 10
949.060197
 20
146.861297
 30
0.0
 11
946.560197
 21
146.861297
 31
0.0
  0
LINE
  5
766F
  8
L1
 10
959.060197
 20
144.861297
 30
0.0
 11
950.060197
 21
144.861297
 31
0.0
  0
ARC
  5
7670
  8
L1
 10
950.060197
 20
145.861297
 30
0.0
 40
1.0
 50
180.0
 51
270.0
  0
ARC
  5
7673
  8
L1
 10
960.060197
 20
155.861297
 30
0.0
 40
1.0
 50
0.0
 51
90.0
  0
LINE
  5
7674
  8
L1
 10
955.060197
 20
159.361297
 30
0.0
 11
960.060197
 21
159.361297
 31
0.0
  0
LINE
  5
7675
  8
L1
 10
955.060197
 20
156.861297
 30
0.0
 11
960.060197
 21
156.861297
 31
0.0
  0
ARC
  5
7679
  8
L1
 10
960.060197
 20
160.361297
 30
0.0
 40
1.0
 50
270.0
 51
0.0
  0
LINE
  5
767A
  8
L1
 10
959.060197
 20
156.861297
 30
0.0
 11
959.060197
 21
159.361297
 31
0.0
  0
LINE
  5
767B
  8
L1
 10
957.060197
 20
156.861297
 30
0.0
 11
957.060197
 21
159.361297
 31
0.0
  0
LINE
  5
767E
  8
L1
 10
948.310197
 20
176.861297
 30
0.0
 11
949.810197
 21
176.861297
 31
0.0
  0
LINE
  5
767F
  8
L1
 10
929.060197
 20
157.611297
 30
0.0
 11
929.060197
 21
156.111297
 31
0.0
  0
ARC
  5
7681
  8
L1
 10
919.060197
 20
156.861297
 30
0.0
 40
5.0
 50
188.626927
 51
351.373073
  0
LINE
  5
7682
  8
L1
 10
909.060197
 20
156.111297
 30
0.0
 11
914.116767
 21
156.111297
 31
0.0
  0
LINE
  5
7683
  8
L1
 10
914.116767
 20
157.611297
 30
0.0
 11
909.060197
 21
157.611297
 31
0.0
  0
CIRCLE
  5
7684
  8
L1
 10
919.060197
 20
156.861297
 30
0.0
 40
2.4
  0
CIRCLE
  5
7685
  8
L1
 10
919.060197
 20
156.861297
 30
0.0
 40
2.1
  0
ARC
  5
7686
  8
L1
 10
919.060197
 20
156.861297
 30
0.0
 40
5.0
 50
8.626927
 51
171.373073
  0
LINE
  5
7688
  8
L1
 10
909.060197
 20
157.611297
 30
0.0
 11
909.060197
 21
156.111297
 31
0.0
  0
ARC
  5
768B
  8
L1
 10
949.060197
 20
186.861297
 30
0.0
 40
5.0
 50
98.626927
 51
261.373073
  0
ARC
  5
768D
  8
L1
 10
949.060197
 20
186.861297
 30
0.0
 40
5.0
 50
278.626927
 51
81.373073
  0
CIRCLE
  5
768E
  8
L1
 10
949.060197
 20
186.861297
 30
0.0
 40
2.4
  0
CIRCLE
  5
768F
  8
L1
 10
949.060197
 20
186.861297
 30
0.0
 40
2.1
  0
LINE
  5
7690
  8
L1
 10
948.310197
 20
191.804727
 30
0.0
 11
948.310197
 21
196.861297
 31
0.0
  0
LINE
  5
7691
  8
L1
 10
949.810197
 20
196.861297
 30
0.0
 11
949.810197
 21
191.804727
 31
0.0
  0
LINE
  5
7692
  8
L1
 10
948.310197
 20
196.861297
 30
0.0
 11
949.810197
 21
196.861297
 31
0.0
  0
LINE
  5
7695
  8
L1
 10
765.060197
 20
206.861297
 30
0.0
 11
765.060197
 21
190.286732
 31
0.0
  0
LINE
  5
7696
  8
L1
 10
773.060197
 20
206.861297
 30
0.0
 11
773.060197
 21
190.286693
 31
0.0
  0
LINE
  5
7697
  8
L1
 10
759.060197
 20
156.111297
 30
0.0
 11
764.116767
 21
156.111297
 31
0.0
  0
LINE
  5
7698
  8
L1
 10
764.116767
 20
157.611297
 30
0.0
 11
759.060197
 21
157.611297
 31
0.0
  0
ARC
  5
769A
  8
L1
 10
769.060197
 20
156.861297
 30
0.0
 40
5.0
 50
188.626927
 51
351.373073
  0
LINE
  5
769C
  8
L1
 10
773.060197
 20
153.861297
 30
0.0
 11
773.060197
 21
145.361297
 31
0.0
  0
LINE
  5
769D
  8
L1
 10
765.060197
 20
153.861297
 30
0.0
 11
765.060197
 21
145.361297
 31
0.0
  0
LINE
  5
769E
  8
L1
 10
779.060197
 20
156.111297
 30
0.0
 11
774.003627
 21
156.111297
 31
0.0
  0
LINE
  5
769F
  8
L1
 10
774.003627
 20
157.611297
 30
0.0
 11
779.060197
 21
157.611297
 31
0.0
  0
LINE
  5
76A0
  8
L1
 10
779.060197
 20
157.611297
 30
0.0
 11
779.060197
 21
156.111297
 31
0.0
  0
CIRCLE
  5
76A1
  8
L1
 10
769.060197
 20
156.861297
 30
0.0
 40
2.4
  0
CIRCLE
  5
76A2
  8
L1
 10
769.060197
 20
156.861297
 30
0.0
 40
2.1
  0
ARC
  5
76A3
  8
L1
 10
769.060197
 20
156.861297
 30
0.0
 40
5.0
 50
8.626927
 51
171.373073
  0
LINE
  5
76A4
  8
L1
 10
759.060197
 20
157.611297
 30
0.0
 11
759.060197
 21
156.111297
 31
0.0
  0
LINE
  5
76A5
  8
L1
 10
729.060197
 20
157.611297
 30
0.0
 11
729.060197
 21
156.111297
 31
0.0
  0
LINE
  5
76A6
  8
L1
 10
899.060197
 20
282.861297
 30
0.0
 11
899.060197
 21
240.861297
 31
0.0
  0
LINE
  5
76A9
  8
L1
 10
899.060197
 20
240.861297
 30
0.0
 11
946.060197
 21
240.861297
 31
0.0
  0
LINE
  5
76AA
  8
L1
 10
899.060197
 20
232.861297
 30
0.0
 11
946.060197
 21
232.861297
 31
0.0
  0
ARC
  5
76AB
  8
L1
 10
949.060197
 20
236.861297
 30
0.0
 40
5.0
 50
98.626927
 51
261.373073
  0
ARC
  5
76AD
  8
L1
 10
949.060197
 20
236.861297
 30
0.0
 40
5.0
 50
278.626927
 51
81.373073
  0
CIRCLE
  5
76AE
  8
L1
 10
949.060197
 20
236.861297
 30
0.0
 40
2.4
  0
CIRCLE
  5
76AF
  8
L1
 10
949.060197
 20
236.861297
 30
0.0
 40
2.1
  0
LINE
  5
76B0
  8
L1
 10
948.310197
 20
231.917867
 30
0.0
 11
948.310197
 21
226.861297
 31
0.0
  0
LINE
  5
76B1
  8
L1
 10
952.060197
 20
232.861297
 30
0.0
 11
961.060197
 21
232.861297
 31
0.0
  0
LINE
  5
76B2
  8
L1
 10
949.810197
 20
226.861297
 30
0.0
 11
949.810197
 21
231.917867
 31
0.0
  0
LINE
  5
76B3
  8
L1
 10
948.310197
 20
226.861297
 30
0.0
 11
949.810197
 21
226.861297
 31
0.0
  0
LINE
  5
76B4
  8
L1
 10
948.310197
 20
241.804727
 30
0.0
 11
948.310197
 21
246.861297
 31
0.0
  0
LINE
  5
76B5
  8
L1
 10
952.060197
 20
240.861297
 30
0.0
 11
961.060197
 21
240.861297
 31
0.0
  0
LINE
  5
76B6
  8
L1
 10
949.810197
 20
246.861297
 30
0.0
 11
949.810197
 21
241.804727
 31
0.0
  0
LINE
  5
76B7
  8
L1
 10
948.310197
 20
246.861297
 30
0.0
 11
949.810197
 21
246.861297
 31
0.0
  0
LINE
  5
76B9
  8
L1
 10
899.060197
 20
282.861297
 30
0.0
 11
946.060197
 21
282.861297
 31
0.0
  0
LINE
  5
76BA
  8
L1
 10
899.060197
 20
290.861297
 30
0.0
 11
946.060197
 21
290.861297
 31
0.0
  0
ARC
  5
76BB
  8
L1
 10
949.060197
 20
286.861297
 30
0.0
 40
5.0
 50
98.626927
 51
261.373073
  0
ARC
  5
76BD
  8
L1
 10
949.060197
 20
286.861297
 30
0.0
 40
5.0
 50
278.626927
 51
81.373073
  0
CIRCLE
  5
76BE
  8
L1
 10
949.060197
 20
286.861297
 30
0.0
 40
2.1
  0
CIRCLE
  5
76BF
  8
L1
 10
949.060197
 20
286.861297
 30
0.0
 40
2.4
  0
LINE
  5
76C0
  8
L1
 10
948.310197
 20
281.917867
 30
0.0
 11
948.310197
 21
276.861297
 31
0.0
  0
LINE
  5
76C1
  8
L1
 10
949.810197
 20
276.861297
 30
0.0
 11
949.810197
 21
281.917867
 31
0.0
  0
LINE
  5
76C2
  8
L1
 10
952.060197
 20
282.861297
 30
0.0
 11
961.060197
 21
282.861297
 31
0.0
  0
LINE
  5
76C3
  8
L1
 10
948.310197
 20
276.861297
 30
0.0
 11
949.810197
 21
276.861297
 31
0.0
  0
LINE
  5
76C4
  8
L1
 10
948.310197
 20
291.804727
 30
0.0
 11
948.310197
 21
296.861297
 31
0.0
  0
LINE
  5
76C5
  8
L1
 10
949.810197
 20
296.861297
 30
0.0
 11
949.810197
 21
291.804727
 31
0.0
  0
LINE
  5
76C6
  8
L1
 10
952.060197
 20
290.861297
 30
0.0
 11
961.060197
 21
290.861297
 31
0.0
  0
LINE
  5
76C7
  8
L1
 10
948.310197
 20
296.861297
 30
0.0
 11
949.810197
 21
296.861297
 31
0.0
  0
LINE
  5
76C9
  8
L1
 10
899.060197
 20
306.861297
 30
0.0
 11
899.060197
 21
290.861297
 31
0.0
  0
LINE
  5
76CA
  8
L1
 10
899.060197
 20
320.861297
 30
0.0
 11
899.060197
 21
306.861297
 31
0.0
  0
LINE
  5
76CB
  8
L1
 10
899.060197
 20
302.861297
 30
0.0
 11
899.060197
 21
316.861297
 31
0.0
  0
LINE
  5
76CF
  8
L1
 10
715.060197
 20
206.861297
 30
0.0
 11
715.060197
 21
159.861297
 31
0.0
  0
LINE
  5
76D0
  8
L1
 10
723.060197
 20
206.861297
 30
0.0
 11
723.060197
 21
159.861297
 31
0.0
  0
ARC
  5
76D1
  8
L1
 10
719.060197
 20
156.861297
 30
0.0
 40
5.0
 50
188.626927
 51
351.373073
  0
LINE
  5
76D2
  8
L1
 10
715.060197
 20
153.861297
 30
0.0
 11
715.060197
 21
145.361297
 31
0.0
  0
LINE
  5
76D3
  8
L1
 10
723.060197
 20
153.861297
 30
0.0
 11
723.060197
 21
145.361297
 31
0.0
  0
LINE
  5
76D4
  8
L1
 10
714.116767
 20
157.611297
 30
0.0
 11
709.060197
 21
157.611297
 31
0.0
  0
LINE
  5
76D5
  8
L1
 10
709.060197
 20
156.111297
 30
0.0
 11
714.116767
 21
156.111297
 31
0.0
  0
CIRCLE
  5
76D6
  8
L1
 10
719.060197
 20
156.861297
 30
0.0
 40
2.1
  0
CIRCLE
  5
76D7
  8
L1
 10
719.060197
 20
156.861297
 30
0.0
 40
2.4
  0
ARC
  5
76D8
  8
L1
 10
719.060197
 20
156.861297
 30
0.0
 40
5.0
 50
8.626927
 51
171.373073
  0
LINE
  5
76D9
  8
L1
 10
709.060197
 20
157.611297
 30
0.0
 11
709.060197
 21
156.111297
 31
0.0
  0
ARC
  5
76DA
  8
L1
 10
569.060197
 20
156.861297
 30
0.0
 40
5.0
 50
188.626927
 51
351.373073
  0
LINE
  5
76E5
  8
L1
 10
579.060197
 20
156.111297
 30
0.0
 11
574.003627
 21
156.111297
 31
0.0
  0
LINE
  5
76E6
  8
L1
 10
574.003627
 20
157.611297
 30
0.0
 11
579.060197
 21
157.611297
 31
0.0
  0
LINE
  5
76E7
  8
L1
 10
579.060197
 20
157.611297
 30
0.0
 11
579.060197
 21
156.111297
 31
0.0
  0
LINE
  5
76E8
  8
L1
 10
559.060197
 20
157.611297
 30
0.0
 11
559.060197
 21
156.111297
 31
0.0
  0
CIRCLE
  5
76E9
  8
L1
 10
569.060197
 20
156.861297
 30
0.0
 40
2.4
  0
CIRCLE
  5
76EA
  8
L1
 10
569.060197
 20
156.861297
 30
0.0
 40
2.1
  0
ARC
  5
76EB
  8
L1
 10
569.060197
 20
156.861297
 30
0.0
 40
5.0
 50
8.626927
 51
171.373073
  0
LINE
  5
76EC
  8
L1
 10
559.060197
 20
156.111297
 30
0.0
 11
564.116767
 21
156.111297
 31
0.0
  0
LINE
  5
76ED
  8
L1
 10
564.116767
 20
157.611297
 30
0.0
 11
559.060197
 21
157.611297
 31
0.0
  0
LINE
  5
76EF
  8
L1
 10
685.453598
 20
206.861297
 30
0.0
 11
715.060197
 21
206.861297
 31
0.0
  0
LINE
  5
76F0
  8
L1
 10
699.060197
 20
206.861297
 30
0.0
 11
715.060197
 21
206.861297
 31
0.0
  0
LINE
  5
76F4
  8
L1
 10
515.060197
 20
206.861297
 30
0.0
 11
515.060197
 21
159.861297
 31
0.0
  0
LINE
  5
76F5
  8
L1
 10
523.060197
 20
206.861297
 30
0.0
 11
523.060197
 21
159.861297
 31
0.0
  0
LINE
  5
76F6
  8
L1
 10
524.003627
 20
157.611297
 30
0.0
 11
529.060197
 21
157.611297
 31
0.0
  0
LINE
  5
76F7
  8
L1
 10
529.060197
 20
156.111297
 30
0.0
 11
524.003627
 21
156.111297
 31
0.0
  0
LINE
  5
76F9
  8
L1
 10
529.060197
 20
157.611297
 30
0.0
 11
529.060197
 21
156.111297
 31
0.0
  0
ARC
  5
76FA
  8
L1
 10
519.060197
 20
156.861297
 30
0.0
 40
5.0
 50
188.626927
 51
351.373073
  0
LINE
  5
76FB
  8
L1
 10
515.060197
 20
153.861297
 30
0.0
 11
515.060197
 21
145.361297
 31
0.0
  0
LINE
  5
76FC
  8
L1
 10
523.060197
 20
153.861297
 30
0.0
 11
523.060197
 21
145.361297
 31
0.0
  0
LINE
  5
76FD
  8
L1
 10
509.060197
 20
157.611297
 30
0.0
 11
509.060197
 21
156.111297
 31
0.0
  0
ARC
  5
76FE
  8
L1
 10
519.060197
 20
156.861297
 30
0.0
 40
5.0
 50
8.626927
 51
171.373073
  0
CIRCLE
  5
76FF
  8
L1
 10
519.060197
 20
156.861297
 30
0.0
 40
2.1
  0
CIRCLE
  5
7700
  8
L1
 10
519.060197
 20
156.861297
 30
0.0
 40
2.4
  0
LINE
  5
7701
  8
L1
 10
514.116767
 20
157.611297
 30
0.0
 11
509.060197
 21
157.611297
 31
0.0
  0
LINE
  5
7702
  8
L1
 10
509.060197
 20
156.111297
 30
0.0
 11
514.116767
 21
156.111297
 31
0.0
  0
LINE
  5
7703
  8
L1
 10
565.060197
 20
206.861297
 30
0.0
 11
523.060197
 21
206.861297
 31
0.0
  0
LINE
  5
7705
  8
L1
 10
723.060197
 20
466.861297
 30
0.0
 11
765.060197
 21
466.861297
 31
0.0
  0
LINE
  5
7706
  8
L1
 10
961.060197
 20
336.861297
 30
0.0
 11
961.060197
 21
513.361297
 31
0.0
  0
LINE
  5
7707
  8
L1
 10
899.060197
 20
390.861297
 30
0.0
 11
899.060197
 21
432.861297
 31
0.0
  0
LINE
  5
7709
  8
L1
 10
889.060197
 20
342.861297
 30
0.0
 11
899.060197
 21
352.861297
 31
0.0
  0
LINE
  5
770B
  8
L1
 10
899.060197
 20
382.861297
 30
0.0
 11
899.060197
 21
352.861297
 31
0.0
  0
ARC
  5
770F
  8
L1
 10
949.060197
 20
336.861297
 30
0.0
 40
5.0
 50
98.626927
 51
261.373073
  0
ARC
  5
7710
  8
L1
 10
949.060197
 20
336.861297
 30
0.0
 40
5.0
 50
278.626927
 51
81.373073
  0
CIRCLE
  5
7711
  8
L1
 10
949.060197
 20
336.861297
 30
0.0
 40
2.1
  0
CIRCLE
  5
7712
  8
L1
 10
949.060197
 20
336.861297
 30
0.0
 40
2.4
  0
LINE
  5
7713
  8
L1
 10
948.310197
 20
331.917867
 30
0.0
 11
948.310197
 21
326.861297
 31
0.0
  0
LINE
  5
7714
  8
L1
 10
949.810197
 20
326.861297
 30
0.0
 11
949.810197
 21
331.917867
 31
0.0
  0
LINE
  5
7715
  8
L1
 10
948.310197
 20
326.861297
 30
0.0
 11
949.810197
 21
326.861297
 31
0.0
  0
LINE
  5
7716
  8
L1
 10
948.310197
 20
341.804727
 30
0.0
 11
948.310197
 21
346.861297
 31
0.0
  0
LINE
  5
7717
  8
L1
 10
949.810197
 20
346.861297
 30
0.0
 11
949.810197
 21
341.804727
 31
0.0
  0
LINE
  5
7718
  8
L1
 10
948.310197
 20
346.861297
 30
0.0
 11
949.810197
 21
346.861297
 31
0.0
  0
LINE
  5
771D
  8
L1
 10
899.060197
 20
352.861297
 30
0.0
 11
899.060197
 21
370.861297
 31
0.0
  0
LINE
  5
771E
  8
L1
 10
899.060197
 20
390.861297
 30
0.0
 11
946.060197
 21
390.861297
 31
0.0
  0
LINE
  5
771F
  8
L1
 10
899.060197
 20
382.861297
 30
0.0
 11
946.060197
 21
382.861297
 31
0.0
  0
LINE
  5
7720
  8
L1
 10
948.310197
 20
391.804727
 30
0.0
 11
948.310197
 21
396.861297
 31
0.0
  0
LINE
  5
7722
  8
L1
 10
949.810197
 20
396.861297
 30
0.0
 11
949.810197
 21
391.804727
 31
0.0
  0
ARC
  5
7723
  8
L1
 10
949.060197
 20
386.861297
 30
0.0
 40
5.0
 50
98.626927
 51
261.373073
  0
ARC
  5
7724
  8
L1
 10
949.060197
 20
386.861297
 30
0.0
 40
5.0
 50
278.626927
 51
81.373073
  0
LINE
  5
7725
  8
L1
 10
948.310197
 20
381.917867
 30
0.0
 11
948.310197
 21
376.861297
 31
0.0
  0
LINE
  5
7726
  8
L1
 10
952.060197
 20
382.861297
 30
0.0
 11
961.060197
 21
382.861297
 31
0.0
  0
LINE
  5
7727
  8
L1
 10
949.810197
 20
376.861297
 30
0.0
 11
949.810197
 21
381.917867
 31
0.0
  0
LINE
  5
7728
  8
L1
 10
948.310197
 20
376.861297
 30
0.0
 11
949.810197
 21
376.861297
 31
0.0
  0
LINE
  5
7729
  8
L1
 10
952.060197
 20
390.861297
 30
0.0
 11
961.060197
 21
390.861297
 31
0.0
  0
CIRCLE
  5
772A
  8
L1
 10
949.060197
 20
386.861297
 30
0.0
 40
2.4
  0
CIRCLE
  5
772B
  8
L1
 10
949.060197
 20
386.861297
 30
0.0
 40
2.1
  0
LINE
  5
772D
  8
L1
 10
948.310197
 20
396.861297
 30
0.0
 11
949.810197
 21
396.861297
 31
0.0
  0
LINE
  5
772E
  8
L1
 10
889.060197
 20
342.861297
 30
0.0
 11
889.060197
 21
330.861297
 31
0.0
  0
LINE
  5
772F
  8
L1
 10
773.060197
 20
466.861297
 30
0.0
 11
815.060197
 21
466.861297
 31
0.0
  0
LINE
  5
7731
  8
L1
 10
899.060197
 20
432.861297
 30
0.0
 11
946.060197
 21
432.861297
 31
0.0
  0
LINE
  5
7732
  8
L1
 10
899.060197
 20
440.861297
 30
0.0
 11
946.060197
 21
440.861297
 31
0.0
  0
LINE
  5
7734
  8
L1
 10
948.310197
 20
441.804727
 30
0.0
 11
948.310197
 21
446.861297
 31
0.0
  0
LINE
  5
7735
  8
L1
 10
949.810197
 20
446.861297
 30
0.0
 11
949.810197
 21
441.804727
 31
0.0
  0
ARC
  5
7736
  8
L1
 10
949.060197
 20
436.861297
 30
0.0
 40
5.0
 50
98.626927
 51
261.373073
  0
LINE
  5
7738
  8
L1
 10
948.310197
 20
431.917867
 30
0.0
 11
948.310197
 21
426.861297
 31
0.0
  0
LINE
  5
7739
  8
L1
 10
949.810197
 20
426.861297
 30
0.0
 11
949.810197
 21
431.917867
 31
0.0
  0
LINE
  5
773A
  8
L1
 10
948.310197
 20
426.861297
 30
0.0
 11
949.810197
 21
426.861297
 31
0.0
  0
LINE
  5
773B
  8
L1
 10
952.060197
 20
440.861297
 30
0.0
 11
961.060197
 21
440.861297
 31
0.0
  0
LINE
  5
773C
  8
L1
 10
952.060197
 20
432.861297
 30
0.0
 11
961.060197
 21
432.861297
 31
0.0
  0
ARC
  5
773D
  8
L1
 10
949.060197
 20
436.861297
 30
0.0
 40
5.0
 50
278.626927
 51
81.373073
  0
CIRCLE
  5
773E
  8
L1
 10
949.060197
 20
436.861297
 30
0.0
 40
2.1
  0
CIRCLE
  5
773F
  8
L1
 10
949.060197
 20
436.861297
 30
0.0
 40
2.4
  0
LINE
  5
7742
  8
L1
 10
948.310197
 20
446.861297
 30
0.0
 11
949.810197
 21
446.861297
 31
0.0
  0
ARC
  5
7744
  8
L1
 10
949.060197
 20
486.861297
 30
0.0
 40
5.0
 50
98.626927
 51
261.373073
  0
ARC
  5
7746
  8
L1
 10
949.060197
 20
486.861297
 30
0.0
 40
5.0
 50
278.626927
 51
81.373073
  0
LINE
  5
7748
  8
L1
 10
948.310197
 20
481.917867
 30
0.0
 11
948.310197
 21
476.861297
 31
0.0
  0
LINE
  5
7749
  8
L1
 10
949.810197
 20
476.861297
 30
0.0
 11
949.810197
 21
481.917867
 31
0.0
  0
LINE
  5
774D
  8
L1
 10
948.310197
 20
476.861297
 30
0.0
 11
949.810197
 21
476.861297
 31
0.0
  0
CIRCLE
  5
774E
  8
L1
 10
949.060197
 20
486.861297
 30
0.0
 40
2.1
  0
CIRCLE
  5
774F
  8
L1
 10
949.060197
 20
486.861297
 30
0.0
 40
2.4
  0
LINE
  5
7753
  8
L1
 10
948.310197
 20
491.804727
 30
0.0
 11
948.310197
 21
496.861297
 31
0.0
  0
LINE
  5
7754
  8
L1
 10
949.810197
 20
496.861297
 30
0.0
 11
949.810197
 21
491.804727
 31
0.0
  0
LINE
  5
7757
  8
L1
 10
955.060197
 20
514.361297
 30
0.0
 11
960.060197
 21
514.361297
 31
0.0
  0
ARC
  5
7758
  8
L1
 10
960.060197
 20
513.361297
 30
0.0
 40
1.0
 50
0.0
 51
90.0
  0
LINE
  5
7759
  8
L1
 10
773.060197
 20
466.861297
 30
0.0
 11
773.060197
 21
483.861297
 31
0.0
  0
LINE
  5
775A
  8
L1
 10
765.060197
 20
466.861297
 30
0.0
 11
765.060197
 21
483.861297
 31
0.0
  0
LINE
  5
775F
  8
L1
 10
715.060197
 20
466.861297
 30
0.0
 11
715.060197
 21
513.861297
 31
0.0
  0
LINE
  5
7760
  8
L1
 10
723.060197
 20
466.861297
 30
0.0
 11
723.060197
 21
513.861297
 31
0.0
  0
LINE
  5
7761
  8
L1
 10
685.453598
 20
466.861297
 30
0.0
 11
715.060197
 21
466.861297
 31
0.0
  0
LINE
  5
776C
  8
L1
 10
515.060197
 20
466.861297
 30
0.0
 11
515.060197
 21
513.861297
 31
0.0
  0
LINE
  5
776D
  8
L1
 10
523.060197
 20
466.861297
 30
0.0
 11
523.060197
 21
513.861297
 31
0.0
  0
LINE
  5
776E
  8
L1
 10
565.060197
 20
466.861297
 30
0.0
 11
523.060197
 21
466.861297
 31
0.0
  0
ARC
  5
776F
  8
L1
 10
959.060197
 20
526.861297
 30
0.0
 40
5.0
 50
0.0
 51
90.0
  0
ARC
  5
7771
  8
L1
 10
959.060197
 20
526.861297
 30
0.0
 40
2.0
 50
0.0
 51
90.0
  0
LINE
  5
777A
  8
L1
 10
724.003627
 20
517.611297
 30
0.0
 11
729.060197
 21
517.611297
 31
0.0
  0
LINE
  5
777B
  8
L1
 10
729.060197
 20
516.111297
 30
0.0
 11
724.003627
 21
516.111297
 31
0.0
  0
LINE
  5
777E
  8
L1
 10
945.560197
 20
528.861297
 30
0.0
 11
669.213197
 21
528.861297
 31
0.0
  0
LINE
  5
777F
  8
L1
 10
959.060197
 20
531.861297
 30
0.0
 11
669.213197
 21
531.861297
 31
0.0
  0
LINE
  5
7780
  8
L1
 10
929.060197
 20
516.111297
 30
0.0
 11
924.003627
 21
516.111297
 31
0.0
  0
LINE
  5
7781
  8
L1
 10
924.003627
 20
517.611297
 30
0.0
 11
929.060197
 21
517.611297
 31
0.0
  0
ARC
  5
7782
  8
L1
 10
945.560197
 20
527.861297
 30
0.0
 40
1.0
 50
0.0
 51
90.0
  0
ARC
  5
7783
  8
L1
 10
950.060197
 20
527.861297
 30
0.0
 40
1.0
 50
90.0
 51
180.0
  0
LINE
  5
7784
  8
L1
 10
949.060197
 20
526.861297
 30
0.0
 11
946.560197
 21
526.861297
 31
0.0
  0
LINE
  5
7785
  8
L1
 10
949.060197
 20
524.861297
 30
0.0
 11
946.560197
 21
524.861297
 31
0.0
  0
LINE
  5
7787
  8
L1
 10
946.560197
 20
522.861297
 30
0.0
 11
946.560197
 21
527.861297
 31
0.0
  0
LINE
  5
7788
  8
L1
 10
949.060197
 20
522.861297
 30
0.0
 11
949.060197
 21
527.861297
 31
0.0
  0
LINE
  5
778E
  8
L1
 10
955.060197
 20
516.861297
 30
0.0
 11
960.060197
 21
516.861297
 31
0.0
  0
ARC
  5
778F
  8
L1
 10
960.060197
 20
517.861297
 30
0.0
 40
1.0
 50
270.0
 51
0.0
  0
LINE
  5
7792
  8
L1
 10
961.060197
 20
517.861297
 30
0.0
 11
961.060197
 21
526.861297
 31
0.0
  0
LINE
  5
7795
  8
L1
 10
959.060197
 20
528.861297
 30
0.0
 11
950.060197
 21
528.861297
 31
0.0
  0
LINE
  5
7796
  8
L1
 10
929.060197
 20
517.611297
 30
0.0
 11
929.060197
 21
516.111297
 31
0.0
  0
LINE
  5
779B
  8
L1
 10
909.060197
 20
516.111297
 30
0.0
 11
914.116767
 21
516.111297
 31
0.0
  0
LINE
  5
779C
  8
L1
 10
914.116767
 20
517.611297
 30
0.0
 11
909.060197
 21
517.611297
 31
0.0
  0
ARC
  5
779D
  8
L1
 10
919.060197
 20
516.861297
 30
0.0
 40
5.0
 50
8.626927
 51
171.373073
  0
LINE
  5
77A1
  8
L1
 10
909.060197
 20
517.611297
 30
0.0
 11
909.060197
 21
516.111297
 31
0.0
  0
LINE
  5
77A2
  8
L1
 10
759.060197
 20
516.111297
 30
0.0
 11
764.116767
 21
516.111297
 31
0.0
  0
LINE
  5
77A3
  8
L1
 10
764.116767
 20
517.611297
 30
0.0
 11
759.060197
 21
517.611297
 31
0.0
  0
LINE
  5
77A6
  8
L1
 10
779.060197
 20
516.111297
 30
0.0
 11
774.003627
 21
516.111297
 31
0.0
  0
LINE
  5
77A7
  8
L1
 10
774.003627
 20
517.611297
 30
0.0
 11
779.060197
 21
517.611297
 31
0.0
  0
LINE
  5
77A8
  8
L1
 10
779.060197
 20
517.611297
 30
0.0
 11
779.060197
 21
516.111297
 31
0.0
  0
LINE
  5
77AD
  8
L1
 10
773.060197
 20
519.861297
 30
0.0
 11
773.060197
 21
528.861297
 31
0.0
  0
LINE
  5
77AE
  8
L1
 10
765.060197
 20
519.861297
 30
0.0
 11
765.060197
 21
528.861297
 31
0.0
  0
ARC
  5
77AF
  8
L1
 10
769.060197
 20
516.861297
 30
0.0
 40
5.0
 50
8.626927
 51
171.373073
  0
LINE
  5
77B3
  8
L1
 10
759.060197
 20
517.611297
 30
0.0
 11
759.060197
 21
516.111297
 31
0.0
  0
LINE
  5
77B5
  8
L1
 10
729.060197
 20
517.611297
 30
0.0
 11
729.060197
 21
516.111297
 31
0.0
  0
LINE
  5
77B7
  8
L1
 10
714.116767
 20
517.611297
 30
0.0
 11
709.060197
 21
517.611297
 31
0.0
  0
LINE
  5
77B8
  8
L1
 10
709.060197
 20
516.111297
 30
0.0
 11
714.116767
 21
516.111297
 31
0.0
  0
LINE
  5
77B9
  8
L1
 10
715.060197
 20
519.861297
 30
0.0
 11
715.060197
 21
528.861297
 31
0.0
  0
LINE
  5
77BA
  8
L1
 10
723.060197
 20
519.861297
 30
0.0
 11
723.060197
 21
528.861297
 31
0.0
  0
ARC
  5
77BB
  8
L1
 10
719.060197
 20
516.861297
 30
0.0
 40
5.0
 50
8.626927
 51
171.373073
  0
LINE
  5
77BC
  8
L1
 10
709.060197
 20
517.611297
 30
0.0
 11
709.060197
 21
516.111297
 31
0.0
  0
LINE
  5
77BD
  8
L1
 10
579.060197
 20
516.111297
 30
0.0
 11
574.003627
 21
516.111297
 31
0.0
  0
LINE
  5
77BE
  8
L1
 10
574.003627
 20
517.611297
 30
0.0
 11
579.060197
 21
517.611297
 31
0.0
  0
LINE
  5
77BF
  8
L1
 10
579.060197
 20
517.611297
 30
0.0
 11
579.060197
 21
516.111297
 31
0.0
  0
LINE
  5
77C0
  8
L1
 10
559.060197
 20
517.611297
 30
0.0
 11
559.060197
 21
516.111297
 31
0.0
  0
ARC
  5
77C1
  8
L1
 10
569.060197
 20
516.861297
 30
0.0
 40
5.0
 50
8.626927
 51
171.373073
  0
LINE
  5
77C2
  8
L1
 10
559.060197
 20
516.111297
 30
0.0
 11
564.116767
 21
516.111297
 31
0.0
  0
LINE
  5
77C3
  8
L1
 10
564.116767
 20
517.611297
 30
0.0
 11
559.060197
 21
517.611297
 31
0.0
  0
LINE
  5
77CF
  8
L1
 10
524.003627
 20
517.611297
 30
0.0
 11
529.060197
 21
517.611297
 31
0.0
  0
LINE
  5
77D0
  8
L1
 10
529.060197
 20
516.111297
 30
0.0
 11
524.003627
 21
516.111297
 31
0.0
  0
LINE
  5
77D1
  8
L1
 10
529.060197
 20
517.611297
 30
0.0
 11
529.060197
 21
516.111297
 31
0.0
  0
LINE
  5
77D2
  8
L1
 10
515.060197
 20
519.861297
 30
0.0
 11
515.060197
 21
528.861297
 31
0.0
  0
LINE
  5
77D3
  8
L1
 10
523.060197
 20
519.861297
 30
0.0
 11
523.060197
 21
528.861297
 31
0.0
  0
LINE
  5
77D4
  8
L1
 10
509.060197
 20
517.611297
 30
0.0
 11
509.060197
 21
516.111297
 31
0.0
  0
ARC
  5
77D5
  8
L1
 10
519.060197
 20
516.861297
 30
0.0
 40
5.0
 50
8.626927
 51
171.373073
  0
LINE
  5
77D6
  8
L1
 10
514.116767
 20
517.611297
 30
0.0
 11
509.060197
 21
517.611297
 31
0.0
  0
LINE
  5
77D7
  8
L1
 10
509.060197
 20
516.111297
 30
0.0
 11
514.116767
 21
516.111297
 31
0.0
  0
LINE
  5
77D8
  8
L6
 10
118.64697
 20
137.361297
 30
0.0
 11
118.64697
 21
119.441327
 31
0.0
  0
LINE
  5
77F5
  8
L1
 10
125.84697
 20
535.861297
 30
0.0
 11
125.84697
 21
336.861297
 31
0.0
  0
LINE
  5
77FB
  8
L1
 10
115.64697
 20
531.05745
 30
0.0
 11
115.64697
 21
336.861297
 31
0.0
  0
LINE
  5
77FC
  8
L1
 10
118.64697
 20
535.861297
 30
0.0
 11
118.64697
 21
336.861297
 31
0.0
  0
ARC
  5
77FE
  8
L1
 10
383.060197
 20
522.861297
 30
0.0
 40
6.0
 50
270.0
 51
0.0
  0
LINE
  5
77FF
  8
L1
 10
382.060197
 20
516.861297
 30
0.0
 11
382.060197
 21
514.361297
 31
0.0
  0
CIRCLE
  5
7800
  8
L1
 10
419.060197
 20
516.861297
 30
0.0
 40
2.4
  0
CIRCLE
  5
7801
  8
L1
 10
419.060197
 20
516.861297
 30
0.0
 40
2.1
  0
CIRCLE
  5
7802
  8
L1
 10
469.060197
 20
516.861297
 30
0.0
 40
2.4
  0
CIRCLE
  5
7803
  8
L1
 10
469.060197
 20
516.861297
 30
0.0
 40
2.1
  0
ARC
  5
7805
  8
L1
 10
469.060197
 20
516.861297
 30
0.0
 40
5.0
 50
188.626927
 51
351.373073
  0
ARC
  5
7806
  8
L1
 10
419.060197
 20
516.861297
 30
0.0
 40
5.0
 50
188.626927
 51
351.373073
  0
ARC
  5
7809
  8
L1
 10
383.060197
 20
522.861297
 30
0.0
 40
8.5
 50
270.0
 51
0.0
  0
LINE
  5
7817
  8
L1
 10
288.64697
 20
154.361297
 30
0.0
 11
125.84697
 21
154.361297
 31
0.0
  0
LINE
  5
7818
  8
L1
 10
288.64697
 20
139.361297
 30
0.0
 11
125.84697
 21
139.361297
 31
0.0
  0
LINE
  5
782C
  8
L1
 10
449.060197
 20
330.861297
 30
0.0
 11
439.060197
 21
320.861297
 31
0.0
  0
LINE
  5
7834
  8
L1
 10
439.060197
 20
232.861297
 30
0.0
 11
439.060197
 21
212.212151
 31
0.0
  0
LINE
  5
7837
  8
L1
 10
429.060197
 20
156.111297
 30
0.0
 11
424.003627
 21
156.111297
 31
0.0
  0
LINE
  5
7838
  8
L1
 10
424.003627
 20
157.611297
 30
0.0
 11
429.060197
 21
157.611297
 31
0.0
  0
LINE
  5
783E
  8
L1
 10
465.060197
 20
206.861297
 30
0.0
 11
465.060197
 21
190.286712
 31
0.0
  0
LINE
  5
783F
  8
L1
 10
473.060197
 20
206.861297
 30
0.0
 11
473.060197
 21
190.286712
 31
0.0
  0
ARC
  5
7841
  8
L1
 10
469.060197
 20
156.861297
 30
0.0
 40
5.0
 50
188.626927
 51
351.373073
  0
LINE
  5
7843
  8
L1
 10
465.060197
 20
153.861297
 30
0.0
 11
465.060197
 21
145.361297
 31
0.0
  0
LINE
  5
7844
  8
L1
 10
473.060197
 20
153.861297
 30
0.0
 11
473.060197
 21
145.361297
 31
0.0
  0
LINE
  5
7845
  8
L1
 10
479.060197
 20
156.111297
 30
0.0
 11
474.003627
 21
156.111297
 31
0.0
  0
LINE
  5
7846
  8
L1
 10
474.003627
 20
157.611297
 30
0.0
 11
479.060197
 21
157.611297
 31
0.0
  0
LINE
  5
7847
  8
L1
 10
479.060197
 20
157.611297
 30
0.0
 11
479.060197
 21
156.111297
 31
0.0
  0
LINE
  5
7848
  8
L1
 10
459.060197
 20
157.611297
 30
0.0
 11
459.060197
 21
156.111297
 31
0.0
  0
CIRCLE
  5
7849
  8
L1
 10
469.060197
 20
156.861297
 30
0.0
 40
2.4
  0
CIRCLE
  5
784A
  8
L1
 10
469.060197
 20
156.861297
 30
0.0
 40
2.1
  0
ARC
  5
784B
  8
L1
 10
469.060197
 20
156.861297
 30
0.0
 40
5.0
 50
8.626927
 51
171.373073
  0
LINE
  5
784C
  8
L1
 10
459.060197
 20
156.111297
 30
0.0
 11
464.116767
 21
156.111297
 31
0.0
  0
LINE
  5
784D
  8
L1
 10
464.116767
 20
157.611297
 30
0.0
 11
459.060197
 21
157.611297
 31
0.0
  0
LINE
  5
7867
  8
L1
 10
429.060197
 20
157.611297
 30
0.0
 11
429.060197
 21
156.111297
 31
0.0
  0
LINE
  5
7868
  8
L1
 10
465.060197
 20
206.861297
 30
0.0
 11
445.023051
 21
206.861297
 31
0.0
  0
LINE
  5
786E
  8
L1
 10
389.810197
 20
176.861297
 30
0.0
 11
389.810197
 21
181.917867
 31
0.0
  0
LINE
  5
786F
  8
L1
 10
388.310197
 20
181.917867
 30
0.0
 11
388.310197
 21
176.861297
 31
0.0
  0
ARC
  5
7873
  8
L1
 10
383.060197
 20
150.861297
 30
0.0
 40
8.5
 50
0.0
 51
90.0
  0
LINE
  5
7876
  8
L1
 10
379.060197
 20
144.861297
 30
0.0
 11
388.060197
 21
144.861297
 31
0.0
  0
ARC
  5
7878
  8
L1
 10
419.060197
 20
156.861297
 30
0.0
 40
5.0
 50
188.626927
 51
351.373073
  0
ARC
  5
787B
  8
L1
 10
392.560197
 20
145.861297
 30
0.0
 40
1.0
 50
180.0
 51
270.0
  0
LINE
  5
787C
  8
L1
 10
391.560197
 20
150.861297
 30
0.0
 11
391.560197
 21
149.861297
 31
0.0
  0
LINE
  5
787F
  8
L1
 10
409.060197
 20
157.611297
 30
0.0
 11
409.060197
 21
156.111297
 31
0.0
  0
CIRCLE
  5
7880
  8
L1
 10
419.060197
 20
156.861297
 30
0.0
 40
2.4
  0
CIRCLE
  5
7881
  8
L1
 10
419.060197
 20
156.861297
 30
0.0
 40
2.1
  0
ARC
  5
7882
  8
L1
 10
419.060197
 20
156.861297
 30
0.0
 40
5.0
 50
8.626927
 51
171.373073
  0
LINE
  5
7883
  8
L1
 10
409.060197
 20
156.111297
 30
0.0
 11
414.116767
 21
156.111297
 31
0.0
  0
LINE
  5
7884
  8
L1
 10
414.116767
 20
157.611297
 30
0.0
 11
409.060197
 21
157.611297
 31
0.0
  0
ARC
  5
7889
  8
L1
 10
383.060197
 20
150.861297
 30
0.0
 40
6.0
 50
0.0
 51
90.0
  0
ARC
  5
7891
  8
L1
 10
388.060197
 20
145.861297
 30
0.0
 40
1.0
 50
270.0
 51
0.0
  0
LINE
  5
7892
  8
L1
 10
389.060197
 20
150.861297
 30
0.0
 11
389.060197
 21
149.861297
 31
0.0
  0
ARC
  5
7896
  8
L1
 10
379.060197
 20
146.861297
 30
0.0
 40
2.0
 50
180.0
 51
270.0
  0
LINE
  5
789E
  8
L1
 10
383.060197
 20
156.861297
 30
0.0
 11
382.060197
 21
156.861297
 31
0.0
  0
LINE
  5
789F
  8
L1
 10
383.060197
 20
159.361297
 30
0.0
 11
382.060197
 21
159.361297
 31
0.0
  0
LINE
  5
78A0
  8
L1
 10
382.060197
 20
156.861297
 30
0.0
 11
382.060197
 21
159.361297
 31
0.0
  0
LINE
  5
78A7
  8
L1
 10
388.310197
 20
176.861297
 30
0.0
 11
389.810197
 21
176.861297
 31
0.0
  0
ARC
  5
78AC
  8
L1
 10
389.060197
 20
186.861297
 30
0.0
 40
5.0
 50
278.626927
 51
81.373073
  0
CIRCLE
  5
78AD
  8
L1
 10
389.060197
 20
186.861297
 30
0.0
 40
2.4
  0
CIRCLE
  5
78AE
  8
L1
 10
389.060197
 20
186.861297
 30
0.0
 40
2.1
  0
ARC
  5
78BA
  8
L1
 10
389.060197
 20
186.861297
 30
0.0
 40
5.0
 50
98.626927
 51
261.373073
  0
LINE
  5
78BE
  8
L1
 10
388.310197
 20
196.861297
 30
0.0
 11
389.810197
 21
196.861297
 31
0.0
  0
LINE
  5
78BF
  8
L1
 10
389.810197
 20
196.861297
 30
0.0
 11
389.810197
 21
191.804727
 31
0.0
  0
LINE
  5
78C0
  8
L1
 10
388.310197
 20
191.804727
 30
0.0
 11
388.310197
 21
196.861297
 31
0.0
  0
LINE
  5
78D3
  8
L1
 10
439.060197
 20
282.861297
 30
0.0
 11
392.060197
 21
282.861297
 31
0.0
  0
LINE
  5
78D4
  8
L1
 10
439.060197
 20
290.861297
 30
0.0
 11
392.060197
 21
290.861297
 31
0.0
  0
LINE
  5
78D5
  8
L1
 10
439.060197
 20
240.861297
 30
0.0
 11
392.060197
 21
240.861297
 31
0.0
  0
LINE
  5
78D6
  8
L1
 10
439.060197
 20
232.861297
 30
0.0
 11
392.060197
 21
232.861297
 31
0.0
  0
LINE
  5
78D7
  8
L1
 10
439.060197
 20
282.861297
 30
0.0
 11
439.060197
 21
240.861297
 31
0.0
  0
LINE
  5
78D8
  8
L1
 10
439.060197
 20
290.861297
 30
0.0
 11
439.060197
 21
320.861297
 31
0.0
  0
LINE
  5
78D9
  8
L1
 10
439.060197
 20
320.861297
 30
0.0
 11
439.060197
 21
306.861297
 31
0.0
  0
LINE
  5
78DA
  8
L1
 10
439.060197
 20
302.861297
 30
0.0
 11
439.060197
 21
316.861297
 31
0.0
  0
ARC
  5
78DF
  8
L1
 10
389.060197
 20
236.861297
 30
0.0
 40
5.0
 50
278.626927
 51
81.373073
  0
CIRCLE
  5
78E0
  8
L1
 10
389.060197
 20
236.861297
 30
0.0
 40
2.1
  0
CIRCLE
  5
78E1
  8
L1
 10
389.060197
 20
236.861297
 30
0.0
 40
2.4
  0
ARC
  5
78E5
  8
L1
 10
389.060197
 20
236.861297
 30
0.0
 40
5.0
 50
98.626927
 51
261.373073
  0
LINE
  5
78E6
  8
L1
 10
388.310197
 20
231.917867
 30
0.0
 11
388.310197
 21
226.861297
 31
0.0
  0
LINE
  5
78E7
  8
L1
 10
389.810197
 20
226.861297
 30
0.0
 11
389.810197
 21
231.917867
 31
0.0
  0
LINE
  5
78E8
  8
L1
 10
388.310197
 20
226.861297
 30
0.0
 11
389.810197
 21
226.861297
 31
0.0
  0
LINE
  5
78E9
  8
L1
 10
386.060197
 20
232.861297
 30
0.0
 11
378.160197
 21
232.861297
 31
0.0
  0
LINE
  5
78EA
  8
L1
 10
388.310197
 20
241.804727
 30
0.0
 11
388.310197
 21
246.861297
 31
0.0
  0
LINE
  5
78EB
  8
L1
 10
389.810197
 20
246.861297
 30
0.0
 11
389.810197
 21
241.804727
 31
0.0
  0
LINE
  5
78EC
  8
L1
 10
388.310197
 20
246.861297
 30
0.0
 11
389.810197
 21
246.861297
 31
0.0
  0
LINE
  5
78ED
  8
L1
 10
386.060197
 20
240.861297
 30
0.0
 11
378.160197
 21
240.861297
 31
0.0
  0
CIRCLE
  5
78F0
  8
L1
 10
389.060197
 20
286.861297
 30
0.0
 40
2.4
  0
CIRCLE
  5
78F1
  8
L1
 10
389.060197
 20
286.861297
 30
0.0
 40
2.1
  0
ARC
  5
78F2
  8
L1
 10
389.060197
 20
286.861297
 30
0.0
 40
5.0
 50
278.626927
 51
81.373073
  0
ARC
  5
78F4
  8
L1
 10
389.060197
 20
286.861297
 30
0.0
 40
5.0
 50
98.626927
 51
261.373073
  0
LINE
  5
78F5
  8
L1
 10
388.310197
 20
276.861297
 30
0.0
 11
389.810197
 21
276.861297
 31
0.0
  0
LINE
  5
78F6
  8
L1
 10
389.810197
 20
276.861297
 30
0.0
 11
389.810197
 21
281.917867
 31
0.0
  0
LINE
  5
78F7
  8
L1
 10
388.310197
 20
281.917867
 30
0.0
 11
388.310197
 21
276.861297
 31
0.0
  0
LINE
  5
78F8
  8
L1
 10
386.060197
 20
282.861297
 30
0.0
 11
378.160197
 21
282.861297
 31
0.0
  0
LINE
  5
78F9
  8
L1
 10
388.310197
 20
296.861297
 30
0.0
 11
389.810197
 21
296.861297
 31
0.0
  0
LINE
  5
78FA
  8
L1
 10
389.810197
 20
296.861297
 30
0.0
 11
389.810197
 21
291.804727
 31
0.0
  0
LINE
  5
78FB
  8
L1
 10
388.310197
 20
291.804727
 30
0.0
 11
388.310197
 21
296.861297
 31
0.0
  0
LINE
  5
78FC
  8
L1
 10
386.060197
 20
290.861297
 30
0.0
 11
378.160197
 21
290.861297
 31
0.0
  0
LINE
  5
792B
  8
L1
 10
439.060197
 20
390.861297
 30
0.0
 11
439.060197
 21
432.861297
 31
0.0
  0
LINE
  5
792C
  8
L1
 10
439.060197
 20
382.861297
 30
0.0
 11
392.060197
 21
382.861297
 31
0.0
  0
LINE
  5
792D
  8
L1
 10
439.060197
 20
390.861297
 30
0.0
 11
392.060197
 21
390.861297
 31
0.0
  0
LINE
  5
792E
  8
L1
 10
439.060197
 20
382.861297
 30
0.0
 11
439.060197
 21
352.861297
 31
0.0
  0
LINE
  5
7930
  8
L1
 10
449.060197
 20
342.861297
 30
0.0
 11
439.060197
 21
352.861297
 31
0.0
  0
LINE
  5
7931
  8
L1
 10
449.060197
 20
336.861297
 30
0.0
 11
449.060197
 21
330.861297
 31
0.0
  0
LINE
  5
7934
  8
L1
 10
449.060197
 20
336.861297
 30
0.0
 11
449.060197
 21
342.861297
 31
0.0
  0
LINE
  5
7936
  8
L1
 10
439.060197
 20
352.861297
 30
0.0
 11
439.060197
 21
370.861297
 31
0.0
  0
CIRCLE
  5
7939
  8
L1
 10
389.060197
 20
336.861297
 30
0.0
 40
2.1
  0
CIRCLE
  5
793A
  8
L1
 10
389.060197
 20
336.861297
 30
0.0
 40
2.4
  0
ARC
  5
793B
  8
L1
 10
389.060197
 20
336.861297
 30
0.0
 40
5.0
 50
278.626927
 51
81.373073
  0
ARC
  5
7943
  8
L1
 10
389.060197
 20
336.861297
 30
0.0
 40
5.0
 50
98.626927
 51
261.373073
  0
LINE
  5
7944
  8
L1
 10
388.310197
 20
331.917867
 30
0.0
 11
388.310197
 21
326.861297
 31
0.0
  0
LINE
  5
7945
  8
L1
 10
389.810197
 20
326.861297
 30
0.0
 11
389.810197
 21
331.917867
 31
0.0
  0
LINE
  5
7946
  8
L1
 10
388.310197
 20
326.861297
 30
0.0
 11
389.810197
 21
326.861297
 31
0.0
  0
LINE
  5
7947
  8
L1
 10
388.310197
 20
346.861297
 30
0.0
 11
389.810197
 21
346.861297
 31
0.0
  0
LINE
  5
7948
  8
L1
 10
388.310197
 20
341.804727
 30
0.0
 11
388.310197
 21
346.861297
 31
0.0
  0
LINE
  5
7949
  8
L1
 10
389.810197
 20
346.861297
 30
0.0
 11
389.810197
 21
341.804727
 31
0.0
  0
CIRCLE
  5
794F
  8
L1
 10
389.060197
 20
386.861297
 30
0.0
 40
2.4
  0
CIRCLE
  5
7950
  8
L1
 10
389.060197
 20
386.861297
 30
0.0
 40
2.1
  0
ARC
  5
7951
  8
L1
 10
389.060197
 20
386.861297
 30
0.0
 40
5.0
 50
278.626927
 51
81.373073
  0
LINE
  5
7953
  8
L1
 10
389.810197
 20
396.861297
 30
0.0
 11
389.810197
 21
391.804727
 31
0.0
  0
LINE
  5
7954
  8
L1
 10
388.310197
 20
391.804727
 30
0.0
 11
388.310197
 21
396.861297
 31
0.0
  0
ARC
  5
7956
  8
L1
 10
389.060197
 20
386.861297
 30
0.0
 40
5.0
 50
98.626927
 51
261.373073
  0
LINE
  5
7957
  8
L1
 10
388.310197
 20
376.861297
 30
0.0
 11
389.810197
 21
376.861297
 31
0.0
  0
LINE
  5
7958
  8
L1
 10
389.810197
 20
376.861297
 30
0.0
 11
389.810197
 21
381.917867
 31
0.0
  0
LINE
  5
7959
  8
L1
 10
388.310197
 20
381.917867
 30
0.0
 11
388.310197
 21
376.861297
 31
0.0
  0
LINE
  5
795A
  8
L1
 10
386.060197
 20
382.861297
 30
0.0
 11
378.160197
 21
382.861297
 31
0.0
  0
LINE
  5
795B
  8
L1
 10
386.060197
 20
390.861297
 30
0.0
 11
378.160197
 21
390.861297
 31
0.0
  0
LINE
  5
795C
  8
L1
 10
388.310197
 20
396.861297
 30
0.0
 11
389.810197
 21
396.861297
 31
0.0
  0
LINE
  5
795E
  8
L1
 10
473.060197
 20
466.861297
 30
0.0
 11
473.060197
 21
483.861297
 31
0.0
  0
LINE
  5
795F
  8
L1
 10
465.060197
 20
466.861297
 30
0.0
 11
465.060197
 21
483.861297
 31
0.0
  0
LINE
  5
7960
  8
L1
 10
465.060197
 20
466.861297
 30
0.0
 11
445.023051
 21
466.861297
 31
0.0
  0
LINE
  5
7969
  8
L1
 10
377.060197
 20
513.361297
 30
0.0
 11
377.060197
 21
160.361297
 31
0.0
  0
CIRCLE
  5
796E
  8
L1
 10
389.060197
 20
436.861297
 30
0.0
 40
2.4
  0
ARC
  5
796F
  8
L1
 10
389.060197
 20
436.861297
 30
0.0
 40
5.0
 50
278.626927
 51
81.373073
  0
CIRCLE
  5
7970
  8
L1
 10
389.060197
 20
436.861297
 30
0.0
 40
2.1
  0
LINE
  5
7974
  8
L1
 10
389.810197
 20
446.861297
 30
0.0
 11
389.810197
 21
441.804727
 31
0.0
  0
LINE
  5
7975
  8
L1
 10
388.310197
 20
441.804727
 30
0.0
 11
388.310197
 21
446.861297
 31
0.0
  0
LINE
  5
7976
  8
L1
 10
389.810197
 20
426.861297
 30
0.0
 11
389.810197
 21
431.917867
 31
0.0
  0
LINE
  5
7977
  8
L1
 10
388.310197
 20
431.917867
 30
0.0
 11
388.310197
 21
426.861297
 31
0.0
  0
LINE
  5
7978
  8
L1
 10
388.310197
 20
426.861297
 30
0.0
 11
389.810197
 21
426.861297
 31
0.0
  0
ARC
  5
7979
  8
L1
 10
389.060197
 20
436.861297
 30
0.0
 40
5.0
 50
98.626927
 51
261.373073
  0
LINE
  5
7982
  8
L1
 10
388.310197
 20
446.861297
 30
0.0
 11
389.810197
 21
446.861297
 31
0.0
  0
CIRCLE
  5
7989
  8
L1
 10
389.060197
 20
486.861297
 30
0.0
 40
2.4
  0
CIRCLE
  5
798A
  8
L1
 10
389.060197
 20
486.861297
 30
0.0
 40
2.1
  0
ARC
  5
798C
  8
L1
 10
389.060197
 20
486.861297
 30
0.0
 40
5.0
 50
278.626927
 51
81.373073
  0
ARC
  5
798E
  8
L1
 10
389.060197
 20
486.861297
 30
0.0
 40
5.0
 50
98.626927
 51
261.373073
  0
LINE
  5
7993
  8
L1
 10
389.810197
 20
476.861297
 30
0.0
 11
389.810197
 21
481.917867
 31
0.0
  0
LINE
  5
7994
  8
L1
 10
388.310197
 20
481.917867
 30
0.0
 11
388.310197
 21
476.861297
 31
0.0
  0
LINE
  5
7999
  8
L1
 10
388.310197
 20
476.861297
 30
0.0
 11
389.810197
 21
476.861297
 31
0.0
  0
LINE
  5
79A1
  8
L1
 10
388.310197
 20
496.861297
 30
0.0
 11
389.810197
 21
496.861297
 31
0.0
  0
LINE
  5
79A2
  8
L1
 10
389.810197
 20
496.861297
 30
0.0
 11
389.810197
 21
491.804727
 31
0.0
  0
LINE
  5
79A3
  8
L1
 10
388.310197
 20
491.804727
 30
0.0
 11
388.310197
 21
496.861297
 31
0.0
  0
LINE
  5
79A4
  8
L1
 10
383.060197
 20
514.361297
 30
0.0
 11
382.060197
 21
514.361297
 31
0.0
  0
LINE
  5
79A5
  8
L1
 10
383.060197
 20
514.361297
 30
0.0
 11
382.060197
 21
514.361297
 31
0.0
  0
LINE
  5
79E7
  8
L1
 10
115.64697
 20
142.665145
 30
0.0
 11
115.64697
 21
336.861297
 31
0.0
  0
LINE
  5
79E8
  8
L1
 10
118.64697
 20
137.861297
 30
0.0
 11
118.64697
 21
336.861297
 31
0.0
  0
LINE
  5
79F0
  8
L1
 10
125.84697
 20
336.861297
 30
0.0
 11
125.84697
 21
137.861297
 31
0.0
  0
LINE
  5
79F2
  8
L1
 10
118.64697
 20
141.861297
 30
0.0
 11
115.64697
 21
142.665145
 31
0.0
  0
LINE
  5
79F4
  8
L1
 10
125.84697
 20
137.861297
 30
0.0
 11
118.64697
 21
137.861297
 31
0.0
  0
LINE
  5
7A52
  8
L1
 10
288.64697
 20
519.361297
 30
0.0
 11
125.84697
 21
519.361297
 31
0.0
  0
LINE
  5
7A53
  8
L1
 10
288.64697
 20
534.361297
 30
0.0
 11
125.84697
 21
534.361297
 31
0.0
  0
LINE
  5
7A5A
  8
L1
 10
429.060197
 20
516.111297
 30
0.0
 11
424.003627
 21
516.111297
 31
0.0
  0
LINE
  5
7A5B
  8
L1
 10
424.003627
 20
517.611297
 30
0.0
 11
429.060197
 21
517.611297
 31
0.0
  0
LINE
  5
7A62
  8
L1
 10
479.060197
 20
516.111297
 30
0.0
 11
474.003627
 21
516.111297
 31
0.0
  0
LINE
  5
7A63
  8
L1
 10
474.003627
 20
517.611297
 30
0.0
 11
479.060197
 21
517.611297
 31
0.0
  0
LINE
  5
7A64
  8
L1
 10
479.060197
 20
517.611297
 30
0.0
 11
479.060197
 21
516.111297
 31
0.0
  0
LINE
  5
7A65
  8
L1
 10
473.060197
 20
519.861297
 30
0.0
 11
473.060197
 21
528.861297
 31
0.0
  0
LINE
  5
7A66
  8
L1
 10
465.060197
 20
519.861297
 30
0.0
 11
465.060197
 21
528.861297
 31
0.0
  0
LINE
  5
7A67
  8
L1
 10
459.060197
 20
517.611297
 30
0.0
 11
459.060197
 21
516.111297
 31
0.0
  0
ARC
  5
7A68
  8
L1
 10
469.060197
 20
516.861297
 30
0.0
 40
5.0
 50
8.626927
 51
171.373073
  0
LINE
  5
7A69
  8
L1
 10
459.060197
 20
516.111297
 30
0.0
 11
464.116767
 21
516.111297
 31
0.0
  0
LINE
  5
7A6A
  8
L1
 10
464.116767
 20
517.611297
 30
0.0
 11
459.060197
 21
517.611297
 31
0.0
  0
LINE
  5
7A7B
  8
L1
 10
429.060197
 20
517.611297
 30
0.0
 11
429.060197
 21
516.111297
 31
0.0
  0
LINE
  5
7A87
  8
L1
 10
389.060197
 20
524.861297
 30
0.0
 11
391.560197
 21
524.861297
 31
0.0
  0
LINE
  5
7A8A
  8
L1
 10
392.560197
 20
528.861297
 30
0.0
 11
669.213197
 21
528.861297
 31
0.0
  0
LINE
  5
7A8B
  8
L1
 10
409.060197
 20
517.611297
 30
0.0
 11
409.060197
 21
516.111297
 31
0.0
  0
ARC
  5
7A8C
  8
L1
 10
419.060197
 20
516.861297
 30
0.0
 40
5.0
 50
8.626927
 51
171.373073
  0
LINE
  5
7A8D
  8
L1
 10
409.060197
 20
516.111297
 30
0.0
 11
414.116767
 21
516.111297
 31
0.0
  0
LINE
  5
7A8E
  8
L1
 10
414.116767
 20
517.611297
 30
0.0
 11
409.060197
 21
517.611297
 31
0.0
  0
ARC
  5
7A91
  8
L1
 10
392.560197
 20
527.861297
 30
0.0
 40
1.0
 50
90.0
 51
180.0
  0
LINE
  5
7A92
  8
L1
 10
391.560197
 20
526.861297
 30
0.0
 11
391.560197
 21
527.861297
 31
0.0
  0
LINE
  5
7A93
  8
L1
 10
391.560197
 20
522.861297
 30
0.0
 11
391.560197
 21
524.861297
 31
0.0
  0
ARC
  5
7A9B
  8
L1
 10
388.060197
 20
527.861297
 30
0.0
 40
1.0
 50
0.0
 51
90.0
  0
ARC
  5
7A9D
  8
L1
 10
379.060197
 20
526.861297
 30
0.0
 40
2.0
 50
90.0
 51
180.0
  0
LINE
  5
7AA2
  8
L1
 10
389.060197
 20
526.861297
 30
0.0
 11
389.060197
 21
527.861297
 31
0.0
  0
LINE
  5
7AA3
  8
L1
 10
383.060197
 20
516.861297
 30
0.0
 11
382.060197
 21
516.861297
 31
0.0
  0
LINE
  5
7AA5
  8
L1
 10
383.060197
 20
516.861297
 30
0.0
 11
382.060197
 21
516.861297
 31
0.0
  0
LINE
  5
7AA8
  8
L1
 10
389.060197
 20
522.861297
 30
0.0
 11
389.060197
 21
524.861297
 31
0.0
  0
LINE
  5
7AAC
  8
L1
 10
379.060197
 20
528.861297
 30
0.0
 11
388.060197
 21
528.861297
 31
0.0
  0
LINE
  5
7ACE
  8
L1
 10
118.64697
 20
531.861297
 30
0.0
 11
115.64697
 21
531.05745
 31
0.0
  0
LINE
  5
7AD1
  8
L1
 10
125.84697
 20
535.861297
 30
0.0
 11
118.64697
 21
535.861297
 31
0.0
  0
LINE
  5
7C87
  8
L1
 10
675.453598
 20
216.861297
 30
0.0
 11
685.453598
 21
206.861297
 31
0.0
  0
LINE
  5
7C88
  8
L1
 10
663.453598
 20
216.861297
 30
0.0
 11
653.453598
 21
206.861297
 31
0.0
  0
LINE
  5
7C8B
  8
L1
 10
663.453598
 20
216.861297
 30
0.0
 11
675.453598
 21
216.861297
 31
0.0
  0
LINE
  5
7C8C
  8
L1
 10
669.453598
 20
456.861297
 30
0.0
 11
675.453598
 21
456.861297
 31
0.0
  0
LINE
  5
7C8D
  8
L1
 10
669.453598
 20
456.861297
 30
0.0
 11
675.453598
 21
456.861297
 31
0.0
  0
LINE
  5
7C8E
  8
L1
 10
675.453598
 20
456.861297
 30
0.0
 11
685.453598
 21
466.861297
 31
0.0
  0
LINE
  5
7C8F
  8
L1
 10
663.453598
 20
456.861297
 30
0.0
 11
669.453598
 21
456.861297
 31
0.0
  0
LINE
  5
7C90
  8
L1
 10
663.453598
 20
456.861297
 30
0.0
 11
653.453598
 21
466.861297
 31
0.0
  0
CIRCLE
  5
7C92
  8
L1
 10
619.060197
 20
516.861297
 30
0.0
 40
2.4
  0
CIRCLE
  5
7C93
  8
L1
 10
619.060197
 20
516.861297
 30
0.0
 40
2.1
  0
ARC
  5
7C94
  8
L1
 10
619.060197
 20
516.861297
 30
0.0
 40
5.0
 50
8.626927
 51
171.373073
  0
ARC
  5
7C95
  8
L1
 10
619.060197
 20
516.861297
 30
0.0
 40
5.0
 50
188.626927
 51
351.373073
  0
CIRCLE
  5
7C96
  8
L1
 10
619.060197
 20
516.861297
 30
0.0
 40
2.4
  0
CIRCLE
  5
7C97
  8
L1
 10
619.060197
 20
516.861297
 30
0.0
 40
2.1
  0
ARC
  5
7C98
  8
L1
 10
619.060197
 20
516.861297
 30
0.0
 40
5.0
 50
8.626927
 51
171.373073
  0
ARC
  5
7C99
  8
L1
 10
619.060197
 20
516.861297
 30
0.0
 40
5.0
 50
188.626927
 51
351.373073
  0
CIRCLE
  5
7C9C
  8
L1
 10
619.060197
 20
516.861297
 30
0.0
 40
2.4
  0
CIRCLE
  5
7C9D
  8
L1
 10
619.060197
 20
516.861297
 30
0.0
 40
2.1
  0
ARC
  5
7C9E
  8
L1
 10
619.060197
 20
516.861297
 30
0.0
 40
5.0
 50
8.626927
 51
171.373073
  0
ARC
  5
7C9F
  8
L1
 10
619.060197
 20
516.861297
 30
0.0
 40
5.0
 50
188.626927
 51
351.373073
  0
LINE
  5
7CA0
  8
L1
 10
629.060197
 20
517.611297
 30
0.0
 11
624.003627
 21
517.611297
 31
0.0
  0
LINE
  5
7CA1
  8
L1
 10
624.003627
 20
516.111297
 30
0.0
 11
629.060197
 21
516.111297
 31
0.0
  0
LINE
  5
7CA2
  8
L1
 10
629.060197
 20
516.111297
 30
0.0
 11
629.060197
 21
517.611297
 31
0.0
  0
LINE
  5
7CA3
  8
L1
 10
609.060197
 20
517.611297
 30
0.0
 11
614.116767
 21
517.611297
 31
0.0
  0
LINE
  5
7CA4
  8
L1
 10
614.116767
 20
516.111297
 30
0.0
 11
609.060197
 21
516.111297
 31
0.0
  0
LINE
  5
7CA5
  8
L1
 10
609.060197
 20
516.111297
 30
0.0
 11
609.060197
 21
517.611297
 31
0.0
  0
LINE
  5
7CA6
  8
L1
 10
609.060197
 20
517.611297
 30
0.0
 11
614.116767
 21
517.611297
 31
0.0
  0
LINE
  5
7CA7
  8
L1
 10
614.116767
 20
516.111297
 30
0.0
 11
609.060197
 21
516.111297
 31
0.0
  0
LINE
  5
7CA8
  8
L1
 10
609.060197
 20
516.111297
 30
0.0
 11
609.060197
 21
517.611297
 31
0.0
  0
LINE
  5
7CA9
  8
L1
 10
609.060197
 20
517.611297
 30
0.0
 11
614.116767
 21
517.611297
 31
0.0
  0
LINE
  5
7CAA
  8
L1
 10
614.116767
 20
516.111297
 30
0.0
 11
609.060197
 21
516.111297
 31
0.0
  0
LINE
  5
7CAB
  8
L1
 10
609.060197
 20
516.111297
 30
0.0
 11
609.060197
 21
517.611297
 31
0.0
  0
ARC
  5
7CAC
  8
L1
 10
619.060197
 20
156.861297
 30
0.0
 40
5.0
 50
8.626927
 51
171.373073
  0
ARC
  5
7CAD
  8
L1
 10
619.060197
 20
156.861297
 30
0.0
 40
5.0
 50
188.626927
 51
351.373073
  0
CIRCLE
  5
7CAE
  8
L1
 10
619.060197
 20
156.861297
 30
0.0
 40
2.1
  0
CIRCLE
  5
7CAF
  8
L1
 10
619.060197
 20
156.861297
 30
0.0
 40
2.4
  0
ARC
  5
7CB2
  8
L1
 10
619.060197
 20
156.861297
 30
0.0
 40
5.0
 50
8.626927
 51
171.373073
  0
ARC
  5
7CB3
  8
L1
 10
619.060197
 20
156.861297
 30
0.0
 40
5.0
 50
188.626927
 51
351.373073
  0
CIRCLE
  5
7CB4
  8
L1
 10
619.060197
 20
156.861297
 30
0.0
 40
2.1
  0
CIRCLE
  5
7CB5
  8
L1
 10
619.060197
 20
156.861297
 30
0.0
 40
2.4
  0
ARC
  5
7CB6
  8
L1
 10
619.060197
 20
156.861297
 30
0.0
 40
5.0
 50
8.626927
 51
171.373073
  0
ARC
  5
7CB7
  8
L1
 10
619.060197
 20
156.861297
 30
0.0
 40
5.0
 50
188.626927
 51
351.373073
  0
CIRCLE
  5
7CB8
  8
L1
 10
619.060197
 20
156.861297
 30
0.0
 40
2.1
  0
CIRCLE
  5
7CB9
  8
L1
 10
619.060197
 20
156.861297
 30
0.0
 40
2.4
  0
LINE
  5
7CBB
  8
L1
 10
629.060197
 20
157.611297
 30
0.0
 11
629.060197
 21
156.111297
 31
0.0
  0
LINE
  5
7CBC
  8
L1
 10
624.003627
 20
157.611297
 30
0.0
 11
629.060197
 21
157.611297
 31
0.0
  0
LINE
  5
7CBD
  8
L1
 10
629.060197
 20
156.111297
 30
0.0
 11
624.003627
 21
156.111297
 31
0.0
  0
LINE
  5
7CBE
  8
L1
 10
609.060197
 20
157.611297
 30
0.0
 11
609.060197
 21
156.111297
 31
0.0
  0
LINE
  5
7CBF
  8
L1
 10
614.116767
 20
157.611297
 30
0.0
 11
609.060197
 21
157.611297
 31
0.0
  0
LINE
  5
7CC0
  8
L1
 10
609.060197
 20
156.111297
 30
0.0
 11
614.116767
 21
156.111297
 31
0.0
  0
LINE
  5
7CC1
  8
L1
 10
609.060197
 20
157.611297
 30
0.0
 11
609.060197
 21
156.111297
 31
0.0
  0
LINE
  5
7CC2
  8
L1
 10
614.116767
 20
157.611297
 30
0.0
 11
609.060197
 21
157.611297
 31
0.0
  0
LINE
  5
7CC3
  8
L1
 10
609.060197
 20
156.111297
 30
0.0
 11
614.116767
 21
156.111297
 31
0.0
  0
LINE
  5
7CC4
  8
L1
 10
609.060197
 20
157.611297
 30
0.0
 11
609.060197
 21
156.111297
 31
0.0
  0
LINE
  5
7CC5
  8
L1
 10
614.116767
 20
157.611297
 30
0.0
 11
609.060197
 21
157.611297
 31
0.0
  0
LINE
  5
7CC6
  8
L1
 10
609.060197
 20
156.111297
 30
0.0
 11
614.116767
 21
156.111297
 31
0.0
  0
LINE
  5
7CC8
  8
L1
 10
734.060197
 20
156.111297
 30
0.0
 11
739.116767
 21
156.111297
 31
0.0
  0
LINE
  5
7CC9
  8
L1
 10
739.116767
 20
157.611297
 30
0.0
 11
734.060197
 21
157.611297
 31
0.0
  0
ARC
  5
7CCA
  8
L1
 10
744.060197
 20
156.861297
 30
0.0
 40
5.0
 50
188.626927
 51
351.373073
  0
CIRCLE
  5
7CCC
  8
L1
 10
744.060197
 20
156.861297
 30
0.0
 40
2.4
  0
CIRCLE
  5
7CCD
  8
L1
 10
744.060197
 20
156.861297
 30
0.0
 40
2.1
  0
LINE
  5
7CCE
  8
L1
 10
754.060197
 20
156.111297
 30
0.0
 11
749.003627
 21
156.111297
 31
0.0
  0
LINE
  5
7CCF
  8
L1
 10
749.003627
 20
157.611297
 30
0.0
 11
754.060197
 21
157.611297
 31
0.0
  0
LINE
  5
7CD0
  8
L1
 10
754.060197
 20
157.611297
 30
0.0
 11
754.060197
 21
156.111297
 31
0.0
  0
ARC
  5
7CD1
  8
L1
 10
744.060197
 20
156.861297
 30
0.0
 40
5.0
 50
8.626927
 51
171.373073
  0
LINE
  5
7CD2
  8
L1
 10
734.060197
 20
157.611297
 30
0.0
 11
734.060197
 21
156.111297
 31
0.0
  0
LINE
  5
7CD3
  8
L1
 10
739.116767
 20
516.111297
 30
0.0
 11
734.060197
 21
516.111297
 31
0.0
  0
LINE
  5
7CD4
  8
L1
 10
734.060197
 20
517.611297
 30
0.0
 11
739.116767
 21
517.611297
 31
0.0
  0
ARC
  5
7CD6
  8
L1
 10
744.060197
 20
516.861297
 30
0.0
 40
5.0
 50
188.626927
 51
351.373073
  0
CIRCLE
  5
7CD8
  8
L1
 10
744.060197
 20
516.861297
 30
0.0
 40
2.1
  0
CIRCLE
  5
7CD9
  8
L1
 10
744.060197
 20
516.861297
 30
0.0
 40
2.4
  0
LINE
  5
7CDA
  8
L1
 10
754.060197
 20
516.111297
 30
0.0
 11
754.060197
 21
517.611297
 31
0.0
  0
LINE
  5
7CDB
  8
L1
 10
749.003627
 20
516.111297
 30
0.0
 11
754.060197
 21
516.111297
 31
0.0
  0
LINE
  5
7CDC
  8
L1
 10
754.060197
 20
517.611297
 30
0.0
 11
749.003627
 21
517.611297
 31
0.0
  0
ARC
  5
7CDD
  8
L1
 10
744.060197
 20
516.861297
 30
0.0
 40
5.0
 50
8.626927
 51
171.373073
  0
LINE
  5
7CE1
  8
L1
 10
734.060197
 20
516.111297
 30
0.0
 11
734.060197
 21
517.611297
 31
0.0
  0
LINE
  5
7CE3
  8
L1
 10
499.003627
 20
157.611297
 30
0.0
 11
504.060197
 21
157.611297
 31
0.0
  0
LINE
  5
7CE4
  8
L1
 10
504.060197
 20
156.111297
 30
0.0
 11
499.003627
 21
156.111297
 31
0.0
  0
LINE
  5
7CE5
  8
L1
 10
504.060197
 20
157.611297
 30
0.0
 11
504.060197
 21
156.111297
 31
0.0
  0
LINE
  5
7CE6
  8
L1
 10
489.116767
 20
157.611297
 30
0.0
 11
484.060197
 21
157.611297
 31
0.0
  0
LINE
  5
7CE7
  8
L1
 10
484.060197
 20
156.111297
 30
0.0
 11
489.116767
 21
156.111297
 31
0.0
  0
ARC
  5
7CE9
  8
L1
 10
494.060197
 20
156.861297
 30
0.0
 40
5.0
 50
188.626927
 51
351.373073
  0
ARC
  5
7CEA
  8
L1
 10
494.060197
 20
156.861297
 30
0.0
 40
5.0
 50
8.626927
 51
171.373073
  0
CIRCLE
  5
7CEB
  8
L1
 10
494.060197
 20
156.861297
 30
0.0
 40
2.1
  0
CIRCLE
  5
7CEC
  8
L1
 10
494.060197
 20
156.861297
 30
0.0
 40
2.4
  0
LINE
  5
7CED
  8
L1
 10
484.060197
 20
157.611297
 30
0.0
 11
484.060197
 21
156.111297
 31
0.0
  0
LINE
  5
7CEE
  8
L1
 10
504.060197
 20
517.611297
 30
0.0
 11
499.003627
 21
517.611297
 31
0.0
  0
LINE
  5
7CEF
  8
L1
 10
499.003627
 20
516.111297
 30
0.0
 11
504.060197
 21
516.111297
 31
0.0
  0
LINE
  5
7CF1
  8
L1
 10
504.060197
 20
516.111297
 30
0.0
 11
504.060197
 21
517.611297
 31
0.0
  0
LINE
  5
7CF2
  8
L1
 10
484.060197
 20
517.611297
 30
0.0
 11
489.116767
 21
517.611297
 31
0.0
  0
LINE
  5
7CF3
  8
L1
 10
489.116767
 20
516.111297
 30
0.0
 11
484.060197
 21
516.111297
 31
0.0
  0
CIRCLE
  5
7CF4
  8
L1
 10
494.060197
 20
516.861297
 30
0.0
 40
2.4
  0
CIRCLE
  5
7CF5
  8
L1
 10
494.060197
 20
516.861297
 30
0.0
 40
2.1
  0
ARC
  5
7CF7
  8
L1
 10
494.060197
 20
516.861297
 30
0.0
 40
5.0
 50
188.626927
 51
351.373073
  0
ARC
  5
7CF8
  8
L1
 10
494.060197
 20
516.861297
 30
0.0
 40
5.0
 50
8.626927
 51
171.373073
  0
LINE
  5
7CF9
  8
L1
 10
484.060197
 20
516.111297
 30
0.0
 11
484.060197
 21
517.611297
 31
0.0
  0
CIRCLE
  5
7CFE
  8
L1
 10
501.57899
 20
237.119317
 30
0.0
 40
6.0
  0
CIRCLE
  5
7D01
  8
L1
 10
486.632041
 20
237.119317
 30
0.0
 40
6.0
  0
LINE
  5
7D04
  8
L1
 10
679.060197
 20
156.111297
 30
0.0
 11
674.003627
 21
156.111297
 31
0.0
  0
LINE
  5
7D05
  8
L1
 10
674.003627
 20
157.611297
 30
0.0
 11
679.060197
 21
157.611297
 31
0.0
  0
LINE
  5
7D09
  8
L1
 10
679.060197
 20
157.611297
 30
0.0
 11
679.060197
 21
156.111297
 31
0.0
  0
LINE
  5
7D0A
  8
L1
 10
659.060197
 20
156.111297
 30
0.0
 11
664.116767
 21
156.111297
 31
0.0
  0
LINE
  5
7D0B
  8
L1
 10
664.116767
 20
157.611297
 30
0.0
 11
659.060197
 21
157.611297
 31
0.0
  0
LINE
  5
7D0C
  8
L1
 10
659.060197
 20
156.111297
 30
0.0
 11
664.116767
 21
156.111297
 31
0.0
  0
LINE
  5
7D0D
  8
L1
 10
664.116767
 20
157.611297
 30
0.0
 11
659.060197
 21
157.611297
 31
0.0
  0
LINE
  5
7D0E
  8
L1
 10
659.060197
 20
156.111297
 30
0.0
 11
664.116767
 21
156.111297
 31
0.0
  0
LINE
  5
7D0F
  8
L1
 10
664.116767
 20
157.611297
 30
0.0
 11
659.060197
 21
157.611297
 31
0.0
  0
ARC
  5
7D10
  8
L1
 10
669.060197
 20
156.861297
 30
0.0
 40
5.0
 50
188.626927
 51
351.373073
  0
ARC
  5
7D11
  8
L1
 10
669.060197
 20
156.861297
 30
0.0
 40
5.0
 50
188.626927
 51
351.373073
  0
ARC
  5
7D12
  8
L1
 10
669.060197
 20
156.861297
 30
0.0
 40
5.0
 50
188.626927
 51
351.373073
  0
CIRCLE
  5
7D13
  8
L1
 10
669.060197
 20
156.861297
 30
0.0
 40
2.4
  0
CIRCLE
  5
7D14
  8
L1
 10
669.060197
 20
156.861297
 30
0.0
 40
2.1
  0
ARC
  5
7D15
  8
L1
 10
669.060197
 20
156.861297
 30
0.0
 40
5.0
 50
8.626927
 51
171.373073
  0
CIRCLE
  5
7D16
  8
L1
 10
669.060197
 20
156.861297
 30
0.0
 40
2.4
  0
CIRCLE
  5
7D17
  8
L1
 10
669.060197
 20
156.861297
 30
0.0
 40
2.1
  0
ARC
  5
7D18
  8
L1
 10
669.060197
 20
156.861297
 30
0.0
 40
5.0
 50
8.626927
 51
171.373073
  0
CIRCLE
  5
7D19
  8
L1
 10
669.060197
 20
156.861297
 30
0.0
 40
2.4
  0
CIRCLE
  5
7D1A
  8
L1
 10
669.060197
 20
156.861297
 30
0.0
 40
2.1
  0
ARC
  5
7D1B
  8
L1
 10
669.060197
 20
156.861297
 30
0.0
 40
5.0
 50
8.626927
 51
171.373073
  0
LINE
  5
7D1C
  8
L1
 10
659.060197
 20
157.611297
 30
0.0
 11
659.060197
 21
156.111297
 31
0.0
  0
LINE
  5
7D1D
  8
L1
 10
659.060197
 20
157.611297
 30
0.0
 11
659.060197
 21
156.111297
 31
0.0
  0
LINE
  5
7D1E
  8
L1
 10
659.060197
 20
157.611297
 30
0.0
 11
659.060197
 21
156.111297
 31
0.0
  0
LINE
  5
7D1F
  8
L1
 10
674.156627
 20
516.111297
 30
0.0
 11
679.213197
 21
516.111297
 31
0.0
  0
LINE
  5
7D20
  8
L1
 10
679.213197
 20
517.611297
 30
0.0
 11
674.156627
 21
517.611297
 31
0.0
  0
LINE
  5
7D24
  8
L1
 10
679.213197
 20
516.111297
 30
0.0
 11
679.213197
 21
517.611297
 31
0.0
  0
LINE
  5
7D25
  8
L1
 10
664.269767
 20
516.111297
 30
0.0
 11
659.213197
 21
516.111297
 31
0.0
  0
LINE
  5
7D26
  8
L1
 10
659.213197
 20
517.611297
 30
0.0
 11
664.269767
 21
517.611297
 31
0.0
  0
LINE
  5
7D27
  8
L1
 10
664.269767
 20
516.111297
 30
0.0
 11
659.213197
 21
516.111297
 31
0.0
  0
LINE
  5
7D28
  8
L1
 10
659.213197
 20
517.611297
 30
0.0
 11
664.269767
 21
517.611297
 31
0.0
  0
LINE
  5
7D29
  8
L1
 10
664.269767
 20
516.111297
 30
0.0
 11
659.213197
 21
516.111297
 31
0.0
  0
LINE
  5
7D2A
  8
L1
 10
659.213197
 20
517.611297
 30
0.0
 11
664.269767
 21
517.611297
 31
0.0
  0
ARC
  5
7D2B
  8
L1
 10
669.213197
 20
516.861297
 30
0.0
 40
5.0
 50
188.626927
 51
351.373073
  0
CIRCLE
  5
7D2C
  8
L1
 10
669.213197
 20
516.861297
 30
0.0
 40
2.1
  0
CIRCLE
  5
7D2D
  8
L1
 10
669.213197
 20
516.861297
 30
0.0
 40
2.4
  0
ARC
  5
7D2E
  8
L1
 10
669.213197
 20
516.861297
 30
0.0
 40
5.0
 50
188.626927
 51
351.373073
  0
CIRCLE
  5
7D2F
  8
L1
 10
669.213197
 20
516.861297
 30
0.0
 40
2.1
  0
CIRCLE
  5
7D30
  8
L1
 10
669.213197
 20
516.861297
 30
0.0
 40
2.4
  0
ARC
  5
7D31
  8
L1
 10
669.213197
 20
516.861297
 30
0.0
 40
5.0
 50
188.626927
 51
351.373073
  0
CIRCLE
  5
7D32
  8
L1
 10
669.213197
 20
516.861297
 30
0.0
 40
2.1
  0
CIRCLE
  5
7D33
  8
L1
 10
669.213197
 20
516.861297
 30
0.0
 40
2.4
  0
ARC
  5
7D34
  8
L1
 10
669.213197
 20
516.861297
 30
0.0
 40
5.0
 50
8.626927
 51
171.373073
  0
ARC
  5
7D35
  8
L1
 10
669.213197
 20
516.861297
 30
0.0
 40
5.0
 50
8.626927
 51
171.373073
  0
ARC
  5
7D36
  8
L1
 10
669.213197
 20
516.861297
 30
0.0
 40
5.0
 50
8.626927
 51
171.373073
  0
LINE
  5
7D37
  8
L1
 10
659.213197
 20
516.111297
 30
0.0
 11
659.213197
 21
517.611297
 31
0.0
  0
LINE
  5
7D38
  8
L1
 10
659.213197
 20
516.111297
 30
0.0
 11
659.213197
 21
517.611297
 31
0.0
  0
LINE
  5
7D39
  8
L1
 10
659.213197
 20
516.111297
 30
0.0
 11
659.213197
 21
517.611297
 31
0.0
  0
LINE
  5
7D3A
  8
L1
 10
573.060197
 20
206.861297
 30
0.0
 11
573.060197
 21
190.286712
 31
0.0
  0
LINE
  5
7D3B
  8
L1
 10
565.060197
 20
206.861297
 30
0.0
 11
565.060197
 21
190.286712
 31
0.0
  0
LINE
  5
7D3C
  8
L1
 10
615.060197
 20
206.861297
 30
0.0
 11
573.060197
 21
206.861297
 31
0.0
  0
LINE
  5
7D3D
  8
L1
 10
615.060197
 20
466.861297
 30
0.0
 11
573.060197
 21
466.861297
 31
0.0
  0
LINE
  5
7D3E
  8
L1
 10
573.060197
 20
466.861297
 30
0.0
 11
573.060197
 21
483.861297
 31
0.0
  0
LINE
  5
7D3F
  8
L1
 10
565.060197
 20
466.861297
 30
0.0
 11
565.060197
 21
483.861297
 31
0.0
  0
LINE
  5
7D40
  8
L1
 10
573.060197
 20
519.861297
 30
0.0
 11
573.060197
 21
528.861297
 31
0.0
  0
LINE
  5
7D41
  8
L1
 10
565.060197
 20
519.861297
 30
0.0
 11
565.060197
 21
528.861297
 31
0.0
  0
LINE
  5
7D42
  8
L1
 10
573.060197
 20
153.861297
 30
0.0
 11
573.060197
 21
145.361297
 31
0.0
  0
LINE
  5
7D43
  8
L1
 10
565.060197
 20
153.861297
 30
0.0
 11
565.060197
 21
145.361297
 31
0.0
  0
LINE
  5
7D44
  8
L1
 10
615.060197
 20
206.861297
 30
0.0
 11
615.060197
 21
159.861297
 31
0.0
  0
LINE
  5
7D45
  8
L1
 10
623.060197
 20
206.861297
 30
0.0
 11
623.060197
 21
159.861297
 31
0.0
  0
LINE
  5
7D46
  8
L1
 10
653.453598
 20
206.861297
 30
0.0
 11
623.060197
 21
206.861297
 31
0.0
  0
LINE
  5
7D47
  8
L1
 10
615.060197
 20
153.861297
 30
0.0
 11
615.060197
 21
145.361297
 31
0.0
  0
LINE
  5
7D48
  8
L1
 10
623.060197
 20
153.861297
 30
0.0
 11
623.060197
 21
145.361297
 31
0.0
  0
LINE
  5
7D49
  8
L1
 10
623.060197
 20
519.861297
 30
0.0
 11
623.060197
 21
528.861297
 31
0.0
  0
LINE
  5
7D4A
  8
L1
 10
615.060197
 20
519.861297
 30
0.0
 11
615.060197
 21
528.861297
 31
0.0
  0
LINE
  5
7D4B
  8
L1
 10
615.060197
 20
466.861297
 30
0.0
 11
615.060197
 21
513.861297
 31
0.0
  0
LINE
  5
7D4C
  8
L1
 10
623.060197
 20
466.861297
 30
0.0
 11
623.060197
 21
513.861297
 31
0.0
  0
LINE
  5
7D4D
  8
L1
 10
623.060197
 20
466.861297
 30
0.0
 11
653.453598
 21
466.861297
 31
0.0
  0
LINE
  5
7D4E
  8
L1
 10
288.64697
 20
139.361297
 30
0.0
 11
288.64697
 21
286.861297
 31
0.0
  0
LINE
  5
7D51
  8
L1
 10
290.64697
 20
144.861297
 30
0.0
 11
290.64697
 21
166.461297
 31
0.0
  0
LINE
  5
7D57
  8
L1
 10
290.64697
 20
144.894138
 30
0.0
 11
288.64697
 21
144.894138
 31
0.0
  0
LINE
  5
7D58
  8
L1
 10
290.64697
 20
163.961297
 30
0.0
 11
288.64697
 21
163.961297
 31
0.0
  0
LINE
  5
7D59
  8
L1
 10
288.64697
 20
153.262233
 30
0.0
 11
290.64697
 21
153.262233
 31
0.0
  0
LINE
  5
7D5A
  8
L1
 10
290.64697
 20
163.862233
 30
0.0
 11
288.64697
 21
163.862233
 31
0.0
  0
LINE
  5
7D5C
  8
L1
 10
290.64697
 20
166.461297
 30
0.0
 11
288.64697
 21
166.461297
 31
0.0
  0
LINE
  5
7D5E
  8
L1
 10
290.64697
 20
190.361297
 30
0.0
 11
290.64697
 21
183.361297
 31
0.0
  0
LINE
  5
7D5F
  8
L1
 10
290.64697
 20
183.361297
 30
0.0
 11
289.64697
 21
182.783947
 31
0.0
  0
LINE
  5
7D60
  8
L1
 10
290.64697
 20
190.361297
 30
0.0
 11
289.64697
 21
190.938647
 31
0.0
  0
LINE
  5
7D61
  8
L1
 10
288.64697
 20
534.361297
 30
0.0
 11
288.64697
 21
286.861297
 31
0.0
  0
LINE
  5
7D62
  8
L1
 10
290.64697
 20
236.861297
 30
0.0
 11
290.64697
 21
233.361297
 31
0.0
  0
LINE
  5
7D63
  8
L1
 10
290.64697
 20
233.361297
 30
0.0
 11
289.64697
 21
232.783947
 31
0.0
  0
LINE
  5
7D64
  8
L1
 10
290.64697
 20
240.361297
 30
0.0
 11
289.64697
 21
240.938647
 31
0.0
  0
LINE
  5
7D65
  8
L1
 10
290.64697
 20
236.861297
 30
0.0
 11
290.64697
 21
240.361297
 31
0.0
  0
LINE
  5
7D67
  8
L1
 10
290.64697
 20
290.361297
 30
0.0
 11
290.64697
 21
283.361297
 31
0.0
  0
LINE
  5
7D68
  8
L1
 10
290.64697
 20
283.361297
 30
0.0
 11
289.64697
 21
282.783947
 31
0.0
  0
LINE
  5
7D6A
  8
L1
 10
290.64697
 20
290.361297
 30
0.0
 11
289.64697
 21
290.938647
 31
0.0
  0
LINE
  5
7D6D
  8
L1
 10
290.64697
 20
333.361297
 30
0.0
 11
289.64697
 21
332.783947
 31
0.0
  0
LINE
  5
7D71
  8
L1
 10
290.64697
 20
333.361297
 30
0.0
 11
290.64697
 21
340.361297
 31
0.0
  0
LINE
  5
7D72
  8
L1
 10
290.64697
 20
340.361297
 30
0.0
 11
289.64697
 21
340.938647
 31
0.0
  0
LINE
  5
7D77
  8
L1
 10
290.64697
 20
386.861297
 30
0.0
 11
290.64697
 21
383.361297
 31
0.0
  0
LINE
  5
7D7C
  8
L1
 10
290.64697
 20
390.361297
 30
0.0
 11
290.64697
 21
383.361297
 31
0.0
  0
LINE
  5
7D80
  8
L1
 10
290.64697
 20
390.361297
 30
0.0
 11
289.64697
 21
390.938647
 31
0.0
  0
LINE
  5
7D82
  8
L1
 10
290.64697
 20
383.361297
 30
0.0
 11
289.64697
 21
382.783947
 31
0.0
  0
LINE
  5
7D86
  8
L1
 10
290.64697
 20
440.361297
 30
0.0
 11
289.64697
 21
440.938647
 31
0.0
  0
LINE
  5
7D87
  8
L1
 10
290.64697
 20
440.361297
 30
0.0
 11
290.64697
 21
433.361297
 31
0.0
  0
LINE
  5
7D8B
  8
L1
 10
290.64697
 20
433.361297
 30
0.0
 11
289.64697
 21
432.783947
 31
0.0
  0
LINE
  5
7D8F
  8
L1
 10
290.64697
 20
486.861297
 30
0.0
 11
290.64697
 21
490.361297
 31
0.0
  0
LINE
  5
7D91
  8
L1
 10
290.64697
 20
483.361297
 30
0.0
 11
288.64697
 21
482.206597
 31
0.0
  0
LINE
  5
7D92
  8
L1
 10
290.64697
 20
486.861297
 30
0.0
 11
290.64697
 21
483.361297
 31
0.0
  0
LINE
  5
7D93
  8
L1
 10
290.64697
 20
490.361297
 30
0.0
 11
288.64697
 21
491.515998
 31
0.0
  0
LINE
  5
7D95
  8
L1
 10
290.64697
 20
528.861297
 30
0.0
 11
290.64697
 21
507.261297
 31
0.0
  0
LINE
  5
7D96
  8
L1
 10
290.64697
 20
509.761297
 30
0.0
 11
288.64697
 21
509.761297
 31
0.0
  0
LINE
  5
7D97
  8
L1
 10
290.64697
 20
507.261297
 30
0.0
 11
288.64697
 21
507.261297
 31
0.0
  0
LINE
  5
7D98
  8
L1
 10
290.64697
 20
518.261297
 30
0.0
 11
288.64697
 21
518.261297
 31
0.0
  0
LINE
  5
7D99
  8
L1
 10
288.64697
 20
528.861297
 30
0.0
 11
290.64697
 21
528.861297
 31
0.0
  0
LINE
  5
7DB2
  8
L1
 10
444.104888
 20
168.370455
 30
0.0
 11
440.569354
 21
171.905989
 31
0.0
  0
ARC
  5
7DB3
  8
L1
 10
445.872655
 20
170.138222
 30
0.0
 40
2.5
 50
225.0
 51
45.0
  0
CIRCLE
  5
7DB4
  8
L1
 10
444.104888
 20
171.905989
 30
0.0
 40
10.0
  0
CIRCLE
  5
7DB5
  8
L1
 10
444.104888
 20
171.905989
 30
0.0
 40
8.0
  0
LINE
  5
7DB6
  8
L1
 10
444.104888
 20
175.441523
 30
0.0
 11
447.640422
 21
171.905989
 31
0.0
  0
ARC
  5
7DB7
  8
L1
 10
442.337121
 20
173.673756
 30
0.0
 40
2.5
 50
45.0
 51
225.0
  0
ARC
  5
7DBA
  8
L1
 10
406.560197
 20
172.361297
 30
0.0
 40
6.0
 50
17.158525
 51
105.032225
  0
CIRCLE
  5
7DBB
  8
L1
 10
406.560197
 20
172.361297
 30
0.0
 40
2.1
  0
CIRCLE
  5
7DBC
  8
L1
 10
406.560197
 20
172.361297
 30
0.0
 40
2.4
  0
CIRCLE
  5
7DBE
  8
L1
 10
406.560197
 20
501.361297
 30
0.0
 40
2.4
  0
CIRCLE
  5
7DBF
  8
L1
 10
406.560197
 20
501.361297
 30
0.0
 40
2.1
  0
ARC
  5
7DC1
  8
L1
 10
406.560197
 20
501.361297
 30
0.0
 40
6.0
 50
342.841475
 51
254.967775
  0
CIRCLE
  5
7DC3
  8
L1
 10
444.104888
 20
501.816606
 30
0.0
 40
10.0
  0
CIRCLE
  5
7DC4
  8
L1
 10
444.104888
 20
501.816606
 30
0.0
 40
8.0
  0
ARC
  5
7DC5
  8
L1
 10
442.337121
 20
500.048839
 30
0.0
 40
2.5
 50
135.0
 51
315.0
  0
LINE
  5
7DC6
  8
L1
 10
444.104888
 20
505.35214
 30
0.0
 11
440.569354
 21
501.816606
 31
0.0
  0
LINE
  5
7DC7
  8
L1
 10
444.104888
 20
498.281072
 30
0.0
 11
447.640422
 21
501.816606
 31
0.0
  0
ARC
  5
7DC8
  8
L1
 10
445.872655
 20
503.584373
 30
0.0
 40
2.5
 50
315.0
 51
135.0
  0
ARC
  5
7DC9
  8
L1
 10
931.560197
 20
172.361297
 30
0.0
 40
6.0
 50
180.0
 51
109.792283
  0
CIRCLE
  5
7DCA
  8
L1
 10
931.560197
 20
172.361297
 30
0.0
 40
2.4
  0
CIRCLE
  5
7DCB
  8
L1
 10
931.560197
 20
172.361297
 30
0.0
 40
2.1
  0
LINE
  5
7DCE
  8
L1
 10
894.015505
 20
168.370455
 30
0.0
 11
897.551039
 21
171.905989
 31
0.0
  0
ARC
  5
7DCF
  8
L1
 10
892.247738
 20
170.138222
 30
0.0
 40
2.5
 50
135.0
 51
315.0
  0
CIRCLE
  5
7DD0
  8
L1
 10
894.015505
 20
171.905989
 30
0.0
 40
10.0
  0
CIRCLE
  5
7DD1
  8
L1
 10
894.015505
 20
171.905989
 30
0.0
 40
8.0
  0
ARC
  5
7DD2
  8
L1
 10
895.783272
 20
173.673756
 30
0.0
 40
2.5
 50
315.0
 51
135.0
  0
LINE
  5
7DD3
  8
L1
 10
894.015505
 20
175.441523
 30
0.0
 11
890.479971
 21
171.905989
 31
0.0
  0
CIRCLE
  5
7DD4
  8
L1
 10
894.015505
 20
501.816606
 30
0.0
 40
8.0
  0
CIRCLE
  5
7DD5
  8
L1
 10
894.015505
 20
501.816606
 30
0.0
 40
10.0
  0
LINE
  5
7DD6
  8
L1
 10
894.015505
 20
498.281072
 30
0.0
 11
890.479971
 21
501.816606
 31
0.0
  0
ARC
  5
7DD7
  8
L1
 10
895.783272
 20
500.048839
 30
0.0
 40
2.5
 50
225.0
 51
45.0
  0
ARC
  5
7DD8
  8
L1
 10
892.247738
 20
503.584373
 30
0.0
 40
2.5
 50
45.0
 51
225.0
  0
LINE
  5
7DD9
  8
L1
 10
894.015505
 20
505.35214
 30
0.0
 11
897.551039
 21
501.816606
 31
0.0
  0
CIRCLE
  5
7DDC
  8
L1
 10
931.560197
 20
501.361297
 30
0.0
 40
2.1
  0
CIRCLE
  5
7DDD
  8
L1
 10
931.560197
 20
501.361297
 30
0.0
 40
2.4
  0
ARC
  5
7DDE
  8
L1
 10
931.560197
 20
501.361297
 30
0.0
 40
6.0
 50
250.207717
 51
180.0
  0
LINE
  5
801D
  8
L1
 10
1185.292103
 20
535.861297
 30
0.0
 11
1185.292103
 21
336.861297
 31
0.0
  0
LINE
  5
801E
  8
L1
 10
1188.292103
 20
531.05745
 30
0.0
 11
1188.292103
 21
336.861297
 31
0.0
  0
LINE
  5
801F
  8
L1
 10
1015.292103
 20
534.361297
 30
0.0
 11
1015.292103
 21
336.861297
 31
0.0
  0
LINE
  5
8021
  8
L1
 10
1178.092103
 20
336.861297
 30
0.0
 11
1178.092103
 21
535.861297
 31
0.0
  0
LINE
  5
8023
  8
L1
 10
1178.092103
 20
535.861297
 30
0.0
 11
1185.292103
 21
535.861297
 31
0.0
  0
LINE
  5
8025
  8
L1
 10
1015.292103
 20
534.361297
 30
0.0
 11
1178.092103
 21
534.361297
 31
0.0
  0
LINE
  5
8026
  8
L1
 10
1015.292103
 20
519.361297
 30
0.0
 11
1178.092103
 21
519.361297
 31
0.0
  0
LINE
  5
802A
  8
L1
 10
1013.292103
 20
507.261297
 30
0.0
 11
1015.292103
 21
507.261297
 31
0.0
  0
LINE
  5
802B
  8
L1
 10
1013.292103
 20
509.761297
 30
0.0
 11
1015.292103
 21
509.761297
 31
0.0
  0
LINE
  5
802C
  8
L1
 10
1015.292103
 20
528.861297
 30
0.0
 11
1013.292103
 21
528.861297
 31
0.0
  0
LINE
  5
802D
  8
L1
 10
1013.292103
 20
518.261297
 30
0.0
 11
1015.292103
 21
518.261297
 31
0.0
  0
LINE
  5
802E
  8
L1
 10
1013.292103
 20
528.861297
 30
0.0
 11
1013.292103
 21
507.261297
 31
0.0
  0
LINE
  5
804A
  8
L1
 10
1185.292103
 20
531.861297
 30
0.0
 11
1188.292103
 21
531.05745
 31
0.0
  0
LINE
  5
808F
  8
L1
 10
1185.292103
 20
137.861297
 30
0.0
 11
1185.292103
 21
336.861297
 31
0.0
  0
LINE
  5
8090
  8
L1
 10
1188.292103
 20
142.665145
 30
0.0
 11
1188.292103
 21
336.861297
 31
0.0
  0
LINE
  5
8091
  8
L1
 10
1015.292103
 20
139.361297
 30
0.0
 11
1015.292103
 21
336.861297
 31
0.0
  0
LINE
  5
8104
  8
L1
 10
1178.092103
 20
137.861297
 30
0.0
 11
1185.292103
 21
137.861297
 31
0.0
  0
LINE
  5
810B
  8
L1
 10
1015.292103
 20
139.361297
 30
0.0
 11
1178.092103
 21
139.361297
 31
0.0
  0
LINE
  5
810C
  8
L1
 10
1015.292103
 20
154.361297
 30
0.0
 11
1178.092103
 21
154.361297
 31
0.0
  0
LINE
  5
810F
  8
L1
 10
1013.292103
 20
144.861297
 30
0.0
 11
1013.292103
 21
166.461297
 31
0.0
  0
LINE
  5
8111
  8
L1
 10
1013.292103
 20
163.961297
 30
0.0
 11
1015.292103
 21
163.961297
 31
0.0
  0
LINE
  5
8112
  8
L1
 10
1013.292103
 20
166.461297
 30
0.0
 11
1015.292103
 21
166.461297
 31
0.0
  0
LINE
  5
8113
  8
L1
 10
1013.292103
 20
183.361297
 30
0.0
 11
1014.292103
 21
182.783947
 31
0.0
  0
LINE
  5
8114
  8
L1
 10
1013.292103
 20
186.861297
 30
0.0
 11
1013.292103
 21
183.361297
 31
0.0
  0
LINE
  5
8116
  8
L1
 10
1013.292103
 20
190.361297
 30
0.0
 11
1014.292103
 21
190.938647
 31
0.0
  0
LINE
  5
8117
  8
L1
 10
1013.292103
 20
186.861297
 30
0.0
 11
1013.292103
 21
190.361297
 31
0.0
  0
LINE
  5
811A
  8
L1
 10
1015.292103
 20
144.861297
 30
0.0
 11
1013.292103
 21
144.861297
 31
0.0
  0
LINE
  5
811D
  8
L1
 10
1013.292103
 20
155.461297
 30
0.0
 11
1015.292103
 21
155.461297
 31
0.0
  0
LINE
  5
811F
  8
L1
 10
1178.092103
 20
137.861297
 30
0.0
 11
1178.092103
 21
336.861297
 31
0.0
  0
LINE
  5
812A
  8
L1
 10
1185.292103
 20
141.861297
 30
0.0
 11
1188.292103
 21
142.665145
 31
0.0
  0
LINE
  5
8185
  8
L1
 10
966.560197
 20
609.473667
 30
0.0
 11
569.060197
 21
609.473667
 31
0.0
  0
LINE
  5
8188
  8
L1
 10
963.256349
 20
782.473667
 30
0.0
 11
569.060197
 21
782.473667
 31
0.0
  0
LINE
  5
8189
  8
L1
 10
951.560197
 20
772.273667
 30
0.0
 11
569.060197
 21
772.273667
 31
0.0
  0
LINE
  5
8198
  8
L1
 10
371.560197
 20
609.473667
 30
0.0
 11
569.060197
 21
609.473667
 31
0.0
  0
LINE
  5
819A
  8
L1
 10
370.060197
 20
779.473667
 30
0.0
 11
968.060197
 21
779.473667
 31
0.0
  0
LINE
  5
819B
  8
L1
 10
374.864044
 20
782.473667
 30
0.0
 11
963.256349
 21
782.473667
 31
0.0
  0
LINE
  5
819F
  8
L1
 10
370.060197
 20
772.273667
 30
0.0
 11
370.060197
 21
779.473667
 31
0.0
  0
LINE
  5
81A0
  8
L1
 10
415.560197
 20
607.473667
 30
0.0
 11
422.560197
 21
607.473667
 31
0.0
  0
LINE
  5
81A1
  8
L1
 10
669.057189
 20
772.273667
 30
0.0
 11
372.499536
 21
772.273667
 31
0.0
  0
LINE
  5
81A2
  8
L1
 10
372.499536
 20
772.273667
 30
0.0
 11
372.499536
 21
609.473667
 31
0.0
  0
LINE
  5
81A4
  8
L1
 10
371.560197
 20
609.473667
 30
0.0
 11
371.560197
 21
772.142648
 31
0.0
  0
LINE
  5
81A5
  8
L1
 10
386.560197
 20
772.273667
 30
0.0
 11
386.560197
 21
609.473667
 31
0.0
  0
LINE
  5
81A9
  8
L1
 10
377.060197
 20
607.473667
 30
0.0
 11
398.660197
 21
607.473667
 31
0.0
  0
LINE
  5
81AA
  8
L1
 10
377.060197
 20
609.473667
 30
0.0
 11
377.060197
 21
607.473667
 31
0.0
  0
LINE
  5
81AC
  8
L1
 10
415.560197
 20
607.473667
 30
0.0
 11
414.982846
 21
608.473667
 31
0.0
  0
LINE
  5
81AE
  8
L1
 10
398.660197
 20
607.473667
 30
0.0
 11
398.660197
 21
609.473667
 31
0.0
  0
LINE
  5
81AF
  8
L1
 10
387.660197
 20
607.473667
 30
0.0
 11
387.660197
 21
609.473667
 31
0.0
  0
LINE
  5
81B0
  8
L1
 10
396.160197
 20
607.473667
 30
0.0
 11
396.160197
 21
609.473667
 31
0.0
  0
LINE
  5
81BC
  8
L1
 10
370.060197
 20
772.273667
 30
0.0
 11
371.560197
 21
772.142648
 31
0.0
  0
LINE
  5
81BE
  8
L1
 10
422.560197
 20
607.473667
 30
0.0
 11
423.137547
 21
608.473667
 31
0.0
  0
LINE
  5
81BF
  8
L1
 10
472.560197
 20
607.473667
 30
0.0
 11
473.137547
 21
608.473667
 31
0.0
  0
LINE
  5
81C0
  8
L1
 10
465.560197
 20
607.473667
 30
0.0
 11
464.982846
 21
608.473667
 31
0.0
  0
LINE
  5
81C2
  8
L1
 10
465.560197
 20
607.473667
 30
0.0
 11
472.560197
 21
607.473667
 31
0.0
  0
LINE
  5
81C5
  8
L1
 10
374.060197
 20
779.473667
 30
0.0
 11
374.864044
 21
782.473667
 31
0.0
  0
LINE
  5
81CC
  8
L1
 10
522.560197
 20
607.473667
 30
0.0
 11
515.560197
 21
607.473667
 31
0.0
  0
LINE
  5
81CD
  8
L1
 10
522.560197
 20
607.473667
 30
0.0
 11
523.137547
 21
608.473667
 31
0.0
  0
LINE
  5
81CF
  8
L1
 10
515.560197
 20
607.473667
 30
0.0
 11
514.982846
 21
608.473667
 31
0.0
  0
LINE
  5
81D5
  8
L1
 10
565.560197
 20
607.473667
 30
0.0
 11
564.982846
 21
608.473667
 31
0.0
  0
LINE
  5
81DA
  8
L1
 10
572.560197
 20
607.473667
 30
0.0
 11
573.137547
 21
608.473667
 31
0.0
  0
LINE
  5
81DB
  8
L1
 10
619.060197
 20
607.473667
 30
0.0
 11
615.560197
 21
607.473667
 31
0.0
  0
LINE
  5
81DC
  8
L1
 10
622.560197
 20
607.473667
 30
0.0
 11
623.137547
 21
608.473667
 31
0.0
  0
LINE
  5
81DD
  8
L1
 10
615.560197
 20
607.473667
 30
0.0
 11
622.560197
 21
607.473667
 31
0.0
  0
LINE
  5
81DE
  8
L1
 10
615.560197
 20
607.473667
 30
0.0
 11
614.982846
 21
608.473667
 31
0.0
  0
LINE
  5
81EB
  8
L1
 10
669.060197
 20
607.473667
 30
0.0
 11
665.560197
 21
607.473667
 31
0.0
  0
LINE
  5
81EE
  8
L1
 10
672.560197
 20
607.473667
 30
0.0
 11
665.560197
 21
607.473667
 31
0.0
  0
LINE
  5
81F0
  8
L1
 10
665.560197
 20
607.473667
 30
0.0
 11
664.982846
 21
608.473667
 31
0.0
  0
LINE
  5
81F5
  8
L1
 10
672.560197
 20
607.473667
 30
0.0
 11
673.137547
 21
608.473667
 31
0.0
  0
LINE
  5
81FA
  8
L1
 10
722.560197
 20
607.473667
 30
0.0
 11
715.560197
 21
607.473667
 31
0.0
  0
LINE
  5
81FD
  8
L1
 10
715.560197
 20
607.473667
 30
0.0
 11
714.982846
 21
608.473667
 31
0.0
  0
LINE
  5
8200
  8
L1
 10
722.560197
 20
607.473667
 30
0.0
 11
723.137547
 21
608.473667
 31
0.0
  0
LINE
  5
8203
  8
L1
 10
772.560197
 20
607.473667
 30
0.0
 11
765.560197
 21
607.473667
 31
0.0
  0
LINE
  5
8207
  8
L1
 10
772.560197
 20
607.473667
 30
0.0
 11
773.137547
 21
608.473667
 31
0.0
  0
LINE
  5
820A
  8
L1
 10
765.560197
 20
607.473667
 30
0.0
 11
764.982846
 21
608.473667
 31
0.0
  0
LINE
  5
820B
  8
L1
 10
968.060197
 20
772.273667
 30
0.0
 11
968.060197
 21
779.473667
 31
0.0
  0
LINE
  5
820C
  8
L1
 10
966.560197
 20
609.473667
 30
0.0
 11
966.560197
 21
772.142648
 31
0.0
  0
LINE
  5
820D
  8
L1
 10
951.560197
 20
772.273667
 30
0.0
 11
951.560197
 21
609.473667
 31
0.0
  0
LINE
  5
820E
  8
L1
 10
965.620857
 20
772.216745
 30
0.0
 11
965.620857
 21
609.473667
 31
0.0
  0
LINE
  5
8210
  8
L1
 10
815.560197
 20
607.473667
 30
0.0
 11
814.982846
 21
608.473667
 31
0.0
  0
LINE
  5
8211
  8
L1
 10
822.560197
 20
607.473667
 30
0.0
 11
823.137547
 21
608.473667
 31
0.0
  0
LINE
  5
8212
  8
L1
 10
822.560197
 20
607.473667
 30
0.0
 11
815.560197
 21
607.473667
 31
0.0
  0
LINE
  5
8214
  8
L1
 10
961.060197
 20
607.473667
 30
0.0
 11
939.460197
 21
607.473667
 31
0.0
  0
LINE
  5
8215
  8
L1
 10
961.060197
 20
609.473667
 30
0.0
 11
961.060197
 21
607.473667
 31
0.0
  0
LINE
  5
8216
  8
L1
 10
941.960197
 20
607.473667
 30
0.0
 11
941.960197
 21
609.473667
 31
0.0
  0
LINE
  5
8217
  8
L1
 10
939.460197
 20
607.473667
 30
0.0
 11
939.460197
 21
609.473667
 31
0.0
  0
LINE
  5
8218
  8
L1
 10
950.460197
 20
607.473667
 30
0.0
 11
950.460197
 21
609.473667
 31
0.0
  0
LINE
  5
8219
  8
L1
 10
968.060197
 20
772.273667
 30
0.0
 11
966.560197
 21
772.142648
 31
0.0
  0
LINE
  5
821A
  8
L1
 10
951.560197
 20
772.273667
 30
0.0
 11
965.103512
 21
772.273667
 31
0.0
  0
LINE
  5
821D
  8
L1
 10
964.060197
 20
779.473667
 30
0.0
 11
963.256349
 21
782.473667
 31
0.0
  0
INSERT
  5
8311
  8
AME_FRZ
  2
AME_NIL
 10
440.59463
 20
-928.306494
 30
0.0
  0
INSERT
  5
8312
  8
AME_FRZ
  2
AME_SOL
 10
440.59463
 20
-928.306494
 30
0.0
1001
AME_SOL
1000
R2.1
1000
AME2
1000
sq cm
1070
     3
1070
     0
1070
     3
1000
wire
1040
45.0
1000
U
1040
1.0
1000
cm
1000
gm
1000
MILD_STEEL
1070
    25
1000
CSG
1070
     1
1070
     3
1070
     3
1070
     3
1070
     0
1000
cu cm
1070
     1
1070
     0
1005
8311
  0
INSERT
  5
8313
  8
L32
  2
GEOTOL
 10
1121.644996
 20
-355.204301
 30
0.0
  0
LINE
  5
941E
  8
L1
 10
1888.654453
 20
516.361297
 30
0.0
 11
1888.654453
 21
286.861297
 31
0.0
  0
ARC
  5
9420
  8
L1
 10
1880.154453
 20
150.861297
 30
0.0
 40
5.45
 50
331.523206
 51
0.0
  0
LINE
  5
9422
  8
L1
 10
1887.075001
 20
145.213542
 30
0.0
 11
1883.255601
 21
149.032942
 31
0.0
  0
LINE
  5
9423
  8
L1
 10
1885.802208
 20
143.94075
 30
0.0
 11
1881.982809
 21
147.76015
 31
0.0
  0
LINE
  5
9424
  8
L1
 10
1886.251739
 20
142.571981
 30
0.0
 11
1882.753028
 21
146.070691
 31
0.0
  0
LINE
  5
9425
  8
L1
 10
1888.44377
 20
144.764012
 30
0.0
 11
1884.945059
 21
148.262722
 31
0.0
  0
LINE
  5
9428
  8
L1
 10
1886.799084
 20
150.861297
 30
0.0
 11
1883.754453
 21
150.861297
 31
0.0
  0
LINE
  5
942F
  8
L1
 10
1886.154453
 20
340.861297
 30
0.0
 11
1888.154453
 21
340.861297
 31
0.0
  0
LINE
  5
9430
  8
L1
 10
1886.154453
 20
332.861297
 30
0.0
 11
1888.154453
 21
332.861297
 31
0.0
  0
LINE
  5
9432
  8
L1
 10
1886.154453
 20
290.861297
 30
0.0
 11
1888.154453
 21
290.861297
 31
0.0
  0
LINE
  5
9433
  8
L1
 10
1886.154453
 20
282.861297
 30
0.0
 11
1888.154453
 21
282.861297
 31
0.0
  0
LINE
  5
9434
  8
L1
 10
1886.154453
 20
232.861297
 30
0.0
 11
1888.154453
 21
232.861297
 31
0.0
  0
LINE
  5
9435
  8
L1
 10
1886.154453
 20
240.861297
 30
0.0
 11
1888.154453
 21
240.861297
 31
0.0
  0
LINE
  5
9436
  8
L1
 10
1886.154453
 20
163.861297
 30
0.0
 11
1874.769677
 21
163.861297
 31
0.0
  0
LINE
  5
9437
  8
L1
 10
1886.154453
 20
166.361297
 30
0.0
 11
1873.734143
 21
166.361297
 31
0.0
  0
ARC
  5
9438
  8
L1
 10
1880.154453
 20
150.861297
 30
0.0
 40
5.45
 50
0.0
 51
270.0
  0
LINE
  5
9439
  8
L1
 10
1889.154453
 20
139.361297
 30
0.0
 11
1876.654453
 21
139.361297
 31
0.0
  0
ARC
  5
9492
  8
L1
 10
1886.862868
 20
145.00141
 30
0.0
 40
0.3
 50
325.475682
 51
45.0
  0
ARC
  5
9494
  8
L1
 10
1886.01434
 20
144.152882
 30
0.0
 40
0.3
 50
225.0
 51
304.524318
  0
ARC
  5
9495
  8
L1
 10
1886.463871
 20
142.784113
 30
0.0
 40
0.3
 50
225.0
 51
299.576148
  0
ARC
  5
9496
  8
L1
 10
1888.231638
 20
144.55188
 30
0.0
 40
0.3
 50
330.423852
 51
45.0
  0
LINE
  5
94B4
  8
L1
 10
1886.154453
 20
163.861297
 30
0.0
 11
1886.154453
 21
166.361297
 31
0.0
  0
LINE
  5
94B8
  8
L1
 10
1891.654453
 20
141.861297
 30
0.0
 11
1891.654453
 21
154.361297
 31
0.0
  0
ARC
  5
94BD
  8
L1
 10
1889.154453
 20
141.861297
 30
0.0
 40
2.5
 50
270.0
 51
295.10409
  0
ARC
  5
94BE
  8
L1
 10
1889.154453
 20
141.861297
 30
0.0
 40
2.5
 50
334.89591
 51
360.0
  0
LINE
  5
94BF
  8
L1
 10
1891.654453
 20
154.361297
 30
0.0
 11
1888.654453
 21
157.361297
 31
0.0
  0
LINE
  5
94C1
  8
L1
 10
1888.154453
 20
332.861297
 30
0.0
 11
1888.154453
 21
336.861297
 31
0.0
  0
LINE
  5
94C2
  8
L1
 10
1888.154453
 20
340.861297
 30
0.0
 11
1888.154453
 21
336.861297
 31
0.0
  0
LINE
  5
94C3
  8
L1
 10
1888.154453
 20
282.861297
 30
0.0
 11
1888.154453
 21
286.861297
 31
0.0
  0
LINE
  5
94C4
  8
L1
 10
1888.154453
 20
290.861297
 30
0.0
 11
1888.154453
 21
286.861297
 31
0.0
  0
LINE
  5
94C5
  8
L1
 10
1888.154453
 20
240.861297
 30
0.0
 11
1888.154453
 21
236.861297
 31
0.0
  0
LINE
  5
94C6
  8
L1
 10
1888.154453
 20
232.861297
 30
0.0
 11
1888.154453
 21
236.861297
 31
0.0
  0
CIRCLE
  5
94D0
  8
L1
 10
1844.154453
 20
156.861297
 30
0.0
 40
3.5
  0
CIRCLE
  5
94D2
  8
L1
 10
1844.154453
 20
156.861297
 30
0.0
 40
4.65
  0
ARC
  5
94DD
  8
L1
 10
1880.154453
 20
150.861297
 30
0.0
 40
5.45
 50
270.0
 51
298.476794
  0
LINE
  5
94E0
  8
L1
 10
1882.753028
 20
146.070691
 30
0.0
 11
1881.982809
 21
147.76015
 31
0.0
  0
LINE
  5
94E1
  8
L1
 10
1883.255601
 20
149.032942
 30
0.0
 11
1884.945059
 21
148.262722
 31
0.0
  0
LINE
  5
94E4
  8
L1
 10
1880.154453
 20
144.216666
 30
0.0
 11
1880.154453
 21
147.261297
 31
0.0
  0
CIRCLE
  5
94F9
  8
L1
 10
1880.154453
 20
150.861297
 30
0.0
 40
3.45
  0
LINE
  5
94FC
  8
L1
 10
1867.154453
 20
144.861297
 30
0.0
 11
1867.154453
 21
156.246074
 31
0.0
  0
LINE
  5
94FD
  8
L1
 10
1864.654453
 20
144.861297
 30
0.0
 11
1864.654453
 21
157.281607
 31
0.0
  0
LINE
  5
94FE
  8
L1
 10
1876.654453
 20
139.361297
 30
0.0
 11
1873.654453
 21
142.361297
 31
0.0
  0
LINE
  5
94FF
  8
L1
 10
1867.154453
 20
144.861297
 30
0.0
 11
1864.654453
 21
144.861297
 31
0.0
  0
LINE
  5
9502
  8
L1
 10
1867.154453
 20
156.246074
 30
0.0
 11
1874.769677
 21
163.861297
 31
0.0
  0
LINE
  5
9503
  8
L1
 10
1864.654453
 20
157.281607
 30
0.0
 11
1867.232994
 21
159.860149
 31
0.0
  0
ARC
  5
9509
  8
L1
 10
1874.154453
 20
336.861297
 30
0.0
 40
4.65
 50
180.0
 51
0.0
  0
ARC
  5
950A
  8
L1
 10
1874.154453
 20
336.861297
 30
0.0
 40
3.5
 50
180.0
 51
0.0
  0
ARC
  5
950E
  8
L1
 10
1874.154453
 20
336.861297
 30
0.0
 40
3.5
 50
0.0
 51
180.0
  0
ARC
  5
950F
  8
L1
 10
1874.154453
 20
336.861297
 30
0.0
 40
4.65
 50
0.0
 51
180.0
  0
ARC
  5
9510
  8
L1
 10
1874.154453
 20
286.861297
 30
0.0
 40
4.65
 50
180.0
 51
0.0
  0
ARC
  5
9514
  8
L1
 10
1874.154453
 20
286.861297
 30
0.0
 40
3.5
 50
180.0
 51
0.0
  0
ARC
  5
9515
  8
L1
 10
1874.154453
 20
286.861297
 30
0.0
 40
3.5
 50
0.0
 51
180.0
  0
ARC
  5
9516
  8
L1
 10
1874.154453
 20
286.861297
 30
0.0
 40
4.65
 50
0.0
 51
180.0
  0
CIRCLE
  5
9519
  8
L1
 10
1874.154453
 20
236.861297
 30
0.0
 40
4.65
  0
CIRCLE
  5
951A
  8
L1
 10
1874.154453
 20
236.861297
 30
0.0
 40
3.5
  0
CIRCLE
  5
951C
  8
L1
 10
1874.154453
 20
186.861297
 30
0.0
 40
3.5
  0
CIRCLE
  5
951D
  8
L1
 10
1874.154453
 20
186.861297
 30
0.0
 40
4.65
  0
ARC
  5
951F
  8
L1
 10
1820.92222
 20
173.629064
 30
0.0
 40
2.5
 50
315.0
 51
135.0
  0
LINE
  5
9520
  8
L1
 10
1815.618919
 20
171.861297
 30
0.0
 11
1819.154453
 21
175.396831
 31
0.0
  0
LINE
  5
9521
  8
L1
 10
1814.204706
 20
173.275511
 30
0.0
 11
1817.74024
 21
176.811045
 31
0.0
  0
ARC
  5
9523
  8
L1
 10
1820.92222
 20
173.629064
 30
0.0
 40
4.5
 50
315.0
 51
135.0
  0
ARC
  5
9525
  8
L1
 10
1817.386686
 20
170.09353
 30
0.0
 40
2.5
 50
135.0
 51
315.0
  0
LINE
  5
9526
  8
L1
 10
1819.154453
 20
168.325763
 30
0.0
 11
1822.689987
 21
171.861297
 31
0.0
  0
ARC
  5
9527
  8
L1
 10
1817.386686
 20
170.09353
 30
0.0
 40
4.5
 50
135.0
 51
315.0
  0
LINE
  5
9528
  8
L1
 10
1820.568667
 20
166.91155
 30
0.0
 11
1824.104201
 21
170.447084
 31
0.0
  0
CIRCLE
  5
9531
  8
L1
 10
1769.154453
 20
156.861297
 30
0.0
 40
4.65
  0
CIRCLE
  5
9536
  8
L1
 10
1769.154453
 20
156.861297
 30
0.0
 40
3.5
  0
LINE
  5
9538
  8
L1
 10
1790.154453
 20
144.861297
 30
0.0
 11
1790.154453
 21
142.861297
 31
0.0
  0
LINE
  5
9539
  8
L1
 10
1798.154453
 20
142.861297
 30
0.0
 11
1798.154453
 21
144.861297
 31
0.0
  0
LINE
  5
953A
  8
L1
 10
1790.154453
 20
142.861297
 30
0.0
 11
1798.154453
 21
142.861297
 31
0.0
  0
CIRCLE
  5
953B
  8
L1
 10
1794.154453
 20
156.861297
 30
0.0
 40
3.5
  0
CIRCLE
  5
953C
  8
L1
 10
1794.154453
 20
156.861297
 30
0.0
 40
4.65
  0
LINE
  5
9540
  8
L1
 10
1748.154453
 20
144.861297
 30
0.0
 11
1748.154453
 21
142.861297
 31
0.0
  0
LINE
  5
9541
  8
L1
 10
1748.154453
 20
142.861297
 30
0.0
 11
1740.154453
 21
142.861297
 31
0.0
  0
LINE
  5
9542
  8
L1
 10
1740.154453
 20
142.861297
 30
0.0
 11
1740.154453
 21
144.861297
 31
0.0
  0
CIRCLE
  5
9544
  8
L1
 10
1744.154453
 20
156.861297
 30
0.0
 40
4.65
  0
CIRCLE
  5
9545
  8
L1
 10
1744.154453
 20
156.861297
 30
0.0
 40
3.5
  0
LINE
  5
9547
  8
L1
 10
1886.251739
 20
531.150614
 30
0.0
 11
1882.753028
 21
527.651903
 31
0.0
  0
LINE
  5
9548
  8
L1
 10
1888.44377
 20
528.958583
 30
0.0
 11
1884.945059
 21
525.459872
 31
0.0
  0
ARC
  5
954F
  8
L1
 10
1880.154453
 20
522.861297
 30
0.0
 40
5.45
 50
61.523206
 51
28.476794
  0
LINE
  5
9550
  8
L1
 10
1887.075001
 20
528.509052
 30
0.0
 11
1883.255601
 21
524.689653
 31
0.0
  0
LINE
  5
9551
  8
L1
 10
1885.802208
 20
529.781844
 30
0.0
 11
1881.982809
 21
525.962445
 31
0.0
  0
LINE
  5
9554
  8
L1
 10
1886.154453
 20
390.861297
 30
0.0
 11
1888.154453
 21
390.861297
 31
0.0
  0
LINE
  5
9555
  8
L1
 10
1886.154453
 20
382.861297
 30
0.0
 11
1888.154453
 21
382.861297
 31
0.0
  0
LINE
  5
9557
  8
L1
 10
1889.154453
 20
534.361297
 30
0.0
 11
1876.654453
 21
534.361297
 31
0.0
  0
LINE
  5
9558
  8
L1
 10
1886.154453
 20
509.861297
 30
0.0
 11
1874.769677
 21
509.861297
 31
0.0
  0
LINE
  5
9559
  8
L1
 10
1886.154453
 20
507.361297
 30
0.0
 11
1873.734143
 21
507.361297
 31
0.0
  0
LINE
  5
955B
  8
L1
 10
1886.154453
 20
440.861297
 30
0.0
 11
1888.154453
 21
440.861297
 31
0.0
  0
LINE
  5
955C
  8
L1
 10
1886.154453
 20
432.861297
 30
0.0
 11
1888.154453
 21
432.861297
 31
0.0
  0
LINE
  5
955D
  8
L1
 10
1891.654453
 20
519.361297
 30
0.0
 11
1888.654453
 21
516.361297
 31
0.0
  0
LINE
  5
955E
  8
L1
 10
1888.154453
 20
382.861297
 30
0.0
 11
1888.154453
 21
386.861297
 31
0.0
  0
LINE
  5
955F
  8
L1
 10
1888.154453
 20
390.861297
 30
0.0
 11
1888.154453
 21
386.861297
 31
0.0
  0
LINE
  5
9560
  8
L1
 10
1886.154453
 20
509.861297
 30
0.0
 11
1886.154453
 21
507.361297
 31
0.0
  0
LINE
  5
9561
  8
L1
 10
1888.154453
 20
432.861297
 30
0.0
 11
1888.154453
 21
436.861297
 31
0.0
  0
LINE
  5
9562
  8
L1
 10
1888.154453
 20
440.861297
 30
0.0
 11
1888.154453
 21
436.861297
 31
0.0
  0
ARC
  5
9567
  8
L1
 10
1888.231638
 20
529.170715
 30
0.0
 40
0.3
 50
315.0
 51
29.576148
  0
ARC
  5
9568
  8
L1
 10
1886.463871
 20
530.938482
 30
0.0
 40
0.3
 50
60.423852
 51
135.0
  0
ARC
  5
9574
  8
L1
 10
1886.01434
 20
529.569712
 30
0.0
 40
0.3
 50
55.475682
 51
135.0
  0
ARC
  5
9576
  8
L1
 10
1886.862868
 20
528.721184
 30
0.0
 40
0.3
 50
315.0
 51
34.524318
  0
ARC
  5
9579
  8
L1
 10
1889.154453
 20
531.861297
 30
0.0
 40
2.5
 50
0.0
 51
25.10409
  0
ARC
  5
957D
  8
L1
 10
1889.154453
 20
531.861297
 30
0.0
 40
2.5
 50
64.89591
 51
90.0
  0
LINE
  5
957F
  8
L1
 10
1891.654453
 20
531.861297
 30
0.0
 11
1891.654453
 21
519.361297
 31
0.0
  0
CIRCLE
  5
9585
  8
L1
 10
1844.154453
 20
516.861297
 30
0.0
 40
4.65
  0
CIRCLE
  5
9586
  8
L1
 10
1844.154453
 20
516.861297
 30
0.0
 40
3.5
  0
LINE
  5
958D
  8
L1
 10
1864.654453
 20
528.861297
 30
0.0
 11
1864.654453
 21
516.440987
 31
0.0
  0
LINE
  5
958E
  8
L1
 10
1867.154453
 20
517.476521
 30
0.0
 11
1874.769677
 21
509.861297
 31
0.0
  0
ARC
  5
959C
  8
L1
 10
1874.154453
 20
386.861297
 30
0.0
 40
4.65
 50
180.0
 51
0.0
  0
ARC
  5
959D
  8
L1
 10
1874.154453
 20
386.861297
 30
0.0
 40
3.5
 50
180.0
 51
0.0
  0
ARC
  5
95A0
  8
L1
 10
1874.154453
 20
386.861297
 30
0.0
 40
3.5
 50
0.0
 51
180.0
  0
ARC
  5
95A1
  8
L1
 10
1874.154453
 20
386.861297
 30
0.0
 40
4.65
 50
0.0
 51
180.0
  0
LINE
  5
95A4
  8
L1
 10
1864.654453
 20
516.440987
 30
0.0
 11
1867.232994
 21
513.862446
 31
0.0
  0
CIRCLE
  5
95A5
  8
L1
 10
1874.154453
 20
486.861297
 30
0.0
 40
4.65
  0
CIRCLE
  5
95A8
  8
L1
 10
1874.154453
 20
486.861297
 30
0.0
 40
3.5
  0
ARC
  5
95A9
  8
L1
 10
1874.154453
 20
436.861297
 30
0.0
 40
3.5
 50
180.0
 51
0.0
  0
ARC
  5
95AC
  8
L1
 10
1874.154453
 20
436.861297
 30
0.0
 40
4.65
 50
180.0
 51
0.0
  0
ARC
  5
95AD
  8
L1
 10
1874.154453
 20
436.861297
 30
0.0
 40
4.65
 50
0.0
 51
180.0
  0
ARC
  5
95AE
  8
L1
 10
1874.154453
 20
436.861297
 30
0.0
 40
3.5
 50
0.0
 51
180.0
  0
LINE
  5
95B0
  8
L1
 10
1883.255601
 20
524.689653
 30
0.0
 11
1884.945059
 21
525.459872
 31
0.0
  0
LINE
  5
95B1
  8
L1
 10
1882.753028
 20
527.651903
 30
0.0
 11
1881.982809
 21
525.962445
 31
0.0
  0
ARC
  5
95BF
  8
L1
 10
1880.154453
 20
522.861297
 30
0.0
 40
4.75
 50
60.937194
 51
29.062806
  0
LINE
  5
95CE
  8
L1
 10
1880.154453
 20
534.361297
 30
0.0
 11
1880.154453
 21
534.361297
 31
0.0
  0
LINE
  5
95CF
  8
L1
 10
1867.154453
 20
528.861297
 30
0.0
 11
1864.654453
 21
528.861297
 31
0.0
  0
LINE
  5
95D1
  8
L1
 10
1876.654453
 20
534.361297
 30
0.0
 11
1873.654453
 21
531.361297
 31
0.0
  0
LINE
  5
95D3
  8
L1
 10
1867.154453
 20
528.861297
 30
0.0
 11
1867.154453
 21
517.476521
 31
0.0
  0
ARC
  5
95D6
  8
L1
 10
1820.92222
 20
500.09353
 30
0.0
 40
4.5
 50
225.0
 51
45.0
  0
LINE
  5
95D7
  8
L1
 10
1820.568667
 20
506.811045
 30
0.0
 11
1824.104201
 21
503.275511
 31
0.0
  0
ARC
  5
95D8
  8
L1
 10
1817.386686
 20
503.629064
 30
0.0
 40
4.5
 50
45.0
 51
225.0
  0
LINE
  5
95D9
  8
L1
 10
1814.204706
 20
500.447084
 30
0.0
 11
1817.74024
 21
496.91155
 31
0.0
  0
ARC
  5
95DA
  8
L1
 10
1820.92222
 20
500.09353
 30
0.0
 40
2.5
 50
225.0
 51
45.0
  0
ARC
  5
95DB
  8
L1
 10
1817.386686
 20
503.629064
 30
0.0
 40
2.5
 50
45.0
 51
225.0
  0
LINE
  5
95DC
  8
L1
 10
1819.154453
 20
505.396831
 30
0.0
 11
1822.689987
 21
501.861297
 31
0.0
  0
LINE
  5
95DD
  8
L1
 10
1815.618919
 20
501.861297
 30
0.0
 11
1819.154453
 21
498.325763
 31
0.0
  0
CIRCLE
  5
95E5
  8
L1
 10
1769.154453
 20
516.861297
 30
0.0
 40
4.65
  0
CIRCLE
  5
95E7
  8
L1
 10
1769.154453
 20
516.861297
 30
0.0
 40
3.5
  0
CIRCLE
  5
95E9
  8
L1
 10
1794.154453
 20
516.861297
 30
0.0
 40
4.65
  0
CIRCLE
  5
95EB
  8
L1
 10
1794.154453
 20
516.861297
 30
0.0
 40
3.5
  0
LINE
  5
95EF
  8
L1
 10
1790.154453
 20
530.861297
 30
0.0
 11
1798.154453
 21
530.861297
 31
0.0
  0
LINE
  5
95F0
  8
L1
 10
1790.154453
 20
528.861297
 30
0.0
 11
1790.154453
 21
530.861297
 31
0.0
  0
LINE
  5
95F1
  8
L1
 10
1798.154453
 20
530.861297
 30
0.0
 11
1798.154453
 21
528.861297
 31
0.0
  0
CIRCLE
  5
95F2
  8
L1
 10
1744.154453
 20
516.861297
 30
0.0
 40
3.5
  0
CIRCLE
  5
95F3
  8
L1
 10
1744.154453
 20
516.861297
 30
0.0
 40
4.65
  0
LINE
  5
95F7
  8
L1
 10
1748.154453
 20
530.861297
 30
0.0
 11
1740.154453
 21
530.861297
 31
0.0
  0
LINE
  5
95F8
  8
L1
 10
1748.154453
 20
528.861297
 30
0.0
 11
1748.154453
 21
530.861297
 31
0.0
  0
LINE
  5
95F9
  8
L1
 10
1740.154453
 20
530.861297
 30
0.0
 11
1740.154453
 21
528.861297
 31
0.0
  0
ARC
  5
95FA
  8
L1
 10
1308.154453
 20
150.861297
 30
0.0
 40
4.75
 50
270.0
 51
209.062806
  0
ARC
  5
95FB
  8
L1
 10
1308.154453
 20
522.861297
 30
0.0
 40
4.75
 50
150.937194
 51
119.062806
  0
LINE
  5
95FC
  8
L1
 10
1302.057168
 20
142.571981
 30
0.0
 11
1305.555878
 21
146.070691
 31
0.0
  0
LINE
  5
95FD
  8
L1
 10
1305.053306
 20
149.032942
 30
0.0
 11
1303.363847
 21
148.262722
 31
0.0
  0
LINE
  5
95FE
  8
L1
 10
1301.233906
 20
145.213542
 30
0.0
 11
1305.053306
 21
149.032942
 31
0.0
  0
LINE
  5
95FF
  8
L1
 10
1302.506698
 20
143.94075
 30
0.0
 11
1306.326098
 21
147.76015
 31
0.0
  0
ARC
  5
9604
  8
L1
 10
1308.154453
 20
522.861297
 30
0.0
 40
5.45
 50
151.523206
 51
118.476794
  0
LINE
  5
9605
  8
L1
 10
1302.506698
 20
529.781844
 30
0.0
 11
1306.326098
 21
525.962445
 31
0.0
  0
LINE
  5
9606
  8
L1
 10
1301.233906
 20
528.509052
 30
0.0
 11
1305.053306
 21
524.689653
 31
0.0
  0
LINE
  5
9607
  8
L1
 10
1305.053306
 20
524.689653
 30
0.0
 11
1303.363847
 21
525.459872
 31
0.0
  0
LINE
  5
9608
  8
L1
 10
1302.057168
 20
531.150614
 30
0.0
 11
1305.555878
 21
527.651903
 31
0.0
  0
LINE
  5
960E
  8
L1
 10
1302.154453
 20
382.861297
 30
0.0
 11
1300.154453
 21
382.861297
 31
0.0
  0
LINE
  5
960F
  8
L1
 10
1302.154453
 20
390.861297
 30
0.0
 11
1300.154453
 21
390.861297
 31
0.0
  0
LINE
  5
9611
  8
L1
 10
1302.154453
 20
332.861297
 30
0.0
 11
1300.154453
 21
332.861297
 31
0.0
  0
LINE
  5
9612
  8
L1
 10
1302.154453
 20
340.861297
 30
0.0
 11
1300.154453
 21
340.861297
 31
0.0
  0
LINE
  5
9615
  8
L1
 10
1299.154453
 20
534.361297
 30
0.0
 11
1311.654453
 21
534.361297
 31
0.0
  0
LINE
  5
9618
  8
L1
 10
1302.154453
 20
507.361297
 30
0.0
 11
1314.574763
 21
507.361297
 31
0.0
  0
LINE
  5
9619
  8
L1
 10
1302.154453
 20
509.861297
 30
0.0
 11
1313.53923
 21
509.861297
 31
0.0
  0
LINE
  5
961A
  8
L1
 10
1302.154453
 20
440.861297
 30
0.0
 11
1300.154453
 21
440.861297
 31
0.0
  0
LINE
  5
961B
  8
L1
 10
1302.154453
 20
432.861297
 30
0.0
 11
1300.154453
 21
432.861297
 31
0.0
  0
LINE
  5
961C
  8
L1
 10
1302.154453
 20
290.861297
 30
0.0
 11
1300.154453
 21
290.861297
 31
0.0
  0
LINE
  5
961D
  8
L1
 10
1302.154453
 20
282.861297
 30
0.0
 11
1300.154453
 21
282.861297
 31
0.0
  0
LINE
  5
961E
  8
L1
 10
1302.154453
 20
232.861297
 30
0.0
 11
1300.154453
 21
232.861297
 31
0.0
  0
LINE
  5
961F
  8
L1
 10
1302.154453
 20
240.861297
 30
0.0
 11
1300.154453
 21
240.861297
 31
0.0
  0
LINE
  5
9621
  8
L1
 10
1302.154453
 20
166.361297
 30
0.0
 11
1314.574763
 21
166.361297
 31
0.0
  0
LINE
  5
9622
  8
L1
 10
1302.154453
 20
163.861297
 30
0.0
 11
1313.53923
 21
163.861297
 31
0.0
  0
ARC
  5
9623
  8
L1
 10
1308.154453
 20
150.861297
 30
0.0
 40
5.45
 50
270.0
 51
208.476794
  0
LINE
  5
9624
  8
L1
 10
1299.154453
 20
139.361297
 30
0.0
 11
1311.654453
 21
139.361297
 31
0.0
  0
CIRCLE
  5
9632
  8
L1
 10
1594.154453
 20
156.861297
 30
0.0
 40
3.5
  0
LINE
  5
9633
  8
L1
 10
1598.154453
 20
142.861297
 30
0.0
 11
1590.154453
 21
142.861297
 31
0.0
  0
CIRCLE
  5
9634
  8
L1
 10
1594.154453
 20
156.861297
 30
0.0
 40
4.65
  0
CIRCLE
  5
9639
  8
L1
 10
1694.154453
 20
156.861297
 30
0.0
 40
3.5
  0
LINE
  5
963A
  8
L1
 10
1698.154453
 20
142.861297
 30
0.0
 11
1690.154453
 21
142.861297
 31
0.0
  0
LINE
  5
963B
  8
L1
 10
1698.154453
 20
144.861297
 30
0.0
 11
1698.154453
 21
142.861297
 31
0.0
  0
LINE
  5
963C
  8
L1
 10
1690.154453
 20
142.861297
 30
0.0
 11
1690.154453
 21
144.861297
 31
0.0
  0
CIRCLE
  5
963E
  8
L1
 10
1694.154453
 20
156.861297
 30
0.0
 40
4.65
  0
LINE
  5
9641
  8
L1
 10
1598.154453
 20
144.861297
 30
0.0
 11
1598.154453
 21
142.861297
 31
0.0
  0
LINE
  5
9649
  8
L1
 10
1590.154453
 20
142.861297
 30
0.0
 11
1590.154453
 21
144.861297
 31
0.0
  0
LINE
  5
9654
  8
L1
 10
1540.154453
 20
142.861297
 30
0.0
 11
1540.154453
 21
144.861297
 31
0.0
  0
LINE
  5
9655
  8
L1
 10
1548.154453
 20
144.861297
 30
0.0
 11
1548.154453
 21
142.861297
 31
0.0
  0
CIRCLE
  5
9657
  8
L1
 10
1544.154453
 20
156.861297
 30
0.0
 40
4.65
  0
LINE
  5
9658
  8
L1
 10
1548.154453
 20
142.861297
 30
0.0
 11
1540.154453
 21
142.861297
 31
0.0
  0
CIRCLE
  5
9659
  8
L1
 10
1544.154453
 20
156.861297
 30
0.0
 40
3.5
  0
LINE
  5
9660
  8
L1
 10
1448.154453
 20
144.861297
 30
0.0
 11
1448.154453
 21
142.861297
 31
0.0
  0
LINE
  5
9661
  8
L1
 10
1448.154453
 20
142.861297
 30
0.0
 11
1440.154453
 21
142.861297
 31
0.0
  0
LINE
  5
9662
  8
L1
 10
1440.154453
 20
142.861297
 30
0.0
 11
1440.154453
 21
144.861297
 31
0.0
  0
CIRCLE
  5
9664
  8
L1
 10
1444.154453
 20
156.861297
 30
0.0
 40
3.5
  0
CIRCLE
  5
9665
  8
L1
 10
1444.154453
 20
156.861297
 30
0.0
 40
4.65
  0
CIRCLE
  5
966B
  8
L1
 10
1419.154453
 20
156.861297
 30
0.0
 40
4.65
  0
CIRCLE
  5
966C
  8
L1
 10
1419.154453
 20
156.861297
 30
0.0
 40
3.5
  0
LINE
  5
966D
  8
L1
 10
1398.154453
 20
142.861297
 30
0.0
 11
1390.154453
 21
142.861297
 31
0.0
  0
LINE
  5
966F
  8
L1
 10
1398.154453
 20
144.861297
 30
0.0
 11
1398.154453
 21
142.861297
 31
0.0
  0
CIRCLE
  5
9670
  8
L1
 10
1394.154453
 20
156.861297
 30
0.0
 40
3.5
  0
LINE
  5
9671
  8
L1
 10
1390.154453
 20
142.861297
 30
0.0
 11
1390.154453
 21
144.861297
 31
0.0
  0
CIRCLE
  5
9672
  8
L1
 10
1394.154453
 20
156.861297
 30
0.0
 40
4.65
  0
CIRCLE
  5
967B
  8
L1
 10
1344.154453
 20
156.861297
 30
0.0
 40
3.5
  0
CIRCLE
  5
967D
  8
L1
 10
1344.154453
 20
156.861297
 30
0.0
 40
4.65
  0
ARC
  5
967F
  8
L1
 10
1367.386686
 20
173.629064
 30
0.0
 40
4.5
 50
45.0
 51
225.0
  0
LINE
  5
9681
  8
L1
 10
1374.104201
 20
173.275511
 30
0.0
 11
1370.568667
 21
176.811045
 31
0.0
  0
LINE
  5
9682
  8
L1
 10
1372.689987
 20
171.861297
 30
0.0
 11
1369.154453
 21
175.396831
 31
0.0
  0
ARC
  5
9683
  8
L1
 10
1367.386686
 20
173.629064
 30
0.0
 40
2.5
 50
45.0
 51
225.0
  0
LINE
  5
9685
  8
L1
 10
1367.74024
 20
166.91155
 30
0.0
 11
1364.204706
 21
170.447084
 31
0.0
  0
ARC
  5
9686
  8
L1
 10
1370.92222
 20
170.09353
 30
0.0
 40
4.5
 50
225.0
 51
45.0
  0
LINE
  5
9687
  8
L1
 10
1369.154453
 20
168.325763
 30
0.0
 11
1365.618919
 21
171.861297
 31
0.0
  0
ARC
  5
9688
  8
L1
 10
1370.92222
 20
170.09353
 30
0.0
 40
2.5
 50
225.0
 51
45.0
  0
ARC
  5
9695
  8
L1
 10
1308.154453
 20
150.861297
 30
0.0
 40
4.75
 50
241.576877
 51
270.0
  0
ARC
  5
9696
  8
L1
 10
1308.154453
 20
150.861297
 30
0.0
 40
5.45
 50
241.523206
 51
270.0
  0
LINE
  5
96A8
  8
L1
 10
1305.555878
 20
146.070691
 30
0.0
 11
1306.326098
 21
147.76015
 31
0.0
  0
CIRCLE
  5
96AC
  8
L1
 10
1308.154453
 20
150.861297
 30
0.0
 40
3.45
  0
LINE
  5
96AD
  8
L1
 10
1321.154453
 20
144.861297
 30
0.0
 11
1321.154453
 21
156.246074
 31
0.0
  0
LINE
  5
96AE
  8
L1
 10
1311.654453
 20
139.361297
 30
0.0
 11
1314.654453
 21
142.361297
 31
0.0
  0
LINE
  5
96B1
  8
L1
 10
1321.154453
 20
156.246074
 30
0.0
 11
1313.53923
 21
163.861297
 31
0.0
  0
LINE
  5
96B2
  8
L1
 10
1323.654453
 20
144.861297
 30
0.0
 11
1323.654453
 21
157.281607
 31
0.0
  0
LINE
  5
96B4
  8
L1
 10
1323.654453
 20
157.281607
 30
0.0
 11
1321.075912
 21
159.860149
 31
0.0
  0
LINE
  5
96B5
  8
L1
 10
1321.154453
 20
144.861297
 30
0.0
 11
1323.654453
 21
144.861297
 31
0.0
  0
ARC
  5
96B8
  8
L1
 10
1314.154453
 20
336.861297
 30
0.0
 40
4.65
 50
0.0
 51
180.0
  0
ARC
  5
96B9
  8
L1
 10
1314.154453
 20
336.861297
 30
0.0
 40
3.5
 50
0.0
 51
180.0
  0
ARC
  5
96BC
  8
L1
 10
1314.154453
 20
336.861297
 30
0.0
 40
3.5
 50
180.0
 51
0.0
  0
ARC
  5
96BD
  8
L1
 10
1314.154453
 20
336.861297
 30
0.0
 40
4.65
 50
180.0
 51
0.0
  0
ARC
  5
96C4
  8
L1
 10
1314.154453
 20
286.861297
 30
0.0
 40
4.65
 50
180.0
 51
0.0
  0
ARC
  5
96C7
  8
L1
 10
1314.154453
 20
286.861297
 30
0.0
 40
3.5
 50
180.0
 51
0.0
  0
ARC
  5
96C8
  8
L1
 10
1314.154453
 20
286.861297
 30
0.0
 40
3.5
 50
0.0
 51
180.0
  0
ARC
  5
96C9
  8
L1
 10
1314.154453
 20
286.861297
 30
0.0
 40
4.65
 50
0.0
 51
180.0
  0
CIRCLE
  5
96CB
  8
L1
 10
1314.154453
 20
236.861297
 30
0.0
 40
3.5
  0
CIRCLE
  5
96CC
  8
L1
 10
1314.154453
 20
236.861297
 30
0.0
 40
4.65
  0
CIRCLE
  5
96D0
  8
L1
 10
1314.154453
 20
186.861297
 30
0.0
 40
4.65
  0
CIRCLE
  5
96D1
  8
L1
 10
1314.154453
 20
186.861297
 30
0.0
 40
3.5
  0
LINE
  5
96D2
  8
L1
 10
1314.654453
 20
531.361297
 30
0.0
 11
1594.154453
 21
531.361297
 31
0.0
  0
CIRCLE
  5
96D5
  8
L1
 10
1594.154453
 20
516.861297
 30
0.0
 40
3.5
  0
LINE
  5
96D7
  8
L1
 10
1598.154453
 20
530.861297
 30
0.0
 11
1590.154453
 21
530.861297
 31
0.0
  0
CIRCLE
  5
96D8
  8
L1
 10
1594.154453
 20
516.861297
 30
0.0
 40
4.65
  0
CIRCLE
  5
96DA
  8
L1
 10
1694.154453
 20
516.861297
 30
0.0
 40
3.5
  0
CIRCLE
  5
96DB
  8
L1
 10
1694.154453
 20
516.861297
 30
0.0
 40
4.65
  0
LINE
  5
96E0
  8
L1
 10
1698.154453
 20
530.861297
 30
0.0
 11
1690.154453
 21
530.861297
 31
0.0
  0
LINE
  5
96E1
  8
L1
 10
1690.154453
 20
530.861297
 30
0.0
 11
1690.154453
 21
528.861297
 31
0.0
  0
LINE
  5
96E2
  8
L1
 10
1698.154453
 20
528.861297
 30
0.0
 11
1698.154453
 21
530.861297
 31
0.0
  0
LINE
  5
96E7
  8
L1
 10
1598.154453
 20
528.861297
 30
0.0
 11
1598.154453
 21
530.861297
 31
0.0
  0
LINE
  5
96F0
  8
L1
 10
1590.154453
 20
530.861297
 30
0.0
 11
1590.154453
 21
528.861297
 31
0.0
  0
CIRCLE
  5
96F2
  8
L1
 10
1544.154453
 20
516.861297
 30
0.0
 40
4.65
  0
CIRCLE
  5
96F3
  8
L1
 10
1544.154453
 20
516.861297
 30
0.0
 40
3.5
  0
LINE
  5
96F7
  8
L1
 10
1548.154453
 20
530.861297
 30
0.0
 11
1540.154453
 21
530.861297
 31
0.0
  0
LINE
  5
96F8
  8
L1
 10
1548.154453
 20
528.861297
 30
0.0
 11
1548.154453
 21
530.861297
 31
0.0
  0
LINE
  5
96F9
  8
L1
 10
1540.154453
 20
530.861297
 30
0.0
 11
1540.154453
 21
528.861297
 31
0.0
  0
CIRCLE
  5
96FC
  8
L1
 10
1444.154453
 20
516.861297
 30
0.0
 40
3.5
  0
CIRCLE
  5
96FD
  8
L1
 10
1444.154453
 20
516.861297
 30
0.0
 40
4.65
  0
LINE
  5
9702
  8
L1
 10
1448.154453
 20
530.861297
 30
0.0
 11
1440.154453
 21
530.861297
 31
0.0
  0
LINE
  5
9703
  8
L1
 10
1448.154453
 20
528.861297
 30
0.0
 11
1448.154453
 21
530.861297
 31
0.0
  0
LINE
  5
9704
  8
L1
 10
1440.154453
 20
530.861297
 30
0.0
 11
1440.154453
 21
528.861297
 31
0.0
  0
CIRCLE
  5
9705
  8
L1
 10
1419.154453
 20
516.861297
 30
0.0
 40
3.5
  0
CIRCLE
  5
9707
  8
L1
 10
1419.154453
 20
516.861297
 30
0.0
 40
4.65
  0
CIRCLE
  5
9708
  8
L1
 10
1394.154453
 20
516.861297
 30
0.0
 40
4.65
  0
CIRCLE
  5
970A
  8
L1
 10
1394.154453
 20
516.861297
 30
0.0
 40
3.5
  0
LINE
  5
970F
  8
L1
 10
1398.154453
 20
530.861297
 30
0.0
 11
1390.154453
 21
530.861297
 31
0.0
  0
LINE
  5
9710
  8
L1
 10
1398.154453
 20
528.861297
 30
0.0
 11
1398.154453
 21
530.861297
 31
0.0
  0
LINE
  5
9711
  8
L1
 10
1390.154453
 20
530.861297
 30
0.0
 11
1390.154453
 21
528.861297
 31
0.0
  0
CIRCLE
  5
9716
  8
L1
 10
1344.154453
 20
516.861297
 30
0.0
 40
3.5
  0
CIRCLE
  5
9717
  8
L1
 10
1344.154453
 20
516.861297
 30
0.0
 40
4.65
  0
ARC
  5
971C
  8
L1
 10
1367.386686
 20
500.09353
 30
0.0
 40
2.5
 50
135.0
 51
315.0
  0
ARC
  5
971D
  8
L1
 10
1370.92222
 20
503.629064
 30
0.0
 40
2.5
 50
315.0
 51
135.0
  0
LINE
  5
971E
  8
L1
 10
1372.689987
 20
501.861297
 30
0.0
 11
1369.154453
 21
498.325763
 31
0.0
  0
LINE
  5
971F
  8
L1
 10
1369.154453
 20
505.396831
 30
0.0
 11
1365.618919
 21
501.861297
 31
0.0
  0
LINE
  5
9720
  8
L1
 10
1374.104201
 20
500.447084
 30
0.0
 11
1370.568667
 21
496.91155
 31
0.0
  0
ARC
  5
9721
  8
L1
 10
1370.92222
 20
503.629064
 30
0.0
 40
4.5
 50
315.0
 51
135.0
  0
LINE
  5
9722
  8
L1
 10
1367.74024
 20
506.811045
 30
0.0
 11
1364.204706
 21
503.275511
 31
0.0
  0
ARC
  5
9725
  8
L1
 10
1367.386686
 20
500.09353
 30
0.0
 40
4.5
 50
135.0
 51
315.0
  0
LINE
  5
972A
  8
L1
 10
1321.154453
 20
517.476521
 30
0.0
 11
1313.53923
 21
509.861297
 31
0.0
  0
LINE
  5
972C
  8
L1
 10
1323.654453
 20
528.861297
 30
0.0
 11
1323.654453
 21
516.440987
 31
0.0
  0
ARC
  5
9737
  8
L1
 10
1314.154453
 20
386.861297
 30
0.0
 40
4.65
 50
0.0
 51
180.0
  0
ARC
  5
9738
  8
L1
 10
1314.154453
 20
386.861297
 30
0.0
 40
3.5
 50
0.0
 51
180.0
  0
ARC
  5
973B
  8
L1
 10
1314.154453
 20
386.861297
 30
0.0
 40
3.5
 50
180.0
 51
0.0
  0
ARC
  5
973C
  8
L1
 10
1314.154453
 20
386.861297
 30
0.0
 40
4.65
 50
180.0
 51
0.0
  0
CIRCLE
  5
9742
  8
L1
 10
1314.154453
 20
486.861297
 30
0.0
 40
4.65
  0
CIRCLE
  5
9743
  8
L1
 10
1314.154453
 20
486.861297
 30
0.0
 40
3.5
  0
ARC
  5
9746
  8
L1
 10
1314.154453
 20
436.861297
 30
0.0
 40
3.5
 50
180.0
 51
0.0
  0
ARC
  5
9749
  8
L1
 10
1314.154453
 20
436.861297
 30
0.0
 40
4.65
 50
180.0
 51
0.0
  0
ARC
  5
974A
  8
L1
 10
1314.154453
 20
436.861297
 30
0.0
 40
4.65
 50
0.0
 51
180.0
  0
ARC
  5
974B
  8
L1
 10
1314.154453
 20
436.861297
 30
0.0
 40
3.5
 50
0.0
 51
180.0
  0
LINE
  5
974C
  8
L1
 10
1323.654453
 20
516.440987
 30
0.0
 11
1321.075912
 21
513.862446
 31
0.0
  0
LINE
  5
974F
  8
L1
 10
1305.555878
 20
527.651903
 30
0.0
 11
1306.326098
 21
525.962445
 31
0.0
  0
LINE
  5
9762
  8
L1
 10
1311.654453
 20
534.361297
 30
0.0
 11
1314.654453
 21
531.361297
 31
0.0
  0
CIRCLE
  5
9764
  8
L1
 10
1308.154453
 20
522.861297
 30
0.0
 40
3.45
  0
LINE
  5
9765
  8
L1
 10
1321.154453
 20
528.861297
 30
0.0
 11
1321.154453
 21
517.476521
 31
0.0
  0
LINE
  5
9767
  8
L1
 10
1321.154453
 20
528.861297
 30
0.0
 11
1323.654453
 21
528.861297
 31
0.0
  0
ARC
  5
9774
  8
L1
 10
1300.077269
 20
144.55188
 30
0.0
 40
0.3
 50
135.0
 51
209.576148
  0
ARC
  5
9775
  8
L1
 10
1301.845036
 20
142.784113
 30
0.0
 40
0.3
 50
240.423852
 51
315.0
  0
ARC
  5
9776
  8
L1
 10
1302.294566
 20
144.152882
 30
0.0
 40
0.3
 50
235.475682
 51
315.0
  0
ARC
  5
9778
  8
L1
 10
1301.446038
 20
145.00141
 30
0.0
 40
0.3
 50
135.0
 51
214.524318
  0
LINE
  5
9779
  8
L1
 10
1299.865137
 20
144.764012
 30
0.0
 11
1303.363847
 21
148.262722
 31
0.0
  0
LINE
  5
978B
  8
L1
 10
1302.154453
 20
163.861297
 30
0.0
 11
1302.154453
 21
166.361297
 31
0.0
  0
LINE
  5
978C
  8
L1
 10
1296.654453
 20
141.861297
 30
0.0
 11
1296.654453
 21
154.361297
 31
0.0
  0
ARC
  5
978D
  8
L1
 10
1299.154453
 20
141.861297
 30
0.0
 40
2.5
 50
180.0
 51
205.10409
  0
ARC
  5
9792
  8
L1
 10
1299.154453
 20
141.861297
 30
0.0
 40
2.5
 50
244.89591
 51
270.0
  0
LINE
  5
9794
  8
L1
 10
1296.654453
 20
154.361297
 30
0.0
 11
1299.654453
 21
157.361297
 31
0.0
  0
LINE
  5
9795
  8
L1
 10
1300.154453
 20
340.861297
 30
0.0
 11
1300.154453
 21
336.861297
 31
0.0
  0
LINE
  5
9796
  8
L1
 10
1300.154453
 20
332.861297
 30
0.0
 11
1300.154453
 21
336.861297
 31
0.0
  0
LINE
  5
9797
  8
L1
 10
1300.154453
 20
282.861297
 30
0.0
 11
1300.154453
 21
286.861297
 31
0.0
  0
LINE
  5
9798
  8
L1
 10
1300.154453
 20
290.861297
 30
0.0
 11
1300.154453
 21
286.861297
 31
0.0
  0
LINE
  5
9799
  8
L1
 10
1300.154453
 20
240.861297
 30
0.0
 11
1300.154453
 21
236.861297
 31
0.0
  0
LINE
  5
979A
  8
L1
 10
1300.154453
 20
232.861297
 30
0.0
 11
1300.154453
 21
236.861297
 31
0.0
  0
LINE
  5
979B
  8
L1
 10
1296.654453
 20
519.361297
 30
0.0
 11
1299.654453
 21
516.361297
 31
0.0
  0
LINE
  5
979C
  8
L1
 10
1300.154453
 20
390.861297
 30
0.0
 11
1300.154453
 21
386.861297
 31
0.0
  0
LINE
  5
979D
  8
L1
 10
1300.154453
 20
382.861297
 30
0.0
 11
1300.154453
 21
386.861297
 31
0.0
  0
LINE
  5
979E
  8
L1
 10
1302.154453
 20
509.861297
 30
0.0
 11
1302.154453
 21
507.361297
 31
0.0
  0
LINE
  5
979F
  8
L1
 10
1300.154453
 20
432.861297
 30
0.0
 11
1300.154453
 21
436.861297
 31
0.0
  0
LINE
  5
97A0
  8
L1
 10
1300.154453
 20
440.861297
 30
0.0
 11
1300.154453
 21
436.861297
 31
0.0
  0
LINE
  5
97A7
  8
L1
 10
1299.865137
 20
528.958583
 30
0.0
 11
1303.363847
 21
525.459872
 31
0.0
  0
ARC
  5
97A8
  8
L1
 10
1301.446038
 20
528.721184
 30
0.0
 40
0.3
 50
145.475682
 51
225.0
  0
ARC
  5
97AA
  8
L1
 10
1302.294566
 20
529.569712
 30
0.0
 40
0.3
 50
45.0
 51
124.524318
  0
ARC
  5
97AB
  8
L1
 10
1301.845036
 20
530.938482
 30
0.0
 40
0.3
 50
45.0
 51
119.576148
  0
ARC
  5
97AC
  8
L1
 10
1300.077269
 20
529.170715
 30
0.0
 40
0.3
 50
150.423852
 51
225.0
  0
ARC
  5
97C3
  8
L1
 10
1299.154453
 20
531.861297
 30
0.0
 40
2.5
 50
154.89591
 51
180.0
  0
ARC
  5
97C7
  8
L1
 10
1299.154453
 20
531.861297
 30
0.0
 40
2.5
 50
90.0
 51
115.10409
  0
LINE
  5
97C8
  8
L1
 10
1296.654453
 20
531.861297
 30
0.0
 11
1296.654453
 21
519.361297
 31
0.0
  0
LINE
  5
C4E6
  8
L1
 10
809.060197
 20
516.111297
 30
0.0
 11
814.116767
 21
516.111297
 31
0.0
  0
LINE
  5
C4E7
  8
L1
 10
814.116767
 20
517.611297
 30
0.0
 11
809.060197
 21
517.611297
 31
0.0
  0
ARC
  5
C4E8
  8
L1
 10
844.060197
 20
516.861297
 30
0.0
 40
5.0
 50
8.626927
 51
171.373073
  0
ARC
  5
C4EA
  8
L1
 10
869.060197
 20
516.861297
 30
0.0
 40
5.0
 50
8.626927
 51
171.373073
  0
ARC
  5
C4EC
  8
L1
 10
819.060197
 20
516.861297
 30
0.0
 40
5.0
 50
8.626927
 51
171.373073
  0
LINE
  5
C4ED
  8
L1
 10
864.116767
 20
517.611297
 30
0.0
 11
859.060197
 21
517.611297
 31
0.0
  0
LINE
  5
C4EE
  8
L1
 10
859.060197
 20
516.111297
 30
0.0
 11
864.116767
 21
516.111297
 31
0.0
  0
LINE
  5
C4F0
  8
L1
 10
874.003627
 20
517.611297
 30
0.0
 11
879.060197
 21
517.611297
 31
0.0
  0
LINE
  5
C4F1
  8
L1
 10
879.060197
 20
516.111297
 30
0.0
 11
874.003627
 21
516.111297
 31
0.0
  0
LINE
  5
C4F2
  8
L1
 10
879.060197
 20
517.611297
 30
0.0
 11
879.060197
 21
516.111297
 31
0.0
  0
ARC
  5
C4F8
  8
L1
 10
869.060197
 20
516.861297
 30
0.0
 40
5.0
 50
188.626927
 51
351.373073
  0
CIRCLE
  5
C4F9
  8
L1
 10
869.060197
 20
516.861297
 30
0.0
 40
2.1
  0
CIRCLE
  5
C4FA
  8
L1
 10
869.060197
 20
516.861297
 30
0.0
 40
2.4
  0
LINE
  5
C4FC
  8
L1
 10
839.116767
 20
516.111297
 30
0.0
 11
834.060197
 21
516.111297
 31
0.0
  0
LINE
  5
C4FD
  8
L1
 10
834.060197
 20
517.611297
 30
0.0
 11
839.116767
 21
517.611297
 31
0.0
  0
LINE
  5
C4FE
  8
L1
 10
854.060197
 20
516.111297
 30
0.0
 11
854.060197
 21
517.611297
 31
0.0
  0
ARC
  5
C4FF
  8
L1
 10
844.060197
 20
516.861297
 30
0.0
 40
5.0
 50
188.626927
 51
351.373073
  0
CIRCLE
  5
C500
  8
L1
 10
844.060197
 20
516.861297
 30
0.0
 40
2.1
  0
CIRCLE
  5
C501
  8
L1
 10
844.060197
 20
516.861297
 30
0.0
 40
2.4
  0
LINE
  5
C502
  8
L1
 10
849.003627
 20
516.111297
 30
0.0
 11
854.060197
 21
516.111297
 31
0.0
  0
LINE
  5
C503
  8
L1
 10
854.060197
 20
517.611297
 30
0.0
 11
849.003627
 21
517.611297
 31
0.0
  0
LINE
  5
C504
  8
L1
 10
859.060197
 20
517.611297
 30
0.0
 11
859.060197
 21
516.111297
 31
0.0
  0
LINE
  5
C505
  8
L1
 10
834.060197
 20
516.111297
 30
0.0
 11
834.060197
 21
517.611297
 31
0.0
  0
LINE
  5
C506
  8
L1
 10
829.060197
 20
516.111297
 30
0.0
 11
824.003627
 21
516.111297
 31
0.0
  0
LINE
  5
C507
  8
L1
 10
824.003627
 20
517.611297
 30
0.0
 11
829.060197
 21
517.611297
 31
0.0
  0
LINE
  5
C508
  8
L1
 10
829.060197
 20
517.611297
 30
0.0
 11
829.060197
 21
516.111297
 31
0.0
  0
ARC
  5
C509
  8
L1
 10
819.060197
 20
516.861297
 30
0.0
 40
5.0
 50
188.626927
 51
351.373073
  0
CIRCLE
  5
C50A
  8
L1
 10
819.060197
 20
516.861297
 30
0.0
 40
2.4
  0
CIRCLE
  5
C50B
  8
L1
 10
819.060197
 20
516.861297
 30
0.0
 40
2.1
  0
LINE
  5
C50C
  8
L1
 10
809.060197
 20
517.611297
 30
0.0
 11
809.060197
 21
516.111297
 31
0.0
  0
ARC
  5
C50D
  8
L1
 10
594.060197
 20
516.861297
 30
0.0
 40
5.0
 50
8.626927
 51
171.373073
  0
LINE
  5
C510
  8
L1
 10
584.060197
 20
517.611297
 30
0.0
 11
589.116767
 21
517.611297
 31
0.0
  0
LINE
  5
C511
  8
L1
 10
589.116767
 20
516.111297
 30
0.0
 11
584.060197
 21
516.111297
 31
0.0
  0
LINE
  5
C512
  8
L1
 10
584.060197
 20
516.111297
 30
0.0
 11
584.060197
 21
517.611297
 31
0.0
  0
LINE
  5
C513
  8
L1
 10
604.060197
 20
517.611297
 30
0.0
 11
599.003627
 21
517.611297
 31
0.0
  0
LINE
  5
C514
  8
L1
 10
599.003627
 20
516.111297
 30
0.0
 11
604.060197
 21
516.111297
 31
0.0
  0
LINE
  5
C515
  8
L1
 10
604.060197
 20
516.111297
 30
0.0
 11
604.060197
 21
517.611297
 31
0.0
  0
CIRCLE
  5
C516
  8
L1
 10
594.060197
 20
516.861297
 30
0.0
 40
2.4
  0
CIRCLE
  5
C517
  8
L1
 10
594.060197
 20
516.861297
 30
0.0
 40
2.1
  0
ARC
  5
C518
  8
L1
 10
594.060197
 20
516.861297
 30
0.0
 40
5.0
 50
188.626927
 51
351.373073
  0
LINE
  5
C51E
  8
L1
 10
823.060197
 20
466.861297
 30
0.0
 11
823.060197
 21
513.861297
 31
0.0
  0
LINE
  5
C51F
  8
L1
 10
815.060197
 20
466.861297
 30
0.0
 11
815.060197
 21
513.861297
 31
0.0
  0
LINE
  5
C520
  8
L1
 10
815.060197
 20
519.861297
 30
0.0
 11
815.060197
 21
528.861297
 31
0.0
  0
LINE
  5
C521
  8
L1
 10
823.060197
 20
519.861297
 30
0.0
 11
823.060197
 21
528.861297
 31
0.0
  0
LINE
  5
C522
  8
L1
 10
865.060197
 20
519.861297
 30
0.0
 11
865.060197
 21
528.861297
 31
0.0
  0
LINE
  5
C523
  8
L1
 10
873.060197
 20
519.861297
 30
0.0
 11
873.060197
 21
528.861297
 31
0.0
  0
LINE
  5
C524
  8
L1
 10
873.060197
 20
466.861297
 30
0.0
 11
873.060197
 21
483.861297
 31
0.0
  0
LINE
  5
C525
  8
L1
 10
865.060197
 20
466.861297
 30
0.0
 11
865.060197
 21
483.861297
 31
0.0
  0
ARC
  5
C528
  8
L1
 10
819.060197
 20
156.861297
 30
0.0
 40
5.0
 50
188.626927
 51
351.373073
  0
ARC
  5
C52A
  8
L1
 10
869.060197
 20
156.861297
 30
0.0
 40
5.0
 50
188.626927
 51
351.373073
  0
ARC
  5
C52C
  8
L1
 10
844.060197
 20
156.861297
 30
0.0
 40
5.0
 50
188.626927
 51
351.373073
  0
LINE
  5
C52E
  8
L1
 10
809.060197
 20
156.111297
 30
0.0
 11
809.060197
 21
157.611297
 31
0.0
  0
CIRCLE
  5
C52F
  8
L1
 10
819.060197
 20
156.861297
 30
0.0
 40
2.1
  0
CIRCLE
  5
C530
  8
L1
 10
819.060197
 20
156.861297
 30
0.0
 40
2.4
  0
ARC
  5
C531
  8
L1
 10
819.060197
 20
156.861297
 30
0.0
 40
5.0
 50
8.626927
 51
171.373073
  0
LINE
  5
C532
  8
L1
 10
829.060197
 20
156.111297
 30
0.0
 11
829.060197
 21
157.611297
 31
0.0
  0
LINE
  5
C533
  8
L1
 10
824.003627
 20
156.111297
 30
0.0
 11
829.060197
 21
156.111297
 31
0.0
  0
LINE
  5
C534
  8
L1
 10
829.060197
 20
157.611297
 30
0.0
 11
824.003627
 21
157.611297
 31
0.0
  0
LINE
  5
C535
  8
L1
 10
814.116767
 20
156.111297
 30
0.0
 11
809.060197
 21
156.111297
 31
0.0
  0
LINE
  5
C536
  8
L1
 10
809.060197
 20
157.611297
 30
0.0
 11
814.116767
 21
157.611297
 31
0.0
  0
LINE
  5
C537
  8
L1
 10
834.060197
 20
157.611297
 30
0.0
 11
834.060197
 21
156.111297
 31
0.0
  0
LINE
  5
C538
  8
L1
 10
854.060197
 20
156.111297
 30
0.0
 11
849.003627
 21
156.111297
 31
0.0
  0
LINE
  5
C539
  8
L1
 10
849.003627
 20
157.611297
 30
0.0
 11
854.060197
 21
157.611297
 31
0.0
  0
CIRCLE
  5
C53A
  8
L1
 10
844.060197
 20
156.861297
 30
0.0
 40
2.4
  0
CIRCLE
  5
C53B
  8
L1
 10
844.060197
 20
156.861297
 30
0.0
 40
2.1
  0
ARC
  5
C53C
  8
L1
 10
844.060197
 20
156.861297
 30
0.0
 40
5.0
 50
8.626927
 51
171.373073
  0
LINE
  5
C53D
  8
L1
 10
854.060197
 20
157.611297
 30
0.0
 11
854.060197
 21
156.111297
 31
0.0
  0
LINE
  5
C53E
  8
L1
 10
834.060197
 20
156.111297
 30
0.0
 11
839.116767
 21
156.111297
 31
0.0
  0
LINE
  5
C53F
  8
L1
 10
839.116767
 20
157.611297
 30
0.0
 11
834.060197
 21
157.611297
 31
0.0
  0
LINE
  5
C540
  8
L1
 10
859.060197
 20
156.111297
 30
0.0
 11
859.060197
 21
157.611297
 31
0.0
  0
CIRCLE
  5
C541
  8
L1
 10
869.060197
 20
156.861297
 30
0.0
 40
2.4
  0
CIRCLE
  5
C542
  8
L1
 10
869.060197
 20
156.861297
 30
0.0
 40
2.1
  0
ARC
  5
C543
  8
L1
 10
869.060197
 20
156.861297
 30
0.0
 40
5.0
 50
8.626927
 51
171.373073
  0
LINE
  5
C547
  8
L1
 10
859.060197
 20
157.611297
 30
0.0
 11
864.116767
 21
157.611297
 31
0.0
  0
LINE
  5
C548
  8
L1
 10
864.116767
 20
156.111297
 30
0.0
 11
859.060197
 21
156.111297
 31
0.0
  0
LINE
  5
C549
  8
L1
 10
879.060197
 20
157.611297
 30
0.0
 11
874.003627
 21
157.611297
 31
0.0
  0
LINE
  5
C54A
  8
L1
 10
874.003627
 20
156.111297
 30
0.0
 11
879.060197
 21
156.111297
 31
0.0
  0
LINE
  5
C54B
  8
L1
 10
879.060197
 20
156.111297
 30
0.0
 11
879.060197
 21
157.611297
 31
0.0
  0
LINE
  5
C54C
  8
L1
 10
873.060197
 20
153.861297
 30
0.0
 11
873.060197
 21
144.861297
 31
0.0
  0
LINE
  5
C54D
  8
L1
 10
865.060197
 20
153.861297
 30
0.0
 11
865.060197
 21
144.861297
 31
0.0
  0
LINE
  5
C54E
  8
L1
 10
823.060197
 20
153.861297
 30
0.0
 11
823.060197
 21
144.861297
 31
0.0
  0
LINE
  5
C54F
  8
L1
 10
815.060197
 20
153.861297
 30
0.0
 11
815.060197
 21
144.861297
 31
0.0
  0
LINE
  5
C550
  8
L1
 10
823.060197
 20
206.861297
 30
0.0
 11
823.060197
 21
159.861297
 31
0.0
  0
LINE
  5
C551
  8
L1
 10
815.060197
 20
206.861297
 30
0.0
 11
815.060197
 21
159.861297
 31
0.0
  0
LINE
  5
C552
  8
L1
 10
865.060197
 20
206.861297
 30
0.0
 11
865.060197
 21
190.286732
 31
0.0
  0
LINE
  5
C553
  8
L1
 10
873.060197
 20
206.861297
 30
0.0
 11
873.060197
 21
190.286693
 31
0.0
  0
LINE
  5
C554
  8
L1
 10
873.060197
 20
206.861297
 30
0.0
 11
893.403342
 21
206.861297
 31
0.0
  0
LINE
  5
C555
  8
L1
 10
823.060197
 20
206.861297
 30
0.0
 11
865.060197
 21
206.861297
 31
0.0
  0
ARC
  5
C577
  8
L1
 10
594.060197
 20
156.861297
 30
0.0
 40
5.0
 50
188.626927
 51
351.373073
  0
CIRCLE
  5
C579
  8
L1
 10
594.060197
 20
156.861297
 30
0.0
 40
2.4
  0
CIRCLE
  5
C57A
  8
L1
 10
594.060197
 20
156.861297
 30
0.0
 40
2.1
  0
ARC
  5
C57C
  8
L1
 10
594.060197
 20
156.861297
 30
0.0
 40
5.0
 50
8.626927
 51
171.373073
  0
LINE
  5
C57D
  8
L1
 10
584.060197
 20
156.111297
 30
0.0
 11
589.116767
 21
156.111297
 31
0.0
  0
LINE
  5
C57E
  8
L1
 10
589.116767
 20
157.611297
 30
0.0
 11
584.060197
 21
157.611297
 31
0.0
  0
LINE
  5
C57F
  8
L1
 10
584.060197
 20
157.611297
 30
0.0
 11
584.060197
 21
156.111297
 31
0.0
  0
LINE
  5
C580
  8
L1
 10
604.060197
 20
156.111297
 30
0.0
 11
599.003627
 21
156.111297
 31
0.0
  0
LINE
  5
C581
  8
L1
 10
599.003627
 20
157.611297
 30
0.0
 11
604.060197
 21
157.611297
 31
0.0
  0
LINE
  5
C582
  8
L1
 10
604.060197
 20
157.611297
 30
0.0
 11
604.060197
 21
156.111297
 31
0.0
  0
CIRCLE
  5
C86E
  8
L1
 10
1519.154453
 20
516.861297
 30
0.0
 40
4.65
  0
CIRCLE
  5
C871
  8
L1
 10
1494.154453
 20
516.861297
 30
0.0
 40
4.65
  0
CIRCLE
  5
C872
  8
L1
 10
1494.154453
 20
516.861297
 30
0.0
 40
3.5
  0
CIRCLE
  5
C874
  8
L1
 10
1519.154453
 20
516.861297
 30
0.0
 40
3.5
  0
LINE
  5
C875
  8
L1
 10
1498.154453
 20
528.861297
 30
0.0
 11
1498.154453
 21
530.861297
 31
0.0
  0
LINE
  5
C876
  8
L1
 10
1490.154453
 20
530.861297
 30
0.0
 11
1490.154453
 21
528.861297
 31
0.0
  0
LINE
  5
C878
  8
L1
 10
1498.154453
 20
530.861297
 30
0.0
 11
1490.154453
 21
530.861297
 31
0.0
  0
CIRCLE
  5
C87B
  8
L1
 10
1494.154453
 20
156.861297
 30
0.0
 40
4.65
  0
LINE
  5
C87C
  8
L1
 10
1490.154453
 20
142.861297
 30
0.0
 11
1490.154453
 21
144.861297
 31
0.0
  0
LINE
  5
C87D
  8
L1
 10
1498.154453
 20
144.861297
 30
0.0
 11
1498.154453
 21
142.861297
 31
0.0
  0
CIRCLE
  5
C87E
  8
L1
 10
1519.154453
 20
156.861297
 30
0.0
 40
4.65
  0
LINE
  5
C87F
  8
L1
 10
1498.154453
 20
142.861297
 30
0.0
 11
1490.154453
 21
142.861297
 31
0.0
  0
CIRCLE
  5
C882
  8
L1
 10
1494.154453
 20
156.861297
 30
0.0
 40
3.5
  0
CIRCLE
  5
C883
  8
L1
 10
1519.154453
 20
156.861297
 30
0.0
 40
3.5
  0
CIRCLE
  5
C88A
  8
L1
 10
1644.154453
 20
516.861297
 30
0.0
 40
3.5
  0
CIRCLE
  5
C88B
  8
L1
 10
1644.154453
 20
516.861297
 30
0.0
 40
4.65
  0
LINE
  5
C88D
  8
L1
 10
1640.154453
 20
530.861297
 30
0.0
 11
1648.154453
 21
530.861297
 31
0.0
  0
LINE
  5
C88F
  8
L1
 10
1648.154453
 20
530.861297
 30
0.0
 11
1648.154453
 21
528.861297
 31
0.0
  0
LINE
  5
C890
  8
L1
 10
1640.154453
 20
528.861297
 30
0.0
 11
1640.154453
 21
530.861297
 31
0.0
  0
CIRCLE
  5
C891
  8
L1
 10
1644.154453
 20
156.861297
 30
0.0
 40
4.65
  0
LINE
  5
C892
  8
L1
 10
1648.154453
 20
142.861297
 30
0.0
 11
1648.154453
 21
144.861297
 31
0.0
  0
LINE
  5
C894
  8
L1
 10
1640.154453
 20
144.861297
 30
0.0
 11
1640.154453
 21
142.861297
 31
0.0
  0
LINE
  5
C895
  8
L1
 10
1640.154453
 20
142.861297
 30
0.0
 11
1648.154453
 21
142.861297
 31
0.0
  0
CIRCLE
  5
C897
  8
L1
 10
1644.154453
 20
156.861297
 30
0.0
 40
3.5
  0
CIRCLE
  5
C89B
  8
L1
 10
1669.154453
 20
516.861297
 30
0.0
 40
3.5
  0
CIRCLE
  5
C89D
  8
L1
 10
1669.154453
 20
516.861297
 30
0.0
 40
4.65
  0
CIRCLE
  5
C8A0
  8
L1
 10
1669.154453
 20
156.861297
 30
0.0
 40
3.5
  0
CIRCLE
  5
C8A2
  8
L1
 10
1669.154453
 20
156.861297
 30
0.0
 40
4.65
  0
LINE
  5
CB9B
  8
L1
 10
1888.654453
 20
157.361297
 30
0.0
 11
1888.654453
 21
286.861297
 31
0.0
  0
LINE
  5
CB9C
  8
L1
 10
1873.654453
 20
142.361297
 30
0.0
 11
1314.654453
 21
142.361297
 31
0.0
  0
LINE
  5
CB9D
  8
L1
 10
1594.154453
 20
531.361297
 30
0.0
 11
1873.654453
 21
531.361297
 31
0.0
  0
LINE
  5
CB9F
  8
L1
 10
1299.654453
 20
157.361297
 30
0.0
 11
1299.654453
 21
516.361297
 31
0.0
  0
ARC
  5
D42F
  8
L1
 10
684.060197
 20
145.861297
 30
0.0
 40
1.0
 50
270.0
 51
0.0
  0
ARC
  5
D430
  8
L1
 10
688.560197
 20
145.861297
 30
0.0
 40
1.0
 50
180.0
 51
270.0
  0
LINE
  5
D431
  8
L1
 10
687.560197
 20
148.861297
 30
0.0
 11
687.560197
 21
145.861297
 31
0.0
  0
LINE
  5
D432
  8
L1
 10
687.560197
 20
146.861297
 30
0.0
 11
685.060197
 21
146.861297
 31
0.0
  0
LINE
  5
D433
  8
L1
 10
687.560197
 20
148.861297
 30
0.0
 11
685.060197
 21
148.861297
 31
0.0
  0
LINE
  5
D434
  8
L1
 10
685.060197
 20
148.861297
 30
0.0
 11
685.060197
 21
145.861297
 31
0.0
  0
LINE
  5
D435
  8
L1
 10
689.560197
 20
148.861297
 30
0.0
 11
689.560197
 21
145.861297
 31
0.0
  0
LINE
  5
D436
  8
L1
 10
692.060197
 20
148.861297
 30
0.0
 11
692.060197
 21
145.861297
 31
0.0
  0
ARC
  5
D437
  8
L1
 10
688.560197
 20
145.861297
 30
0.0
 40
1.0
 50
270.0
 51
0.0
  0
LINE
  5
D438
  8
L1
 10
692.060197
 20
148.861297
 30
0.0
 11
689.560197
 21
148.861297
 31
0.0
  0
LINE
  5
D439
  8
L1
 10
692.060197
 20
146.861297
 30
0.0
 11
689.560197
 21
146.861297
 31
0.0
  0
ARC
  5
D43A
  8
L1
 10
693.060197
 20
145.861297
 30
0.0
 40
1.0
 50
180.0
 51
270.0
  0
ARC
  5
D43B
  8
L1
 10
693.060197
 20
145.861297
 30
0.0
 40
1.0
 50
180.0
 51
270.0
  0
LINE
  5
D43C
  8
L1
 10
692.060197
 20
146.861297
 30
0.0
 11
689.560197
 21
146.861297
 31
0.0
  0
LINE
  5
D43D
  8
L1
 10
692.060197
 20
148.861297
 30
0.0
 11
689.560197
 21
148.861297
 31
0.0
  0
ARC
  5
D43E
  8
L1
 10
688.560197
 20
145.861297
 30
0.0
 40
1.0
 50
270.0
 51
0.0
  0
LINE
  5
D43F
  8
L1
 10
692.060197
 20
148.861297
 30
0.0
 11
692.060197
 21
145.861297
 31
0.0
  0
LINE
  5
D440
  8
L1
 10
689.560197
 20
148.861297
 30
0.0
 11
689.560197
 21
145.861297
 31
0.0
  0
LINE
  5
D441
  8
L1
 10
685.060197
 20
148.861297
 30
0.0
 11
685.060197
 21
145.861297
 31
0.0
  0
LINE
  5
D442
  8
L1
 10
687.560197
 20
148.861297
 30
0.0
 11
685.060197
 21
148.861297
 31
0.0
  0
LINE
  5
D443
  8
L1
 10
687.560197
 20
146.861297
 30
0.0
 11
685.060197
 21
146.861297
 31
0.0
  0
LINE
  5
D444
  8
L1
 10
687.560197
 20
148.861297
 30
0.0
 11
687.560197
 21
145.861297
 31
0.0
  0
ARC
  5
D445
  8
L1
 10
688.560197
 20
145.861297
 30
0.0
 40
1.0
 50
180.0
 51
270.0
  0
ARC
  5
D446
  8
L1
 10
684.060197
 20
145.861297
 30
0.0
 40
1.0
 50
270.0
 51
0.0
  0
ARC
  5
D447
  8
L1
 10
684.060197
 20
145.861297
 30
0.0
 40
1.0
 50
270.0
 51
0.0
  0
ARC
  5
D448
  8
L1
 10
688.560197
 20
145.861297
 30
0.0
 40
1.0
 50
180.0
 51
270.0
  0
LINE
  5
D449
  8
L1
 10
687.560197
 20
148.861297
 30
0.0
 11
687.560197
 21
145.861297
 31
0.0
  0
LINE
  5
D44A
  8
L1
 10
687.560197
 20
146.861297
 30
0.0
 11
685.060197
 21
146.861297
 31
0.0
  0
LINE
  5
D44B
  8
L1
 10
687.560197
 20
148.861297
 30
0.0
 11
685.060197
 21
148.861297
 31
0.0
  0
LINE
  5
D44C
  8
L1
 10
685.060197
 20
148.861297
 30
0.0
 11
685.060197
 21
145.861297
 31
0.0
  0
LINE
  5
D44D
  8
L1
 10
689.560197
 20
148.861297
 30
0.0
 11
689.560197
 21
145.861297
 31
0.0
  0
LINE
  5
D44E
  8
L1
 10
692.060197
 20
148.861297
 30
0.0
 11
692.060197
 21
145.861297
 31
0.0
  0
ARC
  5
D44F
  8
L1
 10
688.560197
 20
145.861297
 30
0.0
 40
1.0
 50
270.0
 51
0.0
  0
LINE
  5
D450
  8
L1
 10
692.060197
 20
148.861297
 30
0.0
 11
689.560197
 21
148.861297
 31
0.0
  0
LINE
  5
D451
  8
L1
 10
692.060197
 20
146.861297
 30
0.0
 11
689.560197
 21
146.861297
 31
0.0
  0
ARC
  5
D452
  8
L1
 10
693.060197
 20
145.861297
 30
0.0
 40
1.0
 50
180.0
 51
270.0
  0
ARC
  5
D453
  8
L1
 10
693.060197
 20
145.861297
 30
0.0
 40
1.0
 50
180.0
 51
270.0
  0
LINE
  5
D454
  8
L1
 10
692.060197
 20
146.861297
 30
0.0
 11
689.560197
 21
146.861297
 31
0.0
  0
LINE
  5
D455
  8
L1
 10
692.060197
 20
148.861297
 30
0.0
 11
689.560197
 21
148.861297
 31
0.0
  0
ARC
  5
D456
  8
L1
 10
688.560197
 20
145.861297
 30
0.0
 40
1.0
 50
270.0
 51
0.0
  0
LINE
  5
D457
  8
L1
 10
692.060197
 20
148.861297
 30
0.0
 11
692.060197
 21
145.861297
 31
0.0
  0
LINE
  5
D458
  8
L1
 10
689.560197
 20
148.861297
 30
0.0
 11
689.560197
 21
145.861297
 31
0.0
  0
LINE
  5
D459
  8
L1
 10
685.060197
 20
148.861297
 30
0.0
 11
685.060197
 21
145.861297
 31
0.0
  0
LINE
  5
D45A
  8
L1
 10
687.560197
 20
148.861297
 30
0.0
 11
685.060197
 21
148.861297
 31
0.0
  0
LINE
  5
D45B
  8
L1
 10
687.560197
 20
146.861297
 30
0.0
 11
685.060197
 21
146.861297
 31
0.0
  0
LINE
  5
D45C
  8
L1
 10
687.560197
 20
148.861297
 30
0.0
 11
687.560197
 21
145.861297
 31
0.0
  0
ARC
  5
D45D
  8
L1
 10
688.560197
 20
145.861297
 30
0.0
 40
1.0
 50
180.0
 51
270.0
  0
ARC
  5
D45E
  8
L1
 10
684.060197
 20
145.861297
 30
0.0
 40
1.0
 50
270.0
 51
0.0
  0
CIRCLE
  5
D566
  8
L1
 10
924.560189
 20
490.861297
 30
0.0
 40
2.1
  0
CIRCLE
  5
D567
  8
L1
 10
924.560189
 20
490.861297
 30
0.0
 40
2.4
  0
ARC
  5
D569
  8
L1
 10
924.560189
 20
182.861297
 30
0.0
 40
6.0
 50
317.587907
 51
189.395001
  0
CIRCLE
  5
D56B
  8
L1
 10
924.560189
 20
182.861297
 30
0.0
 40
2.1
  0
CIRCLE
  5
D56C
  8
L1
 10
924.560189
 20
182.861297
 30
0.0
 40
2.4
  0
ARC
  5
D56E
  8
L1
 10
414.347006
 20
490.861297
 30
0.0
 40
6.0
 50
83.114447
 51
31.006788
  0
CIRCLE
  5
D570
  8
L1
 10
414.347006
 20
490.861297
 30
0.0
 40
2.1
  0
CIRCLE
  5
D571
  8
L1
 10
414.347006
 20
490.861297
 30
0.0
 40
2.4
  0
ARC
  5
D572
  8
L1
 10
414.347006
 20
182.861297
 30
0.0
 40
6.0
 50
328.993212
 51
276.885553
  0
CIRCLE
  5
D573
  8
L1
 10
414.347006
 20
182.861297
 30
0.0
 40
2.4
  0
CIRCLE
  5
D574
  8
L1
 10
414.347006
 20
182.861297
 30
0.0
 40
2.1
  0
CIRCLE
  5
D57D
  8
L1
 10
944.560189
 20
510.861297
 30
0.0
 40
6.0
  0
CIRCLE
  5
D57F
  8
L1
 10
944.560189
 20
510.861297
 30
0.0
 40
2.1
  0
CIRCLE
  5
D580
  8
L1
 10
944.560189
 20
510.861297
 30
0.0
 40
2.4
  0
CIRCLE
  5
D594
  8
L1
 10
944.560189
 20
162.861297
 30
0.0
 40
6.0
  0
CIRCLE
  5
D596
  8
L1
 10
944.560189
 20
162.861297
 30
0.0
 40
2.1
  0
CIRCLE
  5
D597
  8
L1
 10
944.560189
 20
162.861297
 30
0.0
 40
2.4
  0
CIRCLE
  5
D599
  8
L1
 10
393.866204
 20
162.861297
 30
0.0
 40
6.0
  0
CIRCLE
  5
D59A
  8
L1
 10
393.866204
 20
162.861297
 30
0.0
 40
2.4
  0
CIRCLE
  5
D59B
  8
L1
 10
393.866204
 20
162.861297
 30
0.0
 40
2.1
  0
CIRCLE
  5
D59E
  8
L1
 10
393.866204
 20
510.861297
 30
0.0
 40
6.0
  0
CIRCLE
  5
D5A0
  8
L1
 10
393.866204
 20
510.861297
 30
0.0
 40
2.1
  0
CIRCLE
  5
D5A1
  8
L1
 10
393.866204
 20
510.861297
 30
0.0
 40
2.4
  0
LINE
  5
D625
  8
L1
 10
847.560197
 20
607.473667
 30
0.0
 11
840.560197
 21
607.473667
 31
0.0
  0
LINE
  5
D626
  8
L1
 10
847.560197
 20
607.473667
 30
0.0
 11
848.137547
 21
608.473667
 31
0.0
  0
LINE
  5
D627
  8
L1
 10
840.560197
 20
607.473667
 30
0.0
 11
839.982846
 21
608.473667
 31
0.0
  0
LINE
  5
D628
  8
L1
 10
865.560197
 20
607.473667
 30
0.0
 11
864.982846
 21
608.473667
 31
0.0
  0
LINE
  5
D629
  8
L1
 10
872.560197
 20
607.473667
 30
0.0
 11
873.137547
 21
608.473667
 31
0.0
  0
LINE
  5
D62A
  8
L1
 10
872.560197
 20
607.473667
 30
0.0
 11
865.560197
 21
607.473667
 31
0.0
  0
LINE
  5
D62D
  8
L1
 10
922.560197
 20
607.473667
 30
0.0
 11
915.560197
 21
607.473667
 31
0.0
  0
LINE
  5
D62E
  8
L1
 10
922.560197
 20
607.473667
 30
0.0
 11
923.137547
 21
608.473667
 31
0.0
  0
LINE
  5
D62F
  8
L1
 10
915.560197
 20
607.473667
 30
0.0
 11
914.982846
 21
608.473667
 31
0.0
  0
LINE
  5
D63B
  8
L1
 10
887.796887
 20
607.473667
 30
0.0
 11
887.796887
 21
608.473667
 31
0.0
  0
LINE
  5
D63D
  8
L1
 10
900.332421
 20
607.473667
 30
0.0
 11
900.332421
 21
608.473667
 31
0.0
  0
LINE
  5
D63E
  8
L1
 10
900.332421
 20
607.473667
 30
0.0
 11
887.796887
 21
607.473667
 31
0.0
  0
LINE
  5
D640
  8
L1
 10
938.173263
 20
607.473667
 30
0.0
 11
927.94713
 21
607.473667
 31
0.0
  0
LINE
  5
D641
  8
L1
 10
927.94713
 20
607.473667
 30
0.0
 11
927.36978
 21
608.473667
 31
0.0
  0
LINE
  5
D642
  8
L1
 10
938.173263
 20
607.473667
 30
0.0
 11
938.750613
 21
608.473667
 31
0.0
  0
LINE
  5
D643
  8
L1
 10
438.093972
 20
607.473667
 30
0.0
 11
450.629506
 21
607.473667
 31
0.0
  0
LINE
  5
D644
  8
L1
 10
450.629506
 20
607.473667
 30
0.0
 11
450.629506
 21
608.473667
 31
0.0
  0
LINE
  5
D645
  8
L1
 10
438.093972
 20
607.473667
 30
0.0
 11
438.093972
 21
608.473667
 31
0.0
  0
LINE
  5
D646
  8
L1
 10
400.25313
 20
607.473667
 30
0.0
 11
410.479263
 21
607.473667
 31
0.0
  0
LINE
  5
D647
  8
L1
 10
410.479263
 20
607.473667
 30
0.0
 11
411.056613
 21
608.473667
 31
0.0
  0
LINE
  5
D648
  8
L1
 10
400.25313
 20
607.473667
 30
0.0
 11
399.67578
 21
608.473667
 31
0.0
  0
LINE
  5
D64C
  8
L1
 10
1013.292103
 20
505.940364
 30
0.0
 11
1013.292103
 21
495.748231
 31
0.0
  0
LINE
  5
D64D
  8
L1
 10
1013.292103
 20
505.940364
 30
0.0
 11
1014.292103
 21
506.517714
 31
0.0
  0
LINE
  5
D64F
  8
L1
 10
1013.292103
 20
167.782231
 30
0.0
 11
1013.292103
 21
177.974364
 31
0.0
  0
LINE
  5
D650
  8
L1
 10
1013.292103
 20
177.974364
 30
0.0
 11
1014.292103
 21
178.551714
 31
0.0
  0
LINE
  5
D651
  8
L1
 10
1013.292103
 20
167.782231
 30
0.0
 11
1014.292103
 21
167.20488
 31
0.0
  0
ARC
  5
D667
  8
L1
 10
1869.699138
 20
510.905989
 30
0.0
 40
5.0
 50
131.023871
 51
318.976129
  0
ARC
  5
D669
  8
L1
 10
1869.699138
 20
510.905989
 30
0.0
 40
3.85
 50
129.83334
 51
320.16666
  0
CIRCLE
  5
D66A
  8
L1
 10
1848.867636
 20
490.861297
 30
0.0
 40
3.85
  0
CIRCLE
  5
D66B
  8
L1
 10
1848.867636
 20
490.861297
 30
0.0
 40
5.0
  0
CIRCLE
  5
D66C
  8
L1
 10
1858.154453
 20
500.861297
 30
0.0
 40
5.0
  0
CIRCLE
  5
D66D
  8
L1
 10
1858.154453
 20
500.861297
 30
0.0
 40
3.85
  0
LINE
  5
D66F
  8
L1
 10
1872.655595
 20
508.439846
 30
0.0
 11
1873.734143
 21
507.361297
 31
0.0
  0
ARC
  5
D670
  8
L1
 10
1869.699138
 20
162.816606
 30
0.0
 40
3.85
 50
39.83334
 51
230.16666
  0
ARC
  5
D671
  8
L1
 10
1869.699138
 20
162.816606
 30
0.0
 40
5.0
 50
41.023871
 51
228.976129
  0
CIRCLE
  5
D672
  8
L1
 10
1858.154453
 20
172.861297
 30
0.0
 40
5.0
  0
CIRCLE
  5
D673
  8
L1
 10
1858.154453
 20
172.861297
 30
0.0
 40
3.85
  0
LINE
  5
D67C
  8
L1
 10
1872.655595
 20
165.282749
 30
0.0
 11
1873.734143
 21
166.361297
 31
0.0
  0
CIRCLE
  5
D681
  8
L1
 10
1330.154453
 20
172.861297
 30
0.0
 40
3.85
  0
CIRCLE
  5
D682
  8
L1
 10
1330.154453
 20
172.861297
 30
0.0
 40
5.0
  0
ARC
  5
D685
  8
L1
 10
1318.609769
 20
162.816606
 30
0.0
 40
5.0
 50
311.023871
 51
138.976129
  0
ARC
  5
D686
  8
L1
 10
1318.609769
 20
162.816606
 30
0.0
 40
3.85
 50
309.83334
 51
140.16666
  0
ARC
  5
D689
  8
L1
 10
1318.609769
 20
510.905989
 30
0.0
 40
5.0
 50
221.023871
 51
48.976129
  0
ARC
  5
D68A
  8
L1
 10
1318.609769
 20
510.905989
 30
0.0
 40
3.85
 50
219.83334
 51
50.16666
  0
CIRCLE
  5
D68D
  8
L1
 10
1330.154453
 20
500.861297
 30
0.0
 40
5.0
  0
CIRCLE
  5
D68E
  8
L1
 10
1330.154453
 20
500.861297
 30
0.0
 40
3.85
  0
LINE
  5
D695
  8
L1
 10
1315.653312
 20
508.439846
 30
0.0
 11
1314.574763
 21
507.361297
 31
0.0
  0
LINE
  5
D696
  8
L1
 10
1315.653312
 20
165.282749
 30
0.0
 11
1314.574763
 21
166.361297
 31
0.0
  0
LINE
  5
D698
  8
L1
 10
899.060197
 20
461.204443
 30
0.0
 11
922.939955
 21
485.084201
 31
0.0
  0
LINE
  5
D699
  8
L1
 10
893.403342
 20
466.861297
 30
0.0
 11
918.702537
 21
492.160492
 31
0.0
  0
LINE
  5
D69B
  8
L1
 10
950.337285
 20
512.481532
 30
0.0
 11
952.585323
 21
514.729569
 31
0.0
  0
LINE
  5
D69C
  8
L1
 10
943.260995
 20
516.71895
 30
0.0
 11
946.928469
 21
520.386423
 31
0.0
  0
LINE
  5
D69D
  8
L1
 10
933.560197
 20
507.018151
 30
0.0
 11
938.702537
 21
512.160492
 31
0.0
  0
LINE
  5
D69E
  8
L1
 10
937.217051
 20
499.361297
 30
0.0
 11
942.939955
 21
505.084201
 31
0.0
  0
LINE
  5
D69F
  8
L1
 10
930.337285
 20
492.481532
 30
0.0
 11
933.560197
 21
495.704443
 31
0.0
  0
LINE
  5
D6A1
  8
L1
 10
893.403342
 20
206.861297
 30
0.0
 11
918.702537
 21
181.562103
 31
0.0
  0
LINE
  5
D6A2
  8
L1
 10
899.060197
 20
212.518151
 30
0.0
 11
922.939955
 21
188.638393
 31
0.0
  0
LINE
  5
D6A3
  8
L1
 10
439.060197
 20
461.510443
 30
0.0
 11
415.581063
 21
484.989577
 31
0.0
  0
LINE
  5
D6A4
  8
L1
 10
445.023051
 20
466.861297
 30
0.0
 11
420.303732
 21
491.580616
 31
0.0
  0
LINE
  5
D6B0
  8
L1
 10
950.337285
 20
161.241063
 30
0.0
 11
952.585323
 21
158.993025
 31
0.0
  0
LINE
  5
D6B1
  8
L1
 10
937.217051
 20
174.361297
 30
0.0
 11
942.939955
 21
168.638393
 31
0.0
  0
LINE
  5
D6B2
  8
L1
 10
930.337285
 20
181.241063
 30
0.0
 11
933.560197
 21
178.018151
 31
0.0
  0
LINE
  5
D6B4
  8
L1
 10
933.560197
 20
166.704443
 30
0.0
 11
938.702537
 21
161.562103
 31
0.0
  0
LINE
  5
D6B5
  8
L1
 10
943.260995
 20
157.003645
 30
0.0
 11
946.928469
 21
153.336171
 31
0.0
  0
LINE
  5
D6B6
  8
L1
 10
415.066325
 20
496.818023
 30
0.0
 11
412.29315
 21
499.591198
 31
0.0
  0
LINE
  5
D6B7
  8
L1
 10
404.790098
 20
507.09425
 30
0.0
 11
399.723856
 21
512.160492
 31
0.0
  0
LINE
  5
D6B8
  8
L1
 10
395.165398
 20
516.71895
 30
0.0
 11
391.663998
 21
520.22035
 31
0.0
  0
LINE
  5
D6B9
  8
L1
 10
388.089108
 20
512.481532
 30
0.0
 11
386.15903
 21
514.411609
 31
0.0
  0
LINE
  5
D6BA
  8
L1
 10
400.765516
 20
499.805124
 30
0.0
 11
395.486438
 21
505.084201
 31
0.0
  0
LINE
  5
D6BB
  8
L1
 10
408.475285
 20
492.095354
 30
0.0
 11
405.004023
 21
495.566617
 31
0.0
  0
LINE
  5
D6C7
  8
L1
 10
395.165398
 20
157.003645
 30
0.0
 11
391.663998
 21
153.502244
 31
0.0
  0
LINE
  5
D6C8
  8
L1
 10
388.089108
 20
161.241063
 30
0.0
 11
386.15903
 21
159.310985
 31
0.0
  0
LINE
  5
D6C9
  8
L1
 10
400.765516
 20
173.917471
 30
0.0
 11
395.486438
 21
168.638393
 31
0.0
  0
LINE
  5
D6CA
  8
L1
 10
404.790098
 20
166.628344
 30
0.0
 11
399.723856
 21
161.562103
 31
0.0
  0
LINE
  5
D6CB
  8
L1
 10
415.066325
 20
176.904572
 30
0.0
 11
412.29315
 21
174.131396
 31
0.0
  0
LINE
  5
D6CC
  8
L1
 10
408.475285
 20
181.62724
 30
0.0
 11
405.004023
 21
178.155978
 31
0.0
  0
LINE
  5
D6CD
  8
L1
 10
439.060197
 20
212.212151
 30
0.0
 11
415.581063
 21
188.733018
 31
0.0
  0
LINE
  5
D6CE
  8
L1
 10
445.023051
 20
206.861297
 30
0.0
 11
420.303732
 21
182.141978
 31
0.0
  0
LINE
  5
D754
  8
L1
 10
968.060197
 20
140.361297
 30
0.0
 11
968.060197
 21
336.861297
 31
0.0
  0
ARC
  5
D755
  8
L1
 10
965.560197
 20
140.361297
 30
0.0
 40
2.5
 50
270.0
 51
0.0
  0
LINE
  5
D756
  8
L1
 10
965.560197
 20
137.861297
 30
0.0
 11
668.907189
 21
137.861297
 31
0.0
  0
LINE
  5
D759
  8
L1
 10
669.213197
 20
535.861297
 30
0.0
 11
965.560197
 21
535.861297
 31
0.0
  0
LINE
  5
D75A
  8
L1
 10
968.060197
 20
336.861297
 30
0.0
 11
968.060197
 21
533.361297
 31
0.0
  0
ARC
  5
D75B
  8
L1
 10
965.560197
 20
533.361297
 30
0.0
 40
2.5
 50
0.0
 51
90.0
  0
LINE
  5
D761
  8
L1
 10
382.060197
 20
516.861297
 30
0.0
 11
378.060197
 21
516.861297
 31
0.0
  0
LINE
  5
D762
  8
L1
 10
382.060197
 20
514.361297
 30
0.0
 11
378.060197
 21
514.361297
 31
0.0
  0
ARC
  5
D763
  8
L1
 10
378.060197
 20
517.861297
 30
0.0
 40
1.0
 50
180.0
 51
270.0
  0
ARC
  5
D764
  8
L1
 10
378.060197
 20
513.361297
 30
0.0
 40
1.0
 50
90.0
 51
180.0
  0
LINE
  5
D766
  8
L1
 10
392.560197
 20
144.861297
 30
0.0
 11
669.060189
 21
144.861297
 31
0.0
  0
LINE
  5
D767
  8
L1
 10
383.060197
 20
159.361297
 30
0.0
 11
382.060197
 21
159.361297
 31
0.0
  0
LINE
  5
D769
  8
L1
 10
383.060197
 20
156.861297
 30
0.0
 11
382.060197
 21
156.861297
 31
0.0
  0
ARC
  5
D76A
  8
L1
 10
378.060197
 20
155.861297
 30
0.0
 40
1.0
 50
90.0
 51
180.0
  0
ARC
  5
D76B
  8
L1
 10
378.060197
 20
160.361297
 30
0.0
 40
1.0
 50
180.0
 51
270.0
  0
LINE
  5
D76C
  8
L1
 10
377.060197
 20
146.861297
 30
0.0
 11
377.060197
 21
155.861297
 31
0.0
  0
LINE
  5
D76F
  8
L1
 10
391.560197
 20
524.861297
 30
0.0
 11
391.560197
 21
526.861297
 31
0.0
  0
LINE
  5
D770
  8
L1
 10
389.060197
 20
524.861297
 30
0.0
 11
389.060197
 21
526.861297
 31
0.0
  0
LINE
  5
D771
  8
L1
 10
389.060197
 20
149.861297
 30
0.0
 11
391.560197
 21
149.861297
 31
0.0
  0
LINE
  5
D772
  8
L1
 10
382.060197
 20
156.861297
 30
0.0
 11
378.060197
 21
156.861297
 31
0.0
  0
LINE
  5
D773
  8
L1
 10
382.060197
 20
159.361297
 30
0.0
 11
378.060197
 21
159.361297
 31
0.0
  0
LINE
  5
D774
  8
L1
 10
389.060197
 20
149.861297
 30
0.0
 11
389.060197
 21
145.861297
 31
0.0
  0
LINE
  5
D775
  8
L1
 10
391.560197
 20
149.861297
 30
0.0
 11
391.560197
 21
145.861297
 31
0.0
  0
LINE
  5
D8CC
  8
L1
 10
1295.154453
 20
140.361297
 30
0.0
 11
1295.154453
 21
286.861297
 31
0.0
  0
LINE
  5
D8CD
  8
L1
 10
1297.654453
 20
137.861297
 30
0.0
 11
1594.154453
 21
137.861297
 31
0.0
  0
ARC
  5
D8CE
  8
L1
 10
1297.654453
 20
140.361297
 30
0.0
 40
2.5
 50
180.0
 51
270.0
  0
LINE
  5
D8CF
  8
L1
 10
1594.154453
 20
535.861297
 30
0.0
 11
1297.654453
 21
535.861297
 31
0.0
  0
LINE
  5
D8D0
  8
L1
 10
1295.154453
 20
286.861297
 30
0.0
 11
1295.154453
 21
533.361297
 31
0.0
  0
ARC
  5
D8D1
  8
L1
 10
1297.654453
 20
533.361297
 30
0.0
 40
2.5
 50
90.0
 51
180.0
  0
LINE
  5
D8D2
  8
L1
 10
1594.154453
 20
535.861297
 30
0.0
 11
1890.654453
 21
535.861297
 31
0.0
  0
LINE
  5
D8D3
  8
L1
 10
1893.154453
 20
286.861297
 30
0.0
 11
1893.154453
 21
533.361297
 31
0.0
  0
ARC
  5
D8D4
  8
L1
 10
1890.654453
 20
533.361297
 30
0.0
 40
2.5
 50
0.0
 51
90.0
  0
LINE
  5
D8D5
  8
L1
 10
1893.154453
 20
140.361297
 30
0.0
 11
1893.154453
 21
286.861297
 31
0.0
  0
LINE
  5
D8D6
  8
L1
 10
1890.654453
 20
137.861297
 30
0.0
 11
1594.154453
 21
137.861297
 31
0.0
  0
ARC
  5
D8D7
  8
L1
 10
1890.654453
 20
140.361297
 30
0.0
 40
2.5
 50
270.0
 51
360.0
  0
CIRCLE
  5
E124
  8
L1
 10
1604.154453
 20
186.861297
 30
0.0
 40
4.65
  0
CIRCLE
  5
E125
  8
L1
 10
1604.154453
 20
186.861297
 30
0.0
 40
3.5
  0
CIRCLE
  5
E127
  8
L1
 10
1604.154453
 20
236.861297
 30
0.0
 40
3.5
  0
CIRCLE
  5
E128
  8
L1
 10
1604.154453
 20
236.861297
 30
0.0
 40
4.65
  0
ARC
  5
E12B
  8
L1
 10
1604.154453
 20
286.861297
 30
0.0
 40
3.5
 50
180.0
 51
0.0
  0
ARC
  5
E12E
  8
L1
 10
1604.154453
 20
286.861297
 30
0.0
 40
3.5
 50
0.0
 51
180.0
  0
ARC
  5
E131
  8
L1
 10
1604.154453
 20
336.861297
 30
0.0
 40
3.5
 50
180.0
 51
0.0
  0
ARC
  5
E132
  8
L1
 10
1604.154453
 20
336.861297
 30
0.0
 40
3.5
 50
0.0
 51
180.0
  0
ARC
  5
E133
  8
L1
 10
1604.154453
 20
286.861297
 30
0.0
 40
4.65
 50
180.0
 51
0.0
  0
ARC
  5
E134
  8
L1
 10
1604.154453
 20
286.861297
 30
0.0
 40
4.65
 50
0.0
 51
180.0
  0
ARC
  5
E135
  8
L1
 10
1604.154453
 20
336.861297
 30
0.0
 40
4.65
 50
180.0
 51
0.0
  0
ARC
  5
E136
  8
L1
 10
1604.154453
 20
336.861297
 30
0.0
 40
4.65
 50
0.0
 51
180.0
  0
ARC
  5
E139
  8
L1
 10
1604.154453
 20
386.861297
 30
0.0
 40
4.65
 50
180.0
 51
0.0
  0
ARC
  5
E13B
  8
L1
 10
1604.154453
 20
386.861297
 30
0.0
 40
4.65
 50
0.0
 51
180.0
  0
ARC
  5
E13D
  8
L1
 10
1604.154453
 20
386.861297
 30
0.0
 40
3.5
 50
0.0
 51
180.0
  0
ARC
  5
E13E
  8
L1
 10
1604.154453
 20
386.861297
 30
0.0
 40
3.5
 50
180.0
 51
0.0
  0
ARC
  5
E13F
  8
L1
 10
1604.154453
 20
436.861297
 30
0.0
 40
4.65
 50
180.0
 51
0.0
  0
ARC
  5
E143
  8
L1
 10
1604.154453
 20
436.861297
 30
0.0
 40
4.65
 50
0.0
 51
180.0
  0
ARC
  5
E144
  8
L1
 10
1604.154453
 20
436.861297
 30
0.0
 40
3.5
 50
0.0
 51
180.0
  0
ARC
  5
E145
  8
L1
 10
1604.154453
 20
436.861297
 30
0.0
 40
3.5
 50
180.0
 51
0.0
  0
CIRCLE
  5
E146
  8
L1
 10
1604.154453
 20
486.861297
 30
0.0
 40
4.65
  0
CIRCLE
  5
E147
  8
L1
 10
1604.154453
 20
486.861297
 30
0.0
 40
3.5
  0
CIRCLE
  5
E14B
  8
L1
 10
1584.154453
 20
486.861297
 30
0.0
 40
3.5
  0
CIRCLE
  5
E14C
  8
L1
 10
1584.154453
 20
486.861297
 30
0.0
 40
4.65
  0
ARC
  5
E14E
  8
L1
 10
1584.154453
 20
336.861297
 30
0.0
 40
4.65
 50
180.0
 51
0.0
  0
ARC
  5
E14F
  8
L1
 10
1584.154453
 20
336.861297
 30
0.0
 40
3.5
 50
180.0
 51
0.0
  0
ARC
  5
E154
  8
L1
 10
1584.154453
 20
336.861297
 30
0.0
 40
3.5
 50
0.0
 51
180.0
  0
ARC
  5
E155
  8
L1
 10
1584.154453
 20
336.861297
 30
0.0
 40
4.65
 50
0.0
 51
180.0
  0
CIRCLE
  5
E156
  8
L1
 10
1584.154453
 20
186.861297
 30
0.0
 40
3.5
  0
CIRCLE
  5
E157
  8
L1
 10
1584.154453
 20
186.861297
 30
0.0
 40
4.65
  0
CIRCLE
  5
E1FF
  8
L1
 10
679.060197
 20
486.861297
 30
0.0
 40
2.4
  0
CIRCLE
  5
E200
  8
L1
 10
679.060197
 20
486.861297
 30
0.0
 40
2.1
  0
ARC
  5
E202
  8
L1
 10
679.060197
 20
486.861297
 30
0.0
 40
5.0
 50
98.626927
 51
261.373073
  0
LINE
  5
E203
  8
L1
 10
678.310197
 20
476.861297
 30
0.0
 11
679.810197
 21
476.861297
 31
0.0
  0
LINE
  5
E207
  8
L1
 10
679.810197
 20
476.861297
 30
0.0
 11
679.810197
 21
481.917867
 31
0.0
  0
LINE
  5
E208
  8
L1
 10
678.310197
 20
481.917867
 30
0.0
 11
678.310197
 21
476.861297
 31
0.0
  0
LINE
  5
E209
  8
L1
 10
679.810197
 20
496.861297
 30
0.0
 11
679.810197
 21
491.804727
 31
0.0
  0
LINE
  5
E20A
  8
L1
 10
678.310197
 20
491.804727
 30
0.0
 11
678.310197
 21
496.861297
 31
0.0
  0
ARC
  5
E20B
  8
L1
 10
679.060197
 20
336.861297
 30
0.0
 40
5.0
 50
278.626927
 51
81.373073
  0
LINE
  5
E20D
  8
L1
 10
678.310197
 20
326.861297
 30
0.0
 11
679.810197
 21
326.861297
 31
0.0
  0
LINE
  5
E20E
  8
L1
 10
679.810197
 20
326.861297
 30
0.0
 11
679.810197
 21
331.917867
 31
0.0
  0
LINE
  5
E20F
  8
L1
 10
678.310197
 20
331.917867
 30
0.0
 11
678.310197
 21
326.861297
 31
0.0
  0
CIRCLE
  5
E210
  8
L1
 10
679.060197
 20
336.861297
 30
0.0
 40
2.4
  0
CIRCLE
  5
E211
  8
L1
 10
679.060197
 20
336.861297
 30
0.0
 40
2.1
  0
LINE
  5
E212
  8
L1
 10
678.310197
 20
346.861297
 30
0.0
 11
679.810197
 21
346.861297
 31
0.0
  0
LINE
  5
E213
  8
L1
 10
679.810197
 20
346.861297
 30
0.0
 11
679.810197
 21
341.804727
 31
0.0
  0
LINE
  5
E214
  8
L1
 10
678.310197
 20
341.804727
 30
0.0
 11
678.310197
 21
346.861297
 31
0.0
  0
ARC
  5
E215
  8
L1
 10
679.060197
 20
336.861297
 30
0.0
 40
5.0
 50
98.626927
 51
261.373073
  0
ARC
  5
E216
  8
L1
 10
679.060197
 20
186.861297
 30
0.0
 40
5.0
 50
98.626927
 51
261.373073
  0
CIRCLE
  5
E218
  8
L1
 10
679.060197
 20
186.861297
 30
0.0
 40
2.1
  0
CIRCLE
  5
E219
  8
L1
 10
679.060197
 20
186.861297
 30
0.0
 40
2.4
  0
LINE
  5
E21A
  8
L1
 10
678.310197
 20
176.861297
 30
0.0
 11
679.810197
 21
176.861297
 31
0.0
  0
LINE
  5
E21B
  8
L1
 10
678.310197
 20
181.917867
 30
0.0
 11
678.310197
 21
176.861297
 31
0.0
  0
LINE
  5
E21C
  8
L1
 10
679.810197
 20
176.861297
 30
0.0
 11
679.810197
 21
181.917867
 31
0.0
  0
LINE
  5
E21D
  8
L1
 10
678.310197
 20
196.861297
 30
0.0
 11
679.810197
 21
196.861297
 31
0.0
  0
LINE
  5
E21E
  8
L1
 10
679.810197
 20
196.861297
 30
0.0
 11
679.810197
 21
191.804727
 31
0.0
  0
LINE
  5
E21F
  8
L1
 10
678.310197
 20
191.804727
 30
0.0
 11
678.310197
 21
196.861297
 31
0.0
  0
ARC
  5
E220
  8
L1
 10
659.060197
 20
186.861297
 30
0.0
 40
5.0
 50
98.626927
 51
261.373073
  0
ARC
  5
E221
  8
L1
 10
659.060197
 20
186.861297
 30
0.0
 40
5.0
 50
278.626927
 51
81.373073
  0
CIRCLE
  5
E222
  8
L1
 10
659.060197
 20
186.861297
 30
0.0
 40
2.1
  0
CIRCLE
  5
E223
  8
L1
 10
659.060197
 20
186.861297
 30
0.0
 40
2.4
  0
LINE
  5
E224
  8
L1
 10
658.310197
 20
176.861297
 30
0.0
 11
659.810197
 21
176.861297
 31
0.0
  0
LINE
  5
E225
  8
L1
 10
658.310197
 20
181.917867
 30
0.0
 11
658.310197
 21
176.861297
 31
0.0
  0
LINE
  5
E226
  8
L1
 10
659.810197
 20
176.861297
 30
0.0
 11
659.810197
 21
181.917867
 31
0.0
  0
LINE
  5
E227
  8
L1
 10
658.310197
 20
191.804727
 30
0.0
 11
658.310197
 21
196.861297
 31
0.0
  0
LINE
  5
E228
  8
L1
 10
659.810197
 20
196.861297
 30
0.0
 11
659.810197
 21
191.804727
 31
0.0
  0
LINE
  5
E229
  8
L1
 10
658.310197
 20
196.861297
 30
0.0
 11
659.810197
 21
196.861297
 31
0.0
  0
ARC
  5
E22B
  8
L1
 10
659.060197
 20
236.861297
 30
0.0
 40
5.0
 50
98.626927
 51
261.373073
  0
ARC
  5
E22C
  8
L1
 10
659.060197
 20
236.861297
 30
0.0
 40
5.0
 50
278.626927
 51
81.373073
  0
LINE
  5
E22E
  8
L1
 10
658.310197
 20
226.861297
 30
0.0
 11
659.810197
 21
226.861297
 31
0.0
  0
LINE
  5
E22F
  8
L1
 10
659.810197
 20
226.861297
 30
0.0
 11
659.810197
 21
231.917867
 31
0.0
  0
LINE
  5
E230
  8
L1
 10
658.310197
 20
231.917867
 30
0.0
 11
658.310197
 21
226.861297
 31
0.0
  0
CIRCLE
  5
E231
  8
L1
 10
659.060197
 20
236.861297
 30
0.0
 40
2.4
  0
CIRCLE
  5
E232
  8
L1
 10
659.060197
 20
236.861297
 30
0.0
 40
2.1
  0
LINE
  5
E233
  8
L1
 10
658.310197
 20
246.861297
 30
0.0
 11
659.810197
 21
246.861297
 31
0.0
  0
LINE
  5
E234
  8
L1
 10
659.810197
 20
246.861297
 30
0.0
 11
659.810197
 21
241.804727
 31
0.0
  0
LINE
  5
E235
  8
L1
 10
658.310197
 20
241.804727
 30
0.0
 11
658.310197
 21
246.861297
 31
0.0
  0
ARC
  5
E236
  8
L1
 10
659.060197
 20
286.861297
 30
0.0
 40
5.0
 50
98.626927
 51
261.373073
  0
ARC
  5
E237
  8
L1
 10
659.060197
 20
286.861297
 30
0.0
 40
5.0
 50
278.626927
 51
81.373073
  0
LINE
  5
E239
  8
L1
 10
658.310197
 20
281.917867
 30
0.0
 11
658.310197
 21
276.861297
 31
0.0
  0
LINE
  5
E23A
  8
L1
 10
659.810197
 20
276.861297
 30
0.0
 11
659.810197
 21
281.917867
 31
0.0
  0
LINE
  5
E23B
  8
L1
 10
658.310197
 20
276.861297
 30
0.0
 11
659.810197
 21
276.861297
 31
0.0
  0
CIRCLE
  5
E23D
  8
L1
 10
659.060197
 20
286.861297
 30
0.0
 40
2.1
  0
CIRCLE
  5
E23E
  8
L1
 10
659.060197
 20
286.861297
 30
0.0
 40
2.4
  0
LINE
  5
E23F
  8
L1
 10
658.310197
 20
291.804727
 30
0.0
 11
658.310197
 21
296.861297
 31
0.0
  0
LINE
  5
E240
  8
L1
 10
659.810197
 20
296.861297
 30
0.0
 11
659.810197
 21
291.804727
 31
0.0
  0
LINE
  5
E241
  8
L1
 10
658.310197
 20
296.861297
 30
0.0
 11
659.810197
 21
296.861297
 31
0.0
  0
ARC
  5
E242
  8
L1
 10
659.060197
 20
336.861297
 30
0.0
 40
5.0
 50
98.626927
 51
261.373073
  0
ARC
  5
E244
  8
L1
 10
659.060197
 20
336.861297
 30
0.0
 40
5.0
 50
278.626927
 51
81.373073
  0
LINE
  5
E245
  8
L1
 10
658.310197
 20
326.861297
 30
0.0
 11
659.810197
 21
326.861297
 31
0.0
  0
LINE
  5
E246
  8
L1
 10
659.810197
 20
326.861297
 30
0.0
 11
659.810197
 21
331.917867
 31
0.0
  0
LINE
  5
E247
  8
L1
 10
658.310197
 20
331.917867
 30
0.0
 11
658.310197
 21
326.861297
 31
0.0
  0
CIRCLE
  5
E249
  8
L1
 10
659.060197
 20
336.861297
 30
0.0
 40
2.4
  0
CIRCLE
  5
E24A
  8
L1
 10
659.060197
 20
336.861297
 30
0.0
 40
2.1
  0
LINE
  5
E24B
  8
L1
 10
659.810197
 20
346.861297
 30
0.0
 11
659.810197
 21
341.804727
 31
0.0
  0
LINE
  5
E24C
  8
L1
 10
658.310197
 20
341.804727
 30
0.0
 11
658.310197
 21
346.861297
 31
0.0
  0
LINE
  5
E24D
  8
L1
 10
658.310197
 20
346.861297
 30
0.0
 11
659.810197
 21
346.861297
 31
0.0
  0
ARC
  5
E24E
  8
L1
 10
659.060197
 20
386.861297
 30
0.0
 40
5.0
 50
98.626927
 51
261.373073
  0
ARC
  5
E250
  8
L1
 10
659.060197
 20
386.861297
 30
0.0
 40
5.0
 50
278.626927
 51
81.373073
  0
CIRCLE
  5
E251
  8
L1
 10
659.060197
 20
386.861297
 30
0.0
 40
2.4
  0
LINE
  5
E252
  8
L1
 10
658.310197
 20
381.917867
 30
0.0
 11
658.310197
 21
376.861297
 31
0.0
  0
LINE
  5
E253
  8
L1
 10
659.810197
 20
376.861297
 30
0.0
 11
659.810197
 21
381.917867
 31
0.0
  0
LINE
  5
E254
  8
L1
 10
658.310197
 20
376.861297
 30
0.0
 11
659.810197
 21
376.861297
 31
0.0
  0
CIRCLE
  5
E255
  8
L1
 10
659.060197
 20
386.861297
 30
0.0
 40
2.1
  0
LINE
  5
E256
  8
L1
 10
658.310197
 20
396.861297
 30
0.0
 11
659.810197
 21
396.861297
 31
0.0
  0
LINE
  5
E257
  8
L1
 10
658.310197
 20
391.804727
 30
0.0
 11
658.310197
 21
396.861297
 31
0.0
  0
LINE
  5
E258
  8
L1
 10
659.810197
 20
396.861297
 30
0.0
 11
659.810197
 21
391.804727
 31
0.0
  0
ARC
  5
E259
  8
L1
 10
659.060197
 20
436.861297
 30
0.0
 40
5.0
 50
98.626927
 51
261.373073
  0
CIRCLE
  5
E25B
  8
L1
 10
659.060197
 20
436.861297
 30
0.0
 40
2.1
  0
ARC
  5
E25C
  8
L1
 10
659.060197
 20
436.861297
 30
0.0
 40
5.0
 50
278.626927
 51
81.373073
  0
CIRCLE
  5
E25D
  8
L1
 10
659.060197
 20
436.861297
 30
0.0
 40
2.4
  0
LINE
  5
E25E
  8
L1
 10
658.310197
 20
426.861297
 30
0.0
 11
659.810197
 21
426.861297
 31
0.0
  0
LINE
  5
E25F
  8
L1
 10
658.310197
 20
431.917867
 30
0.0
 11
658.310197
 21
426.861297
 31
0.0
  0
LINE
  5
E260
  8
L1
 10
659.810197
 20
426.861297
 30
0.0
 11
659.810197
 21
431.917867
 31
0.0
  0
LINE
  5
E262
  8
L1
 10
658.310197
 20
446.861297
 30
0.0
 11
659.810197
 21
446.861297
 31
0.0
  0
LINE
  5
E263
  8
L1
 10
658.310197
 20
441.804727
 30
0.0
 11
658.310197
 21
446.861297
 31
0.0
  0
LINE
  5
E264
  8
L1
 10
659.810197
 20
446.861297
 30
0.0
 11
659.810197
 21
441.804727
 31
0.0
  0
ARC
  5
E265
  8
L1
 10
659.060197
 20
486.861297
 30
0.0
 40
5.0
 50
98.626927
 51
261.373073
  0
ARC
  5
E267
  8
L1
 10
659.060197
 20
486.861297
 30
0.0
 40
5.0
 50
278.626927
 51
81.373073
  0
CIRCLE
  5
E268
  8
L1
 10
659.060197
 20
486.861297
 30
0.0
 40
2.1
  0
CIRCLE
  5
E269
  8
L1
 10
659.060197
 20
486.861297
 30
0.0
 40
2.4
  0
LINE
  5
E26B
  8
L1
 10
658.310197
 20
476.861297
 30
0.0
 11
659.810197
 21
476.861297
 31
0.0
  0
LINE
  5
E26C
  8
L1
 10
658.310197
 20
481.917867
 30
0.0
 11
658.310197
 21
476.861297
 31
0.0
  0
LINE
  5
E26D
  8
L1
 10
659.810197
 20
476.861297
 30
0.0
 11
659.810197
 21
481.917867
 31
0.0
  0
LINE
  5
E26F
  8
L1
 10
658.310197
 20
491.804727
 30
0.0
 11
658.310197
 21
496.861297
 31
0.0
  0
LINE
  5
E270
  8
L1
 10
659.810197
 20
496.861297
 30
0.0
 11
659.810197
 21
491.804727
 31
0.0
  0
LINE
  5
E271
  8
L1
 10
658.310197
 20
496.861297
 30
0.0
 11
659.810197
 21
496.861297
 31
0.0
  0
ARC
  5
E272
  8
L1
 10
679.060197
 20
486.861297
 30
0.0
 40
5.0
 50
278.626927
 51
81.373073
  0
ARC
  5
E27E
  8
L1
 10
679.060197
 20
186.861297
 30
0.0
 40
5.0
 50
278.626927
 51
81.373073
  0
ARC
  5
E300
  8
L1
 10
421.560197
 20
501.361297
 30
0.0
 40
6.0
 50
260.017376
 51
211.006788
  0
ARC
  5
E301
  8
L1
 10
421.560197
 20
172.361297
 30
0.0
 40
6.0
 50
148.993212
 51
99.982624
  0
CIRCLE
  5
E302
  8
L1
 10
421.560197
 20
501.361297
 30
0.0
 40
2.4
  0
CIRCLE
  5
E303
  8
L1
 10
421.560197
 20
501.361297
 30
0.0
 40
2.1
  0
CIRCLE
  5
E306
  8
L1
 10
421.560197
 20
172.361297
 30
0.0
 40
2.4
  0
CIRCLE
  5
E307
  8
L1
 10
421.560197
 20
172.361297
 30
0.0
 40
2.1
  0
ARC
  5
E30C
  8
L1
 10
414.347006
 20
182.861297
 30
0.0
 40
6.0
 50
276.885553
 51
279.982624
  0
ARC
  5
E311
  8
L1
 10
414.347006
 20
490.861297
 30
0.0
 40
6.0
 50
80.017376
 51
83.114447
  0
ARC
  5
E33C
  8
L1
 10
926.761162
 20
176.745276
 30
0.0
 40
0.5
 50
317.587907
 51
109.792283
  0
ARC
  5
E33D
  8
L1
 10
929.359224
 20
178.477319
 30
0.0
 40
0.5
 50
137.587907
 51
289.792283
  0
ARC
  5
E343
  8
L1
 10
406.560197
 20
501.361297
 30
0.0
 40
6.0
 50
254.967775
 51
342.841475
  0
ARC
  5
E344
  8
L1
 10
420.34675
 20
494.467275
 30
0.0
 40
1.0
 50
80.017376
 51
211.006788
  0
ARC
  5
E345
  8
L1
 10
415.560453
 20
497.75532
 30
0.0
 40
1.0
 50
260.017376
 51
31.006788
  0
ARC
  5
E346
  8
L1
 10
415.560453
 20
175.967275
 30
0.0
 40
1.0
 50
328.993212
 51
99.982624
  0
ARC
  5
E347
  8
L1
 10
420.34675
 20
179.25532
 30
0.0
 40
1.0
 50
148.993212
 51
279.982624
  0
ARC
  5
E348
  8
L1
 10
406.560197
 20
172.361297
 30
0.0
 40
6.0
 50
105.032225
 51
17.158525
  0
ARC
  5
E3B4
  8
L1
 10
919.060197
 20
498.861297
 30
0.0
 40
6.0
 50
350.604999
 51
0.0
  0
CIRCLE
  5
E3B5
  8
L1
 10
919.060197
 20
498.861297
 30
0.0
 40
2.4
  0
CIRCLE
  5
E3B6
  8
L1
 10
919.060197
 20
498.861297
 30
0.0
 40
2.1
  0
ARC
  5
E3BE
  8
L1
 10
924.560189
 20
490.861297
 30
0.0
 40
6.0
 50
170.604999
 51
42.412093
  0
ARC
  5
E3BF
  8
L1
 10
917.654084
 20
492.003976
 30
0.0
 40
1.0
 50
350.604999
 51
78.411976
  0
ARC
  5
E3C0
  8
L1
 10
925.966301
 20
497.718618
 30
0.0
 40
1.0
 50
170.604999
 51
258.411976
  0
ARC
  5
E3C1
  8
L1
 10
924.560189
 20
490.861297
 30
0.0
 40
6.0
 50
70.207717
 51
78.411976
  0
ARC
  5
E3C2
  8
L1
 10
926.761162
 20
496.977319
 30
0.0
 40
0.5
 50
250.207717
 51
42.412093
  0
ARC
  5
E3C3
  8
L1
 10
929.359224
 20
495.245276
 30
0.0
 40
0.5
 50
70.207717
 51
222.412093
  0
ARC
  5
E3C4
  8
L1
 10
931.560197
 20
501.361297
 30
0.0
 40
6.0
 50
202.619865
 51
222.412093
  0
ARC
  5
E3C7
  8
L1
 10
919.060197
 20
498.861297
 30
0.0
 40
6.0
 50
22.619865
 51
258.411976
  0
ARC
  5
E3CE
  8
L1
 10
925.560197
 20
498.861297
 30
0.0
 40
0.5
 50
22.619865
 51
180.0
  0
ARC
  5
E3CF
  8
L1
 10
925.060197
 20
501.361297
 30
0.0
 40
0.5
 50
202.619865
 51
0.0
  0
ARC
  5
E3D9
  8
L1
 10
925.560197
 20
174.861297
 30
0.0
 40
0.5
 50
180.0
 51
337.380135
  0
ARC
  5
E3DA
  8
L1
 10
919.060197
 20
174.861297
 30
0.0
 40
6.0
 50
360.0
 51
9.395001
  0
ARC
  5
E3DB
  8
L1
 10
931.560197
 20
172.361297
 30
0.0
 40
6.0
 50
137.587907
 51
157.380135
  0
ARC
  5
E3DC
  8
L1
 10
926.761162
 20
176.745276
 30
0.0
 40
0.5
 50
317.587907
 51
109.792283
  0
ARC
  5
E3DD
  8
L1
 10
924.560189
 20
182.861297
 30
0.0
 40
6.0
 50
281.588024
 51
289.792283
  0
ARC
  5
E3DE
  8
L1
 10
925.966301
 20
176.003976
 30
0.0
 40
1.0
 50
101.588024
 51
189.395001
  0
ARC
  5
E3DF
  8
L1
 10
925.060197
 20
172.361297
 30
0.0
 40
0.5
 50
360.0
 51
157.380135
  0
ARC
  5
E3E0
  8
L1
 10
919.060197
 20
174.861297
 30
0.0
 40
6.0
 50
101.588024
 51
337.380135
  0
CIRCLE
  5
E3E1
  8
L1
 10
919.060197
 20
174.861297
 30
0.0
 40
2.4
  0
CIRCLE
  5
E3E3
  8
L1
 10
919.060197
 20
174.861297
 30
0.0
 40
2.1
  0
ARC
  5
E3E5
  8
L1
 10
931.560197
 20
172.361297
 30
0.0
 40
6.0
 50
180.0
 51
109.792283
  0
ARC
  5
E3E6
  8
L1
 10
917.654084
 20
181.718618
 30
0.0
 40
1.0
 50
281.588024
 51
9.395001
  0
ARC
  5
E3E7
  8
L1
 10
924.560189
 20
182.861297
 30
0.0
 40
6.0
 50
281.588024
 51
289.792283
  0
CIRCLE
  5
E496
  8
L1
 10
1841.654446
 20
501.361297
 30
0.0
 40
5.0
  0
CIRCLE
  5
E497
  8
L1
 10
1841.654446
 20
501.361297
 30
0.0
 40
3.85
  0
CIRCLE
  5
E498
  8
L1
 10
1794.154446
 20
486.861297
 30
0.0
 40
5.0
  0
CIRCLE
  5
E499
  8
L1
 10
1794.154446
 20
486.861297
 30
0.0
 40
3.85
  0
ARC
  5
E49C
  8
L1
 10
1338.654453
 20
490.861297
 30
0.0
 40
5.0
 50
69.36585
 51
41.617174
  0
CIRCLE
  5
E49D
  8
L1
 10
1338.654453
 20
490.861297
 30
0.0
 40
3.85
  0
ARC
  5
E49E
  8
L1
 10
1344.154446
 20
498.861297
 30
0.0
 40
5.0
 50
249.36585
 51
221.617174
  0
CIRCLE
  5
E49F
  8
L1
 10
1344.154446
 20
498.861297
 30
0.0
 40
3.85
  0
ARC
  5
E4A2
  8
L1
 10
1344.154446
 20
174.861297
 30
0.0
 40
5.0
 50
138.382826
 51
110.63415
  0
CIRCLE
  5
E4A3
  8
L1
 10
1344.154446
 20
174.861297
 30
0.0
 40
3.85
  0
ARC
  5
E4A6
  8
L1
 10
1338.654453
 20
182.861297
 30
0.0
 40
5.0
 50
318.382826
 51
290.63415
  0
CIRCLE
  5
E4A7
  8
L1
 10
1338.654453
 20
182.861297
 30
0.0
 40
3.85
  0
CIRCLE
  5
E4AA
  8
L1
 10
1848.867636
 20
182.861297
 30
0.0
 40
5.0
  0
CIRCLE
  5
E4AB
  8
L1
 10
1848.867636
 20
182.861297
 30
0.0
 40
3.85
  0
CIRCLE
  5
E4AE
  8
L1
 10
1841.654446
 20
172.361297
 30
0.0
 40
5.0
  0
CIRCLE
  5
E4AF
  8
L1
 10
1841.654446
 20
172.361297
 30
0.0
 40
3.85
  0
LINE
  5
E4B3
  8
L1
 10
873.060197
 20
466.861297
 30
0.0
 11
893.403342
 21
466.861297
 31
0.0
  0
LINE
  5
E4B4
  8
L1
 10
823.060197
 20
466.861297
 30
0.0
 11
865.060197
 21
466.861297
 31
0.0
  0
LINE
  5
E4B5
  8
L1
 10
899.060197
 20
440.861297
 30
0.0
 11
899.060197
 21
461.204443
 31
0.0
  0
LINE
  5
E4B6
  8
L1
 10
439.060197
 20
440.861297
 30
0.0
 11
392.060197
 21
440.861297
 31
0.0
  0
LINE
  5
E4B7
  8
L1
 10
439.060197
 20
432.861297
 30
0.0
 11
392.060197
 21
432.861297
 31
0.0
  0
LINE
  5
E4B8
  8
L1
 10
386.060197
 20
440.861297
 30
0.0
 11
378.160197
 21
440.861297
 31
0.0
  0
LINE
  5
E4B9
  8
L1
 10
386.060197
 20
432.861297
 30
0.0
 11
378.160197
 21
432.861297
 31
0.0
  0
LINE
  5
E4BA
  8
L1
 10
439.060197
 20
440.861297
 30
0.0
 11
439.060197
 21
461.510443
 31
0.0
  0
INSERT
  5
12B8B
  8
AME_FRZ
  2
AME_NIL
 10
-875.571786
 20
-40.58876
 30
0.0
  0
INSERT
  5
12B8C
  8
AME_FRZ
  2
AME_SOL
 10
-875.571786
 20
-40.58876
 30
0.0
1001
AME_SOL
1000
R2.1
1000
AME2
1000
sq cm
1070
     3
1070
     0
1070
     3
1000
wire
1040
45.0
1000
U
1040
1.0
1000
cm
1000
gm
1000
MILD_STEEL
1070
    25
1000
CSG
1070
     1
1070
     3
1070
     3
1070
     3
1070
     0
1000
cu cm
1070
     1
1070
     0
1005
12B8B
  0
INSERT
  5
12B8D
  8
L32
  2
GEOTOL
 10
-194.52142
 20
532.513432
 30
0.0
  0
INSERT
  5
12B8E
  8
AME_FRZ
  2
AME_NIL
 10
200.004459
 20
-1184.969406
 30
0.0
  0
INSERT
  5
12B8F
  8
AME_FRZ
  2
AME_SOL
 10
200.004459
 20
-1184.969406
 30
0.0
1001
AME_SOL
1000
R2.1
1000
AME2
1000
sq cm
1070
     3
1070
     0
1070
     3
1000
wire
1040
45.0
1000
U
1040
1.0
1000
cm
1000
gm
1000
MILD_STEEL
1070
    25
1000
CSG
1070
     1
1070
     3
1070
     3
1070
     3
1070
     0
1000
cu cm
1070
     1
1070
     0
1005
12B8E
  0
INSERT
  5
12B90
  8
L32
  2
GEOTOL
 10
881.054825
 20
-611.867214
 30
0.0
  0
INSERT
  5
12B91
  8
AME_FRZ
  2
AME_NIL
 10
2779.696821
 20
260.894844
 30
0.0
  0
INSERT
  5
12B92
  8
AME_FRZ
  2
AME_SOL
 10
2779.696821
 20
260.894844
 30
0.0
1001
AME_SOL
1000
R2.1
1000
AME2
1000
sq cm
1070
     3
1070
     0
1070
     3
1000
wire
1040
45.0
1000
U
1040
1.0
1000
cm
1000
gm
1000
MILD_STEEL
1070
    25
1000
CSG
1070
     1
1070
     3
1070
     3
1070
     3
1070
     0
1000
cu cm
1070
     1
1070
     0
1005
12B91
  0
INSERT
  5
13227
  8
AME_FRZ
  2
AME_NIL
 10
401.406596
 20
-20.893938
 30
0.0
  0
INSERT
  5
13228
  8
AME_FRZ
  2
AME_SOL
 10
401.406596
 20
-20.893938
 30
0.0
1001
AME_SOL
1000
R2.1
1000
AME2
1000
sq cm
1070
     3
1070
     0
1070
     3
1000
wire
1040
45.0
1000
U
1040
1.0
1000
cm
1000
gm
1000
MILD_STEEL
1070
    25
1000
CSG
1070
     1
1070
     3
1070
     3
1070
     3
1070
     0
1000
cu cm
1070
     1
1070
     0
1005
13227
  0
INSERT
  5
13229
  8
L32
  2
GEOTOL
 10
1082.456963
 20
552.208254
 30
0.0
  0
INSERT
  5
13D23
  8
AME_FRZ
  2
AME_NIL
 10
-835.067755
 20
826.119601
 30
0.0
  0
INSERT
  5
13D24
  8
AME_FRZ
  2
AME_SOL
 10
-835.067755
 20
826.119601
 30
0.0
1001
AME_SOL
1000
R2.1
1000
AME2
1000
sq cm
1070
     3
1070
     0
1070
     3
1000
wire
1040
45.0
1000
U
1040
1.0
1000
cm
1000
gm
1000
MILD_STEEL
1070
    25
1000
CSG
1070
     1
1070
     3
1070
     3
1070
     3
1070
     0
1000
cu cm
1070
     1
1070
     0
1005
13D23
  0
INSERT
  5
13D25
  8
L32
  2
GEOTOL
 10
-154.017389
 20
1399.221794
 30
0.0
  0
INSERT
  5
13D26
  8
AME_FRZ
  2
AME_NIL
 10
240.50849
 20
-318.261045
 30
0.0
  0
INSERT
  5
13D27
  8
AME_FRZ
  2
AME_SOL
 10
240.50849
 20
-318.261045
 30
0.0
1001
AME_SOL
1000
R2.1
1000
AME2
1000
sq cm
1070
     3
1070
     0
1070
     3
1000
wire
1040
45.0
1000
U
1040
1.0
1000
cm
1000
gm
1000
MILD_STEEL
1070
    25
1000
CSG
1070
     1
1070
     3
1070
     3
1070
     3
1070
     0
1000
cu cm
1070
     1
1070
     0
1005
13D26
  0
INSERT
  5
13D28
  8
L32
  2
GEOTOL
 10
921.558856
 20
254.841148
 30
0.0
  0
INSERT
  5
13D29
  8
AME_FRZ
  2
AME_NIL
 10
2820.200852
 20
1127.603205
 30
0.0
  0
INSERT
  5
13D2A
  8
AME_FRZ
  2
AME_SOL
 10
2820.200852
 20
1127.603205
 30
0.0
1001
AME_SOL
1000
R2.1
1000
AME2
1000
sq cm
1070
     3
1070
     0
1070
     3
1000
wire
1040
45.0
1000
U
1040
1.0
1000
cm
1000
gm
1000
MILD_STEEL
1070
    25
1000
CSG
1070
     1
1070
     3
1070
     3
1070
     3
1070
     0
1000
cu cm
1070
     1
1070
     0
1005
13D29
  0
INSERT
  5
13D2B
  8
AME_FRZ
  2
AME_NIL
 10
441.910627
 20
845.814423
 30
0.0
  0
INSERT
  5
13D2C
  8
AME_FRZ
  2
AME_SOL
 10
441.910627
 20
845.814423
 30
0.0
1001
AME_SOL
1000
R2.1
1000
AME2
1000
sq cm
1070
     3
1070
     0
1070
     3
1000
wire
1040
45.0
1000
U
1040
1.0
1000
cm
1000
gm
1000
MILD_STEEL
1070
    25
1000
CSG
1070
     1
1070
     3
1070
     3
1070
     3
1070
     0
1000
cu cm
1070
     1
1070
     0
1005
13D2B
  0
INSERT
  5
13D2D
  8
L32
  2
GEOTOL
 10
1122.960994
 20
1418.916616
 30
0.0
  0
INSERT
  5
13E1C
  8
AME_FRZ
  2
AME_NIL
 10
-1366.556464
 20
438.952272
 30
0.0
  0
INSERT
  5
13E1D
  8
AME_FRZ
  2
AME_SOL
 10
-1366.556464
 20
438.952272
 30
0.0
1001
AME_SOL
1000
R2.1
1000
AME2
1000
sq cm
1070
     3
1070
     0
1070
     3
1000
wire
1040
45.0
1000
U
1040
1.0
1000
cm
1000
gm
1000
MILD_STEEL
1070
    25
1000
CSG
1070
     1
1070
     3
1070
     3
1070
     3
1070
     0
1000
cu cm
1070
     1
1070
     0
1005
13E1C
  0
INSERT
  5
13E1E
  8
L32
  2
GEOTOL
 10
-685.506097
 20
1012.054465
 30
0.0
  0
INSERT
  5
13E1F
  8
AME_FRZ
  2
AME_NIL
 10
1617.418428
 20
2086.579795
 30
0.0
  0
INSERT
  5
13E20
  8
AME_FRZ
  2
AME_SOL
 10
1617.418428
 20
2086.579795
 30
0.0
1001
AME_SOL
1000
R2.1
1000
AME2
1000
sq cm
1070
     3
1070
     0
1070
     3
1000
wire
1040
45.0
1000
U
1040
1.0
1000
cm
1000
gm
1000
MILD_STEEL
1070
    25
1000
CSG
1070
     1
1070
     3
1070
     3
1070
     3
1070
     0
1000
cu cm
1070
     1
1070
     0
1005
13E1F
  0
INSERT
  5
13E21
  8
L32
  2
GEOTOL
 10
2298.468795
 20
2659.681988
 30
0.0
  0
INSERT
  5
13E22
  8
AME_FRZ
  2
AME_NIL
 10
-45.761517
 20
2138.871828
 30
0.0
  0
INSERT
  5
13E23
  8
AME_FRZ
  2
AME_SOL
 10
-45.761517
 20
2138.871828
 30
0.0
1001
AME_SOL
1000
R2.1
1000
AME2
1000
sq cm
1070
     3
1070
     0
1070
     3
1000
wire
1040
45.0
1000
U
1040
1.0
1000
cm
1000
gm
1000
MILD_STEEL
1070
    25
1000
CSG
1070
     1
1070
     3
1070
     3
1070
     3
1070
     0
1000
cu cm
1070
     1
1070
     0
1005
13E22
  0
INSERT
  5
13E24
  8
L32
  2
GEOTOL
 10
635.288849
 20
2711.974021
 30
0.0
  0
INSERT
  5
13E25
  8
AME_FRZ
  2
AME_NIL
 10
2533.930845
 20
3584.736079
 30
0.0
  0
INSERT
  5
13E26
  8
AME_FRZ
  2
AME_SOL
 10
2533.930845
 20
3584.736079
 30
0.0
1001
AME_SOL
1000
R2.1
1000
AME2
1000
sq cm
1070
     3
1070
     0
1070
     3
1000
wire
1040
45.0
1000
U
1040
1.0
1000
cm
1000
gm
1000
MILD_STEEL
1070
    25
1000
CSG
1070
     1
1070
     3
1070
     3
1070
     3
1070
     0
1000
cu cm
1070
     1
1070
     0
1005
13E25
  0
INSERT
  5
13E27
  8
AME_FRZ
  2
AME_NIL
 10
443.573026
 20
3503.127588
 30
0.0
  0
INSERT
  5
13E28
  8
AME_FRZ
  2
AME_SOL
 10
443.573026
 20
3503.127588
 30
0.0
1001
AME_SOL
1000
R2.1
1000
AME2
1000
sq cm
1070
     3
1070
     0
1070
     3
1000
wire
1040
45.0
1000
U
1040
1.0
1000
cm
1000
gm
1000
MILD_STEEL
1070
    25
1000
CSG
1070
     1
1070
     3
1070
     3
1070
     3
1070
     0
1000
cu cm
1070
     1
1070
     0
1005
13E27
  0
INSERT
  5
13E29
  8
L32
  2
GEOTOL
 10
1124.623392
 20
4076.22978
 30
0.0
  0
INSERT
  5
13E2A
  8
AME_FRZ
  2
AME_NIL
 10
1519.149271
 20
2358.746941
 30
0.0
  0
INSERT
  5
13E2B
  8
AME_FRZ
  2
AME_SOL
 10
1519.149271
 20
2358.746941
 30
0.0
1001
AME_SOL
1000
R2.1
1000
AME2
1000
sq cm
1070
     3
1070
     0
1070
     3
1000
wire
1040
45.0
1000
U
1040
1.0
1000
cm
1000
gm
1000
MILD_STEEL
1070
    25
1000
CSG
1070
     1
1070
     3
1070
     3
1070
     3
1070
     0
1000
cu cm
1070
     1
1070
     0
1005
13E2A
  0
INSERT
  5
13E2C
  8
L32
  2
GEOTOL
 10
2200.199637
 20
2931.849134
 30
0.0
  0
INSERT
  5
13E2D
  8
AME_FRZ
  2
AME_NIL
 10
4098.841634
 20
3804.611192
 30
0.0
  0
INSERT
  5
13E2E
  8
AME_FRZ
  2
AME_SOL
 10
4098.841634
 20
3804.611192
 30
0.0
1001
AME_SOL
1000
R2.1
1000
AME2
1000
sq cm
1070
     3
1070
     0
1070
     3
1000
wire
1040
45.0
1000
U
1040
1.0
1000
cm
1000
gm
1000
MILD_STEEL
1070
    25
1000
CSG
1070
     1
1070
     3
1070
     3
1070
     3
1070
     0
1000
cu cm
1070
     1
1070
     0
1005
13E2D
  0
INSERT
  5
13E2F
  8
AME_FRZ
  2
AME_NIL
 10
1720.551409
 20
3522.82241
 30
0.0
  0
INSERT
  5
13E30
  8
AME_FRZ
  2
AME_SOL
 10
1720.551409
 20
3522.82241
 30
0.0
1001
AME_SOL
1000
R2.1
1000
AME2
1000
sq cm
1070
     3
1070
     0
1070
     3
1000
wire
1040
45.0
1000
U
1040
1.0
1000
cm
1000
gm
1000
MILD_STEEL
1070
    25
1000
CSG
1070
     1
1070
     3
1070
     3
1070
     3
1070
     0
1000
cu cm
1070
     1
1070
     0
1005
13E2F
  0
INSERT
  5
13E31
  8
L32
  2
GEOTOL
 10
2401.601775
 20
4095.924602
 30
0.0
  0
INSERT
  5
13E32
  8
AME_FRZ
  2
AME_NIL
 10
-93.09294
 20
424.024503
 30
0.0
  0
INSERT
  5
13E33
  8
AME_FRZ
  2
AME_SOL
 10
-93.09294
 20
424.024503
 30
0.0
1001
AME_SOL
1000
R2.1
1000
AME2
1000
sq cm
1070
     3
1070
     0
1070
     3
1000
wire
1040
45.0
1000
U
1040
1.0
1000
cm
1000
gm
1000
MILD_STEEL
1070
    25
1000
CSG
1070
     1
1070
     3
1070
     3
1070
     3
1070
     0
1000
cu cm
1070
     1
1070
     0
1005
13E32
  0
INSERT
  5
13E34
  8
L32
  2
GEOTOL
 10
587.957427
 20
997.126695
 30
0.0
  0
INSERT
  5
13E35
  8
AME_FRZ
  2
AME_NIL
 10
2486.599423
 20
1869.888753
 30
0.0
  0
INSERT
  5
13E36
  8
AME_FRZ
  2
AME_SOL
 10
2486.599423
 20
1869.888753
 30
0.0
1001
AME_SOL
1000
R2.1
1000
AME2
1000
sq cm
1070
     3
1070
     0
1070
     3
1000
wire
1040
45.0
1000
U
1040
1.0
1000
cm
1000
gm
1000
MILD_STEEL
1070
    25
1000
CSG
1070
     1
1070
     3
1070
     3
1070
     3
1070
     0
1000
cu cm
1070
     1
1070
     0
1005
13E35
  0
INSERT
  5
13E37
  8
AME_FRZ
  2
AME_NIL
 10
396.241604
 20
1788.280262
 30
0.0
  0
INSERT
  5
13E38
  8
AME_FRZ
  2
AME_SOL
 10
396.241604
 20
1788.280262
 30
0.0
1001
AME_SOL
1000
R2.1
1000
AME2
1000
sq cm
1070
     3
1070
     0
1070
     3
1000
wire
1040
45.0
1000
U
1040
1.0
1000
cm
1000
gm
1000
MILD_STEEL
1070
    25
1000
CSG
1070
     1
1070
     3
1070
     3
1070
     3
1070
     0
1000
cu cm
1070
     1
1070
     0
1005
13E37
  0
INSERT
  5
13E39
  8
L32
  2
GEOTOL
 10
1077.29197
 20
2361.382455
 30
0.0
  0
INSERT
  5
13E3A
  8
AME_FRZ
  2
AME_NIL
 10
1471.817849
 20
643.899616
 30
0.0
  0
INSERT
  5
13E3B
  8
AME_FRZ
  2
AME_SOL
 10
1471.817849
 20
643.899616
 30
0.0
1001
AME_SOL
1000
R2.1
1000
AME2
1000
sq cm
1070
     3
1070
     0
1070
     3
1000
wire
1040
45.0
1000
U
1040
1.0
1000
cm
1000
gm
1000
MILD_STEEL
1070
    25
1000
CSG
1070
     1
1070
     3
1070
     3
1070
     3
1070
     0
1000
cu cm
1070
     1
1070
     0
1005
13E3A
  0
INSERT
  5
13E3C
  8
L32
  2
GEOTOL
 10
2152.868215
 20
1217.001808
 30
0.0
  0
INSERT
  5
13E3D
  8
AME_FRZ
  2
AME_NIL
 10
4051.510211
 20
2089.763866
 30
0.0
  0
INSERT
  5
13E3E
  8
AME_FRZ
  2
AME_SOL
 10
4051.510211
 20
2089.763866
 30
0.0
1001
AME_SOL
1000
R2.1
1000
AME2
1000
sq cm
1070
     3
1070
     0
1070
     3
1000
wire
1040
45.0
1000
U
1040
1.0
1000
cm
1000
gm
1000
MILD_STEEL
1070
    25
1000
CSG
1070
     1
1070
     3
1070
     3
1070
     3
1070
     0
1000
cu cm
1070
     1
1070
     0
1005
13E3D
  0
INSERT
  5
13E3F
  8
AME_FRZ
  2
AME_NIL
 10
1673.219986
 20
1807.975084
 30
0.0
  0
INSERT
  5
13E40
  8
AME_FRZ
  2
AME_SOL
 10
1673.219986
 20
1807.975084
 30
0.0
1001
AME_SOL
1000
R2.1
1000
AME2
1000
sq cm
1070
     3
1070
     0
1070
     3
1000
wire
1040
45.0
1000
U
1040
1.0
1000
cm
1000
gm
1000
MILD_STEEL
1070
    25
1000
CSG
1070
     1
1070
     3
1070
     3
1070
     3
1070
     0
1000
cu cm
1070
     1
1070
     0
1005
13E3F
  0
INSERT
  5
13E41
  8
L32
  2
GEOTOL
 10
2354.270353
 20
2381.077277
 30
0.0
  0
INSERT
  5
13E42
  8
AME_FRZ
  2
AME_NIL
 10
-108.649987
 20
462.682533
 30
0.0
  0
INSERT
  5
13E43
  8
AME_FRZ
  2
AME_SOL
 10
-108.649987
 20
462.682533
 30
0.0
1001
AME_SOL
1000
R2.1
1000
AME2
1000
sq cm
1070
     3
1070
     0
1070
     3
1000
wire
1040
45.0
1000
U
1040
1.0
1000
cm
1000
gm
1000
MILD_STEEL
1070
    25
1000
CSG
1070
     1
1070
     3
1070
     3
1070
     3
1070
     0
1000
cu cm
1070
     1
1070
     0
1005
13E42
  0
INSERT
  5
13E44
  8
L32
  2
GEOTOL
 10
572.40038
 20
1035.784726
 30
0.0
  0
INSERT
  5
13E45
  8
AME_FRZ
  2
AME_NIL
 10
1116.274875
 20
782.578557
 30
0.0
  0
INSERT
  5
13E46
  8
AME_FRZ
  2
AME_SOL
 10
1116.274875
 20
782.578557
 30
0.0
1001
AME_SOL
1000
R2.1
1000
AME2
1000
sq cm
1070
     3
1070
     0
1070
     3
1000
wire
1040
45.0
1000
U
1040
1.0
1000
cm
1000
gm
1000
MILD_STEEL
1070
    25
1000
CSG
1070
     1
1070
     3
1070
     3
1070
     3
1070
     0
1000
cu cm
1070
     1
1070
     0
1005
13E45
  0
INSERT
  5
13E47
  8
L32
  2
GEOTOL
 10
1797.325242
 20
1355.680749
 30
0.0
  0
INSERT
  5
13E48
  8
AME_FRZ
  2
AME_NIL
 10
3695.967238
 20
2228.442807
 30
0.0
  0
INSERT
  5
13E49
  8
AME_FRZ
  2
AME_SOL
 10
3695.967238
 20
2228.442807
 30
0.0
1001
AME_SOL
1000
R2.1
1000
AME2
1000
sq cm
1070
     3
1070
     0
1070
     3
1000
wire
1040
45.0
1000
U
1040
1.0
1000
cm
1000
gm
1000
MILD_STEEL
1070
    25
1000
CSG
1070
     1
1070
     3
1070
     3
1070
     3
1070
     0
1000
cu cm
1070
     1
1070
     0
1005
13E48
  0
INSERT
  5
13E4A
  8
AME_FRZ
  2
AME_NIL
 10
1605.609419
 20
2146.834316
 30
0.0
  0
INSERT
  5
13E4B
  8
AME_FRZ
  2
AME_SOL
 10
1605.609419
 20
2146.834316
 30
0.0
1001
AME_SOL
1000
R2.1
1000
AME2
1000
sq cm
1070
     3
1070
     0
1070
     3
1000
wire
1040
45.0
1000
U
1040
1.0
1000
cm
1000
gm
1000
MILD_STEEL
1070
    25
1000
CSG
1070
     1
1070
     3
1070
     3
1070
     3
1070
     0
1000
cu cm
1070
     1
1070
     0
1005
13E4A
  0
INSERT
  5
13E4C
  8
L32
  2
GEOTOL
 10
2286.659785
 20
2719.936509
 30
0.0
  0
INSERT
  5
13E4D
  8
AME_FRZ
  2
AME_NIL
 10
2681.185664
 20
1002.45367
 30
0.0
  0
INSERT
  5
13E4E
  8
AME_FRZ
  2
AME_SOL
 10
2681.185664
 20
1002.45367
 30
0.0
1001
AME_SOL
1000
R2.1
1000
AME2
1000
sq cm
1070
     3
1070
     0
1070
     3
1000
wire
1040
45.0
1000
U
1040
1.0
1000
cm
1000
gm
1000
MILD_STEEL
1070
    25
1000
CSG
1070
     1
1070
     3
1070
     3
1070
     3
1070
     0
1000
cu cm
1070
     1
1070
     0
1005
13E4D
  0
INSERT
  5
13E4F
  8
L32
  2
GEOTOL
 10
3362.23603
 20
1575.555862
 30
0.0
  0
INSERT
  5
13E50
  8
AME_FRZ
  2
AME_NIL
 10
5260.878026
 20
2448.31792
 30
0.0
  0
INSERT
  5
13E51
  8
AME_FRZ
  2
AME_SOL
 10
5260.878026
 20
2448.31792
 30
0.0
1001
AME_SOL
1000
R2.1
1000
AME2
1000
sq cm
1070
     3
1070
     0
1070
     3
1000
wire
1040
45.0
1000
U
1040
1.0
1000
cm
1000
gm
1000
MILD_STEEL
1070
    25
1000
CSG
1070
     1
1070
     3
1070
     3
1070
     3
1070
     0
1000
cu cm
1070
     1
1070
     0
1005
13E50
  0
INSERT
  5
13E52
  8
AME_FRZ
  2
AME_NIL
 10
2882.587802
 20
2166.529138
 30
0.0
  0
INSERT
  5
13E53
  8
AME_FRZ
  2
AME_SOL
 10
2882.587802
 20
2166.529138
 30
0.0
1001
AME_SOL
1000
R2.1
1000
AME2
1000
sq cm
1070
     3
1070
     0
1070
     3
1000
wire
1040
45.0
1000
U
1040
1.0
1000
cm
1000
gm
1000
MILD_STEEL
1070
    25
1000
CSG
1070
     1
1070
     3
1070
     3
1070
     3
1070
     0
1000
cu cm
1070
     1
1070
     0
1005
13E52
  0
INSERT
  5
13E54
  8
L32
  2
GEOTOL
 10
3563.638168
 20
2739.631331
 30
0.0
  0
INSERT
  5
13E55
  8
AME_FRZ
  2
AME_NIL
 10
-1334.528561
 20
1414.014552
 30
0.0
  0
INSERT
  5
13E56
  8
AME_FRZ
  2
AME_SOL
 10
-1334.528561
 20
1414.014552
 30
0.0
1001
AME_SOL
1000
R2.1
1000
AME2
1000
sq cm
1070
     3
1070
     0
1070
     3
1000
wire
1040
45.0
1000
U
1040
1.0
1000
cm
1000
gm
1000
MILD_STEEL
1070
    25
1000
CSG
1070
     1
1070
     3
1070
     3
1070
     3
1070
     0
1000
cu cm
1070
     1
1070
     0
1005
13E55
  0
INSERT
  5
13E57
  8
L32
  2
GEOTOL
 10
-653.478195
 20
1987.116745
 30
0.0
  0
INSERT
  5
13E58
  8
AME_FRZ
  2
AME_NIL
 10
1245.163801
 20
2859.878803
 30
0.0
  0
INSERT
  5
13E59
  8
AME_FRZ
  2
AME_SOL
 10
1245.163801
 20
2859.878803
 30
0.0
1001
AME_SOL
1000
R2.1
1000
AME2
1000
sq cm
1070
     3
1070
     0
1070
     3
1000
wire
1040
45.0
1000
U
1040
1.0
1000
cm
1000
gm
1000
MILD_STEEL
1070
    25
1000
CSG
1070
     1
1070
     3
1070
     3
1070
     3
1070
     0
1000
cu cm
1070
     1
1070
     0
1005
13E58
  0
INSERT
  5
13E5A
  8
AME_FRZ
  2
AME_NIL
 10
-845.194018
 20
2778.270311
 30
0.0
  0
INSERT
  5
13E5B
  8
AME_FRZ
  2
AME_SOL
 10
-845.194018
 20
2778.270311
 30
0.0
1001
AME_SOL
1000
R2.1
1000
AME2
1000
sq cm
1070
     3
1070
     0
1070
     3
1000
wire
1040
45.0
1000
U
1040
1.0
1000
cm
1000
gm
1000
MILD_STEEL
1070
    25
1000
CSG
1070
     1
1070
     3
1070
     3
1070
     3
1070
     0
1000
cu cm
1070
     1
1070
     0
1005
13E5A
  0
INSERT
  5
13E5C
  8
L32
  2
GEOTOL
 10
-164.143651
 20
3351.372504
 30
0.0
  0
INSERT
  5
13E5D
  8
AME_FRZ
  2
AME_NIL
 10
230.382227
 20
1633.889665
 30
0.0
  0
INSERT
  5
13E5E
  8
AME_FRZ
  2
AME_SOL
 10
230.382227
 20
1633.889665
 30
0.0
1001
AME_SOL
1000
R2.1
1000
AME2
1000
sq cm
1070
     3
1070
     0
1070
     3
1000
wire
1040
45.0
1000
U
1040
1.0
1000
cm
1000
gm
1000
MILD_STEEL
1070
    25
1000
CSG
1070
     1
1070
     3
1070
     3
1070
     3
1070
     0
1000
cu cm
1070
     1
1070
     0
1005
13E5D
  0
INSERT
  5
13E5F
  8
L32
  2
GEOTOL
 10
911.432594
 20
2206.991858
 30
0.0
  0
INSERT
  5
13E60
  8
AME_FRZ
  2
AME_NIL
 10
2810.07459
 20
3079.753916
 30
0.0
  0
INSERT
  5
13E61
  8
AME_FRZ
  2
AME_SOL
 10
2810.07459
 20
3079.753916
 30
0.0
1001
AME_SOL
1000
R2.1
1000
AME2
1000
sq cm
1070
     3
1070
     0
1070
     3
1000
wire
1040
45.0
1000
U
1040
1.0
1000
cm
1000
gm
1000
MILD_STEEL
1070
    25
1000
CSG
1070
     1
1070
     3
1070
     3
1070
     3
1070
     0
1000
cu cm
1070
     1
1070
     0
1005
13E60
  0
INSERT
  5
13E62
  8
AME_FRZ
  2
AME_NIL
 10
431.784365
 20
2797.965133
 30
0.0
  0
INSERT
  5
13E63
  8
AME_FRZ
  2
AME_SOL
 10
431.784365
 20
2797.965133
 30
0.0
1001
AME_SOL
1000
R2.1
1000
AME2
1000
sq cm
1070
     3
1070
     0
1070
     3
1000
wire
1040
45.0
1000
U
1040
1.0
1000
cm
1000
gm
1000
MILD_STEEL
1070
    25
1000
CSG
1070
     1
1070
     3
1070
     3
1070
     3
1070
     0
1000
cu cm
1070
     1
1070
     0
1005
13E62
  0
INSERT
  5
13E64
  8
L32
  2
GEOTOL
 10
1112.834731
 20
3371.067326
 30
0.0
  0
CIRCLE
  5
153FA
  8
L1
 10
1314.154453
 20
497.861297
 30
0.0
 40
4.5
  0
CIRCLE
  5
153FB
  8
L1
 10
1314.154453
 20
497.861297
 30
0.0
 40
2.4
  0
CIRCLE
  5
153FC
  8
L1
 10
1314.154453
 20
497.861297
 30
0.0
 40
3.0
  0
LINE
  5
153FD
  8
L1
 10
1311.830663
 20
497.261297
 30
0.0
 11
1316.478243
 21
497.261297
 31
0.0
  0
LINE
  5
153FE
  8
L1
 10
1302.154453
 20
493.361297
 30
0.0
 11
1299.654453
 21
493.361297
 31
0.0
  0
LINE
  5
153FF
  8
L1
 10
1302.154453
 20
502.361297
 30
0.0
 11
1299.654453
 21
502.361297
 31
0.0
  0
LINE
  5
15400
  8
L1
 10
1311.830663
 20
498.461297
 30
0.0
 11
1316.478243
 21
498.461297
 31
0.0
  0
LINE
  5
15401
  8
L1
 10
1302.154453
 20
171.361297
 30
0.0
 11
1299.654453
 21
171.361297
 31
0.0
  0
LINE
  5
15402
  8
L1
 10
1302.154453
 20
180.361297
 30
0.0
 11
1299.654453
 21
180.361297
 31
0.0
  0
CIRCLE
  5
15403
  8
L1
 10
1314.154453
 20
175.861297
 30
0.0
 40
2.4
  0
LINE
  5
15404
  8
L1
 10
1311.830663
 20
175.261297
 30
0.0
 11
1316.478243
 21
175.261297
 31
0.0
  0
LINE
  5
15405
  8
L1
 10
1311.830663
 20
176.461297
 30
0.0
 11
1316.478243
 21
176.461297
 31
0.0
  0
CIRCLE
  5
15406
  8
L1
 10
1314.154453
 20
175.861297
 30
0.0
 40
4.5
  0
CIRCLE
  5
15407
  8
L1
 10
1314.154453
 20
175.861297
 30
0.0
 40
3.0
  0
CIRCLE
  5
15408
  8
L1
 10
1874.154453
 20
497.861297
 30
0.0
 40
3.0
  0
CIRCLE
  5
15409
  8
L1
 10
1874.154453
 20
497.861297
 30
0.0
 40
2.4
  0
CIRCLE
  5
1540A
  8
L1
 10
1874.154453
 20
497.861297
 30
0.0
 40
4.5
  0
LINE
  5
1540B
  8
L1
 10
1886.154453
 20
493.361297
 30
0.0
 11
1888.654453
 21
493.361297
 31
0.0
  0
LINE
  5
1540C
  8
L1
 10
1876.478243
 20
497.261297
 30
0.0
 11
1871.830663
 21
497.261297
 31
0.0
  0
LINE
  5
1540D
  8
L1
 10
1886.154453
 20
502.361297
 30
0.0
 11
1888.654453
 21
502.361297
 31
0.0
  0
LINE
  5
1540E
  8
L1
 10
1876.478243
 20
498.461297
 30
0.0
 11
1871.830663
 21
498.461297
 31
0.0
  0
LINE
  5
15413
  8
L1
 10
1886.154453
 20
171.361297
 30
0.0
 11
1888.654453
 21
171.361297
 31
0.0
  0
LINE
  5
15414
  8
L1
 10
1886.154453
 20
180.361297
 30
0.0
 11
1888.654453
 21
180.361297
 31
0.0
  0
CIRCLE
  5
15415
  8
L1
 10
1874.154453
 20
175.861297
 30
0.0
 40
4.5
  0
CIRCLE
  5
15416
  8
L1
 10
1874.154453
 20
175.861297
 30
0.0
 40
2.4
  0
CIRCLE
  5
15417
  8
L1
 10
1874.154453
 20
175.861297
 30
0.0
 40
3.0
  0
LINE
  5
15419
  8
L1
 10
1876.478243
 20
176.461297
 30
0.0
 11
1871.830663
 21
176.461297
 31
0.0
  0
LINE
  5
1541A
  8
L1
 10
1876.478243
 20
175.261297
 30
0.0
 11
1871.830663
 21
175.261297
 31
0.0
  0
LINE
  5
1548B
  8
L1
 10
964.560197
 20
344.361297
 30
0.0
 11
964.560197
 21
329.361297
 31
0.0
  0
LINE
  5
1548C
  8
L1
 10
966.560197
 20
329.361297
 30
0.0
 11
966.560197
 21
344.361297
 31
0.0
  0
LINE
  5
1548E
  8
L1
 10
966.560197
 20
329.361297
 30
0.0
 11
964.560197
 21
329.361297
 31
0.0
  0
LINE
  5
15490
  8
L1
 10
964.560197
 20
344.361297
 30
0.0
 11
966.560197
 21
344.361297
 31
0.0
  0
LINE
  5
1564A
  8
L1
 10
474.003627
 20
487.611297
 30
0.0
 11
479.060197
 21
487.611297
 31
0.0
  0
LINE
  5
1564B
  8
L1
 10
479.060197
 20
486.111297
 30
0.0
 11
474.003627
 21
486.111297
 31
0.0
  0
LINE
  5
1564D
  8
L1
 10
464.116767
 20
487.611297
 30
0.0
 11
459.060197
 21
487.611297
 31
0.0
  0
LINE
  5
1564E
  8
L1
 10
459.060197
 20
486.111297
 30
0.0
 11
464.116767
 21
486.111297
 31
0.0
  0
LINE
  5
1564F
  8
L1
 10
459.060197
 20
487.611297
 30
0.0
 11
459.060197
 21
486.111297
 31
0.0
  0
ARC
  5
15650
  8
L1
 10
469.060197
 20
486.861297
 30
0.0
 40
5.0
 50
188.626927
 51
351.373073
  0
CIRCLE
  5
15651
  8
L1
 10
469.060197
 20
486.861297
 30
0.0
 40
2.1
  0
CIRCLE
  5
15652
  8
L1
 10
469.060197
 20
486.861297
 30
0.0
 40
2.4
  0
LINE
  5
15653
  8
L1
 10
479.060197
 20
487.611297
 30
0.0
 11
479.060197
 21
486.111297
 31
0.0
  0
ARC
  5
15654
  8
L1
 10
569.060197
 20
486.861297
 30
0.0
 40
5.0
 50
8.626927
 51
171.373073
  0
ARC
  5
15656
  8
L1
 10
569.060197
 20
486.861297
 30
0.0
 40
5.0
 50
188.626927
 51
351.373073
  0
CIRCLE
  5
15657
  8
L1
 10
569.060197
 20
486.861297
 30
0.0
 40
2.1
  0
CIRCLE
  5
15658
  8
L1
 10
569.060197
 20
486.861297
 30
0.0
 40
2.4
  0
LINE
  5
15659
  8
L1
 10
564.116767
 20
487.611297
 30
0.0
 11
559.060197
 21
487.611297
 31
0.0
  0
LINE
  5
1565A
  8
L1
 10
559.060197
 20
486.111297
 30
0.0
 11
564.116767
 21
486.111297
 31
0.0
  0
LINE
  5
1565B
  8
L1
 10
559.060197
 20
487.611297
 30
0.0
 11
559.060197
 21
486.111297
 31
0.0
  0
LINE
  5
1565C
  8
L1
 10
579.060197
 20
487.611297
 30
0.0
 11
579.060197
 21
486.111297
 31
0.0
  0
LINE
  5
1565D
  8
L1
 10
574.003627
 20
487.611297
 30
0.0
 11
579.060197
 21
487.611297
 31
0.0
  0
LINE
  5
1565E
  8
L1
 10
579.060197
 20
486.111297
 30
0.0
 11
574.003627
 21
486.111297
 31
0.0
  0
ARC
  5
1565F
  8
L1
 10
469.060197
 20
486.861297
 30
0.0
 40
5.0
 50
8.626927
 51
171.373073
  0
ARC
  5
15660
  8
L1
 10
469.060197
 20
187.286712
 30
0.0
 40
5.0
 50
8.626927
 51
171.373073
  0
CIRCLE
  5
15661
  8
L1
 10
469.060197
 20
187.286712
 30
0.0
 40
2.1
  0
CIRCLE
  5
15662
  8
L1
 10
469.060197
 20
187.286712
 30
0.0
 40
2.4
  0
LINE
  5
15663
  8
L1
 10
474.003627
 20
188.036712
 30
0.0
 11
479.060197
 21
188.036712
 31
0.0
  0
LINE
  5
15664
  8
L1
 10
479.060197
 20
186.536712
 30
0.0
 11
474.003627
 21
186.536712
 31
0.0
  0
LINE
  5
15666
  8
L1
 10
464.116767
 20
188.036712
 30
0.0
 11
459.060197
 21
188.036712
 31
0.0
  0
LINE
  5
15667
  8
L1
 10
459.060197
 20
186.536712
 30
0.0
 11
464.116767
 21
186.536712
 31
0.0
  0
LINE
  5
15668
  8
L1
 10
459.060197
 20
188.036712
 30
0.0
 11
459.060197
 21
186.536712
 31
0.0
  0
ARC
  5
15669
  8
L1
 10
469.060197
 20
187.286712
 30
0.0
 40
5.0
 50
188.626927
 51
351.373073
  0
LINE
  5
1566A
  8
L1
 10
479.060197
 20
188.036712
 30
0.0
 11
479.060197
 21
186.536712
 31
0.0
  0
ARC
  5
1566B
  8
L1
 10
569.060197
 20
187.286712
 30
0.0
 40
5.0
 50
8.626927
 51
171.373073
  0
CIRCLE
  5
1566C
  8
L1
 10
569.060197
 20
187.286712
 30
0.0
 40
2.1
  0
CIRCLE
  5
1566D
  8
L1
 10
569.060197
 20
187.286712
 30
0.0
 40
2.4
  0
ARC
  5
1566E
  8
L1
 10
569.060197
 20
187.286712
 30
0.0
 40
5.0
 50
188.626927
 51
351.373073
  0
LINE
  5
15670
  8
L1
 10
564.116767
 20
188.036712
 30
0.0
 11
559.060197
 21
188.036712
 31
0.0
  0
LINE
  5
15671
  8
L1
 10
559.060197
 20
186.536712
 30
0.0
 11
564.116767
 21
186.536712
 31
0.0
  0
LINE
  5
15672
  8
L1
 10
559.060197
 20
188.036712
 30
0.0
 11
559.060197
 21
186.536712
 31
0.0
  0
LINE
  5
15673
  8
L1
 10
579.060197
 20
188.036712
 30
0.0
 11
579.060197
 21
186.536712
 31
0.0
  0
LINE
  5
15674
  8
L1
 10
574.003627
 20
188.036712
 30
0.0
 11
579.060197
 21
188.036712
 31
0.0
  0
LINE
  5
15675
  8
L1
 10
579.060197
 20
186.536712
 30
0.0
 11
574.003627
 21
186.536712
 31
0.0
  0
ARC
  5
1568C
  8
L1
 10
869.060182
 20
187.286712
 30
0.0
 40
5.0
 50
8.626927
 51
171.373073
  0
LINE
  5
1568D
  8
L1
 10
859.060182
 20
186.536712
 30
0.0
 11
864.116752
 21
186.536712
 31
0.0
  0
LINE
  5
1568E
  8
L1
 10
864.116752
 20
188.036712
 30
0.0
 11
859.060182
 21
188.036712
 31
0.0
  0
ARC
  5
1568F
  8
L1
 10
869.060182
 20
187.286712
 30
0.0
 40
5.0
 50
188.626927
 51
351.373073
  0
LINE
  5
15690
  8
L1
 10
879.060182
 20
188.036712
 30
0.0
 11
879.060182
 21
186.536712
 31
0.0
  0
LINE
  5
15691
  8
L1
 10
879.060182
 20
186.536712
 30
0.0
 11
874.003612
 21
186.536712
 31
0.0
  0
LINE
  5
15692
  8
L1
 10
874.003612
 20
188.036712
 30
0.0
 11
879.060182
 21
188.036712
 31
0.0
  0
CIRCLE
  5
15693
  8
L1
 10
869.060182
 20
187.286712
 30
0.0
 40
2.4
  0
CIRCLE
  5
15694
  8
L1
 10
869.060182
 20
187.286712
 30
0.0
 40
2.1
  0
LINE
  5
15695
  8
L1
 10
859.060182
 20
188.036712
 30
0.0
 11
859.060182
 21
186.536712
 31
0.0
  0
ARC
  5
15696
  8
L1
 10
769.060182
 20
187.286712
 30
0.0
 40
5.0
 50
8.626927
 51
171.373073
  0
ARC
  5
15698
  8
L1
 10
769.060182
 20
187.286712
 30
0.0
 40
5.0
 50
188.626927
 51
351.373073
  0
CIRCLE
  5
15699
  8
L1
 10
769.060182
 20
187.286712
 30
0.0
 40
2.4
  0
CIRCLE
  5
1569A
  8
L1
 10
769.060182
 20
187.286712
 30
0.0
 40
2.1
  0
LINE
  5
1569B
  8
L1
 10
779.060182
 20
188.036712
 30
0.0
 11
779.060182
 21
186.536712
 31
0.0
  0
LINE
  5
1569C
  8
L1
 10
779.060182
 20
186.536712
 30
0.0
 11
774.003612
 21
186.536712
 31
0.0
  0
LINE
  5
1569D
  8
L1
 10
774.003612
 20
188.036712
 30
0.0
 11
779.060182
 21
188.036712
 31
0.0
  0
LINE
  5
1569E
  8
L1
 10
759.060182
 20
186.536712
 30
0.0
 11
764.116752
 21
186.536712
 31
0.0
  0
LINE
  5
1569F
  8
L1
 10
764.116752
 20
188.036712
 30
0.0
 11
759.060182
 21
188.036712
 31
0.0
  0
LINE
  5
156A0
  8
L1
 10
759.060182
 20
188.036712
 30
0.0
 11
759.060182
 21
186.536712
 31
0.0
  0
LINE
  5
156A1
  8
L1
 10
565.060197
 20
184.286712
 30
0.0
 11
565.060197
 21
159.861297
 31
0.0
  0
LINE
  5
156A2
  8
L1
 10
573.060197
 20
184.286712
 30
0.0
 11
573.060197
 21
159.861297
 31
0.0
  0
LINE
  5
156A3
  8
L1
 10
473.060197
 20
184.286712
 30
0.0
 11
473.060197
 21
159.861297
 31
0.0
  0
LINE
  5
156A4
  8
L1
 10
465.060197
 20
184.286712
 30
0.0
 11
465.060197
 21
159.861297
 31
0.0
  0
LINE
  5
156C6
  8
L1
 10
865.060197
 20
184.286693
 30
0.0
 11
865.060197
 21
159.861297
 31
0.0
  0
LINE
  5
156C7
  8
L1
 10
873.060197
 20
184.286732
 30
0.0
 11
873.060197
 21
159.861297
 31
0.0
  0
LINE
  5
156C8
  8
L1
 10
773.060197
 20
184.286732
 30
0.0
 11
773.060197
 21
159.861297
 31
0.0
  0
LINE
  5
156C9
  8
L1
 10
765.060197
 20
184.286693
 30
0.0
 11
765.060197
 21
159.861297
 31
0.0
  0
LINE
  5
156E0
  8
L1
 10
465.060197
 20
489.861297
 30
0.0
 11
465.060197
 21
513.861297
 31
0.0
  0
LINE
  5
156E1
  8
L1
 10
473.060197
 20
489.861297
 30
0.0
 11
473.060197
 21
513.861297
 31
0.0
  0
LINE
  5
156E2
  8
L1
 10
565.060197
 20
489.861297
 30
0.0
 11
565.060197
 21
513.861297
 31
0.0
  0
LINE
  5
156E3
  8
L1
 10
573.060197
 20
489.861297
 30
0.0
 11
573.060197
 21
513.861297
 31
0.0
  0
ARC
  5
156E7
  8
L1
 10
869.060197
 20
486.861297
 30
0.0
 40
5.0
 50
8.626927
 51
171.373073
  0
CIRCLE
  5
156E8
  8
L1
 10
869.060197
 20
486.861297
 30
0.0
 40
2.4
  0
CIRCLE
  5
156E9
  8
L1
 10
869.060197
 20
486.861297
 30
0.0
 40
2.1
  0
LINE
  5
156EA
  8
L1
 10
859.060197
 20
486.111297
 30
0.0
 11
864.116767
 21
486.111297
 31
0.0
  0
LINE
  5
156EB
  8
L1
 10
864.116767
 20
487.611297
 30
0.0
 11
859.060197
 21
487.611297
 31
0.0
  0
ARC
  5
156EC
  8
L1
 10
869.060197
 20
486.861297
 30
0.0
 40
5.0
 50
188.626927
 51
351.373073
  0
LINE
  5
156ED
  8
L1
 10
879.060197
 20
487.611297
 30
0.0
 11
879.060197
 21
486.111297
 31
0.0
  0
LINE
  5
156EE
  8
L1
 10
879.060197
 20
486.111297
 30
0.0
 11
874.003627
 21
486.111297
 31
0.0
  0
LINE
  5
156EF
  8
L1
 10
874.003627
 20
487.611297
 30
0.0
 11
879.060197
 21
487.611297
 31
0.0
  0
LINE
  5
156F0
  8
L1
 10
859.060197
 20
487.611297
 30
0.0
 11
859.060197
 21
486.111297
 31
0.0
  0
CIRCLE
  5
156F1
  8
L1
 10
769.060197
 20
486.861297
 30
0.0
 40
2.4
  0
CIRCLE
  5
156F2
  8
L1
 10
769.060197
 20
486.861297
 30
0.0
 40
2.1
  0
ARC
  5
156F3
  8
L1
 10
769.060197
 20
486.861297
 30
0.0
 40
5.0
 50
8.626927
 51
171.373073
  0
ARC
  5
156F4
  8
L1
 10
769.060197
 20
486.861297
 30
0.0
 40
5.0
 50
188.626927
 51
351.373073
  0
LINE
  5
156F5
  8
L1
 10
779.060197
 20
487.611297
 30
0.0
 11
779.060197
 21
486.111297
 31
0.0
  0
LINE
  5
156F6
  8
L1
 10
779.060197
 20
486.111297
 30
0.0
 11
774.003627
 21
486.111297
 31
0.0
  0
LINE
  5
156F7
  8
L1
 10
774.003627
 20
487.611297
 30
0.0
 11
779.060197
 21
487.611297
 31
0.0
  0
LINE
  5
156F8
  8
L1
 10
759.060197
 20
486.111297
 30
0.0
 11
764.116767
 21
486.111297
 31
0.0
  0
LINE
  5
156F9
  8
L1
 10
764.116767
 20
487.611297
 30
0.0
 11
759.060197
 21
487.611297
 31
0.0
  0
LINE
  5
156FA
  8
L1
 10
759.060197
 20
487.611297
 30
0.0
 11
759.060197
 21
486.111297
 31
0.0
  0
LINE
  5
156FB
  8
L1
 10
765.060197
 20
489.861297
 30
0.0
 11
765.060197
 21
513.861297
 31
0.0
  0
LINE
  5
156FC
  8
L1
 10
773.060197
 20
489.861297
 30
0.0
 11
773.060197
 21
513.861297
 31
0.0
  0
LINE
  5
156FD
  8
L1
 10
865.060197
 20
489.861297
 30
0.0
 11
865.060197
 21
513.861297
 31
0.0
  0
LINE
  5
156FE
  8
L1
 10
873.060197
 20
489.861297
 30
0.0
 11
873.060197
 21
513.861297
 31
0.0
  0
CIRCLE
  5
1578D
  8
L1
 10
1694.154453
 20
486.861297
 30
0.0
 40
4.65
  0
CIRCLE
  5
1578E
  8
L1
 10
1694.154453
 20
486.861297
 30
0.0
 40
3.5
  0
CIRCLE
  5
15792
  8
L1
 10
1694.154453
 20
186.861297
 30
0.0
 40
4.65
  0
CIRCLE
  5
15793
  8
L1
 10
1694.154453
 20
186.861297
 30
0.0
 40
3.5
  0
CIRCLE
  5
15796
  8
L1
 10
1794.154453
 20
186.861297
 30
0.0
 40
4.65
  0
CIRCLE
  5
15797
  8
L1
 10
1794.154453
 20
186.861297
 30
0.0
 40
3.5
  0
CIRCLE
  5
1579C
  8
L1
 10
1394.154453
 20
486.861297
 30
0.0
 40
3.5
  0
CIRCLE
  5
1579E
  8
L1
 10
1394.154453
 20
486.861297
 30
0.0
 40
4.65
  0
CIRCLE
  5
157A1
  8
L1
 10
1494.154453
 20
486.861297
 30
0.0
 40
3.5
  0
CIRCLE
  5
157A2
  8
L1
 10
1494.154453
 20
486.861297
 30
0.0
 40
4.65
  0
CIRCLE
  5
157A9
  8
L1
 10
1394.154453
 20
186.861297
 30
0.0
 40
4.65
  0
CIRCLE
  5
157AA
  8
L1
 10
1394.154453
 20
186.861297
 30
0.0
 40
3.5
  0
CIRCLE
  5
157AC
  8
L1
 10
1494.154453
 20
186.861297
 30
0.0
 40
4.65
  0
CIRCLE
  5
157AE
  8
L1
 10
1494.154453
 20
186.861297
 30
0.0
 40
3.5
  0
LINE
  5
15819
  8
L1
 10
1323.654453
 20
528.861297
 30
0.0
 11
1390.154453
 21
528.861297
 31
0.0
  0
LINE
  5
1581A
  8
L1
 10
1798.154453
 20
528.861297
 30
0.0
 11
1864.654453
 21
528.861297
 31
0.0
  0
LINE
  5
1581B
  8
L1
 10
1748.154453
 20
528.861297
 30
0.0
 11
1790.154453
 21
528.861297
 31
0.0
  0
LINE
  5
1581C
  8
L1
 10
1698.154453
 20
528.861297
 30
0.0
 11
1740.154453
 21
528.861297
 31
0.0
  0
LINE
  5
1581D
  8
L1
 10
1648.154453
 20
528.861297
 30
0.0
 11
1690.154453
 21
528.861297
 31
0.0
  0
LINE
  5
1581E
  8
L1
 10
1598.154453
 20
528.861297
 30
0.0
 11
1640.154453
 21
528.861297
 31
0.0
  0
LINE
  5
1581F
  8
L1
 10
1498.154453
 20
528.861297
 30
0.0
 11
1540.154453
 21
528.861297
 31
0.0
  0
LINE
  5
15820
  8
L1
 10
1448.154453
 20
528.861297
 30
0.0
 11
1490.154453
 21
528.861297
 31
0.0
  0
LINE
  5
15821
  8
L1
 10
1398.154453
 20
528.861297
 30
0.0
 11
1440.154453
 21
528.861297
 31
0.0
  0
LINE
  5
15822
  8
L1
 10
1548.154453
 20
528.861297
 30
0.0
 11
1590.154453
 21
528.861297
 31
0.0
  0
LINE
  5
15823
  8
L1
 10
1302.154453
 20
507.361297
 30
0.0
 11
1302.154453
 21
502.361297
 31
0.0
  0
LINE
  5
15824
  8
L1
 10
1302.154453
 20
282.861297
 30
0.0
 11
1302.154453
 21
240.861297
 31
0.0
  0
LINE
  5
15825
  8
L1
 10
1302.154453
 20
232.861297
 30
0.0
 11
1302.154453
 21
180.361297
 31
0.0
  0
LINE
  5
15826
  8
L1
 10
1302.154453
 20
171.361297
 30
0.0
 11
1302.154453
 21
166.361297
 31
0.0
  0
LINE
  5
15827
  8
L1
 10
1302.154453
 20
432.861297
 30
0.0
 11
1302.154453
 21
390.861297
 31
0.0
  0
LINE
  5
15828
  8
L1
 10
1302.154453
 20
382.861297
 30
0.0
 11
1302.154453
 21
340.861297
 31
0.0
  0
LINE
  5
15829
  8
L1
 10
1302.154453
 20
332.861297
 30
0.0
 11
1302.154453
 21
290.861297
 31
0.0
  0
LINE
  5
1582A
  8
L1
 10
1302.154453
 20
493.361297
 30
0.0
 11
1302.154453
 21
440.861297
 31
0.0
  0
LINE
  5
1582B
  8
L1
 10
1864.654453
 20
144.861297
 30
0.0
 11
1798.154453
 21
144.861297
 31
0.0
  0
LINE
  5
1582C
  8
L1
 10
1540.154453
 20
144.861297
 30
0.0
 11
1498.154453
 21
144.861297
 31
0.0
  0
LINE
  5
1582D
  8
L1
 10
1590.154453
 20
144.861297
 30
0.0
 11
1548.154453
 21
144.861297
 31
0.0
  0
LINE
  5
1582E
  8
L1
 10
1640.154453
 20
144.861297
 30
0.0
 11
1598.154453
 21
144.861297
 31
0.0
  0
LINE
  5
1582F
  8
L1
 10
1690.154453
 20
144.861297
 30
0.0
 11
1648.154453
 21
144.861297
 31
0.0
  0
LINE
  5
15830
  8
L1
 10
1790.154453
 20
144.861297
 30
0.0
 11
1748.154453
 21
144.861297
 31
0.0
  0
LINE
  5
15831
  8
L1
 10
1740.154453
 20
144.861297
 30
0.0
 11
1698.154453
 21
144.861297
 31
0.0
  0
LINE
  5
15832
  8
L1
 10
1390.154453
 20
144.861297
 30
0.0
 11
1323.654453
 21
144.861297
 31
0.0
  0
LINE
  5
15833
  8
L1
 10
1440.154453
 20
144.861297
 30
0.0
 11
1398.154453
 21
144.861297
 31
0.0
  0
LINE
  5
15834
  8
L1
 10
1490.154453
 20
144.861297
 30
0.0
 11
1448.154453
 21
144.861297
 31
0.0
  0
LINE
  5
15835
  8
L1
 10
1886.154453
 20
166.361297
 30
0.0
 11
1886.154453
 21
171.361297
 31
0.0
  0
LINE
  5
15836
  8
L1
 10
1886.154453
 20
502.361297
 30
0.0
 11
1886.154453
 21
507.361297
 31
0.0
  0
LINE
  5
15837
  8
L1
 10
1886.154453
 20
440.861297
 30
0.0
 11
1886.154453
 21
493.361297
 31
0.0
  0
LINE
  5
15838
  8
L1
 10
1886.154453
 20
390.861297
 30
0.0
 11
1886.154453
 21
432.861297
 31
0.0
  0
LINE
  5
15839
  8
L1
 10
1886.154453
 20
340.861297
 30
0.0
 11
1886.154453
 21
382.861297
 31
0.0
  0
LINE
  5
1583A
  8
L1
 10
1886.154453
 20
290.861297
 30
0.0
 11
1886.154453
 21
332.861297
 31
0.0
  0
LINE
  5
1583B
  8
L1
 10
1886.154453
 20
240.861297
 30
0.0
 11
1886.154453
 21
282.861297
 31
0.0
  0
LINE
  5
1584B
  8
L1
 10
1886.154453
 20
180.361297
 30
0.0
 11
1886.154453
 21
232.861297
 31
0.0
  0
LINE
  5
159AE
  8
L1
 10
376.060197
 20
608.473667
 30
0.0
 11
377.060197
 21
608.473667
 31
0.0
  0
LINE
  5
159AF
  8
L1
 10
962.060197
 20
608.473667
 30
0.0
 11
961.060197
 21
608.473667
 31
0.0
  0
LINE
  5
159B0
  8
L1
 10
962.060197
 20
608.473667
 30
0.0
 11
962.060197
 21
609.473667
 31
0.0
  0
LINE
  5
159B1
  8
L1
 10
939.460197
 20
608.473667
 30
0.0
 11
569.060197
 21
608.473667
 31
0.0
  0
LINE
  5
159B2
  8
L1
 10
565.560197
 20
607.473667
 30
0.0
 11
572.560197
 21
607.473667
 31
0.0
  0
LINE
  5
159C2
  8
L1
 10
398.660197
 20
608.473667
 30
0.0
 11
569.060197
 21
608.473667
 31
0.0
  0
LINE
  5
159C3
  8
L1
 10
376.060197
 20
608.473667
 30
0.0
 11
376.060197
 21
609.473667
 31
0.0
  0
LINE
  5
159C4
  8
L1
 10
289.64697
 20
529.861297
 30
0.0
 11
288.64697
 21
529.861297
 31
0.0
  0
LINE
  5
159C5
  8
L1
 10
289.64697
 20
529.861297
 30
0.0
 11
289.64697
 21
528.861297
 31
0.0
  0
LINE
  5
159C6
  8
L1
 10
289.64697
 20
507.261297
 30
0.0
 11
289.64697
 21
491.227323
 31
0.0
  0
LINE
  5
159C7
  8
L1
 10
289.64697
 20
482.495272
 30
0.0
 11
289.64697
 21
166.461297
 31
0.0
  0
LINE
  5
159C8
  8
L1
 10
289.64697
 20
143.861297
 30
0.0
 11
288.64697
 21
143.861297
 31
0.0
  0
LINE
  5
159C9
  8
L1
 10
289.64697
 20
144.894138
 30
0.0
 11
289.64697
 21
143.861297
 31
0.0
  0
LINE
  5
159CA
  8
L1
 10
1014.292103
 20
143.861297
 30
0.0
 11
1015.292103
 21
143.861297
 31
0.0
  0
LINE
  5
159CB
  8
L1
 10
1014.292103
 20
143.861297
 30
0.0
 11
1014.292103
 21
144.861297
 31
0.0
  0
LINE
  5
159CC
  8
L1
 10
1014.292103
 20
166.461297
 30
0.0
 11
1014.292103
 21
507.261297
 31
0.0
  0
LINE
  5
159CD
  8
L1
 10
1014.292103
 20
529.861297
 30
0.0
 11
1015.292103
 21
529.861297
 31
0.0
  0
LINE
  5
159CE
  8
L1
 10
1014.292103
 20
528.861297
 30
0.0
 11
1014.292103
 21
529.861297
 31
0.0
  0
LINE
  5
15DA0
  8
L1
 10
669.693999
 20
535.861297
 30
0.0
 11
373.346999
 21
535.861297
 31
0.0
  0
LINE
  5
15DA1
  8
L1
 10
379.846999
 20
531.861297
 30
0.0
 11
669.693999
 21
531.861297
 31
0.0
  0
LINE
  5
15DA2
  8
L1
 10
393.346999
 20
528.861297
 30
0.0
 11
669.693999
 21
528.861297
 31
0.0
  0
ARC
  5
15DA3
  8
L1
 10
373.346999
 20
533.361297
 30
0.0
 40
2.5
 50
90.0
 51
180.0
  0
LINE
  5
15DA4
  8
L1
 10
379.846999
 20
528.861297
 30
0.0
 11
388.846999
 21
528.861297
 31
0.0
  0
LINE
  5
15DA5
  8
L1
 10
389.846999
 20
526.861297
 30
0.0
 11
392.346999
 21
526.861297
 31
0.0
  0
ARC
  5
15DA6
  8
L1
 10
388.846999
 20
527.861297
 30
0.0
 40
1.0
 50
0.0
 51
90.0
  0
ARC
  5
15DA7
  8
L1
 10
393.346999
 20
527.861297
 30
0.0
 40
1.0
 50
90.0
 51
180.0
  0
ARC
  5
15DA8
  8
L1
 10
379.846999
 20
526.861297
 30
0.0
 40
2.0
 50
90.0
 51
180.0
  0
ARC
  5
15DA9
  8
L1
 10
379.846999
 20
526.861297
 30
0.0
 40
5.0
 50
90.0
 51
180.0
  0
LINE
  5
15DAA
  8
L1
 10
370.846999
 20
140.361297
 30
0.0
 11
370.846999
 21
336.861297
 31
0.0
  0
LINE
  5
15DAB
  8
L1
 10
373.346999
 20
137.861297
 30
0.0
 11
670.000006
 21
137.861297
 31
0.0
  0
LINE
  5
15DAC
  8
L1
 10
379.846999
 20
141.861297
 30
0.0
 11
669.847006
 21
141.861297
 31
0.0
  0
ARC
  5
15DAD
  8
L1
 10
373.346999
 20
140.361297
 30
0.0
 40
2.5
 50
180.0
 51
270.0
  0
ARC
  5
15DAE
  8
L1
 10
379.846999
 20
146.861297
 30
0.0
 40
5.0
 50
180.0
 51
270.0
  0
LINE
  5
15DAF
  8
L1
 10
370.846999
 20
336.861297
 30
0.0
 11
370.846999
 21
533.361297
 31
0.0
  0
LINE
  5
15DB0
  8
L1
 10
372.346999
 20
329.361297
 30
0.0
 11
372.346999
 21
344.361297
 31
0.0
  0
LINE
  5
15DB1
  8
L1
 10
374.346999
 20
344.361297
 30
0.0
 11
374.346999
 21
329.361297
 31
0.0
  0
LINE
  5
15DB2
  8
L1
 10
372.346999
 20
329.361297
 30
0.0
 11
374.346999
 21
329.361297
 31
0.0
  0
LINE
  5
15DB3
  8
L1
 10
374.346999
 20
344.361297
 30
0.0
 11
372.346999
 21
344.361297
 31
0.0
  0
LINE
  5
15DC4
  8
L1
 10
374.846999
 20
336.861297
 30
0.0
 11
374.846999
 21
526.861297
 31
0.0
  0
LINE
  5
15DC5
  8
L1
 10
374.846999
 20
336.861297
 30
0.0
 11
374.846999
 21
146.861297
 31
0.0
  0
LINE
  5
15DC6
  8
L1
 10
377.846999
 20
517.861297
 30
0.0
 11
377.846999
 21
526.861297
 31
0.0
  0
LINE
  5
15DC7
  8
L1
 10
398.660197
 20
65.248927
 30
0.0
 11
569.060197
 21
65.248927
 31
0.0
  0
LINE
  5
15DC8
  8
L1
 10
669.057189
 20
-98.551073
 30
0.0
 11
372.499536
 21
-98.551073
 31
0.0
  0
LINE
  5
15DC9
  8
L1
 10
374.864044
 20
-108.751073
 30
0.0
 11
963.256349
 21
-108.751073
 31
0.0
  0
LINE
  5
15DCA
  8
L1
 10
370.060197
 20
-105.751073
 30
0.0
 11
968.060197
 21
-105.751073
 31
0.0
  0
LINE
  5
15DCB
  8
L1
 10
371.560197
 20
64.248927
 30
0.0
 11
569.060197
 21
64.248927
 31
0.0
  0
LINE
  5
15DCC
  8
L1
 10
386.560197
 20
-98.551073
 30
0.0
 11
386.560197
 21
64.248927
 31
0.0
  0
LINE
  5
15DCD
  8
L1
 10
371.560197
 20
64.248927
 30
0.0
 11
371.560197
 21
-98.420053
 31
0.0
  0
LINE
  5
15DCE
  8
L1
 10
372.499536
 20
-98.551073
 30
0.0
 11
372.499536
 21
64.248927
 31
0.0
  0
LINE
  5
15DCF
  8
L1
 10
400.25313
 20
66.248927
 30
0.0
 11
410.479263
 21
66.248927
 31
0.0
  0
LINE
  5
15DD0
  8
L1
 10
377.060197
 20
66.248927
 30
0.0
 11
398.660197
 21
66.248927
 31
0.0
  0
LINE
  5
15DD1
  8
L1
 10
376.060197
 20
65.248927
 30
0.0
 11
376.060197
 21
64.248927
 31
0.0
  0
LINE
  5
15DD2
  8
L1
 10
376.060197
 20
65.248927
 30
0.0
 11
377.060197
 21
65.248927
 31
0.0
  0
LINE
  5
15DD3
  8
L1
 10
377.060197
 20
64.248927
 30
0.0
 11
377.060197
 21
66.248927
 31
0.0
  0
LINE
  5
15DD4
  8
L1
 10
400.25313
 20
66.248927
 30
0.0
 11
399.67578
 21
65.248927
 31
0.0
  0
LINE
  5
15DD5
  8
L1
 10
396.160197
 20
66.248927
 30
0.0
 11
396.160197
 21
64.248927
 31
0.0
  0
LINE
  5
15DD6
  8
L1
 10
387.660197
 20
66.248927
 30
0.0
 11
387.660197
 21
64.248927
 31
0.0
  0
LINE
  5
15DD7
  8
L1
 10
398.660197
 20
66.248927
 30
0.0
 11
398.660197
 21
64.248927
 31
0.0
  0
LINE
  5
15DD8
  8
L1
 10
410.479263
 20
66.248927
 30
0.0
 11
411.056613
 21
65.248927
 31
0.0
  0
LINE
  5
15DD9
  8
L1
 10
422.560197
 20
66.248927
 30
0.0
 11
423.137547
 21
65.248927
 31
0.0
  0
LINE
  5
15DDA
  8
L1
 10
415.560197
 20
66.248927
 30
0.0
 11
414.982846
 21
65.248927
 31
0.0
  0
LINE
  5
15DDB
  8
L1
 10
415.560197
 20
66.248927
 30
0.0
 11
422.560197
 21
66.248927
 31
0.0
  0
LINE
  5
15DDC
  8
L1
 10
438.093972
 20
66.248927
 30
0.0
 11
438.093972
 21
65.248927
 31
0.0
  0
LINE
  5
15DDD
  8
L1
 10
450.629506
 20
66.248927
 30
0.0
 11
450.629506
 21
65.248927
 31
0.0
  0
LINE
  5
15DDE
  8
L1
 10
438.093972
 20
66.248927
 30
0.0
 11
450.629506
 21
66.248927
 31
0.0
  0
LINE
  5
15DDF
  8
L1
 10
374.060197
 20
-105.751073
 30
0.0
 11
374.864044
 21
-108.751073
 31
0.0
  0
LINE
  5
15DE0
  8
L1
 10
370.060197
 20
-98.551073
 30
0.0
 11
371.560197
 21
-98.420053
 31
0.0
  0
LINE
  5
15DE1
  8
L1
 10
370.060197
 20
-98.551073
 30
0.0
 11
370.060197
 21
-105.751073
 31
0.0
  0
LINE
  5
15DE2
  8
L1
 10
965.620857
 20
-98.494151
 30
0.0
 11
965.620857
 21
64.248927
 31
0.0
  0
LINE
  5
15DE3
  8
L1
 10
951.560197
 20
-98.551073
 30
0.0
 11
951.560197
 21
64.248927
 31
0.0
  0
LINE
  5
15DE4
  8
L1
 10
966.560197
 20
64.248927
 30
0.0
 11
966.560197
 21
-98.420053
 31
0.0
  0
LINE
  5
15DE5
  8
L1
 10
939.460197
 20
65.248927
 30
0.0
 11
569.060197
 21
65.248927
 31
0.0
  0
LINE
  5
15DE6
  8
L1
 10
966.560197
 20
64.248927
 30
0.0
 11
569.060197
 21
64.248927
 31
0.0
  0
LINE
  5
15DE7
  8
L1
 10
465.560197
 20
66.248927
 30
0.0
 11
472.560197
 21
66.248927
 31
0.0
  0
LINE
  5
15DE8
  8
L1
 10
465.560197
 20
66.248927
 30
0.0
 11
464.982846
 21
65.248927
 31
0.0
  0
LINE
  5
15DE9
  8
L1
 10
472.560197
 20
66.248927
 30
0.0
 11
473.137547
 21
65.248927
 31
0.0
  0
LINE
  5
15DEA
  8
L1
 10
522.560197
 20
66.248927
 30
0.0
 11
515.560197
 21
66.248927
 31
0.0
  0
LINE
  5
15DEB
  8
L1
 10
515.560197
 20
66.248927
 30
0.0
 11
514.982846
 21
65.248927
 31
0.0
  0
LINE
  5
15DEC
  8
L1
 10
522.560197
 20
66.248927
 30
0.0
 11
523.137547
 21
65.248927
 31
0.0
  0
LINE
  5
15DED
  8
L1
 10
565.560197
 20
66.248927
 30
0.0
 11
572.560197
 21
66.248927
 31
0.0
  0
LINE
  5
15DEE
  8
L1
 10
565.560197
 20
66.248927
 30
0.0
 11
564.982846
 21
65.248927
 31
0.0
  0
LINE
  5
15DEF
  8
L1
 10
572.560197
 20
66.248927
 30
0.0
 11
573.137547
 21
65.248927
 31
0.0
  0
LINE
  5
15DF0
  8
L1
 10
615.560197
 20
66.248927
 30
0.0
 11
622.560197
 21
66.248927
 31
0.0
  0
LINE
  5
15DF1
  8
L1
 10
619.060197
 20
66.248927
 30
0.0
 11
615.560197
 21
66.248927
 31
0.0
  0
LINE
  5
15DF2
  8
L1
 10
615.560197
 20
66.248927
 30
0.0
 11
614.982846
 21
65.248927
 31
0.0
  0
LINE
  5
15DF3
  8
L1
 10
622.560197
 20
66.248927
 30
0.0
 11
623.137547
 21
65.248927
 31
0.0
  0
LINE
  5
15DF4
  8
L1
 10
672.560197
 20
66.248927
 30
0.0
 11
673.137547
 21
65.248927
 31
0.0
  0
LINE
  5
15DF5
  8
L1
 10
665.560197
 20
66.248927
 30
0.0
 11
664.982846
 21
65.248927
 31
0.0
  0
LINE
  5
15DF6
  8
L1
 10
672.560197
 20
66.248927
 30
0.0
 11
665.560197
 21
66.248927
 31
0.0
  0
LINE
  5
15DF7
  8
L1
 10
669.060197
 20
66.248927
 30
0.0
 11
665.560197
 21
66.248927
 31
0.0
  0
LINE
  5
15DF8
  8
L1
 10
722.560197
 20
66.248927
 30
0.0
 11
723.137547
 21
65.248927
 31
0.0
  0
LINE
  5
15DF9
  8
L1
 10
715.560197
 20
66.248927
 30
0.0
 11
714.982846
 21
65.248927
 31
0.0
  0
LINE
  5
15DFA
  8
L1
 10
722.560197
 20
66.248927
 30
0.0
 11
715.560197
 21
66.248927
 31
0.0
  0
LINE
  5
15DFB
  8
L1
 10
765.560197
 20
66.248927
 30
0.0
 11
764.982846
 21
65.248927
 31
0.0
  0
LINE
  5
15DFC
  8
L1
 10
772.560197
 20
66.248927
 30
0.0
 11
773.137547
 21
65.248927
 31
0.0
  0
LINE
  5
15DFD
  8
L1
 10
772.560197
 20
66.248927
 30
0.0
 11
765.560197
 21
66.248927
 31
0.0
  0
LINE
  5
15DFE
  8
L1
 10
822.560197
 20
66.248927
 30
0.0
 11
815.560197
 21
66.248927
 31
0.0
  0
LINE
  5
15DFF
  8
L1
 10
822.560197
 20
66.248927
 30
0.0
 11
823.137547
 21
65.248927
 31
0.0
  0
LINE
  5
15E00
  8
L1
 10
815.560197
 20
66.248927
 30
0.0
 11
814.982846
 21
65.248927
 31
0.0
  0
LINE
  5
15E01
  8
L1
 10
922.560197
 20
66.248927
 30
0.0
 11
915.560197
 21
66.248927
 31
0.0
  0
LINE
  5
15E02
  8
L1
 10
840.560197
 20
66.248927
 30
0.0
 11
839.982846
 21
65.248927
 31
0.0
  0
LINE
  5
15E03
  8
L1
 10
847.560197
 20
66.248927
 30
0.0
 11
848.137547
 21
65.248927
 31
0.0
  0
LINE
  5
15E04
  8
L1
 10
847.560197
 20
66.248927
 30
0.0
 11
840.560197
 21
66.248927
 31
0.0
  0
LINE
  5
15E05
  8
L1
 10
872.560197
 20
66.248927
 30
0.0
 11
865.560197
 21
66.248927
 31
0.0
  0
LINE
  5
15E06
  8
L1
 10
872.560197
 20
66.248927
 30
0.0
 11
873.137547
 21
65.248927
 31
0.0
  0
LINE
  5
15E07
  8
L1
 10
865.560197
 20
66.248927
 30
0.0
 11
864.982846
 21
65.248927
 31
0.0
  0
LINE
  5
15E08
  8
L1
 10
900.332421
 20
66.248927
 30
0.0
 11
887.796887
 21
66.248927
 31
0.0
  0
LINE
  5
15E09
  8
L1
 10
887.796887
 20
66.248927
 30
0.0
 11
887.796887
 21
65.248927
 31
0.0
  0
LINE
  5
15E0A
  8
L1
 10
900.332421
 20
66.248927
 30
0.0
 11
900.332421
 21
65.248927
 31
0.0
  0
LINE
  5
15E0B
  8
L1
 10
915.560197
 20
66.248927
 30
0.0
 11
914.982846
 21
65.248927
 31
0.0
  0
LINE
  5
15E0C
  8
L1
 10
961.060197
 20
66.248927
 30
0.0
 11
939.460197
 21
66.248927
 31
0.0
  0
LINE
  5
15E0D
  8
L1
 10
938.173263
 20
66.248927
 30
0.0
 11
938.750613
 21
65.248927
 31
0.0
  0
LINE
  5
15E0E
  8
L1
 10
927.94713
 20
66.248927
 30
0.0
 11
927.36978
 21
65.248927
 31
0.0
  0
LINE
  5
15E0F
  8
L1
 10
938.173263
 20
66.248927
 30
0.0
 11
927.94713
 21
66.248927
 31
0.0
  0
LINE
  5
15E10
  8
L1
 10
922.560197
 20
66.248927
 30
0.0
 11
923.137547
 21
65.248927
 31
0.0
  0
LINE
  5
15E11
  8
L1
 10
939.460197
 20
66.248927
 30
0.0
 11
939.460197
 21
64.248927
 31
0.0
  0
LINE
  5
15E12
  8
L1
 10
941.960197
 20
66.248927
 30
0.0
 11
941.960197
 21
64.248927
 31
0.0
  0
LINE
  5
15E13
  8
L1
 10
962.060197
 20
65.248927
 30
0.0
 11
962.060197
 21
64.248927
 31
0.0
  0
LINE
  5
15E14
  8
L1
 10
962.060197
 20
65.248927
 30
0.0
 11
961.060197
 21
65.248927
 31
0.0
  0
LINE
  5
15E15
  8
L1
 10
950.460197
 20
66.248927
 30
0.0
 11
950.460197
 21
64.248927
 31
0.0
  0
LINE
  5
15E16
  8
L1
 10
961.060197
 20
64.248927
 30
0.0
 11
961.060197
 21
66.248927
 31
0.0
  0
LINE
  5
15E17
  8
L1
 10
951.560197
 20
-98.551073
 30
0.0
 11
569.060197
 21
-98.551073
 31
0.0
  0
LINE
  5
15E18
  8
L1
 10
963.256349
 20
-108.751073
 30
0.0
 11
569.060197
 21
-108.751073
 31
0.0
  0
LINE
  5
15E19
  8
L1
 10
964.060197
 20
-105.751073
 30
0.0
 11
963.256349
 21
-108.751073
 31
0.0
  0
LINE
  5
15E1A
  8
L1
 10
951.560197
 20
-98.551073
 30
0.0
 11
965.103512
 21
-98.551073
 31
0.0
  0
LINE
  5
15E1B
  8
L1
 10
968.060197
 20
-98.551073
 30
0.0
 11
966.560197
 21
-98.420053
 31
0.0
  0
LINE
  5
15E1C
  8
L1
 10
968.060197
 20
-98.551073
 30
0.0
 11
968.060197
 21
-105.751073
 31
0.0
  0
VIEWPORT
  5
22
 67
     1
  8
0
 10
261.517699
 20
148.5
 30
0.0
 40
523.035398
 41
297.0
 68
    -1
 69
     1
1001
ACAD
1000
MVIEW
1002
{
1070
    16
1010
0.0
1020
0.0
1030
0.0
1010
0.0
1020
0.0
1030
1.0
1040
0.0
1040
297.0
1040
261.517699
1040
148.5
1040
50.0
1040
0.0
1040
0.0
1070
     0
1070
   100
1070
     1
1070
     1
1070
     0
1070
     0
1070
     0
1070
     0
1040
0.0
1040
0.0
1040
0.0
1040
1.0
1040
1.0
1040
10.0
1040
10.0
1070
     0
1002
{
1002
}
1002
}
  0
ENDSEC
  0
EOF
