  0
SECTION
  2
HEADER
  9
$ACADVER
  1
AC1012
  9
$DWGCODEPAGE
  3
ansi_1252
  9
$INSBASE
 10
0.0
 20
0.0
 30
0.0
  9
$EXTMIN
 10
3.773032766825963
 20
-4.712946518132241
 30
0.0
  9
$EXTMAX
 10
1391.520994855323
 20
932.8313303056591
 30
0.3
  9
$LIMMIN
 10
0.0
 20
0.0
  9
$LIMMAX
 10
1396.726896626447
 20
930.3898110217533
  9
$ORTHOMODE
 70
     1
  9
$REGENMODE
 70
     1
  9
$FILLMODE
 70
     1
  9
$QTEXTMODE
 70
     0
  9
$MIRRTEXT
 70
     1
  9
$DRAGMODE
 70
     2
  9
$LTSCALE
 40
25.0
  9
$OSMODE
 70
    39
  9
$ATTMODE
 70
     1
  9
$TEXTSIZE
 40
3.5
  9
$TRACEWID
 40
0.05
  9
$TEXTSTYLE
  7
CAEISO
  9
$CLAYER
  8
L1
  9
$CELTYPE
  6
BYLAYER
  9
$CECOLOR
 62
   256
  9
$CELTSCALE
 40
1.0
  9
$DELOBJ
 70
     1
  9
$DISPSILH
 70
     1
  9
$DIMSCALE
 40
1.0
  9
$DIMASZ
 40
3.5
  9
$DIMEXO
 40
2.5
  9
$DIMDLI
 40
2.5
  9
$DIMRND
 40
0.0
  9
$DIMDLE
 40
0.0
  9
$DIMEXE
 40
2.5
  9
$DIMTP
 40
0.0
  9
$DIMTM
 40
0.0
  9
$DIMTXT
 40
3.5
  9
$DIMCEN
 40
0.0
  9
$DIMTSZ
 40
0.0
  9
$DIMTOL
 70
     0
  9
$DIMLIM
 70
     0
  9
$DIMTIH
 70
     0
  9
$DIMTOH
 70
     0
  9
$DIMSE1
 70
     0
  9
$DIMSE2
 70
     0
  9
$DIMTAD
 70
     1
  9
$DIMZIN
 70
    12
  9
$DIMBLK
  1

  9
$DIMASO
 70
     1
  9
$DIMSHO
 70
     1
  9
$DIMPOST
  1

  9
$DIMAPOST
  1

  9
$DIMALT
 70
     0
  9
$DIMALTD
 70
     2
  9
$DIMALTF
 40
25.4
  9
$DIMLFAC
 40
1.0
  9
$DIMTOFL
 70
     0
  9
$DIMTVP
 40
0.0
  9
$DIMTIX
 70
     0
  9
$DIMSOXD
 70
     0
  9
$DIMSAH
 70
     0
  9
$DIMBLK1
  1

  9
$DIMBLK2
  1

  9
$DIMSTYLE
  2
DETALJI
  9
$DIMCLRD
 70
     1
  9
$DIMCLRE
 70
     1
  9
$DIMCLRT
 70
     3
  9
$DIMTFAC
 40
0.1428571428571428
  9
$DIMGAP
 40
1.0
  9
$DIMJUST
 70
     0
  9
$DIMSD1
 70
     0
  9
$DIMSD2
 70
     0
  9
$DIMTOLJ
 70
     1
  9
$DIMTZIN
 70
    12
  9
$DIMALTZ
 70
    12
  9
$DIMALTTZ
 70
    12
  9
$DIMFIT
 70
     5
  9
$DIMUPT
 70
     0
  9
$DIMUNIT
 70
     2
  9
$DIMDEC
 70
     1
  9
$DIMTDEC
 70
     1
  9
$DIMALTU
 70
     2
  9
$DIMALTTD
 70
     2
  9
$DIMTXSTY
  7
CAEISO
  9
$DIMAUNIT
 70
     0
  9
$LUNITS
 70
     2
  9
$LUPREC
 70
     1
  9
$SKETCHINC
 40
1.0
  9
$FILLETRAD
 40
0.0
  9
$AUNITS
 70
     0
  9
$AUPREC
 70
     1
  9
$MENU
  1
CAESAR
  9
$ELEVATION
 40
0.0
  9
$PELEVATION
 40
0.0
  9
$THICKNESS
 40
0.0
  9
$LIMCHECK
 70
     0
  9
$BLIPMODE
 70
     0
  9
$CHAMFERA
 40
5.0
  9
$CHAMFERB
 40
5.0
  9
$CHAMFERC
 40
0.0
  9
$CHAMFERD
 40
0.0
  9
$SKPOLY
 70
     0
  9
$TDCREATE
 40
2450484.546572800
  9
$TDUPDATE
 40
2450779.564523067
  9
$TDINDWG
 40
0.6277692130
  9
$TDUSRTIMER
 40
0.6277692130
  9
$USRTIMER
 70
     1
  9
$ANGBASE
 50
0.0
  9
$ANGDIR
 70
     0
  9
$PDMODE
 70
     0
  9
$PDSIZE
 40
0.0
  9
$PLINEWID
 40
0.0
  9
$COORDS
 70
     2
  9
$SPLFRAME
 70
     0
  9
$SPLINETYPE
 70
     6
  9
$SPLINESEGS
 70
     8
  9
$ATTDIA
 70
     0
  9
$ATTREQ
 70
     1
  9
$HANDLING
 70
     1
  9
$HANDSEED
  5
872
  9
$SURFTAB1
 70
     6
  9
$SURFTAB2
 70
     6
  9
$SURFTYPE
 70
     6
  9
$SURFU
 70
     6
  9
$SURFV
 70
     6
  9
$UCSNAME
  2

  9
$UCSORG
 10
0.0
 20
0.0
 30
0.0
  9
$UCSXDIR
 10
1.0
 20
0.0
 30
0.0
  9
$UCSYDIR
 10
0.0
 20
1.0
 30
0.0
  9
$PUCSNAME
  2

  9
$PUCSORG
 10
0.0
 20
0.0
 30
0.0
  9
$PUCSXDIR
 10
1.0
 20
0.0
 30
0.0
  9
$PUCSYDIR
 10
0.0
 20
1.0
 30
0.0
  9
$USERI1
 70
     0
  9
$USERI2
 70
     0
  9
$USERI3
 70
     0
  9
$USERI4
 70
     0
  9
$USERI5
 70
     0
  9
$USERR1
 40
1.0
  9
$USERR2
 40
0.0
  9
$USERR3
 40
3.5
  9
$USERR4
 40
5.0
  9
$USERR5
 40
0.0
  9
$WORLDVIEW
 70
     1
  9
$SHADEDGE
 70
     3
  9
$SHADEDIF
 70
    70
  9
$TILEMODE
 70
     1
  9
$MAXACTVP
 70
    16
  9
$PINSBASE
 10
0.0
 20
0.0
 30
0.0
  9
$PLIMCHECK
 70
     0
  9
$PEXTMIN
 10
1.000000000000000E+20
 20
1.000000000000000E+20
 30
1.000000000000000E+20
  9
$PEXTMAX
 10
-1.000000000000000E+20
 20
-1.000000000000000E+20
 30
-1.000000000000000E+20
  9
$PLIMMIN
 10
0.0
 20
0.0
  9
$PLIMMAX
 10
420.0
 20
297.0
  9
$UNITMODE
 70
     0
  9
$VISRETAIN
 70
     0
  9
$PLINEGEN
 70
     0
  9
$PSLTSCALE
 70
     0
  9
$TREEDEPTH
 70
  3020
  9
$PICKSTYLE
 70
     1
  9
$CMLSTYLE
  2
STANDARD
  9
$CMLJUST
 70
     0
  9
$CMLSCALE
 40
1.0
  9
$SAVEIMAGES
 70
     0
  0
ENDSEC
  0
SECTION
  2
CLASSES
  0
CLASS
  1
ACMESCOPE
  2
AcMeScope
  3
ACME_MODULE_NAME
 90
        0
280
     0
281
     0
  0
CLASS
  1
ACMECOMMANDHISTORY
  2
AcMeCommandHistory
  3
ACME_MODULE_NAME
 90
        0
280
     0
281
     0
  0
CLASS
  1
AcRfInsAdjusterMgr
  2
AcRfInsAdjusterMgr
  3
ACME_MODULE_NAME
 90
        0
280
     0
281
     0
  0
CLASS
  1
ACGREFMASTER
  2
AcGrefMaster
  3
"AcadRfServer"
 90
        0
280
     0
281
     0
  0
CLASS
  1
AmiMaster
  2
AmiMaster
  3
"AmiServices"
 90
        0
280
     0
281
     0
  0
CLASS
  1
ACASGREFMASTER
  2
AcAsGrefMaster
  3
"AutoSurfResolver"
 90
        0
280
     0
281
     0
  0
CLASS
  1
ADAPPL
  2
AcAdAppl
  3
DesignerServices
 90
        0
280
     0
281
     0
  0
CLASS
  1
DEPMGR
  2
AcAdDepMgr
  3
DesignerServices
 90
        0
280
     0
281
     0
  0
CLASS
  1
PARAMMGR
  2
AcAdParamMgr
  3
DesignerServices
 90
        0
280
     0
281
     0
  0
CLASS
  1
PARAMSCOPE
  2
AcAdParamScope
  3
DesignerServices
 90
        0
280
     0
281
     0
  0
CLASS
  1
"IM_SYSVAR_MAN"
  2
AcImSysVarManager
  3
"ADAM"
 90
        0
280
     0
281
     0
  0
CLASS
  1
SYSTEM_VAR_INT
  2
AcImIntSysVar
  3
"ADAM"
 90
        0
280
     0
281
     0
  0
CLASS
  1
SYSTEM_VAR_REAL
  2
AcImRealSysVar
  3
"ADAM"
 90
        0
280
     0
281
     0
  0
CLASS
  1
SYSTEM_VAR_STR
  2
AcImStrSysVar
  3
"ADAM"
 90
        0
280
     0
281
     0
  0
CLASS
  1
NAMEDAPPL
  2
AcAdNamedAppl
  3
DesignerServices
 90
        0
280
     0
281
     0
  0
CLASS
  1
ADPART
  2
AcAdPart
  3
DesignerServices
 90
        0
280
     0
281
     1
  0
CLASS
  1
ADBASE
  2
AcAdBase
  3
DesignerServices
 90
        0
280
     0
281
     0
  0
CLASS
  1
BODYID
  2
AcAdBodyId
  3
DesignerServices
 90
        0
280
     0
281
     0
  0
CLASS
  1
WORKPLANEDISPLAYMGR
  2
AcAdDisplayMgr
  3
DesignerServices
 90
        0
280
     0
281
     0
  0
CLASS
  1
ADHNTMPLT
  2
AdHoleNoteTemplateMgr
  3
DesignerServices
 90
        0
280
     0
281
     0
  0
CLASS
  1
AM_HNTEMPLATE_MGR_NAME
  2
AdHoleNoteTemplateMgrName
  3
DesignerServices
 90
        0
280
     0
281
     0
  0
CLASS
  1
AcAdGrefModule
  2
AcAdGrefModule
  3
AD_GREF_SERVICES_NSTR
 90
        0
280
     0
281
     0
  0
CLASS
  1
AM_DRAWING_MGR
  2
AcDmDwgMgr
  3
AcMechDwgViewMgmt
 90
        0
280
     0
281
     0
  0
CLASS
  1
AM_DWG_DOCUMENT
  2
AcDmDwgDocument
  3
AcMechDwgViewMgmt
 90
        0
280
     0
281
     0
  0
CLASS
  1
AM_DWG_SHEET
  2
AcDmSheet
  3
AcMechDwgViewMgmt
 90
        0
280
     0
281
     0
  0
CLASS
  1
AM_VIEWDIMPARMAP
  2
AcDmViewDimParMap
  3
AcMechDwgViewMgmt
 90
        0
280
     0
281
     0
  0
CLASS
  1
AM_DWGMGR_NAME
  2
AcDmDwgMgrName
  3
AcMechDwgViewMgmt
 90
        0
280
     0
281
     0
  0
CLASS
  1
ACAMPROJECT
  2
AcAmProject
  3
DesignerAssemblies
 90
        0
280
     0
281
     0
  0
CLASS
  1
ACAMGRCOMPSET
  2
AcAmGrCompSet
  3
DesignerAssemblies
 90
        0
280
     0
281
     0
  0
CLASS
  1
ACAMGRCOMPDEFSET
  2
AcAmGrCompDefSet
  3
DesignerAssemblies
 90
        0
280
     0
281
     0
  0
CLASS
  1
ACAMGRCOMPDEF
  2
AcAmGrCompDef
  3
DesignerAssemblies
 90
        0
280
     0
281
     0
  0
CLASS
  1
ACAMCOMPDEF
  2
AcAmCompDef
  3
DesignerAssemblies
 90
        0
280
     0
281
     0
  0
CLASS
  1
ACAMCOMPDEFMGR
  2
AcAmCompDefMgr
  3
DesignerAssemblies
 90
        0
280
     0
281
     0
  0
CLASS
  1
AMCONTEXTMGR
  2
AcAmContextMgr
  3
DesignerAssemblies
 90
        0
280
     0
281
     0
  0
CLASS
  1
ACAMCONTEXTMODELER
  2
AcAmContextModeler
  3
DesignerAssemblies
 90
        0
280
     0
281
     0
  0
CLASS
  1
ACAMDRAWINGMAN
  2
AcAmDrawingMan
  3
DesignerAssemblies
 90
        0
280
     0
281
     0
  0
CLASS
  1
ACDMVIEWGEOM
  2
AcDmViewGeometry
  3
AcMechDwgViewMgmt
 90
        0
280
     0
281
     1
  0
CLASS
  1
ASSYSVARS
  2
AcAsSysVars
  3
"AutoSurf"
 90
        0
280
     0
281
     0
  0
CLASS
  1
ASSTATICVARS
  2
AcAsStaticVars
  3
"AutoSurf"
 90
        0
280
     0
281
     0
  0
CLASS
  1
ASAPP
  2
AcAsAppObject
  3
"AutoSurf"
 90
        0
280
     0
281
     0
  0
ENDSEC
  0
SECTION
  2
TABLES
  0
TABLE
  2
VPORT
  5
13
100
AcDbSymbolTable
 70
     3
  0
VPORT
  5
871
100
AcDbSymbolTableRecord
100
AcDbViewportTableRecord
  2
*ACTIVE
 70
     0
 10
0.0
 20
0.0
 11
1.0
 21
1.0
 12
714.244596988783
 22
465.6989068810664
 13
0.0
 23
0.0
 14
1.0
 24
1.0
 15
10.0
 25
10.0
 16
0.0
 26
0.0
 36
1.0
 17
0.0
 27
0.0
 37
0.0
 40
950.0
 41
1.672965116279069
 42
50.0
 43
0.0
 44
0.0
 50
0.0
 51
0.0
 71
     0
 72
   500
 73
     1
 74
     0
 75
     0
 76
     0
 77
     0
 78
     0
  0
ENDTAB
  0
TABLE
  2
LTYPE
  5
F
100
AcDbSymbolTable
 70
     4
  0
LTYPE
  5
10
100
AcDbSymbolTableRecord
100
AcDbLinetypeTableRecord
  2
BYBLOCK
 70
     0
  3

 72
    65
 73
     0
 40
0.0
  0
LTYPE
  5
6
100
AcDbSymbolTableRecord
100
AcDbLinetypeTableRecord
  2
BYLAYER
 70
     0
  3

 72
    65
 73
     0
 40
0.0
  0
LTYPE
  5
5
100
AcDbSymbolTableRecord
100
AcDbLinetypeTableRecord
  2
CONTINUOUS
 70
    64
  3
Solid line
 72
    65
 73
     0
 40
0.0
  0
LTYPE
  5
DC
100
AcDbSymbolTableRecord
100
AcDbLinetypeTableRecord
  2
CENTER
 70
    64
  3
____ _ ____ _ ____ _ ____ _ ____ _ ____ _ ____ 
 72
    65
 73
     4
 40
2.0
 49
1.25
 74
     0
 49
-0.25
 74
     0
 49
0.25
 74
     0
 49
-0.25
 74
     0
  0
LTYPE
  5
329
100
AcDbSymbolTableRecord
100
AcDbLinetypeTableRecord
  2
HIDDEN
 70
    64
  3
__ __ __ __ __ __ __ __ __ __ __ __ __ __ __ __
 72
    65
 73
     2
 40
0.375
 49
0.25
 74
     0
 49
-0.125
 74
     0
  0
ENDTAB
  0
TABLE
  2
LAYER
  5
B
100
AcDbSymbolTable
 70
     7
  0
LAYER
  5
C
100
AcDbSymbolTableRecord
100
AcDbLayerTableRecord
  2
0
 70
    64
 62
     7
  6
CONTINUOUS
  0
LAYER
  5
1C
100
AcDbSymbolTableRecord
100
AcDbLayerTableRecord
  2
L1
 70
    64
 62
     7
  6
CONTINUOUS
  0
LAYER
  5
134
100
AcDbSymbolTableRecord
100
AcDbLayerTableRecord
  2
L2
 70
    64
 62
     1
  6
HIDDEN
  0
LAYER
  5
DB
100
AcDbSymbolTableRecord
100
AcDbLayerTableRecord
  2
L6
 70
    64
 62
     1
  6
CENTER
  0
LAYER
  5
4
100
AcDbSymbolTableRecord
100
AcDbLayerTableRecord
  2
L22
 70
    64
 62
     1
  6
CONTINUOUS
  0
LAYER
  5
616
100
AcDbSymbolTableRecord
100
AcDbLayerTableRecord
  2
DEFPOINTS
 70
    64
 62
     7
  6
CONTINUOUS
  0
ENDTAB
  0
TABLE
  2
STYLE
  5
D
100
AcDbSymbolTable
 70
     2
  0
STYLE
  5
E
100
AcDbSymbolTableRecord
100
AcDbTextStyleTableRecord
  2
STANDARD
 70
    64
 40
0.0
 41
1.0
 50
0.0
 71
     0
 42
5.0
  3
simplex.shx
  4

  0
STYLE
  5
1D
100
AcDbSymbolTableRecord
100
AcDbTextStyleTableRecord
  2
CAEISO
 70
    64
 40
0.0
 41
1.0
 50
0.0
 71
     0
 42
3.5
  3
simplex.shx
  4

  0
ENDTAB
  0
TABLE
  2
VIEW
  5
11
100
AcDbSymbolTable
 70
     0
  0
ENDTAB
  0
TABLE
  2
UCS
  5
12
100
AcDbSymbolTable
 70
     0
  0
ENDTAB
  0
TABLE
  2
APPID
  5
15
100
AcDbSymbolTable
 70
     1
  0
APPID
  5
16
100
AcDbSymbolTableRecord
100
AcDbRegAppTableRecord
  2
ACAD
 70
    64
  0
ENDTAB
  0
TABLE
  2
DIMSTYLE
  5
17
100
AcDbSymbolTable
 70
     1
  0
DIMSTYLE
105
1F
100
AcDbSymbolTableRecord
100
AcDbDimStyleTableRecord
  2
DETALJI
 70
     0
  3

  4

  5

  6

  7

 40
1.0
 41
3.5
 42
2.5
 43
2.5
 44
2.5
 45
0.0
 46
0.0
 47
0.0
 48
0.0
140
7.0
141
0.0
142
0.0
143
25.4
144
1.0
145
0.0
146
0.1428571428571428
147
1.0
 71
     0
 72
     0
 73
     0
 74
     0
 75
     0
 76
     0
 77
     1
 78
    12
170
     0
171
     2
172
     0
173
     0
174
     0
175
     0
176
     1
177
     1
178
     3
270
     2
271
     1
272
     1
273
     2
274
     2
340
1D
275
     0
280
     0
281
     0
282
     0
283
     1
284
    12
285
    12
286
    12
287
     5
288
     0
  0
ENDTAB
  0
TABLE
  2
BLOCK_RECORD
  5
1
100
AcDbSymbolTable
 70
     2
  0
BLOCK_RECORD
  5
2
100
AcDbSymbolTableRecord
100
AcDbBlockTableRecord
  2
*MODEL_SPACE
  0
BLOCK_RECORD
  5
8
100
AcDbSymbolTableRecord
100
AcDbBlockTableRecord
  2
*PAPER_SPACE
  0
BLOCK_RECORD
  5
65C
100
AcDbSymbolTableRecord
100
AcDbBlockTableRecord
  2
A$C18
  0
ENDTAB
  0
ENDSEC
  0
SECTION
  2
BLOCKS
  0
BLOCK
  5
3
100
AcDbEntity
  8
L22
100
AcDbBlockBegin
  2
*MODEL_SPACE
 70
     0
 10
0.0
 20
0.0
 30
0.0
  3
*MODEL_SPACE
  1

  0
ENDBLK
  5
7
100
AcDbEntity
  8
L22
100
AcDbBlockEnd
  0
BLOCK
  5
9
100
AcDbEntity
 67
     1
  8
L22
100
AcDbBlockBegin
  2
*PAPER_SPACE
 70
     0
 10
0.0
 20
0.0
 30
0.0
  3
*PAPER_SPACE
  1

  0
ENDBLK
  5
A
100
AcDbEntity
 67
     1
  8
L22
100
AcDbBlockEnd
  0
BLOCK
  5
65F
100
AcDbEntity
  8
L1
100
AcDbBlockBegin
  2
A$C18
 70
     0
 10
0.0
 20
0.0
 30
0.0
  3
A$C18
  1

  0
LINE
  5
65D
100
AcDbEntity
  8
L2
100
AcDbLine
 10
0.1018027170267715
 20
28.03949301115276
 30
0.0
 11
0.1018027170267715
 21
25.03949301115275
 31
0.0
  0
LINE
  5
65E
100
AcDbEntity
  8
L2
100
AcDbLine
 10
0.1018027170267715
 20
3.039493011152757
 30
0.0
 11
0.1018027170267715
 21
0.0394930111527572
 31
0.0
  0
ENDBLK
  5
660
100
AcDbEntity
  8
L1
100
AcDbBlockEnd
  0
ENDSEC
  0
SECTION
  2
ENTITIES
  0
LINE
  5
CC
100
AcDbEntity
  8
L1
100
AcDbLine
 10
393.6776538906599
 20
224.7096515868648
 30
0.0
 11
393.6776538906603
 21
223.2096515868648
 31
0.0
  0
LINE
  5
CD
100
AcDbEntity
  8
L1
100
AcDbLine
 10
413.7733582777857
 20
243.8636812168807
 30
0.0
 11
415.2733582777857
 21
243.8636812168807
 31
0.0
  0
LINE
  5
CE
100
AcDbEntity
  8
L1
100
AcDbLine
 10
404.2957523879319
 20
224.7096515868648
 30
0.0
 11
404.2957523879319
 21
223.2096515868648
 31
0.0
  0
LINE
  5
CF
100
AcDbEntity
  8
L1
100
AcDbLine
 10
413.7733582777857
 20
234.6433269010398
 30
0.0
 11
415.2733582777857
 21
234.6433269010398
 31
0.0
  0
LINE
  5
D4
100
AcDbEntity
  8
L1
100
AcDbLine
 10
50.82527655638682
 20
223.2096515868648
 30
0.0
 11
50.82527655638682
 21
224.7096515868648
 31
0.0
  0
LINE
  5
D5
100
AcDbEntity
  8
L1
100
AcDbLine
 10
42.39203305087198
 20
223.2096515868648
 30
0.0
 11
42.39203305087198
 21
224.7096515868648
 31
0.0
  0
LINE
  5
D6
100
AcDbEntity
  8
L1
100
AcDbLine
 10
33.27335827778529
 20
241.0292224409819
 30
0.0
 11
34.77335827778529
 21
241.0292224409819
 31
0.0
  0
LINE
  5
D7
100
AcDbEntity
  8
L1
100
AcDbLine
 10
33.27335827778529
 20
232.5959789354671
 30
0.0
 11
34.77335827778529
 21
232.5959789354671
 31
0.0
  0
LINE
  5
D8
100
AcDbEntity
  8
L1
100
AcDbLine
 10
1324.773358277785
 20
238.5401956241321
 30
0.0
 11
1324.773358277785
 21
251.2413843512576
 31
0.0
  0
LINE
  5
DD
100
AcDbEntity
  8
L1
100
AcDbLine
 10
782.4546117921307
 20
649.209651586865
 30
0.0
 11
782.4546117921297
 21
414.2096515868648
 31
0.0
  0
LINE
  5
DE
100
AcDbEntity
  8
L1
100
AcDbLine
 10
782.4546117921307
 20
674.209651586865
 30
0.0
 11
782.4546117921307
 21
652.2096515868647
 31
0.0
  0
LINE
  5
F6
100
AcDbEntity
  8
0
 62
     0
100
AcDbLine
 10
1324.773358277785
 20
294.1255921635178
 30
0.0
 11
1324.773358277785
 21
291.6670676956483
 31
0.0
  0
LINE
  5
15F
100
AcDbEntity
  8
L1
100
AcDbLine
 10
616.433247395222
 20
216.6779835449848
 30
0.0
 11
616.4332473952256
 21
711.741319628745
 31
0.0
  0
LINE
  5
166
100
AcDbEntity
  8
L1
100
AcDbLine
 10
573.273358277786
 20
701.8063536343612
 30
0.0
 11
573.2733582777853
 21
225.5030926026541
 31
0.0
  0
LINE
  5
168
100
AcDbEntity
  8
L1
100
AcDbLine
 10
575.7699321146719
 20
222.8722527120464
 30
0.0
 11
575.7699321146721
 21
704.4371935249682
 31
0.0
  0
ARC
  5
187
100
AcDbEntity
  8
L1
100
AcDbCircle
 10
763.7733582777855
 20
651.2096515868647
 30
0.0
 40
2.0
100
AcDbArc
 50
180.0
 51
270.0
  0
LINE
  5
188
100
AcDbEntity
  8
L1
100
AcDbLine
 10
763.7733582777855
 20
649.2096515868647
 30
0.0
 11
782.7786558727835
 21
649.2096515868647
 31
0.0
  0
LINE
  5
18A
100
AcDbEntity
  8
L1
100
AcDbLine
 10
761.7733582777855
 20
656.2096515868647
 30
0.0
 11
773.0766779537175
 21
656.2096515868647
 31
0.0
  0
ARC
  5
18C
100
AcDbEntity
  8
L1
100
AcDbCircle
 10
763.7733582777855
 20
675.2096515868648
 30
0.0
 40
2.0
100
AcDbArc
 50
90.0
 51
180.0
  0
LINE
  5
18D
100
AcDbEntity
  8
L1
100
AcDbLine
 10
761.7733582777855
 20
675.2096515868648
 30
0.0
 11
761.7733582777855
 21
670.2096515868647
 31
0.0
  0
LINE
  5
18E
100
AcDbEntity
  8
L1
100
AcDbLine
 10
763.7733582777855
 20
677.2096515868647
 30
0.0
 11
782.7786558727835
 21
677.2096515868647
 31
0.0
  0
LINE
  5
190
100
AcDbEntity
  8
L1
100
AcDbLine
 10
761.7733582777855
 20
670.2096515868647
 30
0.0
 11
773.076677953717
 21
670.2096515868647
 31
0.0
  0
LINE
  5
191
100
AcDbEntity
  8
L1
100
AcDbLine
 10
782.4546117921301
 20
674.2096515868647
 30
0.0
 11
782.4546117921301
 21
652.2096515868647
 31
0.0
  0
LINE
  5
193
100
AcDbEntity
  8
L1
100
AcDbLine
 10
761.7733582777855
 20
656.2096515868647
 30
0.0
 11
761.7733582777855
 21
651.2096515868647
 31
0.0
  0
LINE
  5
1BD
100
AcDbEntity
  8
L1
100
AcDbLine
 10
426.9700386018537
 20
258.2096515868648
 30
0.0
 11
426.9700386018537
 21
272.2096515868646
 31
0.0
  0
LINE
  5
1D7
100
AcDbEntity
  8
L1
100
AcDbLine
 10
423.273358277787
 20
279.2096515868648
 30
0.0
 11
423.2733582777844
 21
649.2096515868649
 31
0.0
  0
ARC
  5
1DA
100
AcDbEntity
  8
L1
100
AcDbCircle
 10
436.2733582777857
 20
277.2096515868648
 30
0.0
 40
2.0
100
AcDbArc
 50
0.0
 51
90.0
  0
LINE
  5
1DB
100
AcDbEntity
  8
L1
100
AcDbLine
 10
436.2733582777857
 20
279.2096515868648
 30
0.0
 11
423.2733582777853
 21
279.2096515868647
 31
0.0
  0
LINE
  5
1DC
100
AcDbEntity
  8
L1
100
AcDbLine
 10
438.2733582777857
 20
272.2096515868648
 30
0.0
 11
426.9700386018537
 21
272.2096515868646
 31
0.0
  0
ARC
  5
1DD
100
AcDbEntity
  8
L1
100
AcDbCircle
 10
436.2733582777857
 20
253.2096515868648
 30
0.0
 40
2.0
100
AcDbArc
 50
270.0
 51
0.0
  0
LINE
  5
1DE
100
AcDbEntity
  8
L1
100
AcDbLine
 10
438.2733582777857
 20
253.2096515868648
 30
0.0
 11
438.2733582777857
 21
258.2096515868648
 31
0.0
  0
LINE
  5
1DF
100
AcDbEntity
  8
L1
100
AcDbLine
 10
436.2733582777857
 20
251.2096515868648
 30
0.0
 11
423.2733582777853
 21
251.2096515868648
 31
0.0
  0
LINE
  5
1E0
100
AcDbEntity
  8
L1
100
AcDbLine
 10
438.2733582777857
 20
258.2096515868648
 30
0.0
 11
426.9700386018537
 21
258.2096515868648
 31
0.0
  0
LINE
  5
1E4
100
AcDbEntity
  8
L1
100
AcDbLine
 10
438.2733582777857
 20
272.2096515868648
 30
0.0
 11
438.2733582777857
 21
277.2096515868648
 31
0.0
  0
LINE
  5
1F6
100
AcDbEntity
  8
L1
100
AcDbLine
 10
782.4546117921311
 20
278.9087322006621
 30
0.0
 11
782.4546117921297
 21
414.2096515868648
 31
0.0
  0
LINE
  5
1F8
100
AcDbEntity
  8
L1
100
AcDbLine
 10
776.7733582777857
 20
278.9087322006621
 30
0.0
 11
776.7733582777851
 21
649.2096515868647
 31
0.0
  0
LINE
  5
207
100
AcDbEntity
  8
L1
100
AcDbLine
 10
782.4546117921307
 20
705.0283980725203
 30
0.0
 11
782.4546117921307
 21
677.2096515868647
 31
0.0
  0
ARC
  5
20B
100
AcDbEntity
  8
L2
100
AcDbCircle
 10
1334.488047753625
 20
222.1553787350623
 30
0.0
 40
1.0
100
AcDbArc
 50
344.999999999997
 51
89.49999999999926
1001
ACAD
1000
ASC_BOUNDS
1002
{
1070
    19
1002
}
  0
LINE
  5
20C
100
AcDbEntity
  8
L2
 48
0.3
100
AcDbLine
 10
1328.273358277785
 20
223.2096515868643
 30
0.0
 11
1334.496774289124
 21
223.1553406581264
 31
0.0
1001
ACAD
1000
ASC_BOUNDS
1002
{
1070
    19
1002
}
  0
LINE
  5
210
100
AcDbEntity
  8
L2
 48
0.3
100
AcDbLine
 10
1334.283250421141
 20
217.5273613798243
 30
0.0
 11
1335.453973579914
 21
221.8965596899599
 31
0.0
1001
ACAD
1000
ASC_BOUNDS
1002
{
1070
    19
1002
}
  0
LINE
  5
214
100
AcDbEntity
  8
L2
100
AcDbLine
 10
1324.773358277785
 20
224.7096515868645
 30
0.0
 11
1373.33524605392
 21
226.4817697261824
 31
0.0
1001
ACAD
1000
ASC_BOUNDS
1002
{
1070
    19
1002
}
  0
LINE
  5
22A
100
AcDbEntity
  8
L1
100
AcDbLine
 10
776.7733582777855
 20
710.7096515868647
 30
0.0
 11
776.7733582777855
 21
677.2096515868647
 31
0.0
  0
LINE
  5
22F
100
AcDbEntity
  8
L1
100
AcDbLine
 10
782.4546117921301
 20
705.0283980725203
 30
0.0
 11
782.45461179213
 21
677.2096515868647
 31
0.0
  0
LINE
  5
230
100
AcDbEntity
  8
L1
100
AcDbLine
 10
784.4359594029675
 20
414.2096515868648
 30
0.0
 11
784.4359594029669
 21
703.047050461683
 31
0.0
  0
LINE
  5
23B
100
AcDbEntity
  8
L1
100
AcDbLine
 10
1167.110757152603
 20
703.047050461683
 30
0.0
 11
1167.110757152603
 21
225.3722527120466
 31
0.0
  0
LINE
  5
23C
100
AcDbEntity
  8
L1
100
AcDbLine
 10
1169.092104763441
 20
223.3909051012094
 30
0.0
 11
1169.092104763441
 21
705.0283980725203
 31
0.0
  0
LINE
  5
241
100
AcDbEntity
  8
L1
100
AcDbLine
 10
782.4546117921301
 20
223.3909051012094
 30
0.0
 11
782.45461179213
 21
250.9087322006621
 31
0.0
  0
LINE
  5
244
100
AcDbEntity
  8
L1
100
AcDbLine
 10
784.4359594029675
 20
414.2096515868648
 30
0.0
 11
784.4359594029669
 21
225.3722527120466
 31
0.0
  0
LINE
  5
245
100
AcDbEntity
  8
L6
100
AcDbLine
 10
545.3459364832708
 20
464.2096515868648
 30
0.0
 11
651.5319500646849
 21
464.2096515868648
 31
0.0
  0
LINE
  5
248
100
AcDbEntity
  8
L1
100
AcDbLine
 10
776.7733582777855
 20
217.7096515868648
 30
0.0
 11
776.7733582777855
 21
250.9087322006621
 31
0.0
  0
LINE
  5
24C
100
AcDbEntity
  8
L1
100
AcDbLine
 10
1174.773358277785
 20
217.7096515868648
 30
0.0
 11
1174.773358277785
 21
710.7096515868647
 31
0.0
  0
ARC
  5
24F
100
AcDbEntity
  8
L1
100
AcDbCircle
 10
420.7733582777857
 20
217.7096515868648
 30
0.0
 40
0.5
100
AcDbArc
 50
270.0
 51
0.0
  0
ARC
  5
250
100
AcDbEntity
  8
L1
100
AcDbCircle
 10
420.7733582777857
 20
217.7096515868648
 30
0.0
 40
2.5
100
AcDbArc
 50
270.0
 51
0.0
  0
ARC
  5
251
100
AcDbEntity
  8
L1
100
AcDbCircle
 10
412.7733582777857
 20
225.7096515868648
 30
0.0
 40
1.0
100
AcDbArc
 50
270.0
 51
0.0
  0
ARC
  5
252
100
AcDbEntity
  8
L1
 62
     2
100
AcDbCircle
 10
412.7733582777857
 20
225.7096515868648
 30
0.0
 40
8.5
100
AcDbArc
 50
270.0
 51
0.0
  0
ARC
  5
253
100
AcDbEntity
  8
L1
100
AcDbCircle
 10
412.7733582777857
 20
225.7096515868648
 30
0.0
 40
2.5
100
AcDbArc
 50
270.0
 51
0.0
  0
LINE
  5
254
100
AcDbEntity
  8
L1
100
AcDbLine
 10
412.7733582777857
 20
224.7096515868648
 30
0.0
 11
35.77335827778574
 21
224.7096515868648
 31
0.0
  0
LINE
  5
255
100
AcDbEntity
  8
L1
100
AcDbLine
 10
420.7733582777857
 20
217.2096515868648
 30
0.0
 11
27.77335827778574
 21
217.2096515868648
 31
0.0
  0
LINE
  5
256
100
AcDbEntity
  8
L1
100
AcDbLine
 10
412.7733582777857
 20
223.2096515868648
 30
0.0
 11
35.77335827778574
 21
223.2096515868648
 31
0.0
  0
LINE
  5
257
100
AcDbEntity
  8
L1
100
AcDbLine
 10
420.7733582777857
 20
215.2096515868648
 30
0.0
 11
27.77335827778574
 21
215.2096515868648
 31
0.0
  0
LINE
  5
259
100
AcDbEntity
  8
L1
100
AcDbLine
 10
413.7733582777857
 20
702.7096515868647
 30
0.0
 11
413.7733582777857
 21
225.7096515868648
 31
0.0
  0
LINE
  5
25A
100
AcDbEntity
  8
L1
100
AcDbLine
 10
421.2733582777857
 20
217.7096515868648
 30
0.0
 11
421.2733582777857
 21
710.7096515868647
 31
0.0
  0
LINE
  5
25B
100
AcDbEntity
  8
L1
100
AcDbLine
 10
415.2733582777857
 20
702.7096515868647
 30
0.0
 11
415.2733582777857
 21
225.7096515868648
 31
0.0
  0
LINE
  5
25C
100
AcDbEntity
  8
L1
100
AcDbLine
 10
423.2733582777857
 20
217.7096515868648
 30
0.0
 11
423.2733582777857
 21
251.2096515868648
 31
0.0
  0
ARC
  5
25D
100
AcDbEntity
  8
L1
100
AcDbCircle
 10
27.77335827778574
 20
217.7096515868648
 30
0.0
 40
0.5
100
AcDbArc
 50
180.0
 51
270.0
  0
ARC
  5
25E
100
AcDbEntity
  8
L1
100
AcDbCircle
 10
27.77335827778574
 20
217.7096515868648
 30
0.0
 40
2.5
100
AcDbArc
 50
180.0
 51
270.0
  0
ARC
  5
25F
100
AcDbEntity
  8
L1
100
AcDbCircle
 10
35.77335827778574
 20
225.7096515868648
 30
0.0
 40
2.5
100
AcDbArc
 50
180.0
 51
270.0
  0
ARC
  5
260
100
AcDbEntity
  8
L1
 62
     2
100
AcDbCircle
 10
35.7456183772872
 20
225.7096515868648
 30
0.0
 40
8.5
100
AcDbArc
 50
180.0
 51
270.0
  0
ARC
  5
261
100
AcDbEntity
  8
L1
100
AcDbCircle
 10
35.77335827778574
 20
225.7096515868648
 30
0.0
 40
1.0
100
AcDbArc
 50
180.0
 51
270.0
  0
LINE
  5
262
100
AcDbEntity
  8
L1
100
AcDbLine
 10
25.27335827778552
 20
217.7096515868648
 30
0.0
 11
25.27335827778642
 21
710.7096515868647
 31
0.0
  0
LINE
  5
263
100
AcDbEntity
  8
L1
100
AcDbLine
 10
33.27335827778597
 20
702.7096515868647
 30
0.0
 11
33.27335827778552
 21
225.7096515868648
 31
0.0
  0
LINE
  5
264
100
AcDbEntity
  8
L1
100
AcDbLine
 10
27.27335827778574
 20
217.7096515868648
 30
0.0
 11
27.27335827778574
 21
710.7096515868647
 31
0.0
  0
LINE
  5
265
100
AcDbEntity
  8
L1
100
AcDbLine
 10
34.7733582777862
 20
702.7096515868647
 30
0.0
 11
34.77335827778551
 21
225.7096515868648
 31
0.0
  0
LINE
  5
292
100
AcDbEntity
  8
L1
100
AcDbLine
 10
800.1039023150529
 20
61.7096515868647
 30
0.0
 11
800.103902315053
 21
65.20965158686459
 31
0.0
  0
LINE
  5
293
100
AcDbEntity
  8
L1
100
AcDbLine
 10
793.1039023150528
 20
61.7096515868647
 30
0.0
 11
793.1039023150528
 21
65.20965158686459
 31
0.0
  0
LINE
  5
294
100
AcDbEntity
  8
L1
100
AcDbLine
 10
1150.839540008376
 20
65.20965158686459
 30
0.0
 11
800.103902315053
 21
65.20965158686505
 31
0.0
  0
LINE
  5
295
100
AcDbEntity
  8
L1
100
AcDbLine
 10
1150.839540008376
 20
61.7096515868647
 30
0.0
 11
1150.839540008376
 21
65.20965158686459
 31
0.0
  0
LINE
  5
296
100
AcDbEntity
  8
L1
100
AcDbLine
 10
1158.442814240518
 20
61.7096515868647
 30
0.0
 11
1158.442814240518
 21
65.20965158686459
 31
0.0
  0
ARC
  5
2A8
100
AcDbEntity
  8
L1
100
AcDbCircle
 10
768.2733582777855
 20
61.7096515868647
 30
0.0
 40
6.5
100
AcDbArc
 50
50.39840964643169
 51
239.9999999999997
  0
LINE
  5
2AC
100
AcDbEntity
  8
L1
100
AcDbLine
 10
772.4167532254701
 20
66.71787265901236
 30
0.0
 11
772.7382678610642
 21
66.70664512053457
 31
0.0
  0
ARC
  5
2AD
100
AcDbEntity
  8
L1
100
AcDbCircle
 10
772.7277980120534
 20
66.40682787242889
 30
0.0
 40
0.3
100
AcDbArc
 50
45.00000000000041
 51
87.99999999999107
  0
ARC
  5
2AE
100
AcDbEntity
  8
L1
100
AcDbCircle
 10
772.9705345633496
 20
66.16409132113284
 30
0.0
 40
0.3
100
AcDbArc
 50
2.00000000000934
 51
45.0
  0
LINE
  5
2AF
100
AcDbEntity
  8
L1
100
AcDbLine
 10
773.281579349933
 20
65.85304653454926
 30
0.0
 11
773.2703518114553
 21
66.17456117014359
 31
0.0
  0
LINE
  5
2B0
100
AcDbEntity
  8
L1
100
AcDbLine
 10
769.023358277785
 20
57.80965158686473
 30
0.0
 11
769.0233582777852
 21
58.70174533830862
 31
0.0
  0
ARC
  5
2B1
100
AcDbEntity
  8
L1
100
AcDbCircle
 10
768.7233582777849
 20
57.80965158686473
 30
0.0
 40
0.3
100
AcDbArc
 50
269.9999999999987
 51
0.0000000000054578
  0
LINE
  5
2B2
100
AcDbEntity
  8
L1
100
AcDbLine
 10
768.7233582777849
 20
57.50965158686466
 30
0.0
 11
767.8233582777856
 21
57.50965158686466
 31
0.0
  0
LINE
  5
2B3
100
AcDbEntity
  8
L1
100
AcDbLine
 10
767.5233582777855
 20
57.80965158686473
 30
0.0
 11
767.5233582777855
 21
58.70174533830862
 31
0.0
  0
ARC
  5
2B4
100
AcDbEntity
  8
L1
100
AcDbCircle
 10
767.8233582777856
 20
57.80965158686473
 30
0.0
 40
0.3
100
AcDbArc
 50
180.0
 51
269.999999999997
  0
LINE
  5
2B5
100
AcDbEntity
  8
L1
100
AcDbLine
 10
772.9399300464095
 20
66.61895990678494
 30
0.0
 11
773.1826665977055
 21
66.37622335548877
 31
0.0
  0
LINE
  5
2B7
100
AcDbEntity
  8
L1
100
AcDbLine
 10
784.8039023150529
 20
65.20965158686459
 30
0.0
 11
793.1039023150528
 21
65.20965158686459
 31
0.0
  0
LINE
  5
2C4
100
AcDbEntity
  8
L1
100
AcDbLine
 10
782.7786558727835
 20
45.82946061625188
 30
0.0
 11
782.45461179213
 21
52.01259001204459
 31
0.0
1001
ACAD
1000
ASC_BOUNDS
1002
{
1070
    19
1002
}
  0
LINE
  5
2C5
100
AcDbEntity
  8
L1
100
AcDbLine
 10
765.0233582777852
 20
56.08048646226592
 30
0.0
 11
782.7786558727835
 21
45.82946061625176
 31
0.0
  0
ARC
  5
2C6
100
AcDbEntity
  8
L1
100
AcDbCircle
 10
768.2733582777855
 20
61.7096515868647
 30
0.0
 40
3.1
100
AcDbArc
 50
284.0008023861786
 51
255.9991976138169
  0
LINE
  5
2CA
100
AcDbEntity
  8
L6
 48
0.2
100
AcDbLine
 10
768.2733582777855
 20
52.70965158686471
 30
0.0
 11
768.2733582777855
 21
70.70965158686471
 31
0.0
  0
LINE
  5
2CB
100
AcDbEntity
  8
L6
 48
0.2
100
AcDbLine
 10
777.2733582777854
 20
61.7096515868647
 30
0.0
 11
759.2733582777855
 21
61.7096515868647
 31
0.0
  0
ARC
  5
2CC
100
AcDbEntity
  8
L1
100
AcDbCircle
 10
768.2733582777855
 20
61.7096515868647
 30
0.0
 40
6.5
100
AcDbArc
 50
0.0
 51
39.60159035356843
  0
LINE
  5
2CD
100
AcDbEntity
  8
L1
100
AcDbLine
 10
1166.742814240518
 20
65.20965158686459
 30
0.0
 11
1158.442814240518
 21
65.20965158686459
 31
0.0
  0
LINE
  5
2CE
100
AcDbEntity
  8
L1
100
AcDbLine
 10
1166.742814240518
 20
65.20965158686471
 30
0.0
 11
1166.773358277785
 21
61.7096515868647
 31
0.0
  0
LINE
  5
2CF
100
AcDbEntity
  8
L1
100
AcDbLine
 10
787.0667992935745
 20
11.70965158686499
 30
0.0
 11
1164.479917261996
 21
11.70965158686459
 31
0.0
  0
LINE
  5
2D0
100
AcDbEntity
  8
L1
100
AcDbLine
 10
1164.479917261996
 20
11.7096515868647
 30
0.0
 11
1167.110757152604
 21
14.20622542375116
 31
0.0
  0
LINE
  5
2D1
100
AcDbEntity
  8
L1
100
AcDbLine
 10
1167.110757152604
 20
14.20622542375116
 30
0.0
 11
1169.09210476344
 21
52.01259001204466
 31
0.0
  0
ARC
  5
2D2
100
AcDbEntity
  8
L1
100
AcDbCircle
 10
1170.090734298196
 20
51.96025405580162
 30
0.0
 40
1.0
100
AcDbArc
 50
104.9999999999981
 51
177.0000000000002
  0
LINE
  5
2D3
100
AcDbEntity
  8
L1
100
AcDbLine
 10
1174.773358277785
 20
61.70965158686465
 30
0.0
 11
774.7733582777855
 21
61.7096515868647
 31
0.0
  0
LINE
  5
2D4
100
AcDbEntity
  8
L1
100
AcDbLine
 10
1173.675072766728
 20
53.95595083425513
 30
0.0
 11
1169.831915253092
 21
52.9261798820907
 31
0.0
  0
LINE
  5
2D5
100
AcDbEntity
  8
L1
100
AcDbLine
 10
1174.773358277785
 20
61.7096515868647
 30
0.0
 11
1174.414883256381
 21
54.8695407043013
 31
0.0
  0
ARC
  5
2D6
100
AcDbEntity
  8
L1
100
AcDbCircle
 10
1173.416253721625
 20
54.92187666054423
 30
0.0
 40
1.0
100
AcDbArc
 50
284.9999999999977
 51
357.0000000000001
  0
LINE
  5
2D8
100
AcDbEntity
  8
L1
100
AcDbLine
 10
1174.414883256381
 20
54.86954070430051
 30
0.0
 11
777.1318332991906
 21
54.86954070430318
 31
0.0
  0
LINE
  5
2D9
100
AcDbEntity
  8
L1
100
AcDbLine
 10
1167.110757152604
 20
14.20622542375116
 30
0.0
 11
784.4359594029672
 21
14.20622542375116
 31
0.0
  0
LINE
  5
2DA
100
AcDbEntity
  8
L1
100
AcDbLine
 10
787.0667992935748
 20
11.7096515868647
 30
0.0
 11
784.4359594029672
 21
14.20622542375116
 31
0.0
1001
ACAD
1000
ASC_BOUNDS
1002
{
1070
    19
1002
}
  0
LINE
  5
2E3
100
AcDbEntity
  8
L1
100
AcDbLine
 10
784.4359594029672
 20
14.20622542375116
 30
0.0
 11
782.7786558727835
 21
45.82946061625188
 31
0.0
1001
ACAD
1000
ASC_BOUNDS
1002
{
1070
    19
1002
}
  0
LINE
  5
2E7
100
AcDbEntity
  8
L6
100
AcDbLine
 10
975.7733582777856
 20
-4.712946518132241
 30
0.0
 11
975.7733582777856
 21
72.96781857518595
 31
0.0
  0
POLYLINE
  5
2E8
100
AcDbEntity
  8
L1
100
AcDb2dPolyline
 66
     1
 10
0.0
 20
0.0
 30
0.0
 70
     1
  0
VERTEX
  5
2E9
100
AcDbEntity
  8
L1
100
AcDbVertex
100
AcDb2dVertex
 10
1131.829048141691
 20
324.2596515868648
 30
0.0
 42
-0.1610257855193021
  0
VERTEX
  5
2EA
100
AcDbEntity
  8
L1
100
AcDbVertex
100
AcDb2dVertex
 10
1136.823358277785
 20
319.2653414507701
 30
0.0
  0
VERTEX
  5
2EB
100
AcDbEntity
  8
L1
100
AcDbVertex
100
AcDb2dVertex
 10
1136.823358277785
 20
309.1539617229595
 30
0.0
 42
-0.1610257855192969
  0
VERTEX
  5
2EC
100
AcDbEntity
  8
L1
100
AcDbVertex
100
AcDb2dVertex
 10
1131.829048141691
 20
304.1596515868647
 30
0.0
  0
VERTEX
  5
2ED
100
AcDbEntity
  8
L1
100
AcDbVertex
100
AcDb2dVertex
 10
1121.717668413879
 20
304.1596515868647
 30
0.0
 42
-0.1610257855192772
  0
VERTEX
  5
2EE
100
AcDbEntity
  8
L1
100
AcDbVertex
100
AcDb2dVertex
 10
1116.723358277785
 20
309.1539617229585
 30
0.0
  0
VERTEX
  5
2EF
100
AcDbEntity
  8
L1
100
AcDbVertex
100
AcDb2dVertex
 10
1116.723358277785
 20
319.2653414507708
 30
0.0
 42
-0.161025785519284
  0
VERTEX
  5
2F0
100
AcDbEntity
  8
L1
100
AcDbVertex
100
AcDb2dVertex
 10
1121.717668413879
 20
324.2596515868647
 30
0.0
  0
SEQEND
  5
2F1
100
AcDbEntity
  8
L1
 62
     2
  0
POLYLINE
  5
2F2
100
AcDbEntity
  8
L1
100
AcDb2dPolyline
 66
     1
 10
0.0
 20
0.0
 30
0.0
 70
     1
  0
VERTEX
  5
2F3
100
AcDbEntity
  8
L1
100
AcDbVertex
100
AcDb2dVertex
 10
1131.829048141691
 20
624.2596515868647
 30
0.0
 42
-0.1610257855193021
  0
VERTEX
  5
2F4
100
AcDbEntity
  8
L1
100
AcDbVertex
100
AcDb2dVertex
 10
1136.823358277785
 20
619.2653414507701
 30
0.0
  0
VERTEX
  5
2F5
100
AcDbEntity
  8
L1
100
AcDbVertex
100
AcDb2dVertex
 10
1136.823358277785
 20
609.1539617229593
 30
0.0
 42
-0.1610257855192969
  0
VERTEX
  5
2F6
100
AcDbEntity
  8
L1
100
AcDbVertex
100
AcDb2dVertex
 10
1131.829048141691
 20
604.1596515868648
 30
0.0
  0
VERTEX
  5
2F7
100
AcDbEntity
  8
L1
100
AcDbVertex
100
AcDb2dVertex
 10
1121.717668413879
 20
604.1596515868648
 30
0.0
 42
-0.1610257855192772
  0
VERTEX
  5
2F8
100
AcDbEntity
  8
L1
100
AcDbVertex
100
AcDb2dVertex
 10
1116.723358277785
 20
609.1539617229584
 30
0.0
  0
VERTEX
  5
2F9
100
AcDbEntity
  8
L1
100
AcDbVertex
100
AcDb2dVertex
 10
1116.723358277785
 20
619.2653414507709
 30
0.0
 42
-0.161025785519284
  0
VERTEX
  5
2FA
100
AcDbEntity
  8
L1
100
AcDbVertex
100
AcDb2dVertex
 10
1121.717668413879
 20
624.2596515868647
 30
0.0
  0
SEQEND
  5
2FB
100
AcDbEntity
  8
L1
 62
     2
  0
LINE
  5
333
100
AcDbEntity
  8
L6
100
AcDbLine
 10
1126.773358277785
 20
633.3051363803588
 30
0.0
 11
1126.773358277785
 21
595.1141667933711
 31
0.0
  0
LINE
  5
336
100
AcDbEntity
  8
L6
100
AcDbLine
 10
1107.677873484292
 20
614.209651586865
 30
0.0
 11
1145.868843071279
 21
614.209651586865
 31
0.0
  0
LINE
  5
337
100
AcDbEntity
  8
L6
100
AcDbLine
 10
1107.677873484292
 20
313.9087322006619
 30
0.0
 11
1145.868843071279
 21
313.9087322006619
 31
0.0
  0
LINE
  5
338
100
AcDbEntity
  8
L6
100
AcDbLine
 10
1126.773358277785
 20
294.8132474071681
 30
0.0
 11
1126.773358277785
 21
333.0042169941557
 31
0.0
  0
LINE
  5
33A
100
AcDbEntity
  8
L1
100
AcDbLine
 10
1378.273358277785
 20
702.8868506082196
 30
0.0
 11
1375.776784440899
 21
705.517690498827
 31
0.0
1001
ACAD
1000
ASC_BOUNDS
1002
{
1070
    19
1002
}
  0
LINE
  5
33B
100
AcDbEntity
  8
L2
100
AcDbLine
 10
1324.773358277785
 20
703.6802916240092
 30
0.0
 11
1373.33524605392
 21
701.9081734846913
 31
0.0
1001
ACAD
1000
ASC_BOUNDS
1002
{
1070
    19
1002
}
  0
LINE
  5
33E
100
AcDbEntity
  8
L2
 48
0.3
100
AcDbLine
 10
1334.283250421141
 20
710.8625818310493
 30
0.0
 11
1335.453973579914
 21
706.4933835209138
 31
0.0
1001
ACAD
1000
ASC_BOUNDS
1002
{
1070
    19
1002
}
  0
ARC
  5
33F
100
AcDbEntity
  8
L2
 48
0.3
100
AcDbCircle
 10
1334.488047753625
 20
706.2345644758113
 30
0.0
 40
1.0
100
AcDbArc
 50
270.5000000000007
 51
15.00000000000288
1001
ACAD
1000
ASC_BOUNDS
1002
{
1070
    19
1002
}
  0
LINE
  5
340
100
AcDbEntity
  8
L2
 48
0.3
100
AcDbLine
 10
1328.273358277785
 20
705.1802916240092
 30
0.0
 11
1334.496774289124
 21
705.2346025527472
 31
0.0
1001
ACAD
1000
ASC_BOUNDS
1002
{
1070
    19
1002
}
  0
LINE
  5
341
100
AcDbEntity
  8
L2
 48
0.3
100
AcDbLine
 10
1328.273358277785
 20
711.177546932013
 30
0.0
 11
1334.283250421141
 21
710.862581831049
 31
0.0
1001
ACAD
1000
ASC_BOUNDS
1002
{
1070
    19
1002
}
  0
LINE
  5
342
100
AcDbEntity
  8
L1
100
AcDbLine
 10
1328.273358277785
 20
713.2096515868648
 30
0.0
 11
1328.273358277785
 21
705.1802916240092
 31
0.0
  0
LINE
  5
349
100
AcDbEntity
  8
L2
 48
0.3
100
AcDbLine
 39
0.3
 10
1328.773358277785
 20
696.8791075495974
 30
0.0
 11
1328.773358277785
 21
689.8497475867415
 31
0.0
  0
LINE
  5
34A
100
AcDbEntity
  8
L1
100
AcDbLine
 10
1328.273358277782
 20
689.8497475867415
 30
0.0
 11
1324.773358277785
 21
689.8497475867416
 31
0.0
  0
ARC
  5
34C
100
AcDbEntity
  8
L2
100
AcDbCircle
 10
1373.300346557217
 20
700.9087826576721
 30
0.0
 40
1.0
100
AcDbArc
 50
350.5767695176281
 51
87.99999999999977
1001
ACAD
1000
ASC_BOUNDS
1002
{
1070
    19
1002
}
  0
LINE
  5
34D
100
AcDbEntity
  8
L6
100
AcDbLine
 10
975.7733582777856
 20
729.6834539992505
 30
0.0
 11
975.7733582777856
 21
199.5726610877049
 31
0.0
  0
LINE
  5
34E
100
AcDbEntity
  8
L6
100
AcDbLine
 10
752.7792810280352
 20
464.0591918937635
 30
0.0
 11
1189.650895723213
 21
464.0591918937635
 31
0.0
  0
LINE
  5
34F
100
AcDbEntity
  8
L1
100
AcDbLine
 10
1164.479917261996
 20
916.4087322006619
 30
0.0
 11
787.066799293575
 21
916.4087322006624
 31
0.0
1001
ACAD
1000
ASC_BOUNDS
1002
{
1070
    19
1002
}
  0
LINE
  5
350
100
AcDbEntity
  8
L2
100
AcDbLine
 10
1162.235094428422
 20
912.4087322006612
 30
0.0
 11
788.9676251424344
 21
912.4087322006628
 31
0.0
1001
ACAD
1000
ASC_BOUNDS
1002
{
1070
    19
1002
}
  0
LINE
  5
351
100
AcDbEntity
  8
L1
100
AcDbLine
 10
800.103902315053
 20
862.9087322006624
 30
0.0
 11
1150.839540008376
 21
862.9087322006618
 31
0.0
  0
LINE
  5
352
100
AcDbEntity
  8
L2
100
AcDbLine
 10
786.2733582777853
 20
862.9087322006622
 30
0.0
 11
787.9682343154152
 21
911.4436316973653
 31
0.0
1001
ACAD
1000
ASC_BOUNDS
1002
{
1070
    19
1002
}
  0
LINE
  5
353
100
AcDbEntity
  8
L1
100
AcDbLine
 10
784.4359594029672
 20
913.9121583637757
 30
0.0
 11
782.7786558727835
 21
882.288923171275
 31
0.0
1001
ACAD
1000
ASC_BOUNDS
1002
{
1070
    19
1002
}
  0
ARC
  5
354
100
AcDbEntity
  8
L2
100
AcDbCircle
 10
788.9676251424344
 20
911.4087322006628
 30
0.0
 40
1.0
100
AcDbArc
 50
89.99999999999975
 51
177.9999999999995
1001
ACAD
1000
ASC_BOUNDS
1002
{
1070
    19
1002
}
  0
LINE
  5
355
100
AcDbEntity
  8
L1
100
AcDbLine
 10
787.0667992935748
 20
916.408732200662
 30
0.0
 11
784.4359594029672
 21
913.9121583637757
 31
0.0
1001
ACAD
1000
ASC_BOUNDS
1002
{
1070
    19
1002
}
  0
LINE
  5
358
100
AcDbEntity
  8
L1
100
AcDbLine
 10
765.0233582777852
 20
872.0378973252609
 30
0.0
 11
782.7786558727835
 21
882.2889231712752
 31
0.0
  0
ARC
  5
359
100
AcDbEntity
  8
L1
100
AcDbCircle
 10
768.2733582777855
 20
866.408732200662
 30
0.0
 40
3.1
100
AcDbArc
 50
104.000802386183
 51
75.99919761382131
  0
LINE
  5
35A
100
AcDbEntity
  8
L6
 48
0.2
100
AcDbLine
 10
773.2058164430782
 20
866.408732200662
 30
0.0
 11
759.2733582777855
 21
866.408732200662
 31
0.0
  0
ARC
  5
35C
100
AcDbEntity
  8
L1
100
AcDbCircle
 10
768.2733582777855
 20
866.408732200662
 30
0.0
 40
6.5
100
AcDbArc
 50
120.0000000000002
 51
309.6015903535682
  0
LINE
  5
35E
100
AcDbEntity
  8
L1
100
AcDbLine
 10
769.023358277785
 20
870.3087322006622
 30
0.0
 11
769.0233582777852
 21
869.4166384492183
 31
0.0
  0
ARC
  5
35F
100
AcDbEntity
  8
L1
100
AcDbCircle
 10
768.7233582777849
 20
870.3087322006622
 30
0.0
 40
0.3
100
AcDbArc
 50
359.9999999999945
 51
90.00000000000122
  0
LINE
  5
360
100
AcDbEntity
  8
L1
100
AcDbLine
 10
768.7233582777849
 20
870.6087322006622
 30
0.0
 11
767.8233582777856
 21
870.6087322006622
 31
0.0
  0
LINE
  5
361
100
AcDbEntity
  8
L1
100
AcDbLine
 10
767.5233582777855
 20
870.3087322006622
 30
0.0
 11
767.5233582777855
 21
869.4166384492183
 31
0.0
  0
ARC
  5
362
100
AcDbEntity
  8
L1
100
AcDbCircle
 10
767.8233582777856
 20
870.3087322006622
 30
0.0
 40
0.3
100
AcDbArc
 50
90.00000000000296
 51
180.0
  0
LINE
  5
364
100
AcDbEntity
  8
L6
 48
0.2
100
AcDbLine
 10
768.2733582777855
 20
875.4087322006622
 30
0.0
 11
768.2733582777855
 21
857.408732200662
 31
0.0
  0
LINE
  5
367
100
AcDbEntity
  8
L1
100
AcDbLine
 10
773.6583914148003
 20
873.0558229825687
 30
0.0
 11
773.281579349933
 21
862.2653372529775
 31
0.0
  0
ARC
  5
368
100
AcDbEntity
  8
L1
100
AcDbCircle
 10
768.2733582777855
 20
866.408732200662
 30
0.0
 40
6.5
100
AcDbArc
 50
320.3984096464315
 51
0.0
  0
LINE
  5
369
100
AcDbEntity
  8
L1
100
AcDbLine
 10
786.2733582777855
 20
862.9087322006624
 30
0.0
 11
793.1039023150528
 21
862.9087322006624
 31
0.0
  0
LINE
  5
36A
100
AcDbEntity
  8
L2
 48
0.3
100
AcDbLine
 10
773.076677953717
 20
875.2013313282823
 30
0.0
 11
781.8383160231414
 21
877.5490051733589
 31
0.0
1001
ACAD
1000
ASC_BOUNDS
1002
{
1070
    19
1002
}
  0
LINE
  5
36B
100
AcDbEntity
  8
L2
 48
0.3
100
AcDbLine
 10
773.6576043532841
 20
873.0332844896407
 30
0.0
 11
776.4034818028926
 21
873.7690401347782
 31
0.0
1001
ACAD
1000
ASC_BOUNDS
1002
{
1070
    19
1002
}
  0
LINE
  5
36D
100
AcDbEntity
  8
L1
100
AcDbLine
 10
773.076677953717
 20
875.2013313282823
 30
0.0
 11
772.7318151170316
 21
876.4883769564365
 31
0.0
1001
ACAD
1000
ASC_BOUNDS
1002
{
1070
    19
1002
}
  0
LINE
  5
36E
100
AcDbEntity
  8
L1
100
AcDbLine
 10
773.6576043532841
 20
873.0332844896407
 30
0.0
 11
773.076677953717
 21
875.2013313282823
 31
0.0
1001
ACAD
1000
ASC_BOUNDS
1002
{
1070
    19
1002
}
  0
LINE
  5
370
100
AcDbEntity
  8
L2
100
AcDbLine
 10
777.8716437888427
 20
874.1624329532717
 30
0.0
 11
781.7148013024779
 21
875.1922039054361
 31
0.0
  0
LINE
  5
371
100
AcDbEntity
  8
L2
 48
0.3
100
AcDbLine
 10
777.2733582777854
 20
866.408732200662
 30
0.0
 11
777.0325867389533
 21
873.3035269699849
 31
0.0
1001
ACAD
1000
ASC_BOUNDS
1002
{
1070
    19
1002
}
  0
ARC
  5
372
100
AcDbEntity
  8
L2
 48
0.3
100
AcDbCircle
 10
776.5328913254438
 20
873.2860772216335
 30
0.0
 40
0.5
100
AcDbArc
 50
1.999999999998145
 51
105.0000000000028
1001
ACAD
1000
ASC_BOUNDS
1002
{
1070
    19
1002
}
  0
LINE
  5
377
100
AcDbEntity
  8
L2
 48
0.3
100
AcDbLine
 10
778.7761029697812
 20
866.408732200662
 30
0.0
 11
779.0910680707455
 21
872.4186243440188
 31
0.0
1001
ACAD
1000
ASC_BOUNDS
1002
{
1070
    19
1002
}
  0
ARC
  5
378
100
AcDbEntity
  8
L2
100
AcDbCircle
 10
781.579496978039
 20
878.5149309996477
 30
0.0
 40
1.0
100
AcDbArc
 50
285.0000000000035
 51
356.9999999999992
1001
ACAD
1000
ASC_BOUNDS
1002
{
1070
    19
1002
}
  0
LINE
  5
379
100
AcDbEntity
  8
L2
100
AcDbLine
 10
782.5401022148391
 20
877.7370482166833
 30
0.0
 11
782.4546117921301
 21
876.1057937754822
 31
0.0
1001
ACAD
1000
ASC_BOUNDS
1002
{
1070
    19
1002
}
  0
LINE
  5
37A
100
AcDbEntity
  8
L1
100
AcDbLine
 10
774.7733582777855
 20
866.408732200662
 30
0.0
 11
784.7733582777853
 21
866.408732200662
 31
0.0
  0
LINE
  5
37C
100
AcDbEntity
  8
L2
 48
0.3
100
AcDbLine
 10
779.0910680707449
 20
872.4186243440188
 30
0.0
 11
783.4602663808807
 21
873.5893475027911
 31
0.0
1001
ACAD
1000
ASC_BOUNDS
1002
{
1070
    19
1002
}
  0
ARC
  5
37D
100
AcDbEntity
  8
L2
 48
0.3
100
AcDbCircle
 10
783.7190854259831
 20
872.6234216765019
 30
0.0
 40
1.0
100
AcDbArc
 50
0.5000000000007323
 51
105.0000000000028
1001
ACAD
1000
ASC_BOUNDS
1002
{
1070
    19
1002
}
  0
LINE
  5
37E
100
AcDbEntity
  8
L2
 48
0.3
100
AcDbLine
 10
784.7733582777853
 20
866.408732200662
 30
0.0
 11
784.7190473490472
 21
872.6321482120004
 31
0.0
1001
ACAD
1000
ASC_BOUNDS
1002
{
1070
    19
1002
}
  0
LINE
  5
37F
100
AcDbEntity
  8
L1
100
AcDbLine
 10
784.8039023150529
 20
862.9087322006622
 30
0.0
 11
786.2733582777853
 21
862.9087322006622
 31
0.0
1001
ACAD
1000
ASC_BOUNDS
1002
{
1070
    19
1002
}
  0
LINE
  5
382
100
AcDbEntity
  8
L2
100
AcDbLine
 10
782.7786558727835
 20
882.288923171275
 30
0.0
 11
782.5781265127934
 21
878.4625950434049
 31
0.0
1001
ACAD
1000
ASC_BOUNDS
1002
{
1070
    19
1002
}
  0
LINE
  5
383
100
AcDbEntity
  8
L2
 48
0.3
100
AcDbLine
 10
793.1039023150528
 20
866.9087322006623
 30
0.0
 11
800.103902315053
 21
866.9087322006623
 31
0.0
  0
LINE
  5
384
100
AcDbEntity
  8
L1
100
AcDbLine
 10
793.1039023150528
 20
866.9087322006623
 30
0.0
 11
793.1039023150528
 21
862.9087322006624
 31
0.0
  0
LINE
  5
385
100
AcDbEntity
  8
L1
100
AcDbLine
 10
800.103902315053
 20
866.9087322006623
 30
0.0
 11
800.103902315053
 21
862.9087322006624
 31
0.0
  0
LINE
  5
386
100
AcDbEntity
  8
L1
100
AcDbLine
 10
772.4167532254701
 20
861.4005111285147
 30
0.0
 11
772.7382678610642
 21
861.4117386669922
 31
0.0
  0
ARC
  5
387
100
AcDbEntity
  8
L1
100
AcDbCircle
 10
772.7277980120534
 20
861.7115559150979
 30
0.0
 40
0.3
100
AcDbArc
 50
272.0000000000089
 51
314.9999999999995
  0
ARC
  5
38A
100
AcDbEntity
  8
L1
100
AcDbCircle
 10
772.9705345633496
 20
861.9542924663941
 30
0.0
 40
0.3
100
AcDbArc
 50
314.9999999999999
 51
357.9999999999906
  0
LINE
  5
38B
100
AcDbEntity
  8
L1
100
AcDbLine
 10
773.281579349933
 20
862.2653372529775
 30
0.0
 11
773.2703518114553
 21
861.9438226173834
 31
0.0
  0
LINE
  5
38C
100
AcDbEntity
  8
L1
100
AcDbLine
 10
772.9399300464095
 20
861.4994238807419
 30
0.0
 11
773.1826665977055
 21
861.7421604320382
 31
0.0
  0
LINE
  5
38F
100
AcDbEntity
  8
L1
100
AcDbLine
 10
1174.773358277785
 20
866.4087322006622
 30
0.0
 11
784.7733582777853
 21
866.4087322006595
 31
0.0
  0
LINE
  5
394
100
AcDbEntity
  8
L6
100
AcDbLine
 10
975.7733582777856
 20
932.8313303056591
 30
0.0
 11
975.7733582777856
 21
855.150565212341
 31
0.0
  0
LINE
  5
395
100
AcDbEntity
  8
L1
100
AcDbLine
 10
1166.742814240518
 20
862.9087322006624
 30
0.0
 11
1158.442814240518
 21
862.9087322006624
 31
0.0
  0
LINE
  5
396
100
AcDbEntity
  8
L1
100
AcDbLine
 10
1150.839540008376
 20
866.408732200662
 30
0.0
 11
1150.839540008376
 21
862.9087322006624
 31
0.0
  0
LINE
  5
397
100
AcDbEntity
  8
L1
100
AcDbLine
 10
1158.442814240518
 20
866.408732200662
 30
0.0
 11
1158.442814240518
 21
862.9087322006624
 31
0.0
  0
LINE
  5
399
100
AcDbEntity
  8
L1
100
AcDbLine
 10
1167.110757152604
 20
913.9121583637757
 30
0.0
 11
1169.09210476344
 21
876.1057937754822
 31
0.0
  0
LINE
  5
39A
100
AcDbEntity
  8
L1
100
AcDbLine
 10
1164.479917261996
 20
916.408732200662
 30
0.0
 11
1167.110757152604
 21
913.9121583637757
 31
0.0
  0
ARC
  5
39C
100
AcDbEntity
  8
L1
100
AcDbCircle
 10
1173.416253721625
 20
873.1965071269826
 30
0.0
 40
1.0
100
AcDbArc
 50
2.999999999999813
 51
75.00000000000227
  0
ARC
  5
39D
100
AcDbEntity
  8
L1
100
AcDbCircle
 10
1170.090734298196
 20
876.1581297317253
 30
0.0
 40
1.0
100
AcDbArc
 50
182.9999999999997
 51
255.0000000000018
  0
LINE
  5
39E
100
AcDbEntity
  8
L1
100
AcDbLine
 10
1166.742814240518
 20
862.9087322006622
 30
0.0
 11
1166.773358277785
 21
866.408732200662
 31
0.0
  0
LINE
  5
39F
100
AcDbEntity
  8
L1
100
AcDbLine
 10
1173.675072766728
 20
874.1624329532717
 30
0.0
 11
1169.831915253092
 21
875.1922039054361
 31
0.0
  0
LINE
  5
3A1
100
AcDbEntity
  8
L1
100
AcDbLine
 10
1174.773358277785
 20
866.408732200662
 30
0.0
 11
1174.414883256381
 21
873.2488430832257
 31
0.0
  0
LINE
  5
3A3
100
AcDbEntity
  8
L1
100
AcDbLine
 10
784.8039023150529
 20
65.20965158686471
 30
0.0
 11
784.7733582777853
 21
61.7096515868647
 31
0.0
  0
ARC
  5
3A4
100
AcDbEntity
  8
L1
100
AcDbCircle
 10
778.1304628339453
 20
54.92187666054423
 30
0.0
 40
1.0
100
AcDbArc
 50
182.9999999999998
 51
255.0000000000022
  0
ARC
  5
3A5
100
AcDbEntity
  8
L1
100
AcDbCircle
 10
781.4559822573751
 20
51.96025405580162
 30
0.0
 40
1.0
100
AcDbArc
 50
2.999999999999711
 51
75.00000000000186
  0
LINE
  5
3A6
100
AcDbEntity
  8
L1
100
AcDbLine
 10
777.8716437888428
 20
53.95595083425513
 30
0.0
 11
781.7148013024779
 21
52.9261798820907
 31
0.0
  0
LINE
  5
3A7
100
AcDbEntity
  8
L1
100
AcDbLine
 10
776.7733582777855
 20
61.7096515868647
 30
0.0
 11
777.13183329919
 21
54.8695407043013
 31
0.0
  0
LINE
  5
3A8
100
AcDbEntity
  8
L1
100
AcDbLine
 10
1158.442814240518
 20
866.408732200662
 30
0.0
 11
1150.839540008376
 21
866.408732200662
 31
0.0
  0
LINE
  5
3A9
100
AcDbEntity
  8
L2
100
AcDbLine
 10
1163.233723963177
 20
911.4610681569041
 30
0.0
 11
1165.778244069646
 21
862.9087322006624
 31
0.0
  0
ARC
  5
3AA
100
AcDbEntity
  8
L2
100
AcDbCircle
 10
1162.235094428422
 20
911.4087322006612
 30
0.0
 40
1.0
100
AcDbArc
 50
2.999999999998642
 51
89.99999999999975
1001
ACAD
1000
ASC_BOUNDS
1002
{
1070
    19
1002
}
  0
LINE
  5
3AB
100
AcDbEntity
  8
L1
100
AcDbLine
 10
784.7733582777853
 20
866.408732200662
 30
0.0
 11
784.8039023150529
 21
862.9087322006622
 31
0.0
  0
LINE
  5
3AD
100
AcDbEntity
  8
L6
100
AcDbLine
 10
224.2733582777857
 20
727.679506904496
 30
0.0
 11
224.2733582777857
 21
196.0587289176887
 31
0.0
  0
LINE
  5
3AE
100
AcDbEntity
  8
L6
100
AcDbLine
 10
3.773032766825963
 20
464.2096515868648
 30
0.0
 11
443.3316789315276
 21
464.2096515868648
 31
0.0
  0
LINE
  5
3AF
100
AcDbEntity
  8
L6
100
AcDbLine
 10
73.27335827778575
 20
295.1141667933709
 30
0.0
 11
73.27335827778575
 21
333.3051363803585
 31
0.0
  0
LINE
  5
3B0
100
AcDbEntity
  8
L6
100
AcDbLine
 10
54.17787348429192
 20
314.2096515868647
 30
0.0
 11
92.36884307127956
 21
314.2096515868647
 31
0.0
  0
ARC
  5
3B2
100
AcDbEntity
  8
L1
100
AcDbCircle
 10
73.27335827778575
 20
314.2096515868648
 30
0.0
 40
11.24999999999997
100
AcDbArc
 50
116.7048522475762
 51
153.2951477524249
  0
LINE
  5
3B3
100
AcDbEntity
  8
L1
100
AcDbLine
 10
63.22335827778556
 20
319.2653414507702
 30
0.0
 11
63.22335827778556
 21
309.1539617229595
 31
0.0
  0
ARC
  5
3B4
100
AcDbEntity
  8
L1
100
AcDbCircle
 10
73.27335827778597
 20
314.2096515868652
 30
0.0
 40
11.25000000000029
100
AcDbArc
 50
206.7048522475756
 51
243.2951477524232
  0
LINE
  5
3B5
100
AcDbEntity
  8
L1
100
AcDbLine
 10
68.21766841388011
 20
304.1596515868648
 30
0.0
 11
78.32904814169137
 21
304.1596515868648
 31
0.0
  0
ARC
  5
3B6
100
AcDbEntity
  8
L1
100
AcDbCircle
 10
73.27335827778575
 20
314.209651586865
 30
0.0
 40
11.25000000000005
100
AcDbArc
 50
296.7048522475761
 51
333.2951477524194
  0
LINE
  5
3B7
100
AcDbEntity
  8
L1
100
AcDbLine
 10
83.32335827778548
 20
309.1539617229586
 30
0.0
 11
83.32335827778548
 21
319.2653414507709
 31
0.0
  0
ARC
  5
3B8
100
AcDbEntity
  8
L1
100
AcDbCircle
 10
73.27335827778575
 20
314.2096515868648
 30
0.0
 40
11.24999999999983
100
AcDbArc
 50
26.70485224757876
 51
63.29514775242325
  0
LINE
  5
3B9
100
AcDbEntity
  8
L1
100
AcDbLine
 10
78.32904814169137
 20
324.2596515868648
 30
0.0
 11
68.21766841388011
 21
324.2596515868648
 31
0.0
  0
LINE
  5
3BA
100
AcDbEntity
  8
L1
100
AcDbLine
 10
420.7733582777857
 20
713.2096515868648
 30
0.0
 11
27.77335827778574
 21
713.2096515868648
 31
0.0
  0
LINE
  5
3BB
100
AcDbEntity
  8
L1
100
AcDbLine
 10
420.7733582777857
 20
711.2096515868647
 30
0.0
 11
27.77335827778574
 21
711.2096515868649
 31
0.0
  0
LINE
  5
3BC
100
AcDbEntity
  8
L1
100
AcDbLine
 10
412.7733582777857
 20
705.2096515868647
 30
0.0
 11
35.77335827778574
 21
705.2096515868647
 31
0.0
  0
LINE
  5
3BD
100
AcDbEntity
  8
L1
100
AcDbLine
 10
412.7733582777857
 20
703.7096515868647
 30
0.0
 11
35.77335827778574
 21
703.7096515868647
 31
0.0
  0
ARC
  5
3BE
100
AcDbEntity
  8
L1
100
AcDbCircle
 10
27.77335827778574
 20
710.7096515868647
 30
0.0
 40
2.5
100
AcDbArc
 50
90.0
 51
180.0
  0
ARC
  5
3BF
100
AcDbEntity
  8
L1
 62
     2
100
AcDbCircle
 10
35.7456183772872
 20
702.7096515868647
 30
0.0
 40
8.5
100
AcDbArc
 50
90.0
 51
180.0
  0
LINE
  5
3C0
100
AcDbEntity
  8
L1
100
AcDbLine
 10
42.39203305087198
 20
705.2096515868647
 30
0.0
 11
42.39203305087198
 21
703.7096515868647
 31
0.0
  0
ARC
  5
3C1
100
AcDbEntity
  8
L1
100
AcDbCircle
 10
35.77335827778574
 20
702.7096515868647
 30
0.0
 40
1.0
100
AcDbArc
 50
90.0
 51
180.0
  0
LINE
  5
3C2
100
AcDbEntity
  8
L1
100
AcDbLine
 10
33.27335827778529
 20
695.8233242382625
 30
0.0
 11
34.77335827778529
 21
695.8233242382625
 31
0.0
  0
ARC
  5
3C3
100
AcDbEntity
  8
L1
100
AcDbCircle
 10
27.77335827778574
 20
710.7096515868647
 30
0.0
 40
0.5
100
AcDbArc
 50
90.0
 51
180.0
  0
ARC
  5
3C4
100
AcDbEntity
  8
L1
100
AcDbCircle
 10
35.77335827778574
 20
702.7096515868647
 30
0.0
 40
2.5
100
AcDbArc
 50
90.0
 51
180.0
  0
LINE
  5
3C5
100
AcDbEntity
  8
L1
100
AcDbLine
 10
50.82527655638682
 20
705.2096515868647
 30
0.0
 11
50.82527655638682
 21
703.7096515868647
 31
0.0
  0
LINE
  5
3C6
100
AcDbEntity
  8
L1
100
AcDbLine
 10
33.27335827778529
 20
687.3900807327477
 30
0.0
 11
34.77335827778529
 21
687.3900807327477
 31
0.0
  0
LINE
  5
3C7
100
AcDbEntity
  8
L6
100
AcDbLine
 10
54.17787348429192
 20
614.209651586865
 30
0.0
 11
92.36884307127956
 21
614.209651586865
 31
0.0
  0
LINE
  5
3C8
100
AcDbEntity
  8
L6
100
AcDbLine
 10
73.27335827778575
 20
633.3051363803588
 30
0.0
 11
73.27335827778575
 21
595.1141667933711
 31
0.0
  0
ARC
  5
3C9
100
AcDbEntity
  8
L1
100
AcDbCircle
 10
73.27335827778575
 20
614.2096515868647
 30
0.0
 40
11.24999999999983
100
AcDbArc
 50
296.7048522475767
 51
333.2951477524212
  0
ARC
  5
3CA
100
AcDbEntity
  8
L1
100
AcDbCircle
 10
73.27335827778575
 20
614.2096515868647
 30
0.0
 40
11.24999999999997
100
AcDbArc
 50
206.7048522475749
 51
243.2951477524237
  0
ARC
  5
3CB
100
AcDbEntity
  8
L1
100
AcDbCircle
 10
73.27335827778597
 20
614.2096515868644
 30
0.0
 40
11.25000000000029
100
AcDbArc
 50
116.7048522475767
 51
153.2951477524243
  0
LINE
  5
3CC
100
AcDbEntity
  8
L1
100
AcDbLine
 10
63.22335827778556
 20
609.1539617229593
 30
0.0
 11
63.22335827778556
 21
619.2653414507701
 31
0.0
  0
LINE
  5
3CD
100
AcDbEntity
  8
L1
100
AcDbLine
 10
83.32335827778548
 20
619.265341450771
 30
0.0
 11
83.32335827778548
 21
609.1539617229586
 31
0.0
  0
ARC
  5
3CE
100
AcDbEntity
  8
L1
100
AcDbCircle
 10
73.27335827778575
 20
614.2096515868646
 30
0.0
 40
11.25000000000005
100
AcDbArc
 50
26.70485224758055
 51
63.29514775242387
  0
LINE
  5
3CF
100
AcDbEntity
  8
L1
100
AcDbLine
 10
68.21766841388011
 20
624.2596515868647
 30
0.0
 11
78.32904814169137
 21
624.2596515868647
 31
0.0
  0
LINE
  5
3D0
100
AcDbEntity
  8
L1
100
AcDbLine
 10
78.32904814169137
 20
604.1596515868648
 30
0.0
 11
68.21766841388011
 21
604.1596515868648
 31
0.0
  0
LINE
  5
3D2
100
AcDbEntity
  8
L1
100
AcDbLine
 10
423.2733582777857
 20
710.7096515868647
 30
0.0
 11
423.2733582777857
 21
677.2096515868647
 31
0.0
  0
LINE
  5
3D3
100
AcDbEntity
  8
L1
100
AcDbLine
 10
404.2957523879319
 20
703.7096515868647
 30
0.0
 11
404.2957523879319
 21
705.2096515868647
 31
0.0
  0
LINE
  5
3D4
100
AcDbEntity
  8
L1
100
AcDbLine
 10
393.6776538906599
 20
703.7096515868647
 30
0.0
 11
393.6776538906603
 21
705.2096515868647
 31
0.0
  0
ARC
  5
3D5
100
AcDbEntity
  8
L1
100
AcDbCircle
 10
420.7733582777857
 20
710.7096515868647
 30
0.0
 40
2.5
100
AcDbArc
 50
0.0
 51
90.0
  0
ARC
  5
3D6
100
AcDbEntity
  8
L1
 62
     2
100
AcDbCircle
 10
412.7733582777857
 20
702.7096515868647
 30
0.0
 40
8.5
100
AcDbArc
 50
0.0
 51
90.0
  0
ARC
  5
3D7
100
AcDbEntity
  8
L1
100
AcDbCircle
 10
412.7733582777857
 20
702.7096515868647
 30
0.0
 40
1.0
100
AcDbArc
 50
0.0
 51
90.0
  0
LINE
  5
3D8
100
AcDbEntity
  8
L1
100
AcDbLine
 10
413.7733582777857
 20
693.7759762726898
 30
0.0
 11
415.2733582777857
 21
693.7759762726898
 31
0.0
  0
ARC
  5
3D9
100
AcDbEntity
  8
L1
100
AcDbCircle
 10
420.7733582777857
 20
710.7096515868647
 30
0.0
 40
0.5
100
AcDbArc
 50
0.0
 51
90.0
  0
ARC
  5
3DA
100
AcDbEntity
  8
L1
100
AcDbCircle
 10
412.7733582777857
 20
702.7096515868647
 30
0.0
 40
2.5
100
AcDbArc
 50
0.0
 51
90.0
  0
LINE
  5
3DC
100
AcDbEntity
  8
L1
100
AcDbLine
 10
426.9700386018537
 20
670.2096515868647
 30
0.0
 11
426.9700386018537
 21
656.209651586865
 31
0.0
  0
LINE
  5
3DE
100
AcDbEntity
  8
L1
100
AcDbLine
 10
436.2733582777857
 20
677.2096515868647
 30
0.0
 11
423.2733582777853
 21
677.2096515868647
 31
0.0
  0
LINE
  5
3DF
100
AcDbEntity
  8
L1
100
AcDbLine
 10
438.2733582777857
 20
670.2096515868647
 30
0.0
 11
426.9700386018537
 21
670.2096515868647
 31
0.0
  0
LINE
  5
3E6
100
AcDbEntity
  8
L1
100
AcDbLine
 10
413.7733582777857
 20
684.5556219568488
 30
0.0
 11
415.2733582777857
 21
684.5556219568488
 31
0.0
  0
LINE
  5
3E7
100
AcDbEntity
  8
L1
100
AcDbLine
 10
438.2733582777857
 20
675.2096515868648
 30
0.0
 11
438.2733582777857
 21
670.2096515868647
 31
0.0
  0
ARC
  5
3E8
100
AcDbEntity
  8
L1
100
AcDbCircle
 10
436.2733582777857
 20
675.2096515868648
 30
0.0
 40
2.0
100
AcDbArc
 50
0.0
 51
90.0
  0
LINE
  5
3E9
100
AcDbEntity
  8
L1
100
AcDbLine
 10
436.2733582777857
 20
649.2096515868647
 30
0.0
 11
423.2733582777853
 21
649.2096515868649
 31
0.0
  0
LINE
  5
3EA
100
AcDbEntity
  8
L1
100
AcDbLine
 10
438.2733582777857
 20
656.2096515868647
 30
0.0
 11
426.9700386018537
 21
656.209651586865
 31
0.0
  0
LINE
  5
3F1
100
AcDbEntity
  8
L1
100
AcDbLine
 10
438.2733582777857
 20
656.2096515868647
 30
0.0
 11
438.2733582777857
 21
651.2096515868647
 31
0.0
  0
ARC
  5
3F2
100
AcDbEntity
  8
L1
100
AcDbCircle
 10
436.2733582777857
 20
651.2096515868647
 30
0.0
 40
2.0
100
AcDbArc
 50
270.0
 51
0.0
  0
LINE
  5
57E
100
AcDbEntity
  8
L1
100
AcDbLine
 10
1375.776784440899
 20
222.8722527120465
 30
0.0
 11
1375.776784440899
 21
705.5176904988274
 31
0.0
  0
LINE
  5
596
100
AcDbEntity
  8
L1
100
AcDbLine
 10
1335.113469160349
 20
712.821816602604
 30
0.0
 11
1335.113469160349
 21
680.5449174521799
 31
0.0
  0
ARC
  5
637
100
AcDbEntity
  8
L1
100
AcDbCircle
 10
1166.592104763441
 20
223.3909051012094
 30
0.0
 40
2.5
100
AcDbArc
 50
270.0
 51
0.0
  0
ARC
  5
638
100
AcDbEntity
  8
L1
100
AcDbCircle
 10
1164.610757152603
 20
225.3722527120466
 30
0.0
 40
2.5
100
AcDbArc
 50
270.0
 51
0.0
  0
LINE
  5
639
100
AcDbEntity
  8
L1
100
AcDbLine
 10
786.9359594029672
 20
222.8722527120466
 30
0.0
 11
1164.610757152603
 21
222.8722527120466
 31
0.0
  0
LINE
  5
63A
100
AcDbEntity
  8
L1
100
AcDbLine
 10
1166.592104763441
 20
220.8909051012093
 30
0.0
 11
784.9546117921304
 21
220.8909051012093
 31
0.0
  0
LINE
  5
63B
100
AcDbEntity
  8
L1
100
AcDbLine
 10
1172.273358277785
 20
215.2096515868648
 30
0.0
 11
975.7733582777856
 21
215.2096515868648
 31
0.0
  0
ARC
  5
63C
100
AcDbEntity
  8
L1
100
AcDbCircle
 10
1172.273358277785
 20
217.7096515868648
 30
0.0
 40
2.5
100
AcDbArc
 50
270.0
 51
0.0
  0
ARC
  5
640
100
AcDbEntity
  8
L1
100
AcDbCircle
 10
786.9359594029672
 20
225.3722527120466
 30
0.0
 40
2.5
100
AcDbArc
 50
180.0
 51
270.0
  0
ARC
  5
641
100
AcDbEntity
  8
L1
100
AcDbCircle
 10
784.9546117921302
 20
223.3909051012094
 30
0.0
 40
2.5
100
AcDbArc
 50
180.0000000000001
 51
270.0
  0
ARC
  5
643
100
AcDbEntity
  8
L1
100
AcDbCircle
 10
779.2733582777855
 20
217.7096515868648
 30
0.0
 40
2.5
100
AcDbArc
 50
180.0
 51
270.0
  0
LINE
  5
644
100
AcDbEntity
  8
L1
100
AcDbLine
 10
779.2733582777855
 20
215.2096515868648
 30
0.0
 11
975.7733582777856
 21
215.2096515868648
 31
0.0
  0
ARC
  5
647
100
AcDbEntity
  8
L1
100
AcDbCircle
 10
784.9546117921302
 20
705.0283980725203
 30
0.0
 40
2.5
100
AcDbArc
 50
90.0
 51
179.9999999999999
  0
ARC
  5
648
100
AcDbEntity
  8
L1
100
AcDbCircle
 10
786.9359594029672
 20
703.047050461683
 30
0.0
 40
2.5
100
AcDbArc
 50
90.0
 51
180.0
  0
LINE
  5
64F
100
AcDbEntity
  8
L1
100
AcDbLine
 10
1166.592104763441
 20
707.5283980725203
 30
0.0
 11
784.9546117921302
 21
707.5283980725203
 31
0.0
  0
LINE
  5
650
100
AcDbEntity
  8
L1
100
AcDbLine
 10
786.9359594029672
 20
705.547050461683
 30
0.0
 11
1164.610757152603
 21
705.547050461683
 31
0.0
  0
LINE
  5
651
100
AcDbEntity
  8
L1
100
AcDbLine
 10
779.2733582777855
 20
713.2096515868648
 30
0.0
 11
975.7733582777856
 21
713.2096515868648
 31
0.0
  0
ARC
  5
652
100
AcDbEntity
  8
L1
100
AcDbCircle
 10
779.2733582777855
 20
710.7096515868647
 30
0.0
 40
2.5
100
AcDbArc
 50
90.0
 51
180.0
  0
ARC
  5
653
100
AcDbEntity
  8
L1
100
AcDbCircle
 10
1172.273358277785
 20
710.7096515868647
 30
0.0
 40
2.5
100
AcDbArc
 50
0.0
 51
90.0
  0
ARC
  5
655
100
AcDbEntity
  8
L1
100
AcDbCircle
 10
1166.592104763441
 20
705.0283980725203
 30
0.0
 40
2.5
100
AcDbArc
 50
0.0
 51
90.0
  0
ARC
  5
656
100
AcDbEntity
  8
L1
100
AcDbCircle
 10
1164.610757152603
 20
703.047050461683
 30
0.0
 40
2.5
100
AcDbArc
 50
0.0
 51
90.0
  0
LINE
  5
659
100
AcDbEntity
  8
L1
100
AcDbLine
 10
1172.273358277785
 20
713.2096515868648
 30
0.0
 11
975.7733582777856
 21
713.2096515868648
 31
0.0
  0
INSERT
  5
661
100
AcDbEntity
  8
L1
100
AcDbBlockReference
  2
A$C18
 10
782.6768531557567
 20
649.170158575712
 30
0.0
  0
LINE
  5
662
100
AcDbEntity
  8
L1
100
AcDbLine
 10
782.7786558727835
 20
674.2096515868647
 30
0.0
 11
782.4546117921301
 21
674.2096515868647
 31
0.0
  0
LINE
  5
663
100
AcDbEntity
  8
L1
100
AcDbLine
 10
782.7786558727835
 20
652.2096515868647
 30
0.0
 11
782.4546117921301
 21
652.2096515868647
 31
0.0
  0
LINE
  5
66C
100
AcDbEntity
  8
L1
100
AcDbLine
 10
773.076677953717
 20
670.2096515868647
 30
0.0
 11
773.076677953717
 21
656.2096515868647
 31
0.0
  0
LINE
  5
68A
100
AcDbEntity
  8
L1
100
AcDbLine
 10
1328.273358277782
 20
712.9380921635179
 30
0.0
 11
1328.273358277782
 21
676.9380921635179
 31
0.0
  0
LINE
  5
68B
100
AcDbEntity
  8
L1
100
AcDbLine
 10
1328.273358277782
 20
648.9380921635179
 30
0.0
 11
1328.273358277782
 21
279.1802916240088
 31
0.0
  0
LINE
  5
68C
100
AcDbEntity
  8
L1
100
AcDbLine
 10
1323.774043649578
 20
676.8595563345502
 30
0.0
 11
1328.273358277782
 21
676.9380921635179
 31
0.0
  0
ARC
  5
68D
100
AcDbEntity
  8
L1
100
AcDbCircle
 10
1323.774043649578
 20
674.8595563345502
 30
0.0
 40
2.0
100
AcDbArc
 50
90.0
 51
180.0
  0
LINE
  5
68E
100
AcDbEntity
  8
L1
100
AcDbLine
 10
1321.773358277782
 20
674.9380921635179
 30
0.0
 11
1321.773358277782
 21
670.0515500855512
 31
0.0
  0
POINT
  5
68F
100
AcDbEntity
  8
DEFPOINTS
  6
BYBLOCK
 62
     0
100
AcDbPoint
 10
1321.773358277781
 20
670.0515500855511
 30
0.0
  0
POINT
  5
690
100
AcDbEntity
  8
DEFPOINTS
  6
BYBLOCK
 62
     0
100
AcDbPoint
 10
1321.773358277781
 20
670.0515500855511
 30
0.0
  0
LINE
  5
691
100
AcDbEntity
  8
L1
100
AcDbLine
 10
1321.773358277782
 20
670.0515500855512
 30
0.0
 11
1328.273358277782
 21
669.9380921635179
 31
0.0
  0
LINE
  5
692
100
AcDbEntity
  8
L1
100
AcDbLine
 10
1334.897910566761
 20
673.5007154381066
 30
0.0
 11
1337.065957405402
 21
673.5385588364427
 31
0.0
  0
LINE
  5
693
100
AcDbEntity
  8
L1
100
AcDbLine
 10
1334.897910566761
 20
652.3754688889291
 30
0.0
 11
1334.897910566761
 21
673.5007154381069
 31
0.0
  0
LINE
  5
694
100
AcDbEntity
  8
L1
100
AcDbLine
 10
1328.273358277782
 20
669.9380921635179
 30
0.0
 11
1334.897910566761
 21
670.0537241538425
 31
0.0
  0
LINE
  5
695
100
AcDbEntity
  8
L1
100
AcDbLine
 10
1328.273358277782
 20
676.9380921635179
 30
0.0
 11
1344.153549248396
 21
676.6609023990536
 31
0.0
  0
LINE
  5
696
100
AcDbEntity
  8
L1
100
AcDbLine
 10
1335.113469160346
 20
712.5796171421129
 30
0.0
 11
1335.113469160345
 21
676.9380921635179
 31
0.0
  0
LINE
  5
698
100
AcDbEntity
  8
L1
100
AcDbLine
 10
1328.273358277782
 20
655.9380921635179
 30
0.0
 11
1334.897910566761
 21
655.8224601731933
 31
0.0
  0
LINE
  5
699
100
AcDbEntity
  8
L1
100
AcDbLine
 10
1321.773358277782
 20
655.8246342414845
 30
0.0
 11
1321.773358277782
 21
650.9380921635179
 31
0.0
  0
LINE
  5
69A
100
AcDbEntity
  8
L1
100
AcDbLine
 10
1321.773358277782
 20
655.8246342414845
 30
0.0
 11
1328.273358277782
 21
655.9380921635179
 31
0.0
  0
LINE
  5
69B
100
AcDbEntity
  8
L1
100
AcDbLine
 10
1323.774043649578
 20
649.0166279924858
 30
0.0
 11
1328.273358277782
 21
648.9380921635179
 31
0.0
  0
POINT
  5
69C
100
AcDbEntity
  8
DEFPOINTS
  6
BYBLOCK
 62
     0
100
AcDbPoint
 10
1323.774043649579
 20
649.016627992486
 30
0.0
  0
ARC
  5
69D
100
AcDbEntity
  8
L1
100
AcDbCircle
 10
1323.774043649578
 20
651.0166279924858
 30
0.0
 40
2.0
100
AcDbArc
 50
180.0
 51
270.0
  0
LINE
  5
69E
100
AcDbEntity
  8
L1
100
AcDbLine
 10
1328.273358277782
 20
648.9380921635179
 30
0.0
 11
1344.153549248395
 21
649.2152819279824
 31
0.0
  0
LINE
  5
69F
100
AcDbEntity
  8
L1
100
AcDbLine
 10
1334.897910566761
 20
652.3754688889291
 30
0.0
 11
1337.065957405402
 21
652.3376254905933
 31
0.0
  0
POINT
  5
6A0
100
AcDbEntity
  8
DEFPOINTS
  6
BYBLOCK
 62
     0
100
AcDbPoint
 10
1337.065957405402
 20
652.3376254905931
 30
0.0
  0
LINE
  5
6A1
100
AcDbEntity
  8
L6
100
AcDbLine
 10
1391.520994855323
 20
464.0591918937635
 30
0.0
 11
1314.998477955793
 21
464.0591918937635
 31
0.0
  0
LINE
  5
6A3
100
AcDbEntity
  8
L1
100
AcDbLine
 10
1324.773358277785
 20
655.8769994362693
 30
0.0
 11
1324.773358277785
 21
669.9991848907666
 31
0.0
  0
LINE
  5
6A6
100
AcDbEntity
  8
L1
100
AcDbLine
 10
1335.113469160343
 20
251.2996862035802
 30
0.0
 11
1335.113469160343
 21
215.2965671849224
 31
0.0
  0
LINE
  5
6A7
100
AcDbEntity
  8
L1
100
AcDbLine
 10
1323.774043649578
 20
279.1017557950411
 30
0.0
 11
1328.273358277782
 21
279.1802916240089
 31
0.0
  0
LINE
  5
6A8
100
AcDbEntity
  8
L1
100
AcDbLine
 10
1321.773358277782
 20
272.2937495460423
 30
0.0
 11
1328.273358277782
 21
272.1802916240089
 31
0.0
  0
LINE
  5
6A9
100
AcDbEntity
  8
L1
100
AcDbLine
 10
1321.773358277782
 20
258.0668337019755
 30
0.0
 11
1328.273358277782
 21
258.1802916240089
 31
0.0
  0
LINE
  5
6AA
100
AcDbEntity
  8
L1
100
AcDbLine
 10
1323.774043649578
 20
251.2588274529767
 30
0.0
 11
1328.273358277782
 21
251.1802916240089
 31
0.0
  0
LINE
  5
6AB
100
AcDbEntity
  8
L1
100
AcDbLine
 10
1321.773358277782
 20
272.2937495460423
 30
0.0
 11
1321.773358277782
 21
277.1802916240089
 31
0.0
  0
ARC
  5
6AC
100
AcDbEntity
  8
L1
100
AcDbCircle
 10
1323.774043649578
 20
277.1017557950411
 30
0.0
 40
2.0
100
AcDbArc
 50
90.0
 51
180.0
  0
POINT
  5
6AD
100
AcDbEntity
  8
DEFPOINTS
  6
BYBLOCK
 62
     0
100
AcDbPoint
 10
1323.774043649579
 20
279.1017557950409
 30
0.0
  0
LINE
  5
6AE
100
AcDbEntity
  8
L1
100
AcDbLine
 10
1321.773358277782
 20
253.1802916240089
 30
0.0
 11
1321.773358277782
 21
258.0668337019755
 31
0.0
  0
POINT
  5
6B0
100
AcDbEntity
  8
DEFPOINTS
  6
BYBLOCK
 62
     0
100
AcDbPoint
 10
1321.773358277781
 20
258.0668337019758
 30
0.0
  0
POINT
  5
6B1
100
AcDbEntity
  8
DEFPOINTS
  6
BYBLOCK
 62
     0
100
AcDbPoint
 10
1321.773358277781
 20
258.0668337019758
 30
0.0
  0
ARC
  5
6B2
100
AcDbEntity
  8
L1
100
AcDbCircle
 10
1323.774043649578
 20
253.2588274529767
 30
0.0
 40
2.0
100
AcDbArc
 50
180.0
 51
270.0
  0
LINE
  5
6B3
100
AcDbEntity
  8
L1
100
AcDbLine
 10
1328.273358277782
 20
279.1802916240089
 30
0.0
 11
1344.153549248395
 21
278.9031018595443
 31
0.0
  0
LINE
  5
6B4
100
AcDbEntity
  8
L1
100
AcDbLine
 10
1334.897910566761
 20
275.7429148985977
 30
0.0
 11
1334.897910566761
 21
254.61766834942
 31
0.0
  0
POINT
  5
6B5
100
AcDbEntity
  8
DEFPOINTS
  6
BYBLOCK
 62
     0
100
AcDbPoint
 10
1337.065957405402
 20
275.7807582969336
 30
0.0
  0
LINE
  5
6B6
100
AcDbEntity
  8
L1
100
AcDbLine
 10
1334.897910566761
 20
275.7429148985977
 30
0.0
 11
1337.065957405402
 21
275.7807582969334
 31
0.0
  0
LINE
  5
6B7
100
AcDbEntity
  8
L1
100
AcDbLine
 10
1328.273358277782
 20
272.1802916240089
 30
0.0
 11
1334.897910566761
 21
272.2959236143335
 31
0.0
  0
LINE
  5
6B8
100
AcDbEntity
  8
L1
100
AcDbLine
 10
1328.273358277782
 20
258.1802916240089
 30
0.0
 11
1334.897910566761
 21
258.0646596336843
 31
0.0
  0
LINE
  5
6B9
100
AcDbEntity
  8
L1
100
AcDbLine
 10
1328.273358277782
 20
251.1802916240089
 30
0.0
 11
1344.153549248396
 21
251.4574813884733
 31
0.0
  0
LINE
  5
6BA
100
AcDbEntity
  8
L1
100
AcDbLine
 10
1334.897910566761
 20
254.6176683494203
 30
0.0
 11
1337.065957405402
 21
254.5798249510842
 31
0.0
  0
LINE
  5
6BD
100
AcDbEntity
  8
L1
100
AcDbLine
 10
1335.113469160347
 20
649.0574867430893
 30
0.0
 11
1335.113469160343
 21
279.0608970444376
 31
0.0
  0
LINE
  5
6CB
100
AcDbEntity
  8
L2
  6
HIDDEN
100
AcDbLine
 10
1162.579091413136
 20
15.70965158686561
 30
0.0
 11
788.9676251424344
 21
15.70965158686402
 31
0.0
1001
ACAD
1000
ASC_BOUNDS
1002
{
1070
    19
1002
}
  0
LINE
  5
6CC
100
AcDbEntity
  8
L2
  6
HIDDEN
100
AcDbLine
 10
786.2733582777853
 20
65.20965158686471
 30
0.0
 11
787.9682343154152
 21
16.67475209016146
 31
0.0
1001
ACAD
1000
ASC_BOUNDS
1002
{
1070
    19
1002
}
  0
POINT
  5
6CD
100
AcDbEntity
  8
L2
  6
HIDDEN
100
AcDbPoint
 10
788.0206154696527
 20
15.17475209016191
 30
0.0
  0
ARC
  5
6CE
100
AcDbEntity
  8
L2
  6
HIDDEN
100
AcDbCircle
 10
788.9676251424344
 20
16.70965158686402
 30
0.0
 40
1.0
100
AcDbArc
 50
182.0000000000004
 51
270.0000000000002
1001
ACAD
1000
ASC_BOUNDS
1002
{
1070
    19
1002
}
  0
LINE
  5
6D0
100
AcDbEntity
  8
L2
  6
HIDDEN
100
AcDbLine
 10
1165.273358277785
 20
65.20965158686471
 30
0.0
 11
1163.578482240156
 21
16.67475209016146
 31
0.0
1001
ACAD
1000
ASC_BOUNDS
1002
{
1070
    19
1002
}
  0
ARC
  5
6D1
100
AcDbEntity
  8
L2
  6
HIDDEN
100
AcDbCircle
 10
1162.579091413136
 20
16.70965158686402
 30
0.0
 40
1.0
100
AcDbArc
 50
269.9999999999997
 51
357.9999999999996
1001
ACAD
1000
ASC_BOUNDS
1002
{
1070
    19
1002
}
  0
LINE
  5
6D2
100
AcDbEntity
  8
L1
100
AcDbLine
 10
1167.110757152604
 20
913.9121583637757
 30
0.0
 11
784.4359594029672
 21
913.9121583637757
 31
0.0
  0
LINE
  5
6D3
100
AcDbEntity
  8
L2
 48
0.3
100
AcDbLine
 10
1150.839540008376
 20
866.9087322006623
 30
0.0
 11
1158.442814240518
 21
866.9087322006623
 31
0.0
  0
LINE
  5
6D4
100
AcDbEntity
  8
L2
100
AcDbLine
 10
1150.839540008376
 20
866.408732200662
 30
0.0
 11
1150.839540008376
 21
866.9087322006623
 31
0.0
  0
LINE
  5
6D6
100
AcDbEntity
  8
L2
100
AcDbLine
 10
1158.442814240518
 20
866.408732200662
 30
0.0
 11
1158.442814240518
 21
866.9087322006623
 31
0.0
  0
LINE
  5
6D7
100
AcDbEntity
  8
L2
100
AcDbLine
 10
577.2733582777846
 20
700.9097662807173
 30
0.0
 11
577.2733582777864
 21
227.5370530356895
 31
0.0
1001
ACAD
1000
ASC_BOUNDS
1002
{
1070
    19
1002
}
  0
LINE
  5
6D8
100
AcDbEntity
  8
L2
100
AcDbLine
 10
626.7733582777855
 20
224.4380921635177
 30
0.0
 11
578.2114705016509
 21
226.2102103028356
 31
0.0
1001
ACAD
1000
ASC_BOUNDS
1002
{
1070
    19
1002
}
  0
ARC
  5
6D9
100
AcDbEntity
  8
L2
100
AcDbCircle
 10
578.2463699983534
 20
227.2096011298547
 30
0.0
 40
1.0
100
AcDbArc
 50
170.5767695176282
 51
267.9999999999997
1001
ACAD
1000
ASC_BOUNDS
1002
{
1070
    19
1002
}
  0
LINE
  5
6DA
100
AcDbEntity
  8
L2
100
AcDbLine
 10
626.7733582777855
 20
703.6802916240092
 30
0.0
 11
578.2368905977624
 21
701.9091011136506
 31
0.0
1001
ACAD
1000
ASC_BOUNDS
1002
{
1070
    19
1002
}
  0
LINE
  5
754
100
AcDbEntity
  8
L1
100
AcDbLine
 10
1328.273358277785
 20
215.2096515868647
 30
0.0
 11
1328.273358277785
 21
217.2123962788606
 31
0.0
1001
ACAD
1000
ASC_BOUNDS
1002
{
1070
    19
1002
}
  0
LINE
  5
755
100
AcDbEntity
  8
L1
100
AcDbLine
 10
1378.273358277786
 20
702.8868506082192
 30
0.0
 11
1378.273358277785
 21
225.5030926026532
 31
0.0
1001
ACAD
1000
ASC_BOUNDS
1002
{
1070
    19
1002
}
  0
LINE
  5
756
100
AcDbEntity
  8
L1
100
AcDbLine
 10
1378.273358277785
 20
225.5030926026539
 30
0.0
 11
1375.776784440899
 21
222.8722527120465
 31
0.0
1001
ACAD
1000
ASC_BOUNDS
1002
{
1070
    19
1002
}
  0
POINT
  5
757
100
AcDbEntity
  8
DEFPOINTS
  6
BYBLOCK
 62
     0
100
AcDbPoint
 10
1378.273358277785
 20
225.5030926026539
 30
0.0
  0
LINE
  5
758
100
AcDbEntity
  8
L2
100
AcDbLine
 10
1374.273358277786
 20
701.1395383545371
 30
0.0
 11
1374.273358277784
 21
227.4801769301562
 31
0.0
1001
ACAD
1000
ASC_BOUNDS
1002
{
1070
    19
1002
}
  0
LINE
  5
759
100
AcDbEntity
  8
L2
100
AcDbLine
 10
1324.773358277785
 20
224.7096515868645
 30
0.0
 11
1373.309825957806
 21
226.4808420972229
 31
0.0
1001
ACAD
1000
ASC_BOUNDS
1002
{
1070
    19
1002
}
  0
LINE
  5
75A
100
AcDbEntity
  8
L1
100
AcDbLine
 10
1324.773358277785
 20
223.2401956241321
 30
0.0
 11
1324.773358277785
 21
224.7096515868645
 31
0.0
1001
ACAD
1000
ASC_BOUNDS
1002
{
1070
    19
1002
}
  0
LINE
  5
75B
100
AcDbEntity
  8
L1
100
AcDbLine
 10
1324.773358277785
 20
224.7096515868645
 30
0.0
 11
1324.773358277785
 21
231.5401956241322
 31
0.0
  0
POINT
  5
75C
100
AcDbEntity
  8
DEFPOINTS
  6
BYBLOCK
 62
     0
100
AcDbPoint
 10
1324.773358277785
 20
224.7096515868645
 30
0.0
  0
LINE
  5
75E
100
AcDbEntity
  8
L1
100
AcDbLine
 10
1336.027059030395
 20
216.3079370979218
 30
0.0
 11
1337.056829982559
 21
220.1510946115572
 31
0.0
1001
ACAD
1000
ASC_BOUNDS
1002
{
1070
    19
1002
}
  0
LINE
  5
75F
100
AcDbEntity
  8
L1
100
AcDbLine
 10
1375.776784440899
 20
222.8722527120465
 30
0.0
 11
1337.970419852605
 21
220.8909051012093
 31
0.0
1001
ACAD
1000
ASC_BOUNDS
1002
{
1070
    19
1002
}
  0
ARC
  5
760
100
AcDbEntity
  8
L1
100
AcDbCircle
 10
1338.022755808848
 20
219.8922755664546
 30
0.0
 40
1.0
100
AcDbArc
 50
92.99999999999972
 51
165.0000000000018
1001
ACAD
1000
ASC_BOUNDS
1002
{
1070
    19
1002
}
  0
LINE
  5
761
100
AcDbEntity
  8
L1
100
AcDbLine
 10
1378.273358277785
 20
225.5030926026539
 30
0.0
 11
1375.776784440899
 21
222.8722527120465
 31
0.0
1001
ACAD
1000
ASC_BOUNDS
1002
{
1070
    19
1002
}
  0
POINT
  5
763
100
AcDbEntity
  8
DEFPOINTS
  6
BYBLOCK
 62
     0
100
AcDbPoint
 10
1375.776784440899
 20
222.8722527120465
 30
0.0
  0
LINE
  5
764
100
AcDbEntity
  8
L1
100
AcDbLine
 10
1328.273358277785
 20
215.2096515868647
 30
0.0
 11
1335.113469160349
 21
215.5681266082696
 31
0.0
1001
ACAD
1000
ASC_BOUNDS
1002
{
1070
    19
1002
}
  0
LINE
  5
765
100
AcDbEntity
  8
L2
 48
0.3
100
AcDbLine
 10
1328.168686365299
 20
217.2069106563739
 30
0.0
 11
1334.283250421141
 21
217.5273613798245
 31
0.0
1001
ACAD
1000
ASC_BOUNDS
1002
{
1070
    19
1002
}
  0
LINE
  5
766
100
AcDbEntity
  8
L1
100
AcDbLine
 10
1328.273358277785
 20
215.2096515868647
 30
0.0
 11
1328.273358277785
 21
217.2123962788606
 31
0.0
1001
ACAD
1000
ASC_BOUNDS
1002
{
1070
    19
1002
}
  0
POINT
  5
767
100
AcDbEntity
  8
DEFPOINTS
  6
BYBLOCK
 62
     0
100
AcDbPoint
 10
1328.168686365299
 20
217.2069106563739
 30
0.0
  0
POINT
  5
768
100
AcDbEntity
  8
DEFPOINTS
  6
BYBLOCK
 62
     0
100
AcDbPoint
 10
1328.1686863653
 20
217.2069106563741
 30
0.0
  0
POINT
  5
769
100
AcDbEntity
  8
DEFPOINTS
  6
BYBLOCK
 62
     0
100
AcDbPoint
 10
1328.273358277785
 20
215.2096515868647
 30
0.0
  0
ARC
  5
76A
100
AcDbEntity
  8
L1
100
AcDbCircle
 10
1335.061133204106
 20
216.5667561430242
 30
0.0
 40
1.0
100
AcDbArc
 50
272.9999999999998
 51
345.0000000000022
1001
ACAD
1000
ASC_BOUNDS
1002
{
1070
    19
1002
}
  0
POINT
  5
76B
100
AcDbEntity
  8
DEFPOINTS
  6
BYBLOCK
 62
     0
100
AcDbPoint
 10
1334.283250421142
 20
217.5273613798244
 30
0.0
  0
POINT
  5
76C
100
AcDbEntity
  8
DEFPOINTS
  6
BYBLOCK
 62
     0
100
AcDbPoint
 10
1334.283250421142
 20
217.5273613798247
 30
0.0
  0
LINE
  5
76D
100
AcDbEntity
  8
L1
100
AcDbLine
 10
1328.773358277785
 20
231.5401956241322
 30
0.0
 11
1324.773358277785
 21
231.5401956241322
 31
0.0
  0
LINE
  5
76E
100
AcDbEntity
  8
L1
100
AcDbLine
 10
1328.773358277785
 20
238.5401956241322
 30
0.0
 11
1324.773358277785
 21
238.5401956241321
 31
0.0
  0
LINE
  5
76F
100
AcDbEntity
  8
L1
100
AcDbLine
 10
1328.273358277785
 20
713.2096515868648
 30
0.0
 11
1335.113469160349
 21
712.85117656546
 31
0.0
  0
LINE
  5
770
100
AcDbEntity
  8
L1
100
AcDbLine
 10
1336.027059030395
 20
712.1113660758078
 30
0.0
 11
1337.056829982559
 21
708.2682085621723
 31
0.0
  0
LINE
  5
771
100
AcDbEntity
  8
L1
100
AcDbLine
 10
1375.776784440899
 20
705.547050461683
 30
0.0
 11
1337.970419852605
 21
707.5283980725203
 31
0.0
  0
ARC
  5
772
100
AcDbEntity
  8
L1
100
AcDbCircle
 10
1335.061133204106
 20
711.8525470307054
 30
0.0
 40
1.0
100
AcDbArc
 50
14.99999999999774
 51
87.00000000000018
  0
ARC
  5
773
100
AcDbEntity
  8
L1
100
AcDbCircle
 10
1338.022755808848
 20
708.5270276072749
 30
0.0
 40
1.0
100
AcDbArc
 50
194.9999999999981
 51
267.0000000000003
  0
POINT
  5
774
100
AcDbEntity
  8
DEFPOINTS
  6
BYBLOCK
 62
     0
100
AcDbPoint
 10
1338.470419852605
 20
707.5283980725203
 30
0.0
  0
POINT
  5
775
100
AcDbEntity
  8
DEFPOINTS
  6
BYBLOCK
 62
     0
100
AcDbPoint
 10
1337.970419852605
 20
707.5283980725203
 30
0.0
  0
LINE
  5
777
100
AcDbEntity
  8
L1
100
AcDbLine
 10
1328.273358277785
 20
713.2096515868648
 30
0.0
 11
1328.273358277785
 21
677.2096515868647
 31
0.0
  0
LINE
  5
778
100
AcDbEntity
  8
L1
100
AcDbLine
 10
1324.773358277785
 20
689.8497475867416
 30
0.0
 11
1324.773358277785
 21
676.8769994362692
 31
0.0
  0
LINE
  5
779
100
AcDbEntity
  8
L1
100
AcDbLine
 10
1324.773358277785
 20
705.1791075495973
 30
0.0
 11
1324.773358277785
 21
696.8791075495974
 31
0.0
  0
LINE
  5
77A
100
AcDbEntity
  8
L1
100
AcDbLine
 10
1324.773358277785
 20
696.8791075495974
 30
0.0
 11
1328.273358277785
 21
696.8791075495974
 31
0.0
  0
LINE
  5
77C
100
AcDbEntity
  8
L1
100
AcDbLine
 10
1324.773358277785
 20
705.1791075495973
 30
0.0
 11
1328.273358277785
 21
705.2096515868649
 31
0.0
  0
LINE
  5
77F
100
AcDbEntity
  8
L2
 48
0.3
100
AcDbLine
 10
1328.773358277785
 20
231.5401956241322
 30
0.0
 11
1328.773358277785
 21
238.5401956241322
 31
0.0
  0
ARC
  5
780
100
AcDbEntity
  8
L2
100
AcDbCircle
 10
1373.273358277784
 20
227.4801769301562
 30
0.0
 40
1.0
100
AcDbArc
 50
272.0899075536819
 51
359.9999999999997
1001
ACAD
1000
ASC_BOUNDS
1002
{
1070
    19
1002
}
  0
LINE
  5
781
100
AcDbEntity
  8
L1
100
AcDbLine
 10
1328.273358277785
 20
251.1802916240089
 30
0.0
 11
1328.273358277785
 21
217.2129612012354
 31
0.0
  0
LINE
  5
78B
100
AcDbEntity
  8
L1
100
AcDbLine
 10
1324.773358277785
 20
223.2401956241321
 30
0.0
 11
1328.273358277785
 21
223.2096515868643
 31
0.0
1001
ACAD
1000
ASC_BOUNDS
1002
{
1070
    19
1002
}
  0
LINE
  5
78E
100
AcDbEntity
  8
L1
100
AcDbLine
 10
1324.773358277785
 20
279.1191988967601
 30
0.0
 11
1324.773358277785
 21
648.9991848907666
 31
0.0
  0
LINE
  5
791
100
AcDbEntity
  8
L2
100
AcDbLine
 39
0.3
 10
1328.273358277785
 20
696.8791075495974
 30
0.0
 11
1328.773358277785
 21
696.8791075495974
 31
0.0
  0
LINE
  5
792
100
AcDbEntity
  8
L2
100
AcDbLine
 39
0.3
 10
1328.273358277785
 20
689.8497475867415
 30
0.0
 11
1328.773358277785
 21
689.8497475867415
 31
0.0
  0
ARC
  5
7ED
100
AcDbEntity
  8
L2
100
AcDbCircle
 10
578.2733582777845
 20
700.9097662807173
 30
0.0
 40
1.0
100
AcDbArc
 50
92.08990755368194
 51
180.0000000000002
1001
ACAD
1000
ASC_BOUNDS
1002
{
1070
    19
1002
}
  0
LINE
  5
7EE
100
AcDbEntity
  8
L2
 48
0.3
100
AcDbLine
 10
623.1398422846604
 20
689.9102341639832
 30
0.0
 11
623.1398422846605
 21
696.9102341639832
 31
0.0
  0
LINE
  5
7FE
100
AcDbEntity
  8
L1
100
AcDbLine
 10
575.7699321146719
 20
705.5470504616829
 30
0.0
 11
613.5762967029655
 21
707.5283980725202
 31
0.0
  0
LINE
  5
7FF
100
AcDbEntity
  8
L1
100
AcDbLine
 10
573.2733582777854
 20
702.9162105710756
 30
0.0
 11
575.7699321146719
 21
705.5470504616829
 31
0.0
  0
LINE
  5
800
100
AcDbEntity
  8
L1
100
AcDbLine
 10
575.7699321146719
 20
705.5470504616829
 30
0.0
 11
575.7699321146719
 21
514.2096515868647
 31
0.0
  0
LINE
  5
801
100
AcDbEntity
  8
L1
100
AcDbLine
 10
573.2733582777857
 20
514.2096515868647
 30
0.0
 11
573.273358277785
 21
702.9162105710752
 31
0.0
  0
LINE
  5
802
100
AcDbEntity
  8
L1
100
AcDbLine
 10
623.2733582777854
 20
713.2096515868648
 30
0.0
 11
616.433247395222
 21
712.8511765654599
 31
0.0
  0
ARC
  5
803
100
AcDbEntity
  8
L1
100
AcDbCircle
 10
616.485583351465
 20
711.8525470307052
 30
0.0
 40
1.0
100
AcDbArc
 50
92.99999999999981
 51
165.0000000000022
  0
ARC
  5
804
100
AcDbEntity
  8
L1
100
AcDbCircle
 10
613.5239607467224
 20
708.5270276072748
 30
0.0
 40
1.0
100
AcDbArc
 50
272.9999999999997
 51
345.0000000000018
  0
LINE
  5
805
100
AcDbEntity
  8
L1
100
AcDbLine
 10
615.5196575251759
 20
712.1113660758076
 30
0.0
 11
614.4898865730115
 21
708.2682085621723
 31
0.0
  0
LINE
  5
806
100
AcDbEntity
  8
L1
100
AcDbLine
 10
616.433247395222
 20
712.8511765654597
 30
0.0
 11
616.4332473952222
 21
663.1983953275657
 31
0.0
  0
LINE
  5
807
100
AcDbEntity
  8
L1
100
AcDbLine
 10
626.7733582777855
 20
689.8785249502956
 30
0.0
 11
626.7733582777855
 21
514.2096515868647
 31
0.0
  0
LINE
  5
808
100
AcDbEntity
  8
L1
100
AcDbLine
 10
626.7733582777855
 20
705.1791075495973
 30
0.0
 11
626.7733582777855
 21
696.8787914989958
 31
0.0
  0
LINE
  5
809
100
AcDbEntity
  8
L1
100
AcDbLine
 10
626.7733582777855
 20
696.8787914989957
 30
0.0
 11
623.200928033149
 21
696.9099676254323
 31
0.0
  0
LINE
  5
80A
100
AcDbEntity
  8
L1
100
AcDbLine
 10
626.7733582777855
 20
689.8785249502956
 30
0.0
 11
623.1398422846604
 21
689.9102341639832
 31
0.0
  0
LINE
  5
80B
100
AcDbEntity
  8
L1
100
AcDbLine
 10
626.7733582777855
 20
705.1791075495973
 30
0.0
 11
623.2733582777854
 21
705.2096515868649
 31
0.0
  0
ARC
  5
80C
100
AcDbEntity
  8
L1
100
AcDbCircle
 10
627.7726729059893
 20
675.1311157578969
 30
0.0
 40
2.0
100
AcDbArc
 50
0.0
 51
90.0
  0
LINE
  5
80D
100
AcDbEntity
  8
L1
100
AcDbLine
 10
627.7726729059893
 20
677.131115757897
 30
0.0
 11
626.7733582777855
 21
677.1485588596159
 31
0.0
  0
LINE
  5
80E
100
AcDbEntity
  8
L1
100
AcDbLine
 10
629.7733582777855
 20
670.3231095088981
 30
0.0
 11
626.7733582777855
 21
670.2707443141134
 31
0.0
  0
LINE
  5
80F
100
AcDbEntity
  8
L1
100
AcDbLine
 10
629.7733582777855
 20
656.0961936648314
 30
0.0
 11
626.7733582777855
 21
656.148558859616
 31
0.0
  0
LINE
  5
810
100
AcDbEntity
  8
L1
100
AcDbLine
 10
629.7733582777855
 20
656.0961936648314
 30
0.0
 11
629.7733582777855
 21
651.2096515868647
 31
0.0
  0
LINE
  5
811
100
AcDbEntity
  8
L1
100
AcDbLine
 10
629.7733582777855
 20
675.2096515868648
 30
0.0
 11
629.7733582777855
 21
670.3231095088981
 31
0.0
  0
ARC
  5
812
100
AcDbEntity
  8
L1
100
AcDbCircle
 10
627.7726729059893
 20
651.2881874158325
 30
0.0
 40
2.0
100
AcDbArc
 50
270.0
 51
0.0
  0
LINE
  5
813
100
AcDbEntity
  8
L1
100
AcDbLine
 10
627.7726729059893
 20
649.2881874158325
 30
0.0
 11
626.7733582777855
 21
649.2707443141135
 31
0.0
  0
LINE
  5
814
100
AcDbEntity
  8
L1
100
AcDbLine
 10
623.2733582777857
 20
713.2096515868648
 30
0.0
 11
623.2733582777854
 21
514.2096515868647
 31
0.0
  0
LINE
  5
815
100
AcDbEntity
  8
L1
100
AcDbLine
 10
616.433247395222
 20
215.5681266082697
 30
0.0
 11
616.4332473952223
 21
265.2209078461637
 31
0.0
  0
LINE
  5
816
100
AcDbEntity
  8
L1
100
AcDbLine
 10
623.2733582777854
 20
215.2096515868647
 30
0.0
 11
623.2733582777854
 21
514.2096515868647
 31
0.0
  0
LINE
  5
817
100
AcDbEntity
  8
L1
100
AcDbLine
 10
626.7733582777855
 20
223.2401956241321
 30
0.0
 11
626.7733582777855
 21
231.5405116747338
 31
0.0
  0
LINE
  5
818
100
AcDbEntity
  8
L1
100
AcDbLine
 10
623.2733582777854
 20
215.2096515868647
 30
0.0
 11
616.433247395222
 21
215.5681266082696
 31
0.0
  0
ARC
  5
819
100
AcDbEntity
  8
L1
100
AcDbCircle
 10
613.5239607467224
 20
219.8922755664546
 30
0.0
 40
1.0
100
AcDbArc
 50
14.99999999999814
 51
87.00000000000029
  0
LINE
  5
81A
100
AcDbEntity
  8
L1
100
AcDbLine
 10
615.5196575251759
 20
216.3079370979218
 30
0.0
 11
614.4898865730115
 21
220.1510946115572
 31
0.0
  0
ARC
  5
81B
100
AcDbEntity
  8
L1
100
AcDbCircle
 10
616.485583351465
 20
216.5667561430242
 30
0.0
 40
1.0
100
AcDbArc
 50
194.9999999999977
 51
267.0000000000001
  0
LINE
  5
81C
100
AcDbEntity
  8
L1
100
AcDbLine
 10
626.7733582777855
 20
223.2401956241321
 30
0.0
 11
623.2733582777854
 21
223.2096515868645
 31
0.0
  0
LINE
  5
81D
100
AcDbEntity
  8
L1
100
AcDbLine
 10
626.7733582777855
 20
231.5405116747338
 30
0.0
 11
623.200928033149
 21
231.5093355482971
 31
0.0
  0
LINE
  5
81E
100
AcDbEntity
  8
L1
100
AcDbLine
 10
626.7733582777855
 20
238.540778223434
 30
0.0
 11
623.1398422846604
 21
238.5090690097463
 31
0.0
  0
LINE
  5
81F
100
AcDbEntity
  8
L1
100
AcDbLine
 10
629.7733582777855
 20
258.0961936648313
 30
0.0
 11
626.7733582777855
 21
258.148558859616
 31
0.0
  0
LINE
  5
820
100
AcDbEntity
  8
L1
100
AcDbLine
 10
629.7733582777855
 20
253.2096515868647
 30
0.0
 11
629.7733582777855
 21
258.0961936648313
 31
0.0
  0
LINE
  5
821
100
AcDbEntity
  8
L1
100
AcDbLine
 10
626.7733582777855
 20
238.540778223434
 30
0.0
 11
626.7733582777855
 21
514.2096515868647
 31
0.0
  0
ARC
  5
822
100
AcDbEntity
  8
L1
100
AcDbCircle
 10
627.7726729059893
 20
253.2881874158325
 30
0.0
 40
2.0
100
AcDbArc
 50
270.0
 51
0.0
  0
LINE
  5
823
100
AcDbEntity
  8
L1
100
AcDbLine
 10
627.7726729059893
 20
251.2881874158325
 30
0.0
 11
626.7733582777855
 21
251.2707443141136
 31
0.0
  0
ARC
  5
824
100
AcDbEntity
  8
L1
100
AcDbCircle
 10
627.7726729059893
 20
277.1311157578969
 30
0.0
 40
2.0
100
AcDbArc
 50
0.0
 51
90.0
  0
LINE
  5
825
100
AcDbEntity
  8
L1
100
AcDbLine
 10
627.7726729059893
 20
279.1311157578969
 30
0.0
 11
626.7733582777855
 21
279.1485588596159
 31
0.0
  0
LINE
  5
826
100
AcDbEntity
  8
L1
100
AcDbLine
 10
629.7733582777855
 20
272.323109508898
 30
0.0
 11
626.7733582777855
 21
272.2707443141134
 31
0.0
  0
LINE
  5
827
100
AcDbEntity
  8
L1
100
AcDbLine
 10
629.7733582777855
 20
272.323109508898
 30
0.0
 11
629.7733582777855
 21
277.2096515868647
 31
0.0
  0
LINE
  5
828
100
AcDbEntity
  8
L1
100
AcDbLine
 10
575.7699321146719
 20
222.8722527120465
 30
0.0
 11
613.5762967029655
 21
220.8909051012093
 31
0.0
  0
LINE
  5
829
100
AcDbEntity
  8
L1
100
AcDbLine
 10
573.2733582777854
 20
225.5030926026539
 30
0.0
 11
575.7699321146719
 21
222.8722527120465
 31
0.0
  0
LINE
  5
82D
100
AcDbEntity
  8
L2
 48
0.3
100
AcDbLine
 10
623.1398422846602
 20
231.5090690097463
 30
0.0
 11
623.1398422846604
 21
238.5090690097463
 31
0.0
  0
LINE
  5
848
100
AcDbEntity
  8
L2
 48
0.3
100
AcDbLine
 10
793.1039023150528
 20
61.20965158686454
 30
0.0
 11
800.103902315053
 21
61.20965158686454
 31
0.0
  0
LINE
  5
84B
100
AcDbEntity
  8
L2
100
AcDbLine
 10
793.1039023150528
 20
61.7096515868647
 30
0.0
 11
793.1039023150528
 21
61.20965158686454
 31
0.0
  0
LINE
  5
84C
100
AcDbEntity
  8
L2
100
AcDbLine
 10
800.1039023150529
 20
61.7096515868647
 30
0.0
 11
800.1039023150529
 21
61.20965158686454
 31
0.0
  0
LINE
  5
84D
100
AcDbEntity
  8
L2
100
AcDbLine
 10
1158.442814240518
 20
61.7096515868647
 30
0.0
 11
1158.442814240518
 21
61.20965158686454
 31
0.0
  0
LINE
  5
84E
100
AcDbEntity
  8
L2
100
AcDbLine
 10
1150.839540008376
 20
61.7096515868647
 30
0.0
 11
1150.839540008376
 21
61.20965158686454
 31
0.0
  0
LINE
  5
84F
100
AcDbEntity
  8
L2
 48
0.3
100
AcDbLine
 10
1150.839540008376
 20
61.20965158686454
 30
0.0
 11
1158.442814240518
 21
61.20965158686454
 31
0.0
  0
LINE
  5
850
100
AcDbEntity
  8
L1
100
AcDbLine
 10
776.7733582777855
 20
866.408732200662
 30
0.0
 11
777.13183329919
 21
873.2488430832257
 31
0.0
  0
ARC
  5
851
100
AcDbEntity
  8
L1
100
AcDbCircle
 10
778.1304628339453
 20
873.1965071269826
 30
0.0
 40
1.0
100
AcDbArc
 50
104.9999999999977
 51
177.0000000000002
  0
LINE
  5
852
100
AcDbEntity
  8
L1
100
AcDbLine
 10
777.8716437888428
 20
874.1624329532717
 30
0.0
 11
781.7148013024779
 21
875.1922039054361
 31
0.0
  0
ARC
  5
853
100
AcDbEntity
  8
L1
100
AcDbCircle
 10
781.4559822573751
 20
876.1581297317253
 30
0.0
 40
1.0
100
AcDbArc
 50
284.9999999999981
 51
357.0000000000002
  0
LINE
  5
854
100
AcDbEntity
  8
L1
100
AcDbLine
 10
1174.41488325638
 20
873.2488430832257
 30
0.0
 11
777.1318332991906
 21
873.2488430832257
 31
0.0
  0
LINE
  5
85C
100
AcDbEntity
  8
L1
100
AcDbLine
 10
1324.773358277785
 20
258.1191988967602
 30
0.0
 11
1324.773358277785
 21
272.2413843512575
 31
0.0
  0
LINE
  5
862
100
AcDbEntity
  8
L1
100
AcDbLine
 10
763.7733582777855
 20
250.9087322006621
 30
0.0
 11
782.7786558727835
 21
250.9087322006621
 31
0.0
  0
LINE
  5
863
100
AcDbEntity
  8
L1
100
AcDbLine
 10
763.7733582777855
 20
278.9087322006621
 30
0.0
 11
782.7786558727835
 21
278.9087322006621
 31
0.0
  0
LINE
  5
864
100
AcDbEntity
  8
L1
100
AcDbLine
 10
773.076677953717
 20
257.9087322006621
 30
0.0
 11
773.076677953717
 21
271.9087322006621
 31
0.0
  0
LINE
  5
865
100
AcDbEntity
  8
L1
100
AcDbLine
 10
761.7733582777855
 20
271.9087322006621
 30
0.0
 11
773.0766779537175
 21
271.9087322006621
 31
0.0
  0
LINE
  5
866
100
AcDbEntity
  8
L1
100
AcDbLine
 10
761.7733582777855
 20
271.9087322006621
 30
0.0
 11
761.7733582777855
 21
276.9087322006621
 31
0.0
  0
ARC
  5
867
100
AcDbEntity
  8
L1
100
AcDbCircle
 10
763.7733582777855
 20
276.9087322006621
 30
0.0
 40
2.0
100
AcDbArc
 50
90.0
 51
180.0
  0
LINE
  5
868
100
AcDbEntity
  8
L1
100
AcDbLine
 10
761.7733582777855
 20
257.9087322006621
 30
0.0
 11
773.076677953717
 21
257.9087322006621
 31
0.0
  0
LINE
  5
869
100
AcDbEntity
  8
L1
100
AcDbLine
 10
761.7733582777855
 20
252.9087322006621
 30
0.0
 11
761.7733582777855
 21
257.9087322006621
 31
0.0
  0
ARC
  5
86A
100
AcDbEntity
  8
L1
100
AcDbCircle
 10
763.7733582777855
 20
252.9087322006621
 30
0.0
 40
2.0
100
AcDbArc
 50
180.0
 51
270.0
  0
INSERT
  5
86B
100
AcDbEntity
  8
L1
100
AcDbBlockReference
  2
A$C18
 10
782.6768531557567
 20
278.9482252118148
 30
0.0
 41
-1.0
 50
180.0
  0
LINE
  5
86C
100
AcDbEntity
  8
L1
100
AcDbLine
 10
782.4546117921301
 20
253.9087322006621
 30
0.0
 11
782.4546117921301
 21
275.9087322006621
 31
0.0
  0
LINE
  5
86D
100
AcDbEntity
  8
L1
100
AcDbLine
 10
782.4546117921307
 20
253.9087322006619
 30
0.0
 11
782.4546117921307
 21
275.9087322006621
 31
0.0
  0
LINE
  5
86E
100
AcDbEntity
  8
L1
100
AcDbLine
 10
782.7786558727835
 20
275.9087322006621
 30
0.0
 11
782.4546117921301
 21
275.9087322006621
 31
0.0
  0
LINE
  5
86F
100
AcDbEntity
  8
L1
100
AcDbLine
 10
782.7786558727835
 20
253.9087322006621
 30
0.0
 11
782.4546117921301
 21
253.9087322006621
 31
0.0
  0
ENDSEC
  0
SECTION
  2
OBJECTS
  0
DICTIONARY
  5
1B
100
AcDbDictionary
  3
ACAD_GROUP
350
19
  3
ACAD_MLINESTYLE
350
1A
  0
DICTIONARY
  5
19
102
{ACAD_REACTORS
330
1B
102
}
100
AcDbDictionary
  0
DICTIONARY
  5
1A
102
{ACAD_REACTORS
330
1B
102
}
100
AcDbDictionary
  3
STANDARD
350
1E
  0
MLINESTYLE
  5
1E
102
{ACAD_REACTORS
330
1A
102
}
100
AcDbMlineStyle
  2
STANDARD
 70
     0
  3

 62
     0
 51
90.0
 52
90.0
 71
     2
 49
0.5
 62
   256
  6
BYLAYER
 49
-0.5
 62
   256
  6
BYLAYER
  0
ENDSEC
  0
EOF
