  0
SECTION
  2
HEADER
  9
$ACADVER
  1
AC1012
  9
$DWGCODEPAGE
  3
ansi_1252
  9
$INSBASE
 10
0.0
 20
0.0
 30
0.0
  9
$EXTMIN
 10
5.879882499705672
 20
-2.896372800425524
 30
0.0
  9
$EXTMAX
 10
1624.553621208059
 20
1109.310748381659
 30
0.2
  9
$LIMMIN
 10
0.0
 20
0.0
  9
$LIMMAX
 10
1630.848798415019
 20
1117.999868065796
  9
$ORTHOMODE
 70
     1
  9
$REGENMODE
 70
     1
  9
$FILLMODE
 70
     1
  9
$QTEXTMODE
 70
     0
  9
$MIRRTEXT
 70
     1
  9
$DRAGMODE
 70
     2
  9
$LTSCALE
 40
25.0
  9
$OSMODE
 70
    39
  9
$ATTMODE
 70
     1
  9
$TEXTSIZE
 40
3.5
  9
$TRACEWID
 40
0.05
  9
$TEXTSTYLE
  7
CAEISO
  9
$CLAYER
  8
L1
  9
$CELTYPE
  6
BYLAYER
  9
$CECOLOR
 62
   256
  9
$CELTSCALE
 40
1.0
  9
$DELOBJ
 70
     1
  9
$DISPSILH
 70
     1
  9
$DIMSCALE
 40
1.0
  9
$DIMASZ
 40
3.5
  9
$DIMEXO
 40
0.1
  9
$DIMDLI
 40
0.4
  9
$DIMRND
 40
0.0
  9
$DIMDLE
 40
0.0
  9
$DIMEXE
 40
0.2
  9
$DIMTP
 40
0.0
  9
$DIMTM
 40
0.0
  9
$DIMTXT
 40
3.5
  9
$DIMCEN
 40
0.1
  9
$DIMTSZ
 40
0.0
  9
$DIMTOL
 70
     0
  9
$DIMLIM
 70
     0
  9
$DIMTIH
 70
     0
  9
$DIMTOH
 70
     0
  9
$DIMSE1
 70
     0
  9
$DIMSE2
 70
     0
  9
$DIMTAD
 70
     1
  9
$DIMZIN
 70
    12
  9
$DIMBLK
  1

  9
$DIMASO
 70
     1
  9
$DIMSHO
 70
     1
  9
$DIMPOST
  1

  9
$DIMAPOST
  1

  9
$DIMALT
 70
     0
  9
$DIMALTD
 70
     2
  9
$DIMALTF
 40
25.4
  9
$DIMLFAC
 40
1.0
  9
$DIMTOFL
 70
     0
  9
$DIMTVP
 40
0.0
  9
$DIMTIX
 70
     0
  9
$DIMSOXD
 70
     0
  9
$DIMSAH
 70
     0
  9
$DIMBLK1
  1

  9
$DIMBLK2
  1

  9
$DIMSTYLE
  2
ACADUS
  9
$DIMCLRD
 70
   256
  9
$DIMCLRE
 70
   256
  9
$DIMCLRT
 70
     3
  9
$DIMTFAC
 40
0.2
  9
$DIMGAP
 40
0.1
  9
$DIMJUST
 70
     0
  9
$DIMSD1
 70
     0
  9
$DIMSD2
 70
     0
  9
$DIMTOLJ
 70
     1
  9
$DIMTZIN
 70
    12
  9
$DIMALTZ
 70
    12
  9
$DIMALTTZ
 70
    12
  9
$DIMFIT
 70
     5
  9
$DIMUPT
 70
     0
  9
$DIMUNIT
 70
     2
  9
$DIMDEC
 70
     1
  9
$DIMTDEC
 70
     1
  9
$DIMALTU
 70
     2
  9
$DIMALTTD
 70
     2
  9
$DIMTXSTY
  7
CAEISO
  9
$DIMAUNIT
 70
     0
  9
$LUNITS
 70
     2
  9
$LUPREC
 70
     1
  9
$SKETCHINC
 40
1.0
  9
$FILLETRAD
 40
4.0
  9
$AUNITS
 70
     0
  9
$AUPREC
 70
     1
  9
$MENU
  1
CAESAR
  9
$ELEVATION
 40
0.0
  9
$PELEVATION
 40
0.0
  9
$THICKNESS
 40
0.0
  9
$LIMCHECK
 70
     0
  9
$BLIPMODE
 70
     0
  9
$CHAMFERA
 40
5.0
  9
$CHAMFERB
 40
5.0
  9
$CHAMFERC
 40
0.0
  9
$CHAMFERD
 40
0.0
  9
$SKPOLY
 70
     0
  9
$TDCREATE
 40
2450490.599232638
  9
$TDUPDATE
 40
2450779.585281608
  9
$TDINDWG
 40
0.2617712269
  9
$TDUSRTIMER
 40
0.2617712269
  9
$USRTIMER
 70
     1
  9
$ANGBASE
 50
0.0
  9
$ANGDIR
 70
     0
  9
$PDMODE
 70
    34
  9
$PDSIZE
 40
-1.0
  9
$PLINEWID
 40
0.0
  9
$COORDS
 70
     2
  9
$SPLFRAME
 70
     0
  9
$SPLINETYPE
 70
     6
  9
$SPLINESEGS
 70
     8
  9
$ATTDIA
 70
     0
  9
$ATTREQ
 70
     1
  9
$HANDLING
 70
     1
  9
$HANDSEED
  5
160C
  9
$SURFTAB1
 70
     6
  9
$SURFTAB2
 70
     6
  9
$SURFTYPE
 70
     6
  9
$SURFU
 70
     6
  9
$SURFV
 70
     6
  9
$UCSNAME
  2

  9
$UCSORG
 10
0.0
 20
0.0
 30
0.0
  9
$UCSXDIR
 10
1.0
 20
0.0
 30
0.0
  9
$UCSYDIR
 10
0.0
 20
1.0
 30
0.0
  9
$PUCSNAME
  2

  9
$PUCSORG
 10
0.0
 20
0.0
 30
0.0
  9
$PUCSXDIR
 10
1.0
 20
0.0
 30
0.0
  9
$PUCSYDIR
 10
0.0
 20
1.0
 30
0.0
  9
$USERI1
 70
     0
  9
$USERI2
 70
     0
  9
$USERI3
 70
     0
  9
$USERI4
 70
     0
  9
$USERI5
 70
     0
  9
$USERR1
 40
1.0
  9
$USERR2
 40
0.0
  9
$USERR3
 40
3.5
  9
$USERR4
 40
0.0
  9
$USERR5
 40
0.0
  9
$WORLDVIEW
 70
     1
  9
$SHADEDGE
 70
     3
  9
$SHADEDIF
 70
    70
  9
$TILEMODE
 70
     1
  9
$MAXACTVP
 70
    16
  9
$PINSBASE
 10
0.0
 20
0.0
 30
0.0
  9
$PLIMCHECK
 70
     0
  9
$PEXTMIN
 10
1.000000000000000E+20
 20
1.000000000000000E+20
 30
1.000000000000000E+20
  9
$PEXTMAX
 10
-1.000000000000000E+20
 20
-1.000000000000000E+20
 30
-1.000000000000000E+20
  9
$PLIMMIN
 10
0.0
 20
0.0
  9
$PLIMMAX
 10
420.0
 20
297.0
  9
$UNITMODE
 70
     0
  9
$VISRETAIN
 70
     0
  9
$PLINEGEN
 70
     0
  9
$PSLTSCALE
 70
     0
  9
$TREEDEPTH
 70
  3020
  9
$PICKSTYLE
 70
     1
  9
$CMLSTYLE
  2
STANDARD
  9
$CMLJUST
 70
     0
  9
$CMLSCALE
 40
1.0
  9
$SAVEIMAGES
 70
     0
  0
ENDSEC
  0
SECTION
  2
CLASSES
  0
CLASS
  1
ACMESCOPE
  2
AcMeScope
  3
ACME_MODULE_NAME
 90
        0
280
     0
281
     0
  0
CLASS
  1
ACMECOMMANDHISTORY
  2
AcMeCommandHistory
  3
ACME_MODULE_NAME
 90
        0
280
     0
281
     0
  0
CLASS
  1
AcRfInsAdjusterMgr
  2
AcRfInsAdjusterMgr
  3
ACME_MODULE_NAME
 90
        0
280
     0
281
     0
  0
CLASS
  1
ACGREFMASTER
  2
AcGrefMaster
  3
"AcadRfServer"
 90
        0
280
     0
281
     0
  0
CLASS
  1
AmiMaster
  2
AmiMaster
  3
"AmiServices"
 90
        0
280
     0
281
     0
  0
CLASS
  1
ACASGREFMASTER
  2
AcAsGrefMaster
  3
"AutoSurfResolver"
 90
        0
280
     0
281
     0
  0
CLASS
  1
ADAPPL
  2
AcAdAppl
  3
DesignerServices
 90
        0
280
     0
281
     0
  0
CLASS
  1
DEPMGR
  2
AcAdDepMgr
  3
DesignerServices
 90
        0
280
     0
281
     0
  0
CLASS
  1
PARAMMGR
  2
AcAdParamMgr
  3
DesignerServices
 90
        0
280
     0
281
     0
  0
CLASS
  1
PARAMSCOPE
  2
AcAdParamScope
  3
DesignerServices
 90
        0
280
     0
281
     0
  0
CLASS
  1
"IM_SYSVAR_MAN"
  2
AcImSysVarManager
  3
"ADAM"
 90
        0
280
     0
281
     0
  0
CLASS
  1
SYSTEM_VAR_INT
  2
AcImIntSysVar
  3
"ADAM"
 90
        0
280
     0
281
     0
  0
CLASS
  1
SYSTEM_VAR_REAL
  2
AcImRealSysVar
  3
"ADAM"
 90
        0
280
     0
281
     0
  0
CLASS
  1
SYSTEM_VAR_STR
  2
AcImStrSysVar
  3
"ADAM"
 90
        0
280
     0
281
     0
  0
CLASS
  1
NAMEDAPPL
  2
AcAdNamedAppl
  3
DesignerServices
 90
        0
280
     0
281
     0
  0
CLASS
  1
ADPART
  2
AcAdPart
  3
DesignerServices
 90
        0
280
     0
281
     1
  0
CLASS
  1
ADBASE
  2
AcAdBase
  3
DesignerServices
 90
        0
280
     0
281
     0
  0
CLASS
  1
BODYID
  2
AcAdBodyId
  3
DesignerServices
 90
        0
280
     0
281
     0
  0
CLASS
  1
WORKPLANEDISPLAYMGR
  2
AcAdDisplayMgr
  3
DesignerServices
 90
        0
280
     0
281
     0
  0
CLASS
  1
ADHNTMPLT
  2
AdHoleNoteTemplateMgr
  3
DesignerServices
 90
        0
280
     0
281
     0
  0
CLASS
  1
AM_HNTEMPLATE_MGR_NAME
  2
AdHoleNoteTemplateMgrName
  3
DesignerServices
 90
        0
280
     0
281
     0
  0
CLASS
  1
AcAdGrefModule
  2
AcAdGrefModule
  3
AD_GREF_SERVICES_NSTR
 90
        0
280
     0
281
     0
  0
CLASS
  1
AM_DRAWING_MGR
  2
AcDmDwgMgr
  3
AcMechDwgViewMgmt
 90
        0
280
     0
281
     0
  0
CLASS
  1
AM_DWG_DOCUMENT
  2
AcDmDwgDocument
  3
AcMechDwgViewMgmt
 90
        0
280
     0
281
     0
  0
CLASS
  1
AM_DWG_SHEET
  2
AcDmSheet
  3
AcMechDwgViewMgmt
 90
        0
280
     0
281
     0
  0
CLASS
  1
AM_VIEWDIMPARMAP
  2
AcDmViewDimParMap
  3
AcMechDwgViewMgmt
 90
        0
280
     0
281
     0
  0
CLASS
  1
AM_DWGMGR_NAME
  2
AcDmDwgMgrName
  3
AcMechDwgViewMgmt
 90
        0
280
     0
281
     0
  0
CLASS
  1
ACAMPROJECT
  2
AcAmProject
  3
DesignerAssemblies
 90
        0
280
     0
281
     0
  0
CLASS
  1
ACAMGRCOMPSET
  2
AcAmGrCompSet
  3
DesignerAssemblies
 90
        0
280
     0
281
     0
  0
CLASS
  1
ACAMGRCOMPDEFSET
  2
AcAmGrCompDefSet
  3
DesignerAssemblies
 90
        0
280
     0
281
     0
  0
CLASS
  1
ACAMGRCOMPDEF
  2
AcAmGrCompDef
  3
DesignerAssemblies
 90
        0
280
     0
281
     0
  0
CLASS
  1
ACAMCOMPDEF
  2
AcAmCompDef
  3
DesignerAssemblies
 90
        0
280
     0
281
     0
  0
CLASS
  1
ACAMCOMPDEFMGR
  2
AcAmCompDefMgr
  3
DesignerAssemblies
 90
        0
280
     0
281
     0
  0
CLASS
  1
AMCONTEXTMGR
  2
AcAmContextMgr
  3
DesignerAssemblies
 90
        0
280
     0
281
     0
  0
CLASS
  1
ACAMCONTEXTMODELER
  2
AcAmContextModeler
  3
DesignerAssemblies
 90
        0
280
     0
281
     0
  0
CLASS
  1
ACAMDRAWINGMAN
  2
AcAmDrawingMan
  3
DesignerAssemblies
 90
        0
280
     0
281
     0
  0
CLASS
  1
ACDMVIEWGEOM
  2
AcDmViewGeometry
  3
AcMechDwgViewMgmt
 90
        0
280
     0
281
     1
  0
CLASS
  1
ASSYSVARS
  2
AcAsSysVars
  3
"AutoSurf"
 90
        0
280
     0
281
     0
  0
CLASS
  1
ASSTATICVARS
  2
AcAsStaticVars
  3
"AutoSurf"
 90
        0
280
     0
281
     0
  0
CLASS
  1
ASAPP
  2
AcAsAppObject
  3
"AutoSurf"
 90
        0
280
     0
281
     0
  0
CLASS
  1
ACRFATTGENMGR
  2
AcRfAttGeneralMgr
  3
"AcadRfServer"
 90
        0
280
     0
281
     0
  0
ENDSEC
  0
SECTION
  2
TABLES
  0
TABLE
  2
VPORT
  5
13
100
AcDbSymbolTable
 70
     3
  0
VPORT
  5
160B
100
AcDbSymbolTableRecord
100
AcDbViewportTableRecord
  2
*ACTIVE
 70
     0
 10
0.0
 20
0.0
 11
1.0
 21
1.0
 12
822.2168460271344
 22
549.4830655964124
 13
0.0
 23
0.0
 14
1.0
 24
1.0
 15
10.0
 25
10.0
 16
0.0
 26
0.0
 36
1.0
 17
0.0
 27
0.0
 37
0.0
 40
1150.000000362408
 41
1.672965116279069
 42
50.0
 43
0.0
 44
0.0
 50
0.0
 51
0.0
 71
     0
 72
   500
 73
     1
 74
     0
 75
     0
 76
     0
 77
     0
 78
     0
  0
ENDTAB
  0
TABLE
  2
LTYPE
  5
F
100
AcDbSymbolTable
 70
     3
  0
LTYPE
  5
10
100
AcDbSymbolTableRecord
100
AcDbLinetypeTableRecord
  2
BYBLOCK
 70
     0
  3

 72
    65
 73
     0
 40
0.0
  0
LTYPE
  5
6
100
AcDbSymbolTableRecord
100
AcDbLinetypeTableRecord
  2
BYLAYER
 70
     0
  3

 72
    65
 73
     0
 40
0.0
  0
LTYPE
  5
5
100
AcDbSymbolTableRecord
100
AcDbLinetypeTableRecord
  2
CONTINUOUS
 70
    64
  3
Solid line
 72
    65
 73
     0
 40
0.0
  0
LTYPE
  5
27
100
AcDbSymbolTableRecord
100
AcDbLinetypeTableRecord
  2
CENTER
 70
    64
  3
____ _ ____ _ ____ _ ____ _ ____ _ ____ _ ____ 
 72
    65
 73
     4
 40
2.0
 49
1.25
 74
     0
 49
-0.25
 74
     0
 49
0.25
 74
     0
 49
-0.25
 74
     0
  0
LTYPE
  5
97B
100
AcDbSymbolTableRecord
100
AcDbLinetypeTableRecord
  2
HIDDEN
 70
    64
  3
__ __ __ __ __ __ __ __ __ __ __ __ __ __ __ __
 72
    65
 73
     2
 40
0.375
 49
0.25
 74
     0
 49
-0.125
 74
     0
  0
ENDTAB
  0
TABLE
  2
LAYER
  5
B
100
AcDbSymbolTable
 70
     5
  0
LAYER
  5
C
100
AcDbSymbolTableRecord
100
AcDbLayerTableRecord
  2
0
 70
    64
 62
     7
  6
CONTINUOUS
  0
LAYER
  5
1C
100
AcDbSymbolTableRecord
100
AcDbLayerTableRecord
  2
L1
 70
    64
 62
     7
  6
CONTINUOUS
  0
LAYER
  5
21
100
AcDbSymbolTableRecord
100
AcDbLayerTableRecord
  2
L2
 70
    64
 62
     1
  6
HIDDEN
  0
LAYER
  5
26
100
AcDbSymbolTableRecord
100
AcDbLayerTableRecord
  2
L6
 70
    64
 62
     1
  6
CENTER
  0
LAYER
  5
4
100
AcDbSymbolTableRecord
100
AcDbLayerTableRecord
  2
L20
 70
    64
 62
     3
  6
CONTINUOUS
  0
ENDTAB
  0
TABLE
  2
STYLE
  5
D
100
AcDbSymbolTable
 70
     2
  0
STYLE
  5
E
100
AcDbSymbolTableRecord
100
AcDbTextStyleTableRecord
  2
STANDARD
 70
    64
 40
0.0
 41
1.0
 50
0.0
 71
     0
 42
5.0
  3
simplex.shx
  4

  0
STYLE
  5
1D
100
AcDbSymbolTableRecord
100
AcDbTextStyleTableRecord
  2
CAEISO
 70
    64
 40
0.0
 41
1.0
 50
0.0
 71
     0
 42
3.5
  3
simplex.shx
  4

  0
ENDTAB
  0
TABLE
  2
VIEW
  5
11
100
AcDbSymbolTable
 70
     0
  0
ENDTAB
  0
TABLE
  2
UCS
  5
12
100
AcDbSymbolTable
 70
     0
  0
ENDTAB
  0
TABLE
  2
APPID
  5
15
100
AcDbSymbolTable
 70
     1
  0
APPID
  5
16
100
AcDbSymbolTableRecord
100
AcDbRegAppTableRecord
  2
ACAD
 70
    64
  0
ENDTAB
  0
TABLE
  2
DIMSTYLE
  5
17
100
AcDbSymbolTable
 70
     1
  0
DIMSTYLE
105
1F
100
AcDbSymbolTableRecord
100
AcDbDimStyleTableRecord
  2
ACADUS
 70
     0
  3

  4

  5

  6

  7

 40
1.0
 41
3.5
 42
0.1
 43
0.4
 44
0.2
 45
0.0
 46
0.0
 47
0.0
 48
0.0
140
5.0
141
0.1
142
0.0
143
25.4
144
1.0
145
0.0
146
0.2
147
0.1
 71
     0
 72
     0
 73
     0
 74
     0
 75
     0
 76
     0
 77
     1
 78
    12
170
     0
171
     2
172
     0
173
     0
174
     0
175
     0
176
   256
177
   256
178
     3
270
     2
271
     1
272
     1
273
     2
274
     2
340
1D
275
     0
280
     0
281
     0
282
     0
283
     1
284
    12
285
    12
286
    12
287
     5
288
     0
  0
ENDTAB
  0
TABLE
  2
BLOCK_RECORD
  5
1
100
AcDbSymbolTable
 70
     3
  0
BLOCK_RECORD
  5
2
100
AcDbSymbolTableRecord
100
AcDbBlockTableRecord
  2
*MODEL_SPACE
  0
BLOCK_RECORD
  5
8
100
AcDbSymbolTableRecord
100
AcDbBlockTableRecord
  2
*PAPER_SPACE
  0
ENDTAB
  0
ENDSEC
  0
SECTION
  2
BLOCKS
  0
BLOCK
  5
3
100
AcDbEntity
  8
L20
100
AcDbBlockBegin
  2
*MODEL_SPACE
 70
     0
 10
0.0
 20
0.0
 30
0.0
  3
*MODEL_SPACE
  1

  0
ENDBLK
  5
7
100
AcDbEntity
  8
L20
100
AcDbBlockEnd
  0
BLOCK
  5
9
100
AcDbEntity
 67
     1
  8
L20
100
AcDbBlockBegin
  2
*PAPER_SPACE
 70
     0
 10
0.0
 20
0.0
 30
0.0
  3
*PAPER_SPACE
  1

  0
ENDBLK
  5
A
100
AcDbEntity
 67
     1
  8
L20
100
AcDbBlockEnd
  0
ENDSEC
  0
SECTION
  2
ENTITIES
  0
ARC
  5
36
100
AcDbEntity
  8
L1
100
AcDbCircle
 10
935.8228272679559
 20
376.484112415555
 30
0.0
 40
2.5
100
AcDbArc
 50
225.0
 51
45.0
  0
LINE
  5
37
100
AcDbEntity
  8
L1
100
AcDbLine
 10
930.5195264090569
 20
378.2518793685212
 30
0.0
 11
934.0550603149898
 21
374.7163454625884
 31
0.0
  0
LINE
  5
38
100
AcDbEntity
  8
L1
100
AcDbLine
 10
937.5905942209223
 20
378.2518793685208
 30
0.0
 11
934.0550603149898
 21
381.7874132744536
 31
0.0
  0
ARC
  5
39
100
AcDbEntity
  8
L1
100
AcDbCircle
 10
932.2872933620233
 20
380.0196463214874
 30
0.0
 40
2.5
100
AcDbArc
 50
45.0
 51
225.0
  0
CIRCLE
  5
3A
100
AcDbEntity
  8
L1
100
AcDbCircle
 10
934.0550603149898
 20
378.2518793685212
 30
0.0
 40
10.0
  0
CIRCLE
  5
3B
100
AcDbEntity
  8
L1
100
AcDbCircle
 10
934.0550603149898
 20
378.2518793685212
 30
0.0
 40
8.0
  0
CIRCLE
  5
4E
100
AcDbEntity
  8
L1
100
AcDbCircle
 10
935.0103687370848
 20
339.2071877906169
 30
0.0
 40
2.399999999999993
  0
CIRCLE
  5
4F
100
AcDbEntity
  8
L1
100
AcDbCircle
 10
935.0103687370848
 20
339.2071877906169
 30
0.0
 40
2.099999999999994
  0
CIRCLE
  5
50
100
AcDbEntity
  8
L1
100
AcDbCircle
 10
935.0103687370848
 20
339.2071877906169
 30
0.0
 40
6.0
  0
LINE
  5
51
100
AcDbEntity
  8
L6
 48
0.3
100
AcDbLine
 39
0.2
 10
932.0103687370849
 20
339.2071877906169
 30
0.0
 11
938.010368737085
 21
339.2071877906169
 31
0.0
  0
LINE
  5
52
100
AcDbEntity
  8
L6
 48
0.3
100
AcDbLine
 39
0.2
 10
935.0103687370848
 20
342.2071877906168
 30
0.0
 11
935.0103687370848
 21
336.2071877906168
 31
0.0
  0
LINE
  5
5D
100
AcDbEntity
  8
L6
100
AcDbLine
 10
888.0436087071617
 20
553.2071877906169
 30
0.0
 11
1310.62534824949
 21
553.2071877906169
 31
0.0
  0
CIRCLE
  5
83
100
AcDbEntity
  8
L1
100
AcDbCircle
 10
919.0103687370854
 20
428.2071877906178
 30
0.0
 40
2.399999999999993
  0
CIRCLE
  5
84
100
AcDbEntity
  8
L1
100
AcDbCircle
 10
919.0103687370854
 20
428.2071877906178
 30
0.0
 40
2.099999999999994
  0
ARC
  5
85
100
AcDbEntity
  8
L1
100
AcDbCircle
 10
919.0103687370854
 20
428.2071877906178
 30
0.0
 40
4.999999999999987
100
AcDbArc
 50
98.62692655867864
 51
261.3730734413213
  0
LINE
  5
86
100
AcDbEntity
  8
L6
 48
0.3
100
AcDbLine
 39
0.2
 10
912.0103687370853
 20
428.2071877906178
 30
0.0
 11
926.0103687370854
 21
428.2071877906178
 31
0.0
  0
LINE
  5
87
100
AcDbEntity
  8
L1
100
AcDbLine
 10
918.2603687370853
 20
418.2071877906178
 30
0.0
 11
918.2603687370853
 21
423.2637578072967
 31
0.0
  0
LINE
  5
88
100
AcDbEntity
  8
L1
100
AcDbLine
 10
919.7603687370854
 20
423.2637578072967
 30
0.0
 11
919.7603687370854
 21
418.2071877906178
 31
0.0
  0
LINE
  5
89
100
AcDbEntity
  8
L6
 48
0.3
100
AcDbLine
 39
0.2
 10
919.0103687370854
 20
417.2071877906177
 30
0.0
 11
919.0103687370854
 21
440.2071877906178
 31
0.0
  0
LINE
  5
8A
100
AcDbEntity
  8
L1
100
AcDbLine
 10
919.7603687370854
 20
418.2071877906178
 30
0.0
 11
918.2603687370853
 21
418.2071877906178
 31
0.0
  0
LINE
  5
8B
100
AcDbEntity
  8
L1
100
AcDbLine
 10
918.2603687370853
 20
438.2071877906177
 30
0.0
 11
918.2603687370853
 21
433.1506177739388
 31
0.0
  0
LINE
  5
8C
100
AcDbEntity
  8
L1
100
AcDbLine
 10
919.7603687370854
 20
433.1506177739388
 30
0.0
 11
919.7603687370854
 21
438.2071877906177
 31
0.0
  0
LINE
  5
8D
100
AcDbEntity
  8
L1
100
AcDbLine
 10
919.7603687370854
 20
438.2071877906177
 30
0.0
 11
918.2603687370853
 21
438.2071877906177
 31
0.0
  0
ARC
  5
8E
100
AcDbEntity
  8
L1
100
AcDbCircle
 10
919.0103687370854
 20
428.2071877906178
 30
0.0
 40
4.999999999999987
100
AcDbArc
 50
278.6269265586788
 51
81.37307344132134
  0
LINE
  5
94
100
AcDbEntity
  8
L6
 48
0.3
100
AcDbLine
 39
0.2
 10
912.0103687370853
 20
503.2071877906169
 30
0.0
 11
926.0103687370854
 21
503.2071877906169
 31
0.0
  0
LINE
  5
95
100
AcDbEntity
  8
L6
 48
0.3
100
AcDbLine
 39
0.2
 10
912.0103687370853
 20
453.2071877906169
 30
0.0
 11
926.0103687370854
 21
453.2071877906169
 31
0.0
  0
LINE
  5
9B
100
AcDbEntity
  8
L1
100
AcDbLine
 10
979.0103687370853
 20
546.8137866406896
 30
0.0
 11
969.0103687370854
 21
536.81378664069
 31
0.0
  0
LINE
  5
9C
100
AcDbEntity
  8
L1
100
AcDbLine
 10
979.0103687370853
 20
559.6005889405443
 30
0.0
 11
979.0103687370853
 21
546.8137866406891
 31
0.0
  0
LINE
  5
9E
100
AcDbEntity
  8
L1
100
AcDbLine
 10
979.0103687370852
 20
553.2071877906169
 30
0.0
 11
979.0103687370853
 21
552.8137866406892
 31
0.0
  0
LINE
  5
A6
100
AcDbEntity
  8
L1
100
AcDbLine
 10
1105.403769887012
 20
383.2071877906169
 30
0.0
 11
1092.616967587158
 21
383.2071877906169
 31
0.0
  0
LINE
  5
AE
100
AcDbEntity
  8
L1
100
AcDbLine
 10
1098.616967587157
 20
383.2071877906169
 30
0.0
 11
1099.010368737085
 21
383.2071877906169
 31
0.0
  0
LINE
  5
B0
100
AcDbEntity
  8
L1
100
AcDbLine
 10
1082.716967587158
 20
373.2071877906169
 30
0.0
 11
1053.010368737085
 21
373.2071877906169
 31
0.0
  0
LINE
  5
B1
100
AcDbEntity
  8
L1
100
AcDbLine
 10
1053.010368737085
 20
373.2071877906169
 30
0.0
 11
1053.010368737085
 21
326.2071877906173
 31
0.0
  0
LINE
  5
B2
100
AcDbEntity
  8
L1
100
AcDbLine
 10
1045.010368737085
 20
373.2071877906169
 30
0.0
 11
1045.010368737085
 21
326.2071877906173
 31
0.0
  0
LINE
  5
B3
100
AcDbEntity
  8
L1
100
AcDbLine
 10
1003.010368737085
 20
373.2071877906169
 30
0.0
 11
1045.010368737085
 21
373.2071877906169
 31
0.0
  0
LINE
  5
B4
100
AcDbEntity
  8
L1
100
AcDbLine
 10
1003.010368737085
 20
373.2071877906169
 30
0.0
 11
1003.010368737085
 21
326.2071877906173
 31
0.0
  0
LINE
  5
B5
100
AcDbEntity
  8
L1
100
AcDbLine
 10
995.0103687370853
 20
373.2071877906169
 30
0.0
 11
995.0103687370853
 21
326.2071877906173
 31
0.0
  0
LINE
  5
B6
100
AcDbEntity
  8
L1
100
AcDbLine
 10
995.0103687370853
 20
373.2071877906169
 30
0.0
 11
969.0103687370854
 21
373.2071877906169
 31
0.0
  0
LINE
  5
B7
100
AcDbEntity
  8
L1
100
AcDbLine
 10
1053.010368737085
 20
320.2071877906173
 30
0.0
 11
1053.010368737085
 21
311.2071877906173
 31
0.0
  0
LINE
  5
B8
100
AcDbEntity
  8
L1
100
AcDbLine
 10
1045.010368737085
 20
320.2071877906173
 30
0.0
 11
1045.010368737085
 21
311.2071877906173
 31
0.0
  0
LINE
  5
B9
100
AcDbEntity
  8
L1
100
AcDbLine
 10
1003.010368737085
 20
320.2071877906173
 30
0.0
 11
1003.010368737085
 21
311.2071877906173
 31
0.0
  0
LINE
  5
BA
100
AcDbEntity
  8
L1
100
AcDbLine
 10
995.0103687370853
 20
320.2071877906173
 30
0.0
 11
995.0103687370853
 21
311.2071877906173
 31
0.0
  0
ARC
  5
11F
100
AcDbEntity
  8
L1
100
AcDbCircle
 10
919.0103687370854
 20
553.2071877906169
 30
0.0
 40
4.999999999999987
100
AcDbArc
 50
278.6269265586788
 51
81.37307344132134
  0
ARC
  5
120
100
AcDbEntity
  8
L1
100
AcDbCircle
 10
919.0103687370854
 20
553.2071877906169
 30
0.0
 40
4.999999999999987
100
AcDbArc
 50
98.62692655867864
 51
261.3730734413213
  0
CIRCLE
  5
121
100
AcDbEntity
  8
L1
100
AcDbCircle
 10
919.0103687370854
 20
553.2071877906169
 30
0.0
 40
2.099999999999994
  0
CIRCLE
  5
122
100
AcDbEntity
  8
L1
100
AcDbCircle
 10
919.0103687370854
 20
553.2071877906169
 30
0.0
 40
2.399999999999993
  0
LINE
  5
126
100
AcDbEntity
  8
L6
 48
0.3
100
AcDbLine
 39
0.2
 10
919.0103687370854
 20
542.2071877906168
 30
0.0
 11
919.0103687370854
 21
565.2071877906169
 31
0.0
  0
LINE
  5
127
100
AcDbEntity
  8
L6
100
AcDbLine
 10
919.0103687370854
 20
542.2071877906177
 30
0.0
 11
919.0103687370854
 21
565.2071877906169
 31
0.0
  0
ARC
  5
12B
100
AcDbEntity
  8
L1
100
AcDbCircle
 10
919.0103687370854
 20
553.2071877906169
 30
0.0
 40
4.999999999999987
100
AcDbArc
 50
278.6269265586788
 51
81.37307344132134
  0
ARC
  5
12C
100
AcDbEntity
  8
L1
100
AcDbCircle
 10
919.0103687370854
 20
553.2071877906169
 30
0.0
 40
4.999999999999987
100
AcDbArc
 50
98.62692655867864
 51
261.3730734413213
  0
CIRCLE
  5
12D
100
AcDbEntity
  8
L1
100
AcDbCircle
 10
919.0103687370854
 20
553.2071877906169
 30
0.0
 40
2.099999999999994
  0
CIRCLE
  5
12E
100
AcDbEntity
  8
L1
100
AcDbCircle
 10
919.0103687370854
 20
553.2071877906169
 30
0.0
 40
2.399999999999993
  0
LINE
  5
138
100
AcDbEntity
  8
L1
100
AcDbLine
 10
969.0103687370854
 20
536.81378664069
 30
0.0
 11
969.0103687370854
 21
507.2071877906169
 31
0.0
  0
LINE
  5
139
100
AcDbEntity
  8
L1
100
AcDbLine
 10
919.7603687370854
 20
543.2071877906168
 30
0.0
 11
918.2603687370853
 21
543.2071877906168
 31
0.0
  0
LINE
  5
13A
100
AcDbEntity
  8
L1
100
AcDbLine
 10
919.7603687370854
 20
548.2637578072958
 30
0.0
 11
919.7603687370854
 21
543.2071877906168
 31
0.0
  0
LINE
  5
13B
100
AcDbEntity
  8
L1
100
AcDbLine
 10
918.2603687370853
 20
543.2071877906168
 30
0.0
 11
918.2603687370853
 21
548.2637578072958
 31
0.0
  0
ARC
  5
13C
100
AcDbEntity
  8
L1
100
AcDbCircle
 10
919.0103687370854
 20
553.2071877906169
 30
0.0
 40
4.999999999999987
100
AcDbArc
 50
278.6269265586788
 51
81.37307344132134
  0
ARC
  5
13D
100
AcDbEntity
  8
L1
100
AcDbCircle
 10
919.0103687370854
 20
553.2071877906169
 30
0.0
 40
4.999999999999987
100
AcDbArc
 50
98.62692655867864
 51
261.3730734413213
  0
CIRCLE
  5
13E
100
AcDbEntity
  8
L1
100
AcDbCircle
 10
919.0103687370854
 20
553.2071877906169
 30
0.0
 40
2.099999999999994
  0
CIRCLE
  5
13F
100
AcDbEntity
  8
L1
100
AcDbCircle
 10
919.0103687370854
 20
553.2071877906169
 30
0.0
 40
2.399999999999993
  0
LINE
  5
143
100
AcDbEntity
  8
L6
100
AcDbLine
 10
919.0103687370854
 20
542.2071877906168
 30
0.0
 11
919.0103687370854
 21
565.2071877906169
 31
0.0
  0
LINE
  5
144
100
AcDbEntity
  8
L1
100
AcDbLine
 10
916.0103687370854
 20
507.2071877906169
 30
0.0
 11
907.0103687370854
 21
507.2071877906169
 31
0.0
  0
CIRCLE
  5
145
100
AcDbEntity
  8
L1
100
AcDbCircle
 10
919.0103687370854
 20
503.2071877906169
 30
0.0
 40
2.399999999999993
  0
CIRCLE
  5
146
100
AcDbEntity
  8
L1
100
AcDbCircle
 10
919.0103687370854
 20
503.2071877906169
 30
0.0
 40
2.099999999999994
  0
ARC
  5
147
100
AcDbEntity
  8
L1
100
AcDbCircle
 10
919.0103687370854
 20
503.2071877906169
 30
0.0
 40
4.999999999999987
100
AcDbArc
 50
98.62692655867864
 51
261.3730734413213
  0
ARC
  5
148
100
AcDbEntity
  8
L1
100
AcDbCircle
 10
919.0103687370854
 20
503.2071877906169
 30
0.0
 40
4.999999999999987
100
AcDbArc
 50
278.6269265586788
 51
81.37307344132134
  0
LINE
  5
149
100
AcDbEntity
  8
L1
100
AcDbLine
 10
918.2603687370853
 20
513.2071877906168
 30
0.0
 11
918.2603687370853
 21
508.1506177739388
 31
0.0
  0
LINE
  5
14A
100
AcDbEntity
  8
L1
100
AcDbLine
 10
919.7603687370854
 20
508.1506177739388
 30
0.0
 11
919.7603687370854
 21
513.2071877906168
 31
0.0
  0
LINE
  5
14B
100
AcDbEntity
  8
L1
100
AcDbLine
 10
919.7603687370854
 20
513.2071877906168
 30
0.0
 11
918.2603687370853
 21
513.2071877906168
 31
0.0
  0
LINE
  5
14C
100
AcDbEntity
  8
L6
 48
0.3
100
AcDbLine
 39
0.2
 10
919.0103687370854
 20
492.2071877906177
 30
0.0
 11
919.0103687370854
 21
515.2071877906169
 31
0.0
  0
LINE
  5
152
100
AcDbEntity
  8
L1
100
AcDbLine
 10
1039.010368737085
 20
323.9571877906182
 30
0.0
 11
1039.010368737085
 21
322.4571877906182
 31
0.0
  0
LINE
  5
153
100
AcDbEntity
  8
L1
100
AcDbLine
 10
1089.010368737084
 20
323.9571877906182
 30
0.0
 11
1089.010368737085
 21
322.4571877906182
 31
0.0
  0
LINE
  5
193
100
AcDbEntity
  8
L1
100
AcDbLine
 10
1109.010368737084
 20
322.4571877906182
 30
0.0
 11
1103.953798720405
 21
322.4571877906182
 31
0.0
  0
LINE
  5
194
100
AcDbEntity
  8
L1
100
AcDbLine
 10
1103.953798720405
 20
323.9571877906182
 30
0.0
 11
1109.010368737084
 21
323.9571877906182
 31
0.0
  0
CIRCLE
  5
195
100
AcDbEntity
  8
L1
100
AcDbCircle
 10
1099.010368737084
 20
323.2071877906182
 30
0.0
 40
2.399999999999993
  0
CIRCLE
  5
196
100
AcDbEntity
  8
L1
100
AcDbCircle
 10
1099.010368737084
 20
323.2071877906182
 30
0.0
 40
2.099999999999994
  0
ARC
  5
198
100
AcDbEntity
  8
L1
100
AcDbCircle
 10
1099.010368737084
 20
323.2071877906182
 30
0.0
 40
4.999999999999987
100
AcDbArc
 50
188.6269265586786
 51
351.3730734413213
  0
ARC
  5
199
100
AcDbEntity
  8
L1
100
AcDbCircle
 10
1099.010368737084
 20
323.2071877906182
 30
0.0
 40
4.999999999999987
100
AcDbArc
 50
8.626926558678817
 51
171.3730734413213
  0
LINE
  5
19A
100
AcDbEntity
  8
L1
100
AcDbLine
 10
1109.010368737084
 20
323.9571877906182
 30
0.0
 11
1109.010368737084
 21
322.4571877906182
 31
0.0
  0
LINE
  5
19B
100
AcDbEntity
  8
L6
 48
0.3
100
AcDbLine
 39
0.2
 10
1110.010368737084
 20
323.2071877906182
 30
0.0
 11
1087.010368737084
 21
323.2071877906182
 31
0.0
  0
LINE
  5
19C
100
AcDbEntity
  8
L1
100
AcDbLine
 10
1089.010368737084
 20
322.4571877906182
 30
0.0
 11
1094.066938753763
 21
322.4571877906182
 31
0.0
  0
LINE
  5
19D
100
AcDbEntity
  8
L1
100
AcDbLine
 10
1094.066938753763
 20
323.9571877906182
 30
0.0
 11
1089.010368737084
 21
323.9571877906182
 31
0.0
  0
LINE
  5
19E
100
AcDbEntity
  8
L1
100
AcDbLine
 10
1059.010368737084
 20
322.4571877906182
 30
0.0
 11
1053.953798720405
 21
322.4571877906182
 31
0.0
  0
LINE
  5
19F
100
AcDbEntity
  8
L1
100
AcDbLine
 10
1053.953798720405
 20
323.9571877906182
 30
0.0
 11
1059.010368737084
 21
323.9571877906182
 31
0.0
  0
CIRCLE
  5
1A0
100
AcDbEntity
  8
L1
100
AcDbCircle
 10
1049.010368737084
 20
323.2071877906182
 30
0.0
 40
2.399999999999993
  0
CIRCLE
  5
1A1
100
AcDbEntity
  8
L1
100
AcDbCircle
 10
1049.010368737084
 20
323.2071877906182
 30
0.0
 40
2.099999999999994
  0
LINE
  5
1A3
100
AcDbEntity
  8
L1
100
AcDbLine
 10
1059.010368737084
 20
323.9571877906182
 30
0.0
 11
1059.010368737084
 21
322.4571877906182
 31
0.0
  0
LINE
  5
1A7
100
AcDbEntity
  8
L1
100
AcDbLine
 10
1109.010368737084
 20
322.4571877906182
 30
0.0
 11
1103.953798720405
 21
322.4571877906182
 31
0.0
  0
LINE
  5
1A8
100
AcDbEntity
  8
L1
100
AcDbLine
 10
1103.953798720405
 20
323.9571877906182
 30
0.0
 11
1109.010368737084
 21
323.9571877906182
 31
0.0
  0
CIRCLE
  5
1A9
100
AcDbEntity
  8
L1
100
AcDbCircle
 10
1099.010368737084
 20
323.2071877906182
 30
0.0
 40
2.399999999999993
  0
CIRCLE
  5
1AA
100
AcDbEntity
  8
L1
100
AcDbCircle
 10
1099.010368737084
 20
323.2071877906182
 30
0.0
 40
2.099999999999994
  0
ARC
  5
1AC
100
AcDbEntity
  8
L1
100
AcDbCircle
 10
1099.010368737084
 20
323.2071877906182
 30
0.0
 40
4.999999999999987
100
AcDbArc
 50
188.6269265586786
 51
351.3730734413213
  0
ARC
  5
1AD
100
AcDbEntity
  8
L1
100
AcDbCircle
 10
1099.010368737084
 20
323.2071877906182
 30
0.0
 40
4.999999999999987
100
AcDbArc
 50
8.626926558678817
 51
171.3730734413213
  0
LINE
  5
1AE
100
AcDbEntity
  8
L1
100
AcDbLine
 10
1109.010368737084
 20
323.9571877906182
 30
0.0
 11
1109.010368737084
 21
322.4571877906182
 31
0.0
  0
LINE
  5
1AF
100
AcDbEntity
  8
L6
100
AcDbLine
 10
1110.010368737085
 20
323.2071877906182
 30
0.0
 11
1087.010368737085
 21
323.2071877906182
 31
0.0
  0
LINE
  5
1B0
100
AcDbEntity
  8
L1
100
AcDbLine
 10
1089.010368737085
 20
322.4571877906182
 30
0.0
 11
1094.066938753763
 21
322.4571877906182
 31
0.0
  0
LINE
  5
1B1
100
AcDbEntity
  8
L1
100
AcDbLine
 10
1094.066938753763
 20
323.9571877906182
 30
0.0
 11
1089.010368737085
 21
323.9571877906182
 31
0.0
  0
LINE
  5
1B2
100
AcDbEntity
  8
L1
100
AcDbLine
 10
1059.010368737084
 20
322.4571877906182
 30
0.0
 11
1053.953798720406
 21
322.4571877906182
 31
0.0
  0
LINE
  5
1B3
100
AcDbEntity
  8
L1
100
AcDbLine
 10
1053.953798720406
 20
323.9571877906182
 30
0.0
 11
1059.010368737084
 21
323.9571877906182
 31
0.0
  0
CIRCLE
  5
1B4
100
AcDbEntity
  8
L1
100
AcDbCircle
 10
1049.010368737085
 20
323.2071877906182
 30
0.0
 40
2.399999999999993
  0
CIRCLE
  5
1B5
100
AcDbEntity
  8
L1
100
AcDbCircle
 10
1049.010368737085
 20
323.2071877906182
 30
0.0
 40
2.099999999999994
  0
ARC
  5
1B7
100
AcDbEntity
  8
L1
100
AcDbCircle
 10
1049.010368737085
 20
323.2071877906182
 30
0.0
 40
4.999999999999987
100
AcDbArc
 50
188.6269265586786
 51
351.3730734413213
  0
ARC
  5
1B8
100
AcDbEntity
  8
L1
100
AcDbCircle
 10
1049.010368737085
 20
323.2071877906182
 30
0.0
 40
4.999999999999987
100
AcDbArc
 50
8.626926558678817
 51
171.3730734413213
  0
LINE
  5
1B9
100
AcDbEntity
  8
L1
100
AcDbLine
 10
1059.010368737084
 20
323.9571877906182
 30
0.0
 11
1059.010368737084
 21
322.4571877906182
 31
0.0
  0
LINE
  5
1BA
100
AcDbEntity
  8
L6
 48
0.3
100
AcDbLine
 39
0.2
 10
1060.010368737084
 20
323.2071877906182
 30
0.0
 11
1037.010368737085
 21
323.2071877906182
 31
0.0
  0
LINE
  5
1BB
100
AcDbEntity
  8
L1
100
AcDbLine
 10
1039.010368737085
 20
322.4571877906182
 30
0.0
 11
1044.066938753763
 21
322.4571877906182
 31
0.0
  0
LINE
  5
1BC
100
AcDbEntity
  8
L1
100
AcDbLine
 10
1044.066938753763
 20
323.9571877906182
 30
0.0
 11
1039.010368737085
 21
323.9571877906182
 31
0.0
  0
LINE
  5
1C7
100
AcDbEntity
  8
L1
100
AcDbLine
 10
1092.616967587157
 20
383.2071877906169
 30
0.0
 11
1082.616967587157
 21
373.2071877906169
 31
0.0
  0
LINE
  5
206
100
AcDbEntity
  8
L1
100
AcDbLine
 10
969.0103687370854
 20
449.2071877906169
 30
0.0
 11
969.0103687370854
 21
407.2071877906178
 31
0.0
  0
LINE
  5
212
100
AcDbEntity
  8
L1
100
AcDbLine
 10
916.0103687370854
 20
449.2071877906169
 30
0.0
 11
907.0103687370854
 21
449.2071877906169
 31
0.0
  0
LINE
  5
213
100
AcDbEntity
  8
L1
100
AcDbLine
 10
916.0103687370854
 20
457.2071877906169
 30
0.0
 11
907.0103687370854
 21
457.2071877906169
 31
0.0
  0
LINE
  5
218
100
AcDbEntity
  8
L1
100
AcDbLine
 10
969.0103687370854
 20
449.2071877906169
 30
0.0
 11
922.0103687370853
 21
449.2071877906169
 31
0.0
  0
LINE
  5
219
100
AcDbEntity
  8
L1
100
AcDbLine
 10
969.0103687370854
 20
457.2071877906169
 30
0.0
 11
922.0103687370853
 21
457.2071877906169
 31
0.0
  0
CIRCLE
  5
225
100
AcDbEntity
  8
L1
100
AcDbCircle
 10
919.0103687370854
 20
453.2071877906169
 30
0.0
 40
2.399999999999993
  0
CIRCLE
  5
226
100
AcDbEntity
  8
L1
100
AcDbCircle
 10
919.0103687370854
 20
453.2071877906169
 30
0.0
 40
2.099999999999994
  0
ARC
  5
227
100
AcDbEntity
  8
L1
100
AcDbCircle
 10
919.0103687370854
 20
453.2071877906169
 30
0.0
 40
4.999999999999987
100
AcDbArc
 50
98.62692655867864
 51
261.3730734413213
  0
ARC
  5
228
100
AcDbEntity
  8
L1
100
AcDbCircle
 10
919.0103687370854
 20
453.2071877906169
 30
0.0
 40
4.999999999999987
100
AcDbArc
 50
278.6269265586788
 51
81.37307344132134
  0
LINE
  5
229
100
AcDbEntity
  8
L1
100
AcDbLine
 10
918.2603687370853
 20
463.2071877906168
 30
0.0
 11
918.2603687370853
 21
458.1506177739388
 31
0.0
  0
LINE
  5
22A
100
AcDbEntity
  8
L1
100
AcDbLine
 10
919.7603687370854
 20
458.1506177739388
 30
0.0
 11
919.7603687370854
 21
463.2071877906168
 31
0.0
  0
LINE
  5
22B
100
AcDbEntity
  8
L1
100
AcDbLine
 10
919.7603687370854
 20
463.2071877906168
 30
0.0
 11
918.2603687370853
 21
463.2071877906168
 31
0.0
  0
LINE
  5
22C
100
AcDbEntity
  8
L1
100
AcDbLine
 10
919.7603687370854
 20
443.2071877906178
 30
0.0
 11
918.2603687370853
 21
443.2071877906178
 31
0.0
  0
LINE
  5
22D
100
AcDbEntity
  8
L6
 48
0.3
100
AcDbLine
 39
0.2
 10
919.0103687370854
 20
442.2071877906177
 30
0.0
 11
919.0103687370854
 21
465.2071877906169
 31
0.0
  0
LINE
  5
22E
100
AcDbEntity
  8
L1
100
AcDbLine
 10
918.2603687370853
 20
443.2071877906178
 30
0.0
 11
918.2603687370853
 21
448.2637578072958
 31
0.0
  0
LINE
  5
22F
100
AcDbEntity
  8
L1
100
AcDbLine
 10
919.7603687370854
 20
448.2637578072958
 30
0.0
 11
919.7603687370854
 21
443.2071877906178
 31
0.0
  0
LINE
  5
342
100
AcDbEntity
  8
L1
100
AcDbLine
 10
919.7603687370854
 20
513.2071877906168
 30
0.0
 11
918.2603687370853
 21
513.2071877906168
 31
0.0
  0
LINE
  5
343
100
AcDbEntity
  8
L1
100
AcDbLine
 10
919.7603687370854
 20
508.1506177739388
 30
0.0
 11
919.7603687370854
 21
513.2071877906168
 31
0.0
  0
LINE
  5
344
100
AcDbEntity
  8
L1
100
AcDbLine
 10
918.2603687370853
 20
513.2071877906168
 30
0.0
 11
918.2603687370853
 21
508.1506177739388
 31
0.0
  0
LINE
  5
345
100
AcDbEntity
  8
L1
100
AcDbLine
 10
969.0103687370854
 20
507.2071877906169
 30
0.0
 11
922.0103687370853
 21
507.2071877906169
 31
0.0
  0
LINE
  5
347
100
AcDbEntity
  8
L1
100
AcDbLine
 10
919.7603687370854
 20
493.2071877906168
 30
0.0
 11
918.2603687370853
 21
493.2071877906168
 31
0.0
  0
LINE
  5
348
100
AcDbEntity
  8
L1
100
AcDbLine
 10
919.7603687370854
 20
498.2637578072958
 30
0.0
 11
919.7603687370854
 21
493.2071877906168
 31
0.0
  0
LINE
  5
349
100
AcDbEntity
  8
L1
100
AcDbLine
 10
918.2603687370853
 20
493.2071877906168
 30
0.0
 11
918.2603687370853
 21
498.2637578072958
 31
0.0
  0
LINE
  5
34A
100
AcDbEntity
  8
L1
100
AcDbLine
 10
969.0103687370854
 20
499.2071877906169
 30
0.0
 11
922.0103687370853
 21
499.2071877906169
 31
0.0
  0
ARC
  5
34B
100
AcDbEntity
  8
L1
100
AcDbCircle
 10
919.0103687370854
 20
403.2071877906178
 30
0.0
 40
4.999999999999987
100
AcDbArc
 50
278.6269265586788
 51
81.37307344132134
  0
LINE
  5
34C
100
AcDbEntity
  8
L1
100
AcDbLine
 10
919.7603687370854
 20
413.2071877906177
 30
0.0
 11
918.2603687370853
 21
413.2071877906177
 31
0.0
  0
LINE
  5
34D
100
AcDbEntity
  8
L1
100
AcDbLine
 10
919.7603687370854
 20
408.1506177739388
 30
0.0
 11
919.7603687370854
 21
413.2071877906177
 31
0.0
  0
LINE
  5
34E
100
AcDbEntity
  8
L1
100
AcDbLine
 10
918.2603687370853
 20
413.2071877906177
 30
0.0
 11
918.2603687370853
 21
408.1506177739388
 31
0.0
  0
LINE
  5
34F
100
AcDbEntity
  8
L1
100
AcDbLine
 10
969.0103687370854
 20
399.2071877906178
 30
0.0
 11
922.0103687370853
 21
399.2071877906178
 31
0.0
  0
LINE
  5
350
100
AcDbEntity
  8
L1
100
AcDbLine
 10
969.0103687370854
 20
407.2071877906178
 30
0.0
 11
922.0103687370853
 21
407.2071877906178
 31
0.0
  0
LINE
  5
351
100
AcDbEntity
  8
L1
100
AcDbLine
 10
969.0103687370854
 20
499.2071877906169
 30
0.0
 11
969.0103687370854
 21
457.2071877906169
 31
0.0
  0
ARC
  5
352
100
AcDbEntity
  8
L1
100
AcDbCircle
 10
919.0103687370854
 20
503.2071877906169
 30
0.0
 40
4.999999999999987
100
AcDbArc
 50
278.6269265586788
 51
81.37307344132134
  0
LINE
  5
353
100
AcDbEntity
  8
L6
100
AcDbLine
 10
919.0103687370854
 20
492.2071877906168
 30
0.0
 11
919.0103687370854
 21
515.2071877906169
 31
0.0
  0
LINE
  5
3C2
100
AcDbEntity
  8
L1
100
AcDbLine
 10
919.7603687370854
 20
393.2071877906178
 30
0.0
 11
918.2603687370853
 21
393.2071877906178
 31
0.0
  0
LINE
  5
3C3
100
AcDbEntity
  8
L1
100
AcDbLine
 10
919.7603687370854
 20
348.2637578072972
 30
0.0
 11
919.7603687370854
 21
343.2071877906182
 31
0.0
  0
LINE
  5
3C4
100
AcDbEntity
  8
L1
100
AcDbLine
 10
918.2603687370853
 20
343.2071877906182
 30
0.0
 11
918.2603687370853
 21
348.2637578072972
 31
0.0
  0
LINE
  5
3C5
100
AcDbEntity
  8
L6
 48
0.3
100
AcDbLine
 39
0.2
 10
919.0103687370854
 20
342.2071877906182
 30
0.0
 11
919.0103687370854
 21
365.2071877906182
 31
0.0
  0
LINE
  5
3C6
100
AcDbEntity
  8
L1
100
AcDbLine
 10
919.7603687370854
 20
343.2071877906182
 30
0.0
 11
918.2603687370853
 21
343.2071877906182
 31
0.0
  0
LINE
  5
3C9
100
AcDbEntity
  8
L1
100
AcDbLine
 10
919.7603687370854
 20
363.2071877906182
 30
0.0
 11
918.2603687370853
 21
363.2071877906182
 31
0.0
  0
ARC
  5
3CA
100
AcDbEntity
  8
L1
100
AcDbCircle
 10
919.0103687370854
 20
353.2071877906182
 30
0.0
 40
4.999999999999987
100
AcDbArc
 50
278.6269265586788
 51
81.37307344132134
  0
LINE
  5
3CB
100
AcDbEntity
  8
L1
100
AcDbLine
 10
919.7603687370854
 20
358.1506177739393
 30
0.0
 11
919.7603687370854
 21
363.2071877906182
 31
0.0
  0
LINE
  5
3CC
100
AcDbEntity
  8
L1
100
AcDbLine
 10
918.2603687370853
 20
363.2071877906182
 30
0.0
 11
918.2603687370853
 21
358.1506177739393
 31
0.0
  0
LINE
  5
3CE
100
AcDbEntity
  8
L6
 48
0.3
100
AcDbLine
 39
0.2
 10
999.0103687370854
 20
316.2071877906182
 30
0.0
 11
999.0103687370854
 21
330.2071877906182
 31
0.0
  0
LINE
  5
3CF
100
AcDbEntity
  8
L1
100
AcDbLine
 10
1009.010368737085
 20
322.4571877906182
 30
0.0
 11
1003.953798720406
 21
322.4571877906182
 31
0.0
  0
LINE
  5
3D0
100
AcDbEntity
  8
L1
100
AcDbLine
 10
1003.953798720406
 20
323.9571877906182
 30
0.0
 11
1009.010368737085
 21
323.9571877906182
 31
0.0
  0
LINE
  5
3D1
100
AcDbEntity
  8
L1
100
AcDbLine
 10
1009.010368737085
 20
323.9571877906182
 30
0.0
 11
1009.010368737085
 21
322.4571877906182
 31
0.0
  0
LINE
  5
3D3
100
AcDbEntity
  8
L1
100
AcDbLine
 10
989.0103687370853
 20
323.9571877906182
 30
0.0
 11
989.0103687370853
 21
322.4571877906182
 31
0.0
  0
LINE
  5
3D4
100
AcDbEntity
  8
L1
100
AcDbLine
 10
989.0103687370853
 20
322.4571877906182
 30
0.0
 11
994.0669387537639
 21
322.4571877906182
 31
0.0
  0
LINE
  5
3D5
100
AcDbEntity
  8
L1
100
AcDbLine
 10
994.0669387537639
 20
323.9571877906182
 30
0.0
 11
989.0103687370853
 21
323.9571877906182
 31
0.0
  0
ARC
  5
3D6
100
AcDbEntity
  8
L1
100
AcDbCircle
 10
999.0103687370854
 20
323.2071877906182
 30
0.0
 40
4.999999999999987
100
AcDbArc
 50
188.6269265586786
 51
351.3730734413213
  0
ARC
  5
3D7
100
AcDbEntity
  8
L1
100
AcDbCircle
 10
999.0103687370854
 20
323.2071877906182
 30
0.0
 40
4.999999999999987
100
AcDbArc
 50
8.626926558678817
 51
171.3730734413213
  0
LINE
  5
3D8
100
AcDbEntity
  8
L6
 48
0.3
100
AcDbLine
 39
0.2
 10
1010.010368737085
 20
323.2071877906182
 30
0.0
 11
987.0103687370853
 21
323.2071877906182
 31
0.0
  0
CIRCLE
  5
3D9
100
AcDbEntity
  8
L1
100
AcDbCircle
 10
999.0103687370854
 20
323.2071877906182
 30
0.0
 40
2.399999999999993
  0
CIRCLE
  5
3DA
100
AcDbEntity
  8
L1
100
AcDbCircle
 10
999.0103687370854
 20
323.2071877906182
 30
0.0
 40
2.099999999999994
  0
LINE
  5
3DB
100
AcDbEntity
  8
L6
 48
0.3
100
AcDbLine
 39
0.2
 10
949.0103687370854
 20
316.2071877906182
 30
0.0
 11
949.0103687370854
 21
330.2071877906182
 31
0.0
  0
CIRCLE
  5
3DD
100
AcDbEntity
  8
L1
100
AcDbCircle
 10
949.0103687370854
 20
323.2071877906182
 30
0.0
 40
2.099999999999994
  0
CIRCLE
  5
3DE
100
AcDbEntity
  8
L1
100
AcDbCircle
 10
949.0103687370854
 20
323.2071877906182
 30
0.0
 40
2.399999999999993
  0
LINE
  5
3DF
100
AcDbEntity
  8
L1
100
AcDbLine
 10
959.0103687370854
 20
323.9571877906182
 30
0.0
 11
959.0103687370854
 21
322.4571877906182
 31
0.0
  0
LINE
  5
3E0
100
AcDbEntity
  8
L1
100
AcDbLine
 10
953.9537987204068
 20
323.9571877906182
 30
0.0
 11
959.0103687370854
 21
323.9571877906182
 31
0.0
  0
LINE
  5
3E1
100
AcDbEntity
  8
L1
100
AcDbLine
 10
959.0103687370854
 20
322.4571877906182
 30
0.0
 11
953.9537987204068
 21
322.4571877906182
 31
0.0
  0
LINE
  5
3E2
100
AcDbEntity
  8
L1
100
AcDbLine
 10
919.0103687370854
 20
315.2071877906182
 30
0.0
 11
921.5103687370854
 21
315.2071877906182
 31
0.0
  0
LINE
  5
3E3
100
AcDbEntity
  8
L1
100
AcDbLine
 10
919.0103687370854
 20
313.2071877906182
 30
0.0
 11
921.5103687370854
 21
313.2071877906182
 31
0.0
  0
ARC
  5
3E4
100
AcDbEntity
  8
L1
100
AcDbCircle
 10
922.5103687370854
 20
312.2071877906182
 30
0.0
 40
0.9999999999999975
100
AcDbArc
 50
180.0
 51
270.0
  0
LINE
  5
3E8
100
AcDbEntity
  8
L1
100
AcDbLine
 10
919.0103687370854
 20
317.2071877906182
 30
0.0
 11
919.0103687370854
 21
312.2071877906182
 31
0.0
  0
LINE
  5
3E9
100
AcDbEntity
  8
L1
100
AcDbLine
 10
921.5103687370854
 20
317.2071877906182
 30
0.0
 11
921.5103687370854
 21
312.2071877906182
 31
0.0
  0
LINE
  5
3EB
100
AcDbEntity
  8
L1
100
AcDbLine
 10
944.0669387537639
 20
323.9571877906182
 30
0.0
 11
939.0103687370853
 21
323.9571877906182
 31
0.0
  0
LINE
  5
3EC
100
AcDbEntity
  8
L1
100
AcDbLine
 10
939.0103687370853
 20
322.4571877906182
 30
0.0
 11
944.0669387537639
 21
322.4571877906182
 31
0.0
  0
LINE
  5
3ED
100
AcDbEntity
  8
L1
100
AcDbLine
 10
939.0103687370853
 20
323.9571877906182
 30
0.0
 11
939.0103687370853
 21
322.4571877906182
 31
0.0
  0
LINE
  5
3EE
100
AcDbEntity
  8
L6
 48
0.3
100
AcDbLine
 39
0.2
 10
960.0103687370854
 20
323.2071877906182
 30
0.0
 11
937.0103687370853
 21
323.2071877906182
 31
0.0
  0
ARC
  5
3EF
100
AcDbEntity
  8
L1
100
AcDbCircle
 10
949.0103687370854
 20
323.2071877906182
 30
0.0
 40
4.999999999999987
100
AcDbArc
 50
8.626926558678817
 51
171.3730734413213
  0
ARC
  5
3F0
100
AcDbEntity
  8
L1
100
AcDbCircle
 10
949.0103687370854
 20
323.2071877906182
 30
0.0
 40
4.999999999999987
100
AcDbArc
 50
188.6269265586786
 51
351.3730734413213
  0
LINE
  5
3F1
100
AcDbEntity
  8
L1
100
AcDbLine
 10
1275.510368737084
 20
311.2071877906182
 30
0.0
 11
922.5103687370854
 21
311.2071877906182
 31
0.0
  0
LINE
  5
3F9
100
AcDbEntity
  8
L6
 48
0.3
100
AcDbLine
 39
0.2
 10
919.0103687370854
 20
392.2071877906178
 30
0.0
 11
919.0103687370854
 21
415.2071877906178
 31
0.0
  0
LINE
  5
3FA
100
AcDbEntity
  8
L1
100
AcDbLine
 10
969.0103687370854
 20
399.2071877906178
 30
0.0
 11
969.0103687370854
 21
373.2071877906182
 31
0.0
  0
LINE
  5
3FB
100
AcDbEntity
  8
L1
100
AcDbLine
 10
919.7603687370854
 20
398.2637578072967
 30
0.0
 11
919.7603687370854
 21
393.2071877906178
 31
0.0
  0
LINE
  5
3FC
100
AcDbEntity
  8
L1
100
AcDbLine
 10
918.2603687370853
 20
393.2071877906178
 30
0.0
 11
918.2603687370853
 21
398.2637578072967
 31
0.0
  0
LINE
  5
41F
100
AcDbEntity
  8
L1
100
AcDbLine
 10
916.0103687370854
 20
507.2071877906169
 30
0.0
 11
907.0103687370854
 21
507.2071877906169
 31
0.0
  0
LINE
  5
420
100
AcDbEntity
  8
L1
100
AcDbLine
 10
904.0103687370853
 20
503.2071877906169
 30
0.0
 11
904.0103687370853
 21
502.2071877906169
 31
0.0
1001
ACAD
1000
ASC_BOUNDS
1002
{
1070
    19
1002
}
  0
LINE
  5
421
100
AcDbEntity
  8
L1
100
AcDbLine
 10
916.0103687370854
 20
499.2071877906169
 30
0.0
 11
907.0103687370854
 21
499.2071877906169
 31
0.0
  0
LINE
  5
422
100
AcDbEntity
  8
L1
100
AcDbLine
 10
916.0103687370854
 20
407.2071877906178
 30
0.0
 11
907.0103687370854
 21
407.2071877906178
 31
0.0
  0
LINE
  5
423
100
AcDbEntity
  8
L1
100
AcDbLine
 10
916.0103687370854
 20
399.2071877906178
 30
0.0
 11
907.0103687370854
 21
399.2071877906178
 31
0.0
  0
LINE
  5
426
100
AcDbEntity
  8
L1
100
AcDbLine
 10
907.0103687370854
 20
313.2071877906182
 30
0.0
 11
907.0103687370854
 21
322.2071877906182
 31
0.0
  0
LINE
  5
427
100
AcDbEntity
  8
L1
100
AcDbLine
 10
918.0103687370854
 20
311.2071877906182
 30
0.0
 11
909.0103687370854
 21
311.2071877906182
 31
0.0
  0
ARC
  5
42E
100
AcDbEntity
  8
L1
100
AcDbCircle
 10
909.0103687370854
 20
313.2071877906182
 30
0.0
 40
1.999999999999994
100
AcDbArc
 50
180.0
 51
270.0
  0
LINE
  5
431
100
AcDbEntity
  8
L1
100
AcDbLine
 10
909.0103687370854
 20
323.2071877906182
 30
0.0
 11
909.0103687370854
 21
325.7071877906182
 31
0.0
  0
LINE
  5
432
100
AcDbEntity
  8
L1
100
AcDbLine
 10
911.0103687370854
 20
323.2071877906182
 30
0.0
 11
911.0103687370854
 21
325.7071877906182
 31
0.0
  0
LINE
  5
433
100
AcDbEntity
  8
L1
100
AcDbLine
 10
913.0103687370853
 20
323.2071877906182
 30
0.0
 11
908.0103687370854
 21
323.2071877906182
 31
0.0
  0
ARC
  5
434
100
AcDbEntity
  8
L1
100
AcDbCircle
 10
908.0103687370854
 20
322.2071877906182
 30
0.0
 40
0.9999999999999975
100
AcDbArc
 50
90.0
 51
180.0
  0
LINE
  5
435
100
AcDbEntity
  8
L1
100
AcDbLine
 10
913.0103687370853
 20
325.7071877906182
 30
0.0
 11
908.0103687370854
 21
325.7071877906182
 31
0.0
  0
ARC
  5
436
100
AcDbEntity
  8
L1
100
AcDbCircle
 10
908.0103687370854
 20
326.7071877906182
 30
0.0
 40
0.9999999999999975
100
AcDbArc
 50
180.0
 51
270.0
  0
ARC
  5
437
100
AcDbEntity
  8
L1
100
AcDbCircle
 10
902.5103687370854
 20
306.7071877906182
 30
0.0
 40
2.499999999999993
100
AcDbArc
 50
180.0
 51
270.0
  0
LINE
  5
438
100
AcDbEntity
  8
L6
 48
0.3
100
AcDbLine
 39
0.2
 10
913.0103687370853
 20
308.2071877906182
 30
0.0
 11
913.0103687370853
 21
326.2071877906182
 31
0.0
  0
ARC
  5
439
100
AcDbEntity
  8
L1
100
AcDbCircle
 10
909.0103687370854
 20
313.2071877906182
 30
0.0
 40
4.999999999999987
100
AcDbArc
 50
180.0
 51
270.0
  0
LINE
  5
43A
100
AcDbEntity
  8
L1
100
AcDbLine
 10
904.0103687370853
 20
313.2071877906182
 30
0.0
 11
904.0103687370853
 21
793.2071877906155
 31
0.0
  0
LINE
  5
43C
100
AcDbEntity
  8
L1
100
AcDbLine
 10
900.0103687370847
 20
306.7071877906182
 30
0.0
 11
900.0103687370907
 21
799.7071877906155
 31
0.0
  0
LINE
  5
43D
100
AcDbEntity
  8
L1
100
AcDbLine
 10
907.0103687370854
 20
326.7071877906182
 30
0.0
 11
907.0103687370854
 21
779.7071877906155
 31
0.0
  0
LINE
  5
43E
100
AcDbEntity
  8
L1
100
AcDbLine
 10
902.5103687370854
 20
304.2071877906187
 30
0.0
 11
1295.510368737085
 21
304.2071877906166
 31
0.0
  0
LINE
  5
43F
100
AcDbEntity
  8
L1
100
AcDbLine
 10
1289.010368737085
 20
308.2071877906182
 30
0.0
 11
909.0103687370854
 21
308.2071877906182
 31
0.0
  0
ARC
  5
440
100
AcDbEntity
  8
L1
100
AcDbCircle
 10
913.0103687370853
 20
317.2071877906182
 30
0.0
 40
8.499999999999978
100
AcDbArc
 50
0.0
 51
90.0
  0
ARC
  5
441
100
AcDbEntity
  8
L1
100
AcDbCircle
 10
913.0103687370853
 20
317.2071877906182
 30
0.0
 40
5.999999999999984
100
AcDbArc
 50
0.0
 51
90.0
  0
LINE
  5
442
100
AcDbEntity
  8
L6
 48
0.3
100
AcDbLine
 39
0.2
 10
904.0103687370853
 20
317.2071877906182
 30
0.0
 11
922.0103687370853
 21
317.2071877906182
 31
0.0
  0
ARC
  5
443
100
AcDbEntity
  8
L1
100
AcDbCircle
 10
918.0103687370854
 20
312.2071877906182
 30
0.0
 40
0.9999999999999975
100
AcDbArc
 50
270.0
 51
0.0
  0
LINE
  5
444
100
AcDbEntity
  8
L6
 48
0.3
100
AcDbLine
 39
0.2
 10
912.0103687370853
 20
353.2071877906182
 30
0.0
 11
926.0103687370854
 21
353.2071877906182
 31
0.0
  0
ARC
  5
445
100
AcDbEntity
  8
L1
100
AcDbCircle
 10
919.0103687370854
 20
353.2071877906182
 30
0.0
 40
4.999999999999987
100
AcDbArc
 50
98.62692655867864
 51
261.3730734413213
  0
CIRCLE
  5
446
100
AcDbEntity
  8
L1
100
AcDbCircle
 10
919.0103687370854
 20
353.2071877906182
 30
0.0
 40
2.099999999999994
  0
CIRCLE
  5
447
100
AcDbEntity
  8
L1
100
AcDbCircle
 10
919.0103687370854
 20
353.2071877906182
 30
0.0
 40
2.399999999999993
  0
LINE
  5
448
100
AcDbEntity
  8
L6
 48
0.3
100
AcDbLine
 39
0.2
 10
912.0103687370853
 20
403.2071877906178
 30
0.0
 11
926.0103687370854
 21
403.2071877906178
 31
0.0
  0
ARC
  5
449
100
AcDbEntity
  8
L1
100
AcDbCircle
 10
919.0103687370854
 20
403.2071877906178
 30
0.0
 40
4.999999999999987
100
AcDbArc
 50
98.62692655867864
 51
261.3730734413213
  0
CIRCLE
  5
44A
100
AcDbEntity
  8
L1
100
AcDbCircle
 10
919.0103687370854
 20
403.2071877906178
 30
0.0
 40
2.099999999999994
  0
CIRCLE
  5
44B
100
AcDbEntity
  8
L1
100
AcDbCircle
 10
919.0103687370854
 20
403.2071877906178
 30
0.0
 40
2.399999999999993
  0
ARC
  5
44C
100
AcDbEntity
  8
L1
100
AcDbCircle
 10
919.0103687370854
 20
503.2071877906169
 30
0.0
 40
4.999999999999987
100
AcDbArc
 50
98.62692655867864
 51
261.3730734413213
  0
CIRCLE
  5
44D
100
AcDbEntity
  8
L1
100
AcDbCircle
 10
919.0103687370854
 20
503.2071877906169
 30
0.0
 40
2.099999999999994
  0
CIRCLE
  5
44E
100
AcDbEntity
  8
L1
100
AcDbCircle
 10
919.0103687370854
 20
503.2071877906169
 30
0.0
 40
2.399999999999993
  0
LINE
  5
4EA
100
AcDbEntity
  8
L1
100
AcDbLine
 10
203.2652844730864
 20
358.0071877906152
 30
0.0
 11
212.0652844730866
 21
349.2071877906151
 31
0.0
  0
LINE
  5
4EB
100
AcDbEntity
  8
L1
100
AcDbLine
 10
214.2652844730864
 20
349.2071877906159
 30
0.0
 11
212.0652844730866
 21
349.2071877906151
 31
0.0
  0
LINE
  5
4EC
100
AcDbEntity
  8
L1
100
AcDbLine
 10
203.2652844730864
 20
358.0071877906152
 30
0.0
 11
203.2652844730869
 21
373.207187790615
 31
0.0
  0
LINE
  5
4FA
100
AcDbEntity
  8
L1
100
AcDbLine
 10
73.06528447308619
 20
538.2071877906168
 30
0.0
 11
88.26528447308602
 21
538.2071877906168
 31
0.0
  0
LINE
  5
4FB
100
AcDbEntity
  8
L1
100
AcDbLine
 10
64.26528447308647
 20
547.007187790617
 30
0.0
 11
64.26528447308692
 21
549.2071877906169
 31
0.0
  0
LINE
  5
4FD
100
AcDbEntity
  8
L1
100
AcDbLine
 10
64.26528447308647
 20
547.007187790617
 30
0.0
 11
73.06528447308619
 21
538.2071877906168
 31
0.0
  0
LINE
  5
503
100
AcDbEntity
  8
L6
100
AcDbLine
 10
54.26528447308647
 20
344.787187790564
 30
0.0
 11
54.26528447308647
 21
333.6271877906697
 31
0.0
  0
CIRCLE
  5
504
100
AcDbEntity
  8
L1
100
AcDbCircle
 10
54.26528447308647
 20
339.2071877906169
 30
0.0
 40
4.649999999999988
  0
CIRCLE
  5
505
100
AcDbEntity
  8
L1
100
AcDbCircle
 10
54.26528447308647
 20
339.2071877906169
 30
0.0
 40
3.499999999999991
  0
LINE
  5
506
100
AcDbEntity
  8
L6
100
AcDbLine
 10
48.68528447313929
 20
339.2071877906169
 30
0.0
 11
59.84528447303365
 21
339.2071877906169
 31
0.0
  0
LINE
  5
512
100
AcDbEntity
  8
L1
100
AcDbLine
 10
50.07895677785518
 20
325.9411703121664
 30
0.0
 11
47.76528447308874
 21
323.6274980073999
 31
0.0
  0
LINE
  5
513
100
AcDbEntity
  8
L1
100
AcDbLine
 10
97.34497425630344
 20
373.207187790615
 30
0.0
 11
51.53130195153654
 21
327.3935154858477
 31
0.0
  0
LINE
  5
514
100
AcDbEntity
  8
L1
100
AcDbLine
 10
88.26528447308646
 20
382.286877573832
 30
0.0
 11
38.6855946898695
 21
332.707187790615
 31
0.0
  0
LINE
  5
522
100
AcDbEntity
  8
L6
100
AcDbLine
 10
38.26528447308646
 20
422.2071877906187
 30
0.0
 11
38.26528447308646
 21
434.2071877906187
 31
0.0
  0
LINE
  5
523
100
AcDbEntity
  8
L6
100
AcDbLine
 10
31.26528447308646
 20
428.2071877906187
 30
0.0
 11
45.26528447308646
 21
428.2071877906187
 31
0.0
  0
CIRCLE
  5
524
100
AcDbEntity
  8
L1
100
AcDbCircle
 10
38.26528447308646
 20
428.2071877906187
 30
0.0
 40
4.649999999999988
  0
CIRCLE
  5
525
100
AcDbEntity
  8
L1
100
AcDbCircle
 10
38.26528447308646
 20
428.2071877906187
 30
0.0
 40
3.499999999999991
  0
ARC
  5
5A2
100
AcDbEntity
  8
L1
100
AcDbCircle
 10
32.26528447308647
 20
317.2071877906196
 30
0.0
 40
5.449999999999986
100
AcDbArc
 50
186.8497464358296
 51
208.4767936356227
  0
ARC
  5
5A3
100
AcDbEntity
  8
L1
100
AcDbCircle
 10
32.26528447308647
 20
317.2071877906196
 30
0.0
 40
5.449999999999986
100
AcDbArc
 50
241.5232063643964
 51
263.1502535641224
  0
LINE
  5
5A4
100
AcDbEntity
  8
L1
100
AcDbLine
 10
26.61752943526244
 20
310.2866405466579
 30
0.0
 11
26.16799883575913
 21
308.917871131613
 31
0.0
  0
LINE
  5
5A5
100
AcDbEntity
  8
L1
100
AcDbLine
 10
26.23537060876378
 20
310.2516068672325
 30
0.0
 11
25.80779284533264
 21
308.8690930214102
 31
0.0
  0
LINE
  5
5A6
100
AcDbEntity
  8
L1
100
AcDbLine
 10
25.30970354970168
 20
311.1772739262946
 30
0.0
 11
23.92718970386476
 21
310.7496961628571
 31
0.0
  0
LINE
  5
5A7
100
AcDbEntity
  8
L1
100
AcDbLine
 10
23.97596781408128
 20
311.1099021532913
 30
0.0
 11
25.34473722912617
 21
311.5594327527937
 31
0.0
  0
ARC
  5
5AA
100
AcDbEntity
  8
L1
100
AcDbCircle
 10
32.26528447308692
 20
317.2071877906196
 30
0.0
 40
3.599999999999818
100
AcDbArc
 50
210.5224878140852
 51
239.4775121859407
  0
LINE
  5
5AB
100
AcDbEntity
  8
L1
100
AcDbLine
 10
27.47467832186612
 20
314.6086126610766
 30
0.0
 11
29.16413686124679
 21
315.3788323849135
 31
0.0
  0
LINE
  5
5AC
100
AcDbEntity
  8
L1
100
AcDbLine
 10
30.4369290673826
 20
314.1060401787776
 30
0.0
 11
29.66670934354488
 21
312.4165816393974
 31
0.0
  0
LINE
  5
5AD
100
AcDbEntity
  8
L1
100
AcDbLine
 10
26.61752943526198
 20
310.2866405466579
 30
0.0
 11
30.43692906738624
 21
314.1060401787813
 31
0.0
  0
LINE
  5
5AE
100
AcDbEntity
  8
L1
100
AcDbLine
 10
25.34473722912617
 20
311.5594327527937
 30
0.0
 11
29.16413686124951
 21
315.3788323849171
 31
0.0
  0
ARC
  5
5AF
100
AcDbEntity
  8
L1
100
AcDbCircle
 10
26.40539740090616
 20
310.4987725810137
 30
0.0
 40
0.3
100
AcDbArc
 50
235.4756816970211
 51
314.9999999999999
  0
ARC
  5
5B0
100
AcDbEntity
  8
L1
100
AcDbCircle
 10
28.27569211317268
 20
313.2175954307044
 30
0.0
 40
3.599999999999997
100
AcDbArc
 50
214.5243183029965
 51
235.4756816970185
  0
ARC
  5
5B1
100
AcDbEntity
  8
L1
100
AcDbCircle
 10
25.55686926348198
 20
311.3473007184379
 30
0.0
 40
0.3
100
AcDbArc
 50
135.0
 51
214.5243183029788
  0
ARC
  5
5B2
100
AcDbEntity
  8
L1
100
AcDbCircle
 10
24.1880998484371
 20
310.8977701189355
 30
0.0
 40
0.3
100
AcDbArc
 50
135.0
 51
209.5761478009701
  0
ARC
  5
5B3
100
AcDbEntity
  8
L1
100
AcDbCircle
 10
25.95586680140332
 20
309.1300031659689
 30
0.0
 40
0.3
100
AcDbArc
 50
240.4238521990676
 51
314.9999999999693
  0
LINE
  5
5B4
100
AcDbEntity
  8
L1
100
AcDbLine
 10
23.97596781408128
 20
311.1099021532913
 30
0.0
 11
27.47467832182564
 21
314.6086126610357
 31
0.0
  0
ARC
  5
5B5
100
AcDbEntity
  8
L1
100
AcDbCircle
 10
28.27569211317268
 20
313.2175954307044
 30
0.0
 40
4.999999999999997
100
AcDbArc
 50
209.5761478009487
 51
240.4238521990488
  0
LINE
  5
5B6
100
AcDbEntity
  8
L1
100
AcDbLine
 10
26.16799883575959
 20
308.917871131613
 30
0.0
 11
29.66670934350486
 21
312.4165816393574
 31
0.0
  0
LINE
  5
5B7
100
AcDbEntity
  8
L1
100
AcDbLine
 10
32.26528447308647
 20
313.6071877906192
 30
0.0
 11
31.61528447309365
 21
311.796088087231
 31
0.0
  0
LINE
  5
5B8
100
AcDbEntity
  8
L1
100
AcDbLine
 10
34.71528447306309
 20
312.3389232127524
 30
0.0
 11
34.06528447308664
 21
314.0894963370005
 31
0.0
  0
ARC
  5
5B9
100
AcDbEntity
  8
L1
100
AcDbCircle
 10
32.26528447308692
 20
317.2071877906187
 30
0.0
 40
3.599999999999818
100
AcDbArc
 50
269.9999999999955
 51
299.9999999999912
  0
ARC
  5
5BA
100
AcDbEntity
  8
L1
100
AcDbCircle
 10
32.56528447308665
 20
310.5625570157722
 30
0.0
 40
0.3
100
AcDbArc
 50
180.00000000001
 51
259.5243183029887
  0
ARC
  5
5BB
100
AcDbEntity
  8
L1
100
AcDbCircle
 10
33.76528447308738
 20
310.5625570157722
 30
0.0
 40
0.3
100
AcDbArc
 50
280.4756816970311
 51
0.0000000000099742
  0
ARC
  5
5BC
100
AcDbEntity
  8
L1
100
AcDbCircle
 10
33.16528447308655
 20
313.8075531634954
 30
0.0
 40
3.599999999999997
100
AcDbArc
 50
259.5243183029913
 51
280.4756816970134
  0
LINE
  5
5BD
100
AcDbEntity
  8
L1
100
AcDbLine
 10
34.0652844730871
 20
310.5625570157722
 30
0.0
 11
34.06528447308664
 21
314.0894963370005
 31
0.0
  0
LINE
  5
5BE
100
AcDbEntity
  8
L1
100
AcDbLine
 10
32.26528447308692
 20
310.5625570157722
 30
0.0
 11
32.26528447308692
 21
313.6071877906238
 31
0.0
  0
ARC
  5
5BF
100
AcDbEntity
  8
L1
100
AcDbCircle
 10
31.91528447308837
 20
309.2768247452545
 30
0.0
 40
0.3
100
AcDbArc
 50
180.00000000001
 51
254.5761478010111
  0
ARC
  5
5C0
100
AcDbEntity
  8
L1
100
AcDbCircle
 10
33.16528447308655
 20
313.8075531634954
 30
0.0
 40
4.999999999999997
100
AcDbArc
 50
254.5761478009743
 51
285.4238521990613
  0
ARC
  5
5C1
100
AcDbEntity
  8
L1
100
AcDbCircle
 10
34.41528447308746
 20
309.2768247452545
 30
0.0
 40
0.3
100
AcDbArc
 50
285.4238521990925
 51
0.0000000000099742
  0
LINE
  5
5C2
100
AcDbEntity
  8
L1
100
AcDbLine
 10
32.26528447308692
 20
310.5625570157722
 30
0.0
 11
31.61528447308819
 21
309.2768247452536
 31
0.0
  0
LINE
  5
5C3
100
AcDbEntity
  8
L1
100
AcDbLine
 10
32.51073901850304
 20
310.2675573657738
 30
0.0
 11
31.83549723904161
 21
308.9876293142865
 31
0.0
  0
LINE
  5
5C4
100
AcDbEntity
  8
L1
100
AcDbLine
 10
33.81982992763596
 20
310.2675573659621
 30
0.0
 11
34.49507170713468
 21
308.9876293142874
 31
0.0
  0
LINE
  5
5C5
100
AcDbEntity
  8
L1
100
AcDbLine
 10
34.0652844730871
 20
310.5625570157722
 30
0.0
 11
34.71528447308765
 21
309.2768247452545
 31
0.0
  0
LINE
  5
5C6
100
AcDbEntity
  8
L1
100
AcDbLine
 10
31.61528447308819
 20
309.2768247452536
 30
0.0
 11
31.61528447308728
 21
311.7960880871764
 31
0.0
  0
LINE
  5
5C7
100
AcDbEntity
  8
L1
100
AcDbLine
 10
34.71528447308765
 20
309.2768247452545
 30
0.0
 11
34.71528447308765
 21
312.3389232127033
 31
0.0
  0
LINE
  5
5C8
100
AcDbEntity
  8
L1
100
AcDbLine
 10
25.6206536982404
 20
317.2071877906178
 30
0.0
 11
28.66528447309201
 21
317.2071877906187
 31
0.0
  0
ARC
  5
5C9
100
AcDbEntity
  8
L1
100
AcDbCircle
 10
28.86564984596271
 20
318.1071877906183
 30
0.0
 40
3.599999999999997
100
AcDbArc
 50
169.5243183029965
 51
190.4756816970185
  0
ARC
  5
5CA
100
AcDbEntity
  8
L1
100
AcDbCircle
 10
25.6206536982404
 20
318.7071877906187
 30
0.0
 40
0.3
100
AcDbArc
 50
90.0
 51
169.5243183029788
  0
ARC
  5
5CB
100
AcDbEntity
  8
L1
100
AcDbCircle
 10
25.6206536982404
 20
317.507187790618
 30
0.0
 40
0.3
100
AcDbArc
 50
190.4756816970211
 51
270.0
  0
ARC
  5
5CC
100
AcDbEntity
  8
L1
100
AcDbCircle
 10
32.26528447308692
 20
317.2071877906196
 30
0.0
 40
3.599999999999818
100
AcDbArc
 50
150.0000000000186
 51
180.0000000000144
  0
LINE
  5
5CD
100
AcDbEntity
  8
L1
100
AcDbLine
 10
27.39701989521972
 20
319.6571877905948
 30
0.0
 11
29.14759301946878
 21
319.0071877906189
 31
0.0
  0
LINE
  5
5CE
100
AcDbEntity
  8
L1
100
AcDbLine
 10
28.66528447308747
 20
317.2071877906187
 30
0.0
 11
26.85418476969926
 21
316.5571877906254
 31
0.0
  0
ARC
  5
5CF
100
AcDbEntity
  8
L1
100
AcDbCircle
 10
24.33492142772275
 20
319.3571877906183
 30
0.0
 40
0.3
100
AcDbArc
 50
90.0
 51
164.5761478009174
  0
ARC
  5
5D0
100
AcDbEntity
  8
L1
100
AcDbCircle
 10
28.86564984596271
 20
318.1071877906183
 30
0.0
 40
4.999999999999997
100
AcDbArc
 50
164.5761478009486
 51
195.4238521990355
  0
ARC
  5
5D1
100
AcDbEntity
  8
L1
100
AcDbCircle
 10
24.33492142772229
 20
316.8571877906192
 30
0.0
 40
0.3
100
AcDbArc
 50
195.4238521989988
 51
270.0
  0
LINE
  5
5D2
100
AcDbEntity
  8
L1
100
AcDbLine
 10
25.6206536982404
 20
319.0071877906179
 30
0.0
 11
24.33492142772275
 21
319.6571877906185
 31
0.0
  0
LINE
  5
5D3
100
AcDbEntity
  8
L1
100
AcDbLine
 10
25.32565404843035
 20
318.7617332451668
 30
0.0
 11
24.04572599675475
 21
319.4369750246655
 31
0.0
  0
LINE
  5
5D4
100
AcDbEntity
  8
L1
100
AcDbLine
 10
25.32565404824208
 20
317.4526423360343
 30
0.0
 11
24.04572599675475
 21
316.7774005565729
 31
0.0
  0
LINE
  5
5D5
100
AcDbEntity
  8
L1
100
AcDbLine
 10
25.6206536982404
 20
317.2071877906178
 30
0.0
 11
24.33492142772229
 21
316.557187790619
 31
0.0
  0
LINE
  5
5D6
100
AcDbEntity
  8
L1
100
AcDbLine
 10
24.33492142772229
 20
316.557187790619
 30
0.0
 11
26.85418476964469
 21
316.557187790619
 31
0.0
  0
LINE
  5
5D8
100
AcDbEntity
  8
L1
100
AcDbLine
 10
25.6206536982404
 20
319.0071877906179
 30
0.0
 11
29.14759301946878
 21
319.0071877906189
 31
0.0
  0
LINE
  5
5D9
100
AcDbEntity
  8
L1
100
AcDbLine
 10
24.33492142772275
 20
319.6571877906185
 30
0.0
 11
27.39701989517061
 21
319.6571877906194
 31
0.0
  0
LINE
  5
621
100
AcDbEntity
  8
L6
100
AcDbLine
 10
54.26528447308647
 20
316.2071877906169
 30
0.0
 11
54.26528447308647
 21
330.2071877906168
 31
0.0
  0
CIRCLE
  5
622
100
AcDbEntity
  8
L1
100
AcDbCircle
 10
54.26528447308647
 20
323.2071877906169
 30
0.0
 40
4.0
  0
ARC
  5
623
100
AcDbEntity
  8
L1
100
AcDbCircle
 10
54.26528447308647
 20
323.2071877906169
 30
0.0
 40
5.0
100
AcDbArc
 50
146.8524838551707
 51
123.1475161448314
  0
LINE
  5
624
100
AcDbEntity
  8
L6
100
AcDbLine
 10
61.26528447308647
 20
323.2071877906169
 30
0.0
 11
47.26528447308647
 21
323.2071877906169
 31
0.0
  0
ARC
  5
63B
100
AcDbEntity
  8
L1
100
AcDbCircle
 10
55.03305142605313
 20
376.4394208376502
 30
0.0
 40
2.5
100
AcDbArc
 50
225.0
 51
44.9999999999963
  0
ARC
  5
63C
100
AcDbEntity
  8
L1
100
AcDbCircle
 10
51.49751752012071
 20
379.9749547435835
 30
0.0
 40
2.5
100
AcDbArc
 50
45.0
 51
224.9999999999962
  0
LINE
  5
63D
100
AcDbEntity
  8
L1
100
AcDbLine
 10
53.26528447308646
 20
381.7427216965493
 30
0.0
 11
56.80081837901934
 21
378.2071877906169
 31
0.0
  0
LINE
  5
63E
100
AcDbEntity
  8
L1
100
AcDbLine
 10
49.72975056715359
 20
378.2071877906169
 30
0.0
 11
53.26528447308646
 21
374.6716538846835
 31
0.0
  0
LINE
  5
63F
100
AcDbEntity
  8
L1
100
AcDbLine
 10
54.67949803545934
 20
383.1569352589226
 30
0.0
 11
58.21503194139222
 21
379.6214013529893
 31
0.0
  0
ARC
  5
640
100
AcDbEntity
  8
L1
100
AcDbCircle
 10
51.49751752012071
 20
379.9749547435835
 30
0.0
 40
4.5
100
AcDbArc
 50
45.0
 51
224.9999999999962
  0
LINE
  5
641
100
AcDbEntity
  8
L1
100
AcDbLine
 10
48.31553700478025
 20
376.7929742282444
 30
0.0
 11
51.85107091071313
 21
373.2574403223111
 31
0.0
  0
LINE
  5
642
100
AcDbEntity
  8
L6
100
AcDbLine
 10
46.57665187680367
 20
384.8958203869001
 30
0.0
 11
59.9539170693697
 21
371.5185551943336
 31
0.0
  0
LINE
  5
643
100
AcDbEntity
  8
L6
100
AcDbLine
 10
53.26528447308646
 20
387.0818853099103
 30
0.0
 11
53.26528447308692
 21
368.7480328592223
 31
0.0
  0
ARC
  5
644
100
AcDbEntity
  8
L1
100
AcDbCircle
 10
55.03305142605313
 20
376.4394208376502
 30
0.0
 40
4.5
100
AcDbArc
 50
225.0
 51
44.9999999999963
  0
LINE
  5
645
100
AcDbEntity
  8
L6
100
AcDbLine
 10
62.72443940448102
 20
378.2071877906169
 30
0.0
 11
43.80612954169237
 21
378.2071877906169
 31
0.0
  0
LINE
  5
672
100
AcDbEntity
  8
L1
100
AcDbLine
 10
214.2652844730864
 20
309.207187790615
 30
0.0
 11
218.2652844730864
 21
309.207187790615
 31
0.0
  0
LINE
  5
673
100
AcDbEntity
  8
L1
100
AcDbLine
 10
214.2652844730864
 20
349.2071877906159
 30
0.0
 11
214.2652844730864
 21
325.5783689308905
 31
0.0
  0
LINE
  5
674
100
AcDbEntity
  8
L6
100
AcDbLine
 10
218.2652844730864
 20
328.2071877906151
 30
0.0
 11
218.2652844730864
 21
318.207187790615
 31
0.0
  0
ARC
  5
675
100
AcDbEntity
  8
L1
100
AcDbCircle
 10
218.2652844730864
 20
323.207187790615
 30
0.0
 40
4.649999999999988
100
AcDbArc
 50
90.0
 51
270.0
  0
ARC
  5
676
100
AcDbEntity
  8
L1
100
AcDbCircle
 10
218.2652844730864
 20
323.207187790615
 30
0.0
 40
3.499999999999991
100
AcDbArc
 50
90.0
 51
270.0
  0
LINE
  5
677
100
AcDbEntity
  8
L6
100
AcDbLine
 10
218.2652844730864
 20
316.207187790615
 30
0.0
 11
218.2652844730864
 21
330.2071877906151
 31
0.0
  0
LINE
  5
678
100
AcDbEntity
  8
L1
100
AcDbLine
 10
214.2652844730864
 20
320.8360066503387
 30
0.0
 11
214.2652844730864
 21
309.207187790615
 31
0.0
  0
LINE
  5
67A
100
AcDbEntity
  8
L6
100
AcDbLine
 10
224.2652844730864
 20
323.207187790615
 30
0.0
 11
212.2652844730864
 21
323.207187790615
 31
0.0
  0
LINE
  5
67B
100
AcDbEntity
  8
L6
100
AcDbLine
 10
213.2652844730864
 20
323.207187790615
 30
0.0
 11
223.2652844730864
 21
323.207187790615
 31
0.0
  0
ARC
  5
67C
100
AcDbEntity
  8
L1
100
AcDbCircle
 10
218.2652844730864
 20
323.207187790615
 30
0.0
 40
3.499999999999991
100
AcDbArc
 50
270.0
 51
90.0
  0
ARC
  5
67D
100
AcDbEntity
  8
L1
100
AcDbCircle
 10
218.2652844730864
 20
323.207187790615
 30
0.0
 40
4.649999999999988
100
AcDbArc
 50
270.0
 51
90.0
  0
LINE
  5
680
100
AcDbEntity
  8
L1
100
AcDbLine
 10
203.2652844730869
 20
373.207187790615
 30
0.0
 11
172.2652844730864
 21
373.207187790615
 31
0.0
  0
LINE
  5
6BC
100
AcDbEntity
  8
L6
100
AcDbLine
 10
38.26528447308646
 20
547.2071877906168
 30
0.0
 11
38.26528447308646
 21
559.2071877906168
 31
0.0
  0
CIRCLE
  5
6BD
100
AcDbEntity
  8
L1
100
AcDbCircle
 10
38.26528447308646
 20
553.2071877906169
 30
0.0
 40
3.499999999999991
  0
LINE
  5
6BE
100
AcDbEntity
  8
L1
100
AcDbLine
 10
64.26528447308692
 20
549.2071877906169
 30
0.0
 11
40.63646561336281
 21
549.2071877906169
 31
0.0
  0
LINE
  5
6C0
100
AcDbEntity
  8
L1
100
AcDbLine
 10
24.26528447308646
 20
549.2071877906169
 30
0.0
 11
24.26528447308646
 21
557.2071877906169
 31
0.0
  0
LINE
  5
6C1
100
AcDbEntity
  8
L1
100
AcDbLine
 10
35.89410333281103
 20
549.2071877906169
 30
0.0
 11
24.26528447308646
 21
549.2071877906169
 31
0.0
  0
CIRCLE
  5
6C4
100
AcDbEntity
  8
L1
100
AcDbCircle
 10
38.26528447308646
 20
553.2071877906169
 30
0.0
 40
4.649999999999988
  0
LINE
  5
6C5
100
AcDbEntity
  8
L1
100
AcDbLine
 10
88.26528447308646
 20
507.2071877906178
 30
0.0
 11
88.26528447308646
 21
538.2071877906168
 31
0.0
  0
LINE
  5
6C6
100
AcDbEntity
  8
L6
100
AcDbLine
 10
38.26528447308646
 20
497.2071877906178
 30
0.0
 11
38.26528447308646
 21
509.2071877906177
 31
0.0
  0
CIRCLE
  5
6C7
100
AcDbEntity
  8
L1
100
AcDbCircle
 10
38.26528447308646
 20
503.2071877906178
 30
0.0
 40
3.499999999999991
  0
LINE
  5
6C8
100
AcDbEntity
  8
L1
100
AcDbLine
 10
40.63646561336281
 20
507.2071877906178
 30
0.0
 11
88.26528447308646
 21
507.2071877906178
 31
0.0
  0
LINE
  5
6C9
100
AcDbEntity
  8
L1
100
AcDbLine
 10
24.26528447308646
 20
499.2071877906178
 30
0.0
 11
24.26528447308646
 21
507.2071877906178
 31
0.0
  0
LINE
  5
6CA
100
AcDbEntity
  8
L1
100
AcDbLine
 10
35.89410333281103
 20
499.2071877906178
 30
0.0
 11
24.26528447308646
 21
499.2071877906178
 31
0.0
  0
LINE
  5
6CB
100
AcDbEntity
  8
L1
100
AcDbLine
 10
24.26528447308646
 20
507.2071877906178
 30
0.0
 11
35.89410333281057
 21
507.2071877906178
 31
0.0
  0
LINE
  5
6CC
100
AcDbEntity
  8
L6
100
AcDbLine
 10
31.26528447308646
 20
503.2071877906178
 30
0.0
 11
45.26528447308646
 21
503.2071877906178
 31
0.0
  0
CIRCLE
  5
6CD
100
AcDbEntity
  8
L1
100
AcDbCircle
 10
38.26528447308646
 20
503.2071877906178
 30
0.0
 40
4.649999999999988
  0
LINE
  5
6CE
100
AcDbEntity
  8
L1
100
AcDbLine
 10
88.26528447308646
 20
499.2071877906178
 30
0.0
 11
40.63646561336281
 21
499.2071877906178
 31
0.0
  0
LINE
  5
6CF
100
AcDbEntity
  8
L1
100
AcDbLine
 10
88.26528447308646
 20
457.2071877906187
 30
0.0
 11
88.26528447308646
 21
499.2071877906178
 31
0.0
  0
LINE
  5
6D4
100
AcDbEntity
  8
L1
100
AcDbLine
 10
88.26528447308646
 20
407.2071877906187
 30
0.0
 11
88.26528447308646
 21
449.2071877906178
 31
0.0
  0
LINE
  5
6E2
100
AcDbEntity
  8
L1
100
AcDbLine
 10
35.89410333281103
 20
449.2071877906178
 30
0.0
 11
24.26528447308646
 21
449.2071877906178
 31
0.0
  0
LINE
  5
6E3
100
AcDbEntity
  8
L1
100
AcDbLine
 10
24.26528447308646
 20
449.2071877906178
 30
0.0
 11
24.26528447308646
 21
457.2071877906187
 31
0.0
  0
LINE
  5
6E4
100
AcDbEntity
  8
L1
100
AcDbLine
 10
24.26528447308646
 20
457.2071877906187
 30
0.0
 11
35.89410333281057
 21
457.2071877906187
 31
0.0
  0
LINE
  5
6E5
100
AcDbEntity
  8
L1
100
AcDbLine
 10
88.26528447308646
 20
449.2071877906178
 30
0.0
 11
40.63646561336281
 21
449.2071877906178
 31
0.0
  0
LINE
  5
6E6
100
AcDbEntity
  8
L1
100
AcDbLine
 10
40.63646561336281
 20
457.2071877906187
 30
0.0
 11
88.26528447308646
 21
457.2071877906187
 31
0.0
  0
LINE
  5
6F7
100
AcDbEntity
  8
L6
100
AcDbLine
 10
31.26528447308646
 20
453.2071877906187
 30
0.0
 11
45.26528447308646
 21
453.2071877906187
 31
0.0
  0
CIRCLE
  5
6F8
100
AcDbEntity
  8
L1
100
AcDbCircle
 10
38.26528447308646
 20
453.2071877906187
 30
0.0
 40
4.649999999999988
  0
CIRCLE
  5
6F9
100
AcDbEntity
  8
L1
100
AcDbCircle
 10
38.26528447308646
 20
453.2071877906187
 30
0.0
 40
3.499999999999991
  0
LINE
  5
6FA
100
AcDbEntity
  8
L6
100
AcDbLine
 10
38.26528447308646
 20
447.2071877906176
 30
0.0
 11
38.26528447308646
 21
459.2071877906188
 31
0.0
  0
LINE
  5
79A
100
AcDbEntity
  8
L6
100
AcDbLine
 10
38.26528447308646
 20
397.2071877906187
 30
0.0
 11
38.26528447308646
 21
409.2071877906187
 31
0.0
  0
LINE
  5
79B
100
AcDbEntity
  8
L1
100
AcDbLine
 10
35.89410333281057
 20
407.2071877906187
 30
0.0
 11
24.26528447308646
 21
407.2071877906187
 31
0.0
  0
LINE
  5
79C
100
AcDbEntity
  8
L1
100
AcDbLine
 10
24.26528447308646
 20
399.2071877906187
 30
0.0
 11
35.89410333281057
 21
399.2071877906187
 31
0.0
  0
LINE
  5
79D
100
AcDbEntity
  8
L1
100
AcDbLine
 10
24.26528447308646
 20
407.2071877906187
 30
0.0
 11
24.26528447308646
 21
399.2071877906187
 31
0.0
  0
CIRCLE
  5
79E
100
AcDbEntity
  8
L1
100
AcDbCircle
 10
38.26528447308646
 20
403.2071877906187
 30
0.0
 40
3.499999999999991
  0
LINE
  5
79F
100
AcDbEntity
  8
L1
100
AcDbLine
 10
40.63646561336281
 20
399.2071877906187
 30
0.0
 11
88.26528447308646
 21
399.2071877906187
 31
0.0
  0
LINE
  5
7A0
100
AcDbEntity
  8
L1
100
AcDbLine
 10
88.26528447308646
 20
407.2071877906187
 30
0.0
 11
40.63646561336281
 21
407.2071877906187
 31
0.0
  0
CIRCLE
  5
7A1
100
AcDbEntity
  8
L1
100
AcDbCircle
 10
38.26528447308646
 20
403.2071877906187
 30
0.0
 40
4.649999999999988
  0
LINE
  5
7A2
100
AcDbEntity
  8
L6
100
AcDbLine
 10
31.26528447308646
 20
403.2071877906187
 30
0.0
 11
45.26528447308646
 21
403.2071877906187
 31
0.0
  0
LINE
  5
7D4
100
AcDbEntity
  8
L1
100
AcDbLine
 10
164.2652844730864
 20
373.2071877906196
 30
0.0
 11
122.2652844730864
 21
373.2071877906196
 31
0.0
  0
ARC
  5
7D5
100
AcDbEntity
  8
L1
100
AcDbCircle
 10
168.2652844730864
 20
323.2071877906196
 30
0.0
 40
4.649999999999988
100
AcDbArc
 50
90.0
 51
270.0
  0
LINE
  5
7D6
100
AcDbEntity
  8
L6
100
AcDbLine
 10
174.2652844730864
 20
323.2071877906196
 30
0.0
 11
162.2652844730864
 21
323.2071877906196
 31
0.0
  0
LINE
  5
7D7
100
AcDbEntity
  8
L6
100
AcDbLine
 10
163.2652844730864
 20
323.2071877906196
 30
0.0
 11
173.2652844730864
 21
323.2071877906196
 31
0.0
  0
LINE
  5
7D8
100
AcDbEntity
  8
L6
100
AcDbLine
 10
168.2652844730864
 20
317.2071877906196
 30
0.0
 11
168.2652844730864
 21
329.2071877906196
 31
0.0
  0
ARC
  5
7D9
100
AcDbEntity
  8
L1
100
AcDbCircle
 10
168.2652844730864
 20
323.2071877906196
 30
0.0
 40
3.499999999999991
100
AcDbArc
 50
90.0
 51
270.0
  0
ARC
  5
7DA
100
AcDbEntity
  8
L1
100
AcDbCircle
 10
168.2652844730864
 20
323.2071877906196
 30
0.0
 40
3.499999999999991
100
AcDbArc
 50
270.0
 51
90.0
  0
ARC
  5
7DB
100
AcDbEntity
  8
L1
100
AcDbCircle
 10
168.2652844730864
 20
323.2071877906196
 30
0.0
 40
4.649999999999988
100
AcDbArc
 50
270.0
 51
90.0
  0
LINE
  5
7DC
100
AcDbEntity
  8
L1
100
AcDbLine
 10
164.2652844730864
 20
309.2071877906196
 30
0.0
 11
172.2652844730864
 21
309.2071877906196
 31
0.0
  0
LINE
  5
7DE
100
AcDbEntity
  8
L1
100
AcDbLine
 10
172.2652844730864
 20
320.8360066503432
 30
0.0
 11
172.2652844730864
 21
309.2071877906196
 31
0.0
  0
LINE
  5
7DF
100
AcDbEntity
  8
L1
100
AcDbLine
 10
164.2652844730864
 20
320.8360066503432
 30
0.0
 11
164.2652844730864
 21
309.2071877906196
 31
0.0
  0
LINE
  5
7E0
100
AcDbEntity
  8
L6
100
AcDbLine
 10
118.2652844730864
 20
317.2071877906196
 30
0.0
 11
118.2652844730864
 21
329.2071877906196
 31
0.0
  0
LINE
  5
7E1
100
AcDbEntity
  8
L6
100
AcDbLine
 10
112.2652844730864
 20
323.2071877906196
 30
0.0
 11
124.2652844730864
 21
323.2071877906196
 31
0.0
  0
CIRCLE
  5
7E2
100
AcDbEntity
  8
L1
100
AcDbCircle
 10
118.2652844730864
 20
323.2071877906196
 30
0.0
 40
4.649999999999988
  0
CIRCLE
  5
7E3
100
AcDbEntity
  8
L1
100
AcDbCircle
 10
118.2652844730864
 20
323.2071877906196
 30
0.0
 40
3.499999999999991
  0
LINE
  5
7E5
100
AcDbEntity
  8
L1
100
AcDbLine
 10
114.2652844730864
 20
309.2071877906196
 30
0.0
 11
122.2652844730864
 21
309.2071877906196
 31
0.0
  0
LINE
  5
7E6
100
AcDbEntity
  8
L1
100
AcDbLine
 10
114.2652844730864
 20
320.8360066503432
 30
0.0
 11
114.2652844730864
 21
309.2071877906196
 31
0.0
  0
LINE
  5
7E7
100
AcDbEntity
  8
L1
100
AcDbLine
 10
122.2652844730864
 20
320.8360066503432
 30
0.0
 11
122.2652844730864
 21
309.2071877906196
 31
0.0
  0
LINE
  5
7E8
100
AcDbEntity
  8
L1
100
AcDbLine
 10
114.2652844730864
 20
373.2071877906196
 30
0.0
 11
114.2652844730864
 21
325.578368930895
 31
0.0
  0
LINE
  5
7E9
100
AcDbEntity
  8
L1
100
AcDbLine
 10
122.2652844730864
 20
373.2071877906196
 30
0.0
 11
122.2652844730864
 21
325.578368930895
 31
0.0
  0
LINE
  5
7EA
100
AcDbEntity
  8
L1
100
AcDbLine
 10
164.2652844730864
 20
373.2071877906196
 30
0.0
 11
164.2652844730864
 21
325.578368930895
 31
0.0
  0
LINE
  5
7EB
100
AcDbEntity
  8
L1
100
AcDbLine
 10
172.2652844730864
 20
373.2071877906196
 30
0.0
 11
172.2652844730864
 21
325.578368930895
 31
0.0
  0
CIRCLE
  5
7EE
100
AcDbEntity
  8
L1
100
AcDbCircle
 10
38.26528447308646
 20
353.2071877906196
 30
0.0
 40
3.499999999999991
  0
LINE
  5
7EF
100
AcDbEntity
  8
L6
100
AcDbLine
 10
38.26528447308646
 20
347.2071877906196
 30
0.0
 11
38.26528447308646
 21
359.2071877906196
 31
0.0
  0
CIRCLE
  5
7F0
100
AcDbEntity
  8
L1
100
AcDbCircle
 10
38.26528447308646
 20
353.2071877906196
 30
0.0
 40
4.649999999999988
  0
LINE
  5
7F1
100
AcDbEntity
  8
L6
100
AcDbLine
 10
31.26528447308646
 20
353.2071877906196
 30
0.0
 11
45.26528447308646
 21
353.2071877906196
 31
0.0
  0
LINE
  5
7F2
100
AcDbEntity
  8
L1
100
AcDbLine
 10
45.26528447308646
 20
311.2071877906196
 30
0.0
 11
45.26528447308646
 21
322.5919641014693
 31
0.0
  0
LINE
  5
7F3
100
AcDbEntity
  8
L1
100
AcDbLine
 10
47.76528447308646
 20
311.2071877906196
 30
0.0
 11
47.76528447308646
 21
323.6274980074026
 31
0.0
  0
LINE
  5
7F4
100
AcDbEntity
  8
L1
100
AcDbLine
 10
45.26528447308646
 20
311.2071877906196
 30
0.0
 11
47.76528447308646
 21
311.2071877906196
 31
0.0
  0
LINE
  5
7F8
100
AcDbEntity
  8
L6
100
AcDbLine
 10
68.26528447308646
 20
317.2071877906196
 30
0.0
 11
68.26528447308646
 21
329.2071877906196
 31
0.0
  0
CIRCLE
  5
7F9
100
AcDbEntity
  8
L1
100
AcDbCircle
 10
68.26528447308646
 20
323.2071877906196
 30
0.0
 40
3.499999999999991
  0
CIRCLE
  5
7FA
100
AcDbEntity
  8
L1
100
AcDbCircle
 10
68.26528447308646
 20
323.2071877906196
 30
0.0
 40
4.649999999999988
  0
LINE
  5
7FB
100
AcDbEntity
  8
L6
100
AcDbLine
 10
62.26528447308647
 20
323.2071877906196
 30
0.0
 11
74.26528447308647
 21
323.2071877906196
 31
0.0
  0
ARC
  5
7FC
100
AcDbEntity
  8
L1
100
AcDbCircle
 10
32.26528447308647
 20
317.2071877906196
 30
0.0
 40
5.449999999999986
100
AcDbArc
 50
296.7142570430858
 51
153.2857429569291
  0
CIRCLE
  5
7FD
100
AcDbEntity
  8
L1
100
AcDbCircle
 10
32.26528447308647
 20
317.2071877906196
 30
0.0
 40
3.449999999999991
  0
LINE
  5
800
100
AcDbEntity
  8
L1
100
AcDbLine
 10
26.26528447308646
 20
330.2071877906196
 30
0.0
 11
37.65006078393708
 21
330.2071877906196
 31
0.0
  0
LINE
  5
801
100
AcDbEntity
  8
L1
100
AcDbLine
 10
26.26528447308646
 20
332.7071877906196
 30
0.0
 11
38.6855946898695
 21
332.7071877906196
 31
0.0
  0
LINE
  5
802
100
AcDbEntity
  8
L1
100
AcDbLine
 10
20.76528447308646
 20
320.7071877906196
 30
0.0
 11
22.83694383779175
 21
322.7788471553244
 31
0.0
  0
LINE
  5
803
100
AcDbEntity
  8
L1
100
AcDbLine
 10
26.26528447308646
 20
330.2071877906196
 30
0.0
 11
26.26528447308646
 21
332.7071877906196
 31
0.0
  0
LINE
  5
806
100
AcDbEntity
  8
L1
100
AcDbLine
 10
23.26528447308646
 20
305.7071877906196
 30
0.0
 11
35.76528447308646
 21
305.7071877906196
 31
0.0
  0
ARC
  5
807
100
AcDbEntity
  8
L1
100
AcDbCircle
 10
21.76528447308646
 20
306.7071877906196
 30
0.0
 40
2.499999999999993
100
AcDbArc
 50
180.0
 51
269.9999999999995
  0
LINE
  5
808
100
AcDbEntity
  8
L1
100
AcDbLine
 10
22.20462430130646
 20
305.9433415060853
 30
0.0
 11
22.20462430130646
 21
306.1465276188396
 31
0.0
  0
ARC
  5
809
100
AcDbEntity
  8
L1
100
AcDbCircle
 10
21.20462430130646
 20
306.1465276188396
 30
0.0
 40
0.9999999999999975
100
AcDbArc
 50
359.9999999999973
 51
90.0000000000027
  0
LINE
  5
80A
100
AcDbEntity
  8
L1
100
AcDbLine
 10
21.00143818855213
 20
307.1465276188396
 30
0.0
 11
21.20462430130646
 21
307.1465276188396
 31
0.0
  0
ARC
  5
80B
100
AcDbEntity
  8
L1
100
AcDbCircle
 10
23.26528447308646
 20
308.2071877906196
 30
0.0
 40
2.499999999999993
100
AcDbArc
 50
180.0
 51
205.1040902502147
  0
ARC
  5
80C
100
AcDbEntity
  8
L1
100
AcDbCircle
 10
23.26528447308646
 20
308.2071877906196
 30
0.0
 40
2.499999999999993
100
AcDbArc
 50
244.8959097497753
 51
269.9999999999996
  0
LINE
  5
80D
100
AcDbEntity
  8
L1
100
AcDbLine
 10
35.76528447308646
 20
305.7071877906196
 30
0.0
 11
37.83694383779129
 21
307.7788471553244
 31
0.0
  0
LINE
  5
80F
100
AcDbEntity
  8
L1
100
AcDbLine
 10
20.76528447308646
 20
308.2071877906196
 30
0.0
 11
20.76528447308646
 21
320.7071877906196
 31
0.0
  0
LINE
  5
810
100
AcDbEntity
  8
L6
100
AcDbLine
 10
41.26528447308646
 20
317.2071877906196
 30
0.0
 11
23.26528447308646
 21
317.2071877906196
 31
0.0
  0
LINE
  5
812
100
AcDbEntity
  8
L1
100
AcDbLine
 10
37.65006078393708
 20
330.2071877906196
 30
0.0
 11
45.26528447308646
 21
322.5919641014693
 31
0.0
  0
LINE
  5
813
100
AcDbEntity
  8
L1
100
AcDbLine
 10
38.6855946898695
 20
332.7071877906196
 30
0.0
 11
47.76528447308646
 21
323.6274980074026
 31
0.0
  0
LINE
  5
814
100
AcDbEntity
  8
L1
100
AcDbLine
 10
21.76528447308646
 20
304.2071877906196
 30
0.0
 11
414.7652844730864
 21
304.2071877906173
 31
0.0
  0
LINE
  5
816
100
AcDbEntity
  8
L1
100
AcDbLine
 10
37.8369438377922
 20
307.7788471553244
 30
0.0
 11
398.6936251083839
 21
307.7788471553219
 31
0.0
  0
LINE
  5
817
100
AcDbEntity
  8
L1
100
AcDbLine
 10
97.34497425630753
 20
373.2071877906187
 30
0.0
 11
114.2652844730864
 21
373.2071877906196
 31
0.0
  0
LINE
  5
818
100
AcDbEntity
  8
L1
100
AcDbLine
 10
19.26528447308646
 20
306.7071877906196
 30
0.0
 11
19.26528447308896
 21
799.7071877906141
 31
0.0
  0
LINE
  5
81B
100
AcDbEntity
  8
L1
100
AcDbLine
 10
22.83694383779175
 20
322.7788471553244
 30
0.0
 11
22.83694383779175
 21
783.6355284259094
 31
0.0
  0
LINE
  5
81C
100
AcDbEntity
  8
L1
100
AcDbLine
 10
88.26528447308646
 20
399.2071877906187
 30
0.0
 11
88.26528447308646
 21
382.286877573832
 31
0.0
  0
ARC
  5
82A
100
AcDbEntity
  8
L1
100
AcDbCircle
 10
1099.125928032202
 20
1047.451879782423
 30
0.0
 40
100.1178968229071
100
AcDbArc
 50
261.89489908541
 51
278.1051009145904
  0
LINE
  5
82D
100
AcDbEntity
  8
L2
 48
2.0
100
AcDbLine
 10
907.0103687370854
 20
1101.334049650664
 30
0.0
 11
907.0103687370853
 21
955.3340496506647
 31
0.0
  0
LINE
  5
844
100
AcDbEntity
  8
L1
100
AcDbLine
 10
927.0103687370845
 20
948.334049650664
 30
0.0
 11
927.0802102760679
 21
946.3340496506647
 31
0.0
  0
LINE
  5
846
100
AcDbEntity
  8
L1
100
AcDbLine
 10
941.0103687370849
 20
948.334049650664
 30
0.0
 11
940.9405271981015
 21
946.3340496506647
 31
0.0
  0
LINE
  5
848
100
AcDbEntity
  8
L1
100
AcDbLine
 10
901.5103687370849
 20
948.3340496506636
 30
0.0
 11
1085.010368737084
 21
948.3340496506649
 31
0.0
1001
ACAD
1000
ASC_BOUNDS
1002
{
1070
    19
1002
}
  0
LINE
  5
84C
100
AcDbEntity
  8
L2
100
AcDbLine
 10
937.5103687370849
 20
951.3340496506639
 30
0.0
 11
937.5103687370849
 21
948.334049650664
 31
0.0
  0
LINE
  5
84D
100
AcDbEntity
  8
L2
100
AcDbLine
 10
930.5103687370849
 20
951.3340496506639
 30
0.0
 11
930.5103687370849
 21
948.334049650664
 31
0.0
  0
LINE
  5
84E
100
AcDbEntity
  8
L2
 48
2.0
100
AcDbLine
 10
911.0103687370852
 20
951.3340496506648
 30
0.0
 11
1287.010368737084
 21
951.3340496506648
 31
0.0
1001
ACAD
1000
ASC_BOUNDS
1002
{
1070
    19
1002
}
  0
LINE
  5
866
100
AcDbEntity
  8
L6
100
AcDbLine
 10
1099.010368737084
 20
935.7909571739874
 30
0.0
 11
1099.010368737084
 21
1109.310748381659
 31
0.0
  0
LINE
  5
86B
100
AcDbEntity
  8
L2
100
AcDbLine
 10
1089.010368737085
 20
957.3340496506649
 30
0.0
 11
1088.962370964235
 21
951.8340496506649
 31
0.0
  0
ARC
  5
86C
100
AcDbEntity
  8
L2
100
AcDbCircle
 10
1088.462675550726
 20
951.851499399016
 30
0.0
 40
0.4999999999999988
100
AcDbArc
 50
270.0
 51
358.0000000000001
  0
LINE
  5
86D
100
AcDbEntity
  8
L2
100
AcDbLine
 10
1094.010368737085
 20
957.3340496506649
 30
0.0
 11
1093.81769514624
 21
951.8165999023135
 31
0.0
  0
ARC
  5
86E
100
AcDbEntity
  8
L2
100
AcDbCircle
 10
1093.31799973273
 20
951.8340496506649
 30
0.0
 40
0.4999999999999988
100
AcDbArc
 50
270.0
 51
358.0000000000001
  0
LINE
  5
86F
100
AcDbEntity
  8
L1
100
AcDbLine
 10
1095.510368737085
 20
946.3340496506647
 30
0.0
 11
1094.881079228991
 21
947.4240110513537
 31
0.0
  0
LINE
  5
870
100
AcDbEntity
  8
L2
100
AcDbLine
 10
1089.010368737085
 20
957.3340496506649
 30
0.0
 11
1099.010368737084
 21
957.3340496506649
 31
0.0
  0
LINE
  5
884
100
AcDbEntity
  8
L6
100
AcDbLine
 10
1099.010368737084
 20
935.7909571739874
 30
0.0
 11
1099.010368737084
 21
1109.310748381659
 31
0.0
  0
LINE
  5
888
100
AcDbEntity
  8
L2
100
AcDbLine
 10
1089.010368737085
 20
957.3340496506649
 30
0.0
 11
1088.962370964235
 21
951.8340496506649
 31
0.0
  0
ARC
  5
889
100
AcDbEntity
  8
L2
100
AcDbCircle
 10
1088.462675550726
 20
951.851499399016
 30
0.0
 40
0.4999999999999988
100
AcDbArc
 50
270.0
 51
358.0000000000001
  0
LINE
  5
88A
100
AcDbEntity
  8
L2
100
AcDbLine
 10
1094.010368737085
 20
957.3340496506649
 30
0.0
 11
1093.81769514624
 21
951.8165999023135
 31
0.0
  0
ARC
  5
88B
100
AcDbEntity
  8
L2
100
AcDbCircle
 10
1093.31799973273
 20
951.8340496506649
 30
0.0
 40
0.4999999999999988
100
AcDbArc
 50
270.0
 51
358.0000000000001
  0
LINE
  5
88C
100
AcDbEntity
  8
L2
100
AcDbLine
 10
1089.010368737085
 20
957.3340496506649
 30
0.0
 11
1099.010368737084
 21
957.3340496506649
 31
0.0
  0
LINE
  5
88D
100
AcDbEntity
  8
L1
100
AcDbLine
 10
1102.510368737084
 20
946.3340496506647
 30
0.0
 11
1095.510368737085
 21
946.3340496506647
 31
0.0
  0
LINE
  5
8A0
100
AcDbEntity
  8
L6
100
AcDbLine
 10
1099.010368737084
 20
935.7909571739874
 30
0.0
 11
1099.010368737084
 21
1109.310748381659
 31
0.0
  0
LINE
  5
8A4
100
AcDbEntity
  8
L2
100
AcDbLine
 10
1089.010368737085
 20
957.3340496506649
 30
0.0
 11
1088.962370964235
 21
951.8340496506649
 31
0.0
  0
ARC
  5
8A5
100
AcDbEntity
  8
L2
100
AcDbCircle
 10
1088.462675550726
 20
951.851499399016
 30
0.0
 40
0.4999999999999988
100
AcDbArc
 50
270.0
 51
358.0000000000001
  0
LINE
  5
8A6
100
AcDbEntity
  8
L2
100
AcDbLine
 10
1094.010368737085
 20
957.3340496506649
 30
0.0
 11
1093.81769514624
 21
951.8165999023135
 31
0.0
  0
ARC
  5
8A7
100
AcDbEntity
  8
L2
100
AcDbCircle
 10
1093.31799973273
 20
951.8340496506649
 30
0.0
 40
0.4999999999999988
100
AcDbArc
 50
270.0
 51
358.0000000000001
  0
LINE
  5
8A8
100
AcDbEntity
  8
L2
100
AcDbLine
 10
1089.010368737085
 20
957.3340496506649
 30
0.0
 11
1109.010368737084
 21
957.3340496506649
 31
0.0
  0
LINE
  5
8A9
100
AcDbEntity
  8
L1
100
AcDbLine
 10
1099.010368737084
 20
946.3340496506647
 30
0.0
 11
1095.510368737085
 21
946.3340496506647
 31
0.0
  0
LINE
  5
8AF
100
AcDbEntity
  8
L1
100
AcDbLine
 10
1052.510368737084
 20
946.3340496506647
 30
0.0
 11
1053.665069275464
 21
948.3340496506649
 31
0.0
  0
LINE
  5
8B6
100
AcDbEntity
  8
L1
100
AcDbLine
 10
1045.510368737085
 20
946.3340496506647
 30
0.0
 11
1044.355668198706
 21
948.3340496506649
 31
0.0
  0
LINE
  5
8B8
100
AcDbEntity
  8
L1
100
AcDbLine
 10
1052.510368737084
 20
946.3340496506647
 30
0.0
 11
1045.510368737085
 21
946.3340496506647
 31
0.0
  0
LINE
  5
90E
100
AcDbEntity
  8
L1
100
AcDbLine
 10
900.0103687370849
 20
1098.334049650664
 30
0.0
 11
900.0103687370849
 21
1091.134049650663
 31
0.0
1001
ACAD
1000
ASC_BOUNDS
1002
{
1070
    19
1002
}
  0
LINE
  5
90F
100
AcDbEntity
  8
L1
100
AcDbLine
 10
900.0103687370849
 20
1091.134049650663
 30
0.0
 11
902.5115126496633
 21
1091.002970252538
 31
0.0
1001
ACAD
1000
ASC_BOUNDS
1002
{
1070
    19
1002
}
  0
LINE
  5
913
100
AcDbEntity
  8
L1
100
AcDbLine
 10
900.0103687370849
 20
1098.334049650664
 30
0.0
 11
1294.010368737085
 21
1098.334049650664
 31
0.0
1001
ACAD
1000
ASC_BOUNDS
1002
{
1070
    19
1002
}
  0
LINE
  5
914
100
AcDbEntity
  8
L1
100
AcDbLine
 10
904.010368737085
 20
1098.334049650664
 30
0.0
 11
904.8142163143786
 21
1101.334049650664
 31
0.0
1001
ACAD
1000
ASC_BOUNDS
1002
{
1070
    19
1002
}
  0
LINE
  5
93C
100
AcDbEntity
  8
L1
100
AcDbLine
 10
904.8142163143786
 20
1101.334049650664
 30
0.0
 11
1293.206521159791
 21
1101.334049650664
 31
0.0
  0
LINE
  5
95C
100
AcDbEntity
  8
L1
100
AcDbLine
 10
1002.510368737085
 20
946.3340496506647
 30
0.0
 11
1003.665069275464
 21
948.3340496506649
 31
0.0
  0
LINE
  5
95D
100
AcDbEntity
  8
L1
100
AcDbLine
 10
995.5103687370849
 20
946.3340496506647
 30
0.0
 11
994.3556681987059
 21
948.3340496506649
 31
0.0
  0
LINE
  5
95E
100
AcDbEntity
  8
L1
100
AcDbLine
 10
1002.510368737085
 20
946.3340496506647
 30
0.0
 11
995.5103687370849
 21
946.3340496506647
 31
0.0
  0
LINE
  5
960
100
AcDbEntity
  8
L1
100
AcDbLine
 10
952.5103687370849
 20
946.3340496506647
 30
0.0
 11
953.6650692754644
 21
948.3340496506649
 31
0.0
  0
LINE
  5
961
100
AcDbEntity
  8
L1
100
AcDbLine
 10
926.1103687370853
 20
946.3340496506647
 30
0.0
 11
926.1103687370853
 21
948.3340496506649
 31
0.0
  0
LINE
  5
962
100
AcDbEntity
  8
L1
100
AcDbLine
 10
949.0103687370849
 20
946.3340496506647
 30
0.0
 11
945.5103687370849
 21
946.3340496506647
 31
0.0
  0
LINE
  5
963
100
AcDbEntity
  8
L1
100
AcDbLine
 10
945.5103687370849
 20
946.3340496506647
 30
0.0
 11
944.3556681987059
 21
948.3340496506649
 31
0.0
  0
LINE
  5
965
100
AcDbEntity
  8
L1
100
AcDbLine
 10
907.0103687370849
 20
946.3340496506647
 30
0.0
 11
952.5103687370849
 21
946.3340496506647
 31
0.0
  0
LINE
  5
966
100
AcDbEntity
  8
L1
100
AcDbLine
 10
907.0103687370849
 20
948.3340496506649
 30
0.0
 11
907.0103687370849
 21
946.3340496506647
 31
0.0
  0
LINE
  5
967
100
AcDbEntity
  8
L1
100
AcDbLine
 10
915.510368737085
 20
946.3340496506647
 30
0.0
 11
914.3556681987059
 21
948.3340496506649
 31
0.0
  0
LINE
  5
969
100
AcDbEntity
  8
L1
100
AcDbLine
 10
922.5103687370848
 20
946.3340496506647
 30
0.0
 11
923.6650692754645
 21
948.3340496506649
 31
0.0
  0
LINE
  5
96D
100
AcDbEntity
  8
L1
100
AcDbLine
 10
901.5103687370849
 20
948.334049650664
 30
0.0
 11
901.5103687370849
 21
1091.05543798174
 31
0.0
  0
LINE
  5
96E
100
AcDbEntity
  8
L1
100
AcDbLine
 10
903.7565654576054
 20
948.334049650664
 30
0.0
 11
902.5115126496633
 21
1091.002970252538
 31
0.0
1001
ACAD
1000
ASC_BOUNDS
1002
{
1070
    19
1002
}
  0
LINE
  5
97E
100
AcDbEntity
  8
L1
100
AcDbLine
 10
1296.510368737084
 20
948.3340496506636
 30
0.0
 11
1113.010368737086
 21
948.3340496506649
 31
0.0
1001
ACAD
1000
ASC_BOUNDS
1002
{
1070
    19
1002
}
  0
LINE
  5
981
100
AcDbEntity
  8
L1
100
AcDbLine
 10
1296.510368737084
 20
948.334049650664
 30
0.0
 11
1296.510368737084
 21
1091.05543798174
 31
0.0
  0
LINE
  5
982
100
AcDbEntity
  8
L1
100
AcDbLine
 10
1294.264172016564
 20
948.334049650664
 30
0.0
 11
1295.509224824506
 21
1091.002970252538
 31
0.0
1001
ACAD
1000
ASC_BOUNDS
1002
{
1070
    19
1002
}
  0
LINE
  5
996
100
AcDbEntity
  8
L2
100
AcDbLine
 10
1267.510368737085
 20
951.3340496506639
 30
0.0
 11
1267.510368737085
 21
948.334049650664
 31
0.0
  0
LINE
  5
9A8
100
AcDbEntity
  8
L2
100
AcDbLine
 10
1260.510368737085
 20
951.3340496506639
 30
0.0
 11
1260.510368737085
 21
948.334049650664
 31
0.0
  0
LINE
  5
9C7
100
AcDbEntity
  8
L1
100
AcDbLine
 10
1294.010368737085
 20
1098.334049650664
 30
0.0
 11
1293.206521159791
 21
1101.334049650664
 31
0.0
1001
ACAD
1000
ASC_BOUNDS
1002
{
1070
    19
1002
}
  0
LINE
  5
9C8
100
AcDbEntity
  8
L1
100
AcDbLine
 10
1298.010368737084
 20
1098.334049650664
 30
0.0
 11
1298.010368737084
 21
1091.134049650663
 31
0.0
1001
ACAD
1000
ASC_BOUNDS
1002
{
1070
    19
1002
}
  0
LINE
  5
9C9
100
AcDbEntity
  8
L1
100
AcDbLine
 10
1298.010368737084
 20
1091.134049650663
 30
0.0
 11
1295.509224824506
 21
1091.002970252538
 31
0.0
1001
ACAD
1000
ASC_BOUNDS
1002
{
1070
    19
1002
}
  0
LINE
  5
9CA
100
AcDbEntity
  8
L1
100
AcDbLine
 10
1298.010368737084
 20
1098.334049650664
 30
0.0
 11
1294.010368737085
 21
1098.334049650664
 31
0.0
1001
ACAD
1000
ASC_BOUNDS
1002
{
1070
    19
1002
}
  0
LINE
  5
9CF
100
AcDbEntity
  8
L2
100
AcDbLine
 10
1276.510368737084
 20
1099.834049650664
 30
0.0
 11
1276.510368737084
 21
1091.834049650663
 31
0.0
  0
LINE
  5
9E0
100
AcDbEntity
  8
L2
100
AcDbLine
 10
1109.010368737084
 20
957.3340496506649
 30
0.0
 11
1109.058366509934
 21
951.8340496506649
 31
0.0
  0
LINE
  5
9E1
100
AcDbEntity
  8
L2
100
AcDbLine
 10
1109.010368737084
 20
957.3340496506649
 30
0.0
 11
1109.058366509934
 21
951.8340496506649
 31
0.0
  0
LINE
  5
9E2
100
AcDbEntity
  8
L2
100
AcDbLine
 10
1109.010368737084
 20
957.3340496506649
 30
0.0
 11
1109.058366509934
 21
951.8340496506649
 31
0.0
  0
LINE
  5
9E3
100
AcDbEntity
  8
L2
100
AcDbLine
 10
1104.010368737085
 20
957.3340496506649
 30
0.0
 11
1104.203042327929
 21
951.8165999023135
 31
0.0
  0
LINE
  5
9E4
100
AcDbEntity
  8
L2
100
AcDbLine
 10
1104.010368737085
 20
957.3340496506649
 30
0.0
 11
1104.203042327929
 21
951.8165999023135
 31
0.0
  0
LINE
  5
9E5
100
AcDbEntity
  8
L2
100
AcDbLine
 10
1104.010368737085
 20
957.3340496506649
 30
0.0
 11
1104.203042327929
 21
951.8165999023135
 31
0.0
  0
ARC
  5
9E6
100
AcDbEntity
  8
L2
100
AcDbCircle
 10
1109.558061923443
 20
951.851499399016
 30
0.0
 40
0.4999999999999988
100
AcDbArc
 50
181.9999999999998
 51
270.0
  0
ARC
  5
9E7
100
AcDbEntity
  8
L2
100
AcDbCircle
 10
1109.558061923443
 20
951.851499399016
 30
0.0
 40
0.4999999999999988
100
AcDbArc
 50
181.9999999999998
 51
270.0
  0
ARC
  5
9E8
100
AcDbEntity
  8
L2
100
AcDbCircle
 10
1109.558061923443
 20
951.851499399016
 30
0.0
 40
0.4999999999999988
100
AcDbArc
 50
181.9999999999998
 51
270.0
  0
ARC
  5
9E9
100
AcDbEntity
  8
L2
100
AcDbCircle
 10
1104.702737741439
 20
951.8340496506649
 30
0.0
 40
0.4999999999999988
100
AcDbArc
 50
181.9999999999998
 51
270.0
  0
ARC
  5
9EA
100
AcDbEntity
  8
L2
100
AcDbCircle
 10
1104.702737741439
 20
951.8340496506649
 30
0.0
 40
0.4999999999999988
100
AcDbArc
 50
181.9999999999998
 51
270.0
  0
ARC
  5
9EB
100
AcDbEntity
  8
L2
100
AcDbCircle
 10
1104.702737741439
 20
951.8340496506649
 30
0.0
 40
0.4999999999999988
100
AcDbArc
 50
181.9999999999998
 51
270.0
  0
LINE
  5
9EC
100
AcDbEntity
  8
L1
100
AcDbLine
 10
1102.510368737084
 20
946.3340496506647
 30
0.0
 11
1103.139658245178
 21
947.4240110513537
 31
0.0
  0
LINE
  5
A0C
100
AcDbEntity
  8
L6
 48
0.3
100
AcDbLine
 39
0.2
 10
1049.010368737085
 20
316.2071877906182
 30
0.0
 11
1049.010368737085
 21
330.2071877906182
 31
0.0
  0
LINE
  5
A10
100
AcDbEntity
  8
L1
100
AcDbLine
 10
1195.010368737085
 20
373.2071877906169
 30
0.0
 11
1153.010368737085
 21
373.2071877906169
 31
0.0
  0
LINE
  5
A11
100
AcDbEntity
  8
L1
100
AcDbLine
 10
1194.066938753763
 20
323.9571877906182
 30
0.0
 11
1189.010368737084
 21
323.9571877906182
 31
0.0
  0
LINE
  5
A12
100
AcDbEntity
  8
L6
 48
0.3
100
AcDbLine
 39
0.2
 10
1188.010368737085
 20
323.2071877906182
 30
0.0
 11
1211.010368737085
 21
323.2071877906182
 31
0.0
  0
LINE
  5
A13
100
AcDbEntity
  8
L1
100
AcDbLine
 10
1189.010368737084
 20
322.4571877906182
 30
0.0
 11
1194.066938753763
 21
322.4571877906182
 31
0.0
  0
LINE
  5
A14
100
AcDbEntity
  8
L1
100
AcDbLine
 10
1298.010368737085
 20
306.7071877906182
 30
0.0
 11
1298.010368737079
 21
799.7071877906155
 31
0.0
  0
LINE
  5
A15
100
AcDbEntity
  8
L1
100
AcDbLine
 10
1291.010368737085
 20
326.7071877906182
 30
0.0
 11
1291.010368737085
 21
779.7071877906155
 31
0.0
  0
LINE
  5
A16
100
AcDbEntity
  8
L1
100
AcDbLine
 10
1294.010368737085
 20
313.2071877906182
 30
0.0
 11
1294.010368737085
 21
793.2071877906155
 31
0.0
  0
LINE
  5
A17
100
AcDbEntity
  8
L1
100
AcDbLine
 10
1229.010368737085
 20
449.2071877906169
 30
0.0
 11
1229.010368737085
 21
407.2071877906178
 31
0.0
  0
LINE
  5
A18
100
AcDbEntity
  8
L6
 48
0.3
100
AcDbLine
 39
0.2
 10
1279.010368737085
 20
417.2071877906177
 30
0.0
 11
1279.010368737085
 21
440.2071877906178
 31
0.0
  0
ARC
  5
A1A
100
AcDbEntity
  8
L1
100
AcDbCircle
 10
1295.510368737085
 20
306.7071877906182
 30
0.0
 40
2.499999999999993
100
AcDbArc
 50
270.0
 51
0.0
  0
LINE
  5
A1B
100
AcDbEntity
  8
L1
100
AcDbLine
 10
1203.010368737085
 20
373.2071877906169
 30
0.0
 11
1203.010368737085
 21
326.2071877906173
 31
0.0
  0
LINE
  5
A1C
100
AcDbEntity
  8
L1
100
AcDbLine
 10
1195.010368737085
 20
373.2071877906169
 30
0.0
 11
1195.010368737085
 21
326.2071877906173
 31
0.0
  0
ARC
  5
A1D
100
AcDbEntity
  8
L1
100
AcDbCircle
 10
1262.197910206214
 20
376.484112415555
 30
0.0
 40
2.5
100
AcDbArc
 50
135.0
 51
314.9999999999999
  0
CIRCLE
  5
A1E
100
AcDbEntity
  8
L1
100
AcDbCircle
 10
1263.96567715918
 20
378.2518793685212
 30
0.0
 40
8.0
  0
CIRCLE
  5
A1F
100
AcDbEntity
  8
L1
100
AcDbCircle
 10
1263.96567715918
 20
378.2518793685212
 30
0.0
 40
10.0
  0
CIRCLE
  5
A20
100
AcDbEntity
  8
L1
100
AcDbCircle
 10
1263.010368737085
 20
339.2071877906169
 30
0.0
 40
6.0
  0
ARC
  5
A21
100
AcDbEntity
  8
L1
100
AcDbCircle
 10
1285.010368737085
 20
317.2071877906182
 30
0.0
 40
5.999999999999984
100
AcDbArc
 50
90.0
 51
180.0
  0
LINE
  5
A22
100
AcDbEntity
  8
L6
 48
0.3
100
AcDbLine
 39
0.2
 10
1285.010368737085
 20
308.2071877906182
 30
0.0
 11
1285.010368737085
 21
326.2071877906182
 31
0.0
  0
ARC
  5
A23
100
AcDbEntity
  8
L1
100
AcDbCircle
 10
1290.010368737084
 20
322.2071877906182
 30
0.0
 40
0.9999999999999975
100
AcDbArc
 50
0.0
 51
90.0
  0
ARC
  5
A24
100
AcDbEntity
  8
L1
100
AcDbCircle
 10
1285.010368737085
 20
317.2071877906182
 30
0.0
 40
8.499999999999978
100
AcDbArc
 50
90.0
 51
180.0
  0
LINE
  5
A25
100
AcDbEntity
  8
L1
100
AcDbLine
 10
1280.010368737085
 20
311.2071877906182
 30
0.0
 11
1289.010368737085
 21
311.2071877906182
 31
0.0
  0
LINE
  5
A26
100
AcDbEntity
  8
L6
 48
0.3
100
AcDbLine
 39
0.2
 10
1294.010368737085
 20
317.2071877906182
 30
0.0
 11
1276.010368737084
 21
317.2071877906182
 31
0.0
  0
ARC
  5
A28
100
AcDbEntity
  8
L1
100
AcDbCircle
 10
1289.010368737085
 20
313.2071877906182
 30
0.0
 40
1.999999999999994
100
AcDbArc
 50
270.0
 51
0.0
  0
LINE
  5
A2A
100
AcDbEntity
  8
L1
100
AcDbLine
 10
1291.010368737085
 20
313.2071877906182
 30
0.0
 11
1291.010368737085
 21
322.2071877906182
 31
0.0
  0
ARC
  5
A2B
100
AcDbEntity
  8
L1
100
AcDbCircle
 10
1289.010368737085
 20
313.2071877906182
 30
0.0
 40
4.999999999999987
100
AcDbArc
 50
270.0
 51
0.0
  0
LINE
  5
A2D
100
AcDbEntity
  8
L1
100
AcDbLine
 10
1276.510368737085
 20
317.2071877906182
 30
0.0
 11
1276.510368737085
 21
312.2071877906182
 31
0.0
  0
ARC
  5
A2E
100
AcDbEntity
  8
L1
100
AcDbCircle
 10
1275.510368737085
 20
312.2071877906182
 30
0.0
 40
0.9999999999999975
100
AcDbArc
 50
270.0
 51
0.0
  0
ARC
  5
A2F
100
AcDbEntity
  8
L1
100
AcDbCircle
 10
1280.010368737085
 20
312.2071877906182
 30
0.0
 40
0.9999999999999975
100
AcDbArc
 50
180.0
 51
270.0
  0
LINE
  5
A30
100
AcDbEntity
  8
L1
100
AcDbLine
 10
1279.010368737085
 20
317.2071877906182
 30
0.0
 11
1279.010368737085
 21
312.2071877906182
 31
0.0
  0
LINE
  5
A32
100
AcDbEntity
  8
L1
100
AcDbLine
 10
1279.010368737085
 20
313.2071877906182
 30
0.0
 11
1276.510368737085
 21
313.2071877906182
 31
0.0
  0
LINE
  5
A33
100
AcDbEntity
  8
L1
100
AcDbLine
 10
1279.010368737085
 20
315.2071877906182
 30
0.0
 11
1276.510368737085
 21
315.2071877906182
 31
0.0
  0
ARC
  5
A34
100
AcDbEntity
  8
L1
100
AcDbCircle
 10
1290.010368737084
 20
326.7071877906182
 30
0.0
 40
0.9999999999999975
100
AcDbArc
 50
270.0
 51
0.0
  0
LINE
  5
A35
100
AcDbEntity
  8
L1
100
AcDbLine
 10
1285.010368737085
 20
325.7071877906182
 30
0.0
 11
1290.010368737084
 21
325.7071877906182
 31
0.0
  0
LINE
  5
A36
100
AcDbEntity
  8
L1
100
AcDbLine
 10
1285.010368737085
 20
323.2071877906182
 30
0.0
 11
1290.010368737084
 21
323.2071877906182
 31
0.0
  0
LINE
  5
A37
100
AcDbEntity
  8
L1
100
AcDbLine
 10
1287.010368737085
 20
323.2071877906182
 30
0.0
 11
1287.010368737085
 21
325.7071877906182
 31
0.0
  0
LINE
  5
A38
100
AcDbEntity
  8
L1
100
AcDbLine
 10
1289.010368737085
 20
323.2071877906182
 30
0.0
 11
1289.010368737085
 21
325.7071877906182
 31
0.0
  0
ARC
  5
A39
100
AcDbEntity
  8
L1
100
AcDbCircle
 10
1279.010368737085
 20
353.2071877906182
 30
0.0
 40
4.999999999999987
100
AcDbArc
 50
278.6269265586786
 51
81.37307344132137
  0
LINE
  5
A3A
100
AcDbEntity
  8
L6
 48
0.3
100
AcDbLine
 39
0.2
 10
1279.010368737085
 20
342.2071877906182
 30
0.0
 11
1279.010368737085
 21
365.2071877906182
 31
0.0
  0
ARC
  5
A3B
100
AcDbEntity
  8
L1
100
AcDbCircle
 10
1279.010368737085
 20
353.2071877906182
 30
0.0
 40
4.999999999999987
100
AcDbArc
 50
98.62692655867867
 51
261.3730734413211
  0
LINE
  5
A3C
100
AcDbEntity
  8
L6
 48
0.3
100
AcDbLine
 39
0.2
 10
1286.010368737085
 20
353.2071877906182
 30
0.0
 11
1272.010368737085
 21
353.2071877906182
 31
0.0
  0
LINE
  5
A3D
100
AcDbEntity
  8
L1
100
AcDbLine
 10
1278.260368737085
 20
343.2071877906182
 30
0.0
 11
1279.760368737085
 21
343.2071877906182
 31
0.0
  0
LINE
  5
A3E
100
AcDbEntity
  8
L1
100
AcDbLine
 10
1279.760368737085
 20
343.2071877906182
 30
0.0
 11
1279.760368737085
 21
348.2637578072972
 31
0.0
  0
LINE
  5
A3F
100
AcDbEntity
  8
L1
100
AcDbLine
 10
1278.260368737085
 20
348.2637578072972
 30
0.0
 11
1278.260368737085
 21
343.2071877906182
 31
0.0
  0
CIRCLE
  5
A40
100
AcDbEntity
  8
L1
100
AcDbCircle
 10
1279.010368737085
 20
353.2071877906182
 30
0.0
 40
2.399999999999993
  0
CIRCLE
  5
A41
100
AcDbEntity
  8
L1
100
AcDbCircle
 10
1279.010368737085
 20
353.2071877906182
 30
0.0
 40
2.099999999999994
  0
LINE
  5
A42
100
AcDbEntity
  8
L1
100
AcDbLine
 10
1279.760368737085
 20
363.2071877906182
 30
0.0
 11
1279.760368737085
 21
358.1506177739393
 31
0.0
  0
LINE
  5
A43
100
AcDbEntity
  8
L1
100
AcDbLine
 10
1278.260368737085
 20
358.1506177739393
 30
0.0
 11
1278.260368737085
 21
363.2071877906182
 31
0.0
  0
LINE
  5
A44
100
AcDbEntity
  8
L1
100
AcDbLine
 10
1278.260368737085
 20
363.2071877906182
 30
0.0
 11
1279.760368737085
 21
363.2071877906182
 31
0.0
  0
LINE
  5
A45
100
AcDbEntity
  8
L6
100
AcDbLine
 10
1263.010368737085
 20
342.2071877906168
 30
0.0
 11
1263.010368737085
 21
336.2071877906168
 31
0.0
  0
CIRCLE
  5
A46
100
AcDbEntity
  8
L1
100
AcDbCircle
 10
1263.010368737085
 20
339.2071877906169
 30
0.0
 40
2.099999999999994
  0
CIRCLE
  5
A47
100
AcDbEntity
  8
L1
100
AcDbCircle
 10
1263.010368737085
 20
339.2071877906169
 30
0.0
 40
2.399999999999993
  0
LINE
  5
A48
100
AcDbEntity
  8
L1
100
AcDbLine
 10
1259.010368737085
 20
323.9571877906182
 30
0.0
 11
1259.010368737085
 21
322.4571877906182
 31
0.0
  0
LINE
  5
A49
100
AcDbEntity
  8
L1
100
AcDbLine
 10
1239.010368737085
 20
323.9571877906182
 30
0.0
 11
1239.010368737085
 21
322.4571877906182
 31
0.0
  0
CIRCLE
  5
A4A
100
AcDbEntity
  8
L1
100
AcDbCircle
 10
1249.010368737085
 20
323.2071877906182
 30
0.0
 40
2.399999999999993
  0
CIRCLE
  5
A4B
100
AcDbEntity
  8
L1
100
AcDbCircle
 10
1249.010368737085
 20
323.2071877906182
 30
0.0
 40
2.099999999999994
  0
LINE
  5
A4C
100
AcDbEntity
  8
L6
 48
0.3
100
AcDbLine
 39
0.2
 10
1249.010368737085
 20
316.2071877906182
 30
0.0
 11
1249.010368737085
 21
330.2071877906182
 31
0.0
  0
ARC
  5
A4D
100
AcDbEntity
  8
L1
100
AcDbCircle
 10
1249.010368737085
 20
323.2071877906182
 30
0.0
 40
4.999999999999987
100
AcDbArc
 50
188.6269265586786
 51
351.3730734413213
  0
LINE
  5
A4E
100
AcDbEntity
  8
L1
100
AcDbLine
 10
1259.010368737085
 20
322.4571877906182
 30
0.0
 11
1253.953798720406
 21
322.4571877906182
 31
0.0
  0
LINE
  5
A4F
100
AcDbEntity
  8
L1
100
AcDbLine
 10
1239.010368737085
 20
322.4571877906182
 30
0.0
 11
1244.066938753763
 21
322.4571877906182
 31
0.0
  0
ARC
  5
A50
100
AcDbEntity
  8
L1
100
AcDbCircle
 10
1249.010368737085
 20
323.2071877906182
 30
0.0
 40
4.999999999999987
100
AcDbArc
 50
8.626926558678659
 51
171.3730734413211
  0
LINE
  5
A51
100
AcDbEntity
  8
L6
 48
0.3
100
AcDbLine
 39
0.2
 10
1238.010368737085
 20
323.2071877906182
 30
0.0
 11
1261.010368737085
 21
323.2071877906182
 31
0.0
  0
LINE
  5
A52
100
AcDbEntity
  8
L1
100
AcDbLine
 10
1253.953798720406
 20
323.9571877906182
 30
0.0
 11
1259.010368737085
 21
323.9571877906182
 31
0.0
  0
LINE
  5
A53
100
AcDbEntity
  8
L6
100
AcDbLine
 10
1266.010368737085
 20
339.2071877906169
 30
0.0
 11
1260.010368737085
 21
339.2071877906169
 31
0.0
  0
LINE
  5
A54
100
AcDbEntity
  8
L1
100
AcDbLine
 10
1244.066938753763
 20
323.9571877906182
 30
0.0
 11
1239.010368737085
 21
323.9571877906182
 31
0.0
  0
LINE
  5
A55
100
AcDbEntity
  8
L1
100
AcDbLine
 10
1209.010368737085
 20
323.9571877906182
 30
0.0
 11
1209.010368737085
 21
322.4571877906182
 31
0.0
  0
LINE
  5
A56
100
AcDbEntity
  8
L6
 48
0.3
100
AcDbLine
 39
0.2
 10
1199.010368737084
 20
316.2071877906182
 30
0.0
 11
1199.010368737084
 21
330.2071877906182
 31
0.0
  0
CIRCLE
  5
A57
100
AcDbEntity
  8
L1
100
AcDbCircle
 10
1199.010368737084
 20
323.2071877906182
 30
0.0
 40
2.099999999999994
  0
CIRCLE
  5
A58
100
AcDbEntity
  8
L1
100
AcDbCircle
 10
1199.010368737084
 20
323.2071877906182
 30
0.0
 40
2.399999999999993
  0
LINE
  5
A59
100
AcDbEntity
  8
L1
100
AcDbLine
 10
1195.010368737085
 20
320.2071877906173
 30
0.0
 11
1195.010368737085
 21
311.2071877906173
 31
0.0
  0
LINE
  5
A5A
100
AcDbEntity
  8
L1
100
AcDbLine
 10
1209.010368737085
 20
322.4571877906182
 30
0.0
 11
1203.953798720406
 21
322.4571877906182
 31
0.0
  0
LINE
  5
A5B
100
AcDbEntity
  8
L1
100
AcDbLine
 10
1203.010368737085
 20
320.2071877906173
 30
0.0
 11
1203.010368737085
 21
311.2071877906173
 31
0.0
  0
ARC
  5
A5C
100
AcDbEntity
  8
L1
100
AcDbCircle
 10
1199.010368737084
 20
323.2071877906182
 30
0.0
 40
4.999999999999987
100
AcDbArc
 50
188.6269265586786
 51
351.3730734413213
  0
LINE
  5
A5D
100
AcDbEntity
  8
L1
100
AcDbLine
 10
1203.953798720406
 20
323.9571877906182
 30
0.0
 11
1209.010368737085
 21
323.9571877906182
 31
0.0
  0
ARC
  5
A5E
100
AcDbEntity
  8
L1
100
AcDbCircle
 10
1199.010368737084
 20
323.2071877906182
 30
0.0
 40
4.999999999999987
100
AcDbArc
 50
8.626926558678659
 51
171.3730734413211
  0
ARC
  5
A5F
100
AcDbEntity
  8
L1
100
AcDbCircle
 10
1265.733444112147
 20
380.0196463214874
 30
0.0
 40
2.5
100
AcDbArc
 50
314.9999999999999
 51
135.0
  0
LINE
  5
A60
100
AcDbEntity
  8
L1
100
AcDbLine
 10
1267.501211065113
 20
378.2518793685212
 30
0.0
 11
1263.96567715918
 21
374.7163454625884
 31
0.0
  0
LINE
  5
A61
100
AcDbEntity
  8
L1
100
AcDbLine
 10
1229.010368737085
 20
407.2071877906178
 30
0.0
 11
1276.010368737084
 21
407.2071877906178
 31
0.0
  0
LINE
  5
A62
100
AcDbEntity
  8
L1
100
AcDbLine
 10
1229.010368737085
 20
399.2071877906178
 30
0.0
 11
1276.010368737084
 21
399.2071877906178
 31
0.0
  0
ARC
  5
A63
100
AcDbEntity
  8
L1
100
AcDbCircle
 10
1279.010368737085
 20
403.2071877906178
 30
0.0
 40
4.999999999999987
100
AcDbArc
 50
278.6269265586786
 51
81.37307344132137
  0
LINE
  5
A64
100
AcDbEntity
  8
L6
 48
0.3
100
AcDbLine
 39
0.2
 10
1279.010368737085
 20
392.2071877906178
 30
0.0
 11
1279.010368737085
 21
415.2071877906178
 31
0.0
  0
ARC
  5
A65
100
AcDbEntity
  8
L1
100
AcDbCircle
 10
1279.010368737085
 20
403.2071877906178
 30
0.0
 40
4.999999999999987
100
AcDbArc
 50
98.62692655867867
 51
261.3730734413211
  0
LINE
  5
A66
100
AcDbEntity
  8
L1
100
AcDbLine
 10
1282.010368737084
 20
399.2071877906178
 30
0.0
 11
1291.010368737085
 21
399.2071877906178
 31
0.0
  0
LINE
  5
A67
100
AcDbEntity
  8
L6
 48
0.3
100
AcDbLine
 39
0.2
 10
1286.010368737085
 20
403.2071877906178
 30
0.0
 11
1272.010368737085
 21
403.2071877906178
 31
0.0
  0
LINE
  5
A68
100
AcDbEntity
  8
L1
100
AcDbLine
 10
1279.760368737085
 20
393.2071877906178
 30
0.0
 11
1279.760368737085
 21
398.2637578072967
 31
0.0
  0
LINE
  5
A69
100
AcDbEntity
  8
L1
100
AcDbLine
 10
1278.260368737085
 20
398.2637578072967
 30
0.0
 11
1278.260368737085
 21
393.2071877906178
 31
0.0
  0
LINE
  5
A6A
100
AcDbEntity
  8
L1
100
AcDbLine
 10
1278.260368737085
 20
393.2071877906178
 30
0.0
 11
1279.760368737085
 21
393.2071877906178
 31
0.0
  0
CIRCLE
  5
A6B
100
AcDbEntity
  8
L1
100
AcDbCircle
 10
1279.010368737085
 20
403.2071877906178
 30
0.0
 40
2.399999999999993
  0
CIRCLE
  5
A6C
100
AcDbEntity
  8
L1
100
AcDbCircle
 10
1279.010368737085
 20
403.2071877906178
 30
0.0
 40
2.099999999999994
  0
LINE
  5
A6D
100
AcDbEntity
  8
L1
100
AcDbLine
 10
1278.260368737085
 20
423.2637578072967
 30
0.0
 11
1278.260368737085
 21
418.2071877906178
 31
0.0
  0
LINE
  5
A6E
100
AcDbEntity
  8
L1
100
AcDbLine
 10
1279.760368737085
 20
418.2071877906178
 30
0.0
 11
1279.760368737085
 21
423.2637578072967
 31
0.0
  0
LINE
  5
A6F
100
AcDbEntity
  8
L1
100
AcDbLine
 10
1282.010368737084
 20
407.2071877906178
 30
0.0
 11
1291.010368737085
 21
407.2071877906178
 31
0.0
  0
LINE
  5
A70
100
AcDbEntity
  8
L1
100
AcDbLine
 10
1279.760368737085
 20
413.2071877906177
 30
0.0
 11
1279.760368737085
 21
408.1506177739388
 31
0.0
  0
LINE
  5
A71
100
AcDbEntity
  8
L1
100
AcDbLine
 10
1278.260368737085
 20
408.1506177739388
 30
0.0
 11
1278.260368737085
 21
413.2071877906177
 31
0.0
  0
LINE
  5
A72
100
AcDbEntity
  8
L1
100
AcDbLine
 10
1278.260368737085
 20
413.2071877906177
 30
0.0
 11
1279.760368737085
 21
413.2071877906177
 31
0.0
  0
LINE
  5
A73
100
AcDbEntity
  8
L1
100
AcDbLine
 10
1278.260368737085
 20
418.2071877906178
 30
0.0
 11
1279.760368737085
 21
418.2071877906178
 31
0.0
  0
LINE
  5
A74
100
AcDbEntity
  8
L6
 48
0.3
100
AcDbLine
 39
0.2
 10
1286.010368737085
 20
428.2071877906178
 30
0.0
 11
1272.010368737085
 21
428.2071877906178
 31
0.0
  0
LINE
  5
A75
100
AcDbEntity
  8
L1
100
AcDbLine
 10
1278.260368737085
 20
438.2071877906177
 30
0.0
 11
1279.760368737085
 21
438.2071877906177
 31
0.0
  0
LINE
  5
A76
100
AcDbEntity
  8
L1
100
AcDbLine
 10
1278.260368737085
 20
433.1506177739388
 30
0.0
 11
1278.260368737085
 21
438.2071877906177
 31
0.0
  0
LINE
  5
A77
100
AcDbEntity
  8
L1
100
AcDbLine
 10
1279.760368737085
 20
438.2071877906177
 30
0.0
 11
1279.760368737085
 21
433.1506177739388
 31
0.0
  0
ARC
  5
A78
100
AcDbEntity
  8
L1
100
AcDbCircle
 10
1279.010368737085
 20
428.2071877906178
 30
0.0
 40
4.999999999999987
100
AcDbArc
 50
278.6269265586786
 51
81.37307344132137
  0
ARC
  5
A79
100
AcDbEntity
  8
L1
100
AcDbCircle
 10
1279.010368737085
 20
428.2071877906178
 30
0.0
 40
4.999999999999987
100
AcDbArc
 50
98.62692655867867
 51
261.3730734413211
  0
CIRCLE
  5
A7A
100
AcDbEntity
  8
L1
100
AcDbCircle
 10
1279.010368737085
 20
428.2071877906178
 30
0.0
 40
2.099999999999994
  0
CIRCLE
  5
A7B
100
AcDbEntity
  8
L1
100
AcDbCircle
 10
1279.010368737085
 20
428.2071877906178
 30
0.0
 40
2.399999999999993
  0
LINE
  5
A7C
100
AcDbEntity
  8
L1
100
AcDbLine
 10
1203.010368737085
 20
373.2071877906169
 30
0.0
 11
1229.010368737085
 21
373.2071877906169
 31
0.0
  0
LINE
  5
A7D
100
AcDbEntity
  8
L1
100
AcDbLine
 10
1229.010368737085
 20
399.2071877906178
 30
0.0
 11
1229.010368737085
 21
373.2071877906182
 31
0.0
  0
LINE
  5
A7E
100
AcDbEntity
  8
L1
100
AcDbLine
 10
1260.430143253248
 20
378.2518793685208
 30
0.0
 11
1263.96567715918
 21
381.7874132744536
 31
0.0
  0
ARC
  5
A7F
100
AcDbEntity
  8
L1
100
AcDbCircle
 10
1279.010368737085
 20
503.2071877906169
 30
0.0
 40
4.999999999999987
100
AcDbArc
 50
278.6269265586786
 51
81.37307344132137
  0
LINE
  5
A80
100
AcDbEntity
  8
L6
 48
0.3
100
AcDbLine
 39
0.2
 10
1279.010368737085
 20
492.2071877906168
 30
0.0
 11
1279.010368737085
 21
515.2071877906169
 31
0.0
  0
LINE
  5
A81
100
AcDbEntity
  8
L6
100
AcDbLine
 10
1279.010368737085
 20
492.2071877906177
 30
0.0
 11
1279.010368737085
 21
515.2071877906169
 31
0.0
  0
ARC
  5
A82
100
AcDbEntity
  8
L1
100
AcDbCircle
 10
1279.010368737085
 20
503.2071877906169
 30
0.0
 40
4.999999999999987
100
AcDbArc
 50
278.6269265586786
 51
81.37307344132137
  0
ARC
  5
A83
100
AcDbEntity
  8
L1
100
AcDbCircle
 10
1279.010368737085
 20
503.2071877906169
 30
0.0
 40
4.999999999999987
100
AcDbArc
 50
98.62692655867867
 51
261.3730734413211
  0
ARC
  5
A84
100
AcDbEntity
  8
L1
100
AcDbCircle
 10
1279.010368737085
 20
503.2071877906169
 30
0.0
 40
4.999999999999987
100
AcDbArc
 50
98.62692655867867
 51
261.3730734413211
  0
LINE
  5
A85
100
AcDbEntity
  8
L1
100
AcDbLine
 10
1229.010368737085
 20
499.2071877906169
 30
0.0
 11
1276.010368737084
 21
499.2071877906169
 31
0.0
  0
LINE
  5
A86
100
AcDbEntity
  8
L1
100
AcDbLine
 10
1229.010368737085
 20
457.2071877906169
 30
0.0
 11
1276.010368737084
 21
457.2071877906169
 31
0.0
  0
LINE
  5
A87
100
AcDbEntity
  8
L1
100
AcDbLine
 10
1229.010368737085
 20
449.2071877906169
 30
0.0
 11
1276.010368737084
 21
449.2071877906169
 31
0.0
  0
LINE
  5
A88
100
AcDbEntity
  8
L6
 48
0.3
100
AcDbLine
 39
0.2
 10
1279.010368737085
 20
442.2071877906177
 30
0.0
 11
1279.010368737085
 21
465.2071877906169
 31
0.0
  0
ARC
  5
A89
100
AcDbEntity
  8
L1
100
AcDbCircle
 10
1279.010368737085
 20
453.2071877906169
 30
0.0
 40
4.999999999999987
100
AcDbArc
 50
98.62692655867867
 51
261.3730734413211
  0
ARC
  5
A8A
100
AcDbEntity
  8
L1
100
AcDbCircle
 10
1279.010368737085
 20
453.2071877906169
 30
0.0
 40
4.999999999999987
100
AcDbArc
 50
278.6269265586786
 51
81.37307344132137
  0
LINE
  5
A8B
100
AcDbEntity
  8
L1
100
AcDbLine
 10
1282.010368737084
 20
449.2071877906169
 30
0.0
 11
1291.010368737085
 21
449.2071877906169
 31
0.0
  0
LINE
  5
A8C
100
AcDbEntity
  8
L6
 48
0.3
100
AcDbLine
 39
0.2
 10
1286.010368737085
 20
453.2071877906169
 30
0.0
 11
1272.010368737085
 21
453.2071877906169
 31
0.0
  0
LINE
  5
A8D
100
AcDbEntity
  8
L1
100
AcDbLine
 10
1278.260368737085
 20
448.2637578072958
 30
0.0
 11
1278.260368737085
 21
443.2071877906178
 31
0.0
  0
LINE
  5
A8E
100
AcDbEntity
  8
L1
100
AcDbLine
 10
1279.760368737085
 20
443.2071877906178
 30
0.0
 11
1279.760368737085
 21
448.2637578072958
 31
0.0
  0
LINE
  5
A8F
100
AcDbEntity
  8
L1
100
AcDbLine
 10
1278.260368737085
 20
443.2071877906178
 30
0.0
 11
1279.760368737085
 21
443.2071877906178
 31
0.0
  0
CIRCLE
  5
A90
100
AcDbEntity
  8
L1
100
AcDbCircle
 10
1279.010368737085
 20
453.2071877906169
 30
0.0
 40
2.099999999999994
  0
CIRCLE
  5
A91
100
AcDbEntity
  8
L1
100
AcDbCircle
 10
1279.010368737085
 20
453.2071877906169
 30
0.0
 40
2.399999999999993
  0
LINE
  5
A92
100
AcDbEntity
  8
L1
100
AcDbLine
 10
1282.010368737084
 20
457.2071877906169
 30
0.0
 11
1291.010368737085
 21
457.2071877906169
 31
0.0
  0
LINE
  5
A93
100
AcDbEntity
  8
L1
100
AcDbLine
 10
1278.260368737085
 20
463.2071877906168
 30
0.0
 11
1279.760368737085
 21
463.2071877906168
 31
0.0
  0
LINE
  5
A94
100
AcDbEntity
  8
L1
100
AcDbLine
 10
1278.260368737085
 20
458.1506177739388
 30
0.0
 11
1278.260368737085
 21
463.2071877906168
 31
0.0
  0
LINE
  5
A95
100
AcDbEntity
  8
L1
100
AcDbLine
 10
1279.760368737085
 20
463.2071877906168
 30
0.0
 11
1279.760368737085
 21
458.1506177739388
 31
0.0
  0
LINE
  5
A96
100
AcDbEntity
  8
L1
100
AcDbLine
 10
1282.010368737084
 20
499.2071877906169
 30
0.0
 11
1291.010368737085
 21
499.2071877906169
 31
0.0
  0
LINE
  5
A97
100
AcDbEntity
  8
L6
 48
0.3
100
AcDbLine
 39
0.2
 10
1286.010368737085
 20
503.2071877906169
 30
0.0
 11
1272.010368737085
 21
503.2071877906169
 31
0.0
  0
LINE
  5
A98
100
AcDbEntity
  8
L1
100
AcDbLine
 10
1294.010368737085
 20
503.2071877906169
 30
0.0
 11
1294.010368737085
 21
502.2071877906169
 31
0.0
1001
ACAD
1000
ASC_BOUNDS
1002
{
1070
    19
1002
}
  0
LINE
  5
A99
100
AcDbEntity
  8
L1
100
AcDbLine
 10
1279.760368737085
 20
493.2071877906168
 30
0.0
 11
1279.760368737085
 21
498.2637578072958
 31
0.0
  0
LINE
  5
A9A
100
AcDbEntity
  8
L1
100
AcDbLine
 10
1278.260368737085
 20
498.2637578072958
 30
0.0
 11
1278.260368737085
 21
493.2071877906168
 31
0.0
  0
LINE
  5
A9B
100
AcDbEntity
  8
L1
100
AcDbLine
 10
1278.260368737085
 20
493.2071877906168
 30
0.0
 11
1279.760368737085
 21
493.2071877906168
 31
0.0
  0
CIRCLE
  5
A9C
100
AcDbEntity
  8
L1
100
AcDbCircle
 10
1279.010368737085
 20
503.2071877906169
 30
0.0
 40
2.399999999999993
  0
CIRCLE
  5
A9D
100
AcDbEntity
  8
L1
100
AcDbCircle
 10
1279.010368737085
 20
503.2071877906169
 30
0.0
 40
2.099999999999994
  0
CIRCLE
  5
A9E
100
AcDbEntity
  8
L1
100
AcDbCircle
 10
1279.010368737085
 20
503.2071877906169
 30
0.0
 40
2.099999999999994
  0
CIRCLE
  5
A9F
100
AcDbEntity
  8
L1
100
AcDbCircle
 10
1279.010368737085
 20
503.2071877906169
 30
0.0
 40
2.399999999999993
  0
LINE
  5
AA0
100
AcDbEntity
  8
L1
100
AcDbLine
 10
1229.010368737085
 20
499.2071877906169
 30
0.0
 11
1229.010368737085
 21
457.2071877906169
 31
0.0
  0
LINE
  5
AA1
100
AcDbEntity
  8
L1
100
AcDbLine
 10
1229.010368737085
 20
507.2071877906169
 30
0.0
 11
1276.010368737084
 21
507.2071877906169
 31
0.0
  0
LINE
  5
AA2
100
AcDbEntity
  8
L1
100
AcDbLine
 10
1282.010368737084
 20
507.2071877906169
 30
0.0
 11
1291.010368737085
 21
507.2071877906169
 31
0.0
  0
LINE
  5
AA3
100
AcDbEntity
  8
L1
100
AcDbLine
 10
1282.010368737084
 20
507.2071877906169
 30
0.0
 11
1291.010368737085
 21
507.2071877906169
 31
0.0
  0
LINE
  5
AA4
100
AcDbEntity
  8
L1
100
AcDbLine
 10
1279.760368737085
 20
513.2071877906168
 30
0.0
 11
1279.760368737085
 21
508.1506177739388
 31
0.0
  0
LINE
  5
AA5
100
AcDbEntity
  8
L1
100
AcDbLine
 10
1278.260368737085
 20
508.1506177739388
 30
0.0
 11
1278.260368737085
 21
513.2071877906168
 31
0.0
  0
LINE
  5
AA6
100
AcDbEntity
  8
L1
100
AcDbLine
 10
1278.260368737085
 20
513.2071877906168
 30
0.0
 11
1279.760368737085
 21
513.2071877906168
 31
0.0
  0
LINE
  5
AA7
100
AcDbEntity
  8
L1
100
AcDbLine
 10
1278.260368737085
 20
513.2071877906168
 30
0.0
 11
1279.760368737085
 21
513.2071877906168
 31
0.0
  0
LINE
  5
AA8
100
AcDbEntity
  8
L1
100
AcDbLine
 10
1278.260368737085
 20
508.1506177739388
 30
0.0
 11
1278.260368737085
 21
513.2071877906168
 31
0.0
  0
LINE
  5
AA9
100
AcDbEntity
  8
L1
100
AcDbLine
 10
1279.760368737085
 20
513.2071877906168
 30
0.0
 11
1279.760368737085
 21
508.1506177739388
 31
0.0
  0
LINE
  5
AAA
100
AcDbEntity
  8
L1
100
AcDbLine
 10
1219.010368737085
 20
546.8137866406896
 30
0.0
 11
1229.010368737085
 21
536.81378664069
 31
0.0
  0
LINE
  5
AAB
100
AcDbEntity
  8
L1
100
AcDbLine
 10
1229.010368737085
 20
536.81378664069
 30
0.0
 11
1229.010368737085
 21
507.2071877906169
 31
0.0
  0
LINE
  5
AAC
100
AcDbEntity
  8
L1
100
AcDbLine
 10
1153.010368737085
 20
373.2071877906169
 30
0.0
 11
1153.010368737085
 21
326.2071877906173
 31
0.0
  0
LINE
  5
AAD
100
AcDbEntity
  8
L1
100
AcDbLine
 10
1145.010368737085
 20
373.2071877906169
 30
0.0
 11
1145.010368737085
 21
326.2071877906173
 31
0.0
  0
ARC
  5
AAE
100
AcDbEntity
  8
L1
100
AcDbCircle
 10
1149.010368737085
 20
323.2071877906182
 30
0.0
 40
4.999999999999987
100
AcDbArc
 50
8.626926558678659
 51
171.3730734413211
  0
LINE
  5
AAF
100
AcDbEntity
  8
L6
 48
0.3
100
AcDbLine
 39
0.2
 10
1138.010368737085
 20
323.2071877906182
 30
0.0
 11
1161.010368737085
 21
323.2071877906182
 31
0.0
  0
ARC
  5
AB0
100
AcDbEntity
  8
L1
100
AcDbCircle
 10
1149.010368737085
 20
323.2071877906182
 30
0.0
 40
4.999999999999987
100
AcDbArc
 50
188.6269265586786
 51
351.3730734413213
  0
LINE
  5
AB1
100
AcDbEntity
  8
L1
100
AcDbLine
 10
1159.010368737085
 20
323.9571877906182
 30
0.0
 11
1159.010368737085
 21
322.4571877906182
 31
0.0
  0
LINE
  5
AB2
100
AcDbEntity
  8
L1
100
AcDbLine
 10
1189.010368737084
 20
323.9571877906182
 30
0.0
 11
1189.010368737084
 21
322.4571877906182
 31
0.0
  0
LINE
  5
AB3
100
AcDbEntity
  8
L1
100
AcDbLine
 10
1153.010368737085
 20
320.2071877906173
 30
0.0
 11
1153.010368737085
 21
311.2071877906173
 31
0.0
  0
LINE
  5
AB4
100
AcDbEntity
  8
L1
100
AcDbLine
 10
1159.010368737085
 20
322.4571877906182
 30
0.0
 11
1153.953798720406
 21
322.4571877906182
 31
0.0
  0
LINE
  5
AB5
100
AcDbEntity
  8
L1
100
AcDbLine
 10
1153.953798720406
 20
323.9571877906182
 30
0.0
 11
1159.010368737085
 21
323.9571877906182
 31
0.0
  0
LINE
  5
AB6
100
AcDbEntity
  8
L6
 48
0.3
100
AcDbLine
 39
0.2
 10
1149.010368737085
 20
316.2071877906182
 30
0.0
 11
1149.010368737085
 21
330.2071877906182
 31
0.0
  0
LINE
  5
AB7
100
AcDbEntity
  8
L1
100
AcDbLine
 10
1139.010368737085
 20
323.9571877906182
 30
0.0
 11
1139.010368737085
 21
322.4571877906182
 31
0.0
  0
CIRCLE
  5
AB8
100
AcDbEntity
  8
L1
100
AcDbCircle
 10
1149.010368737085
 20
323.2071877906182
 30
0.0
 40
2.099999999999994
  0
CIRCLE
  5
AB9
100
AcDbEntity
  8
L1
100
AcDbCircle
 10
1149.010368737085
 20
323.2071877906182
 30
0.0
 40
2.399999999999993
  0
LINE
  5
ABA
100
AcDbEntity
  8
L1
100
AcDbLine
 10
1139.010368737085
 20
323.9571877906182
 30
0.0
 11
1139.010368737085
 21
322.4571877906182
 31
0.0
  0
CIRCLE
  5
ABB
100
AcDbEntity
  8
L1
100
AcDbCircle
 10
1149.010368737085
 20
323.2071877906182
 30
0.0
 40
2.099999999999994
  0
CIRCLE
  5
ABC
100
AcDbEntity
  8
L1
100
AcDbCircle
 10
1149.010368737085
 20
323.2071877906182
 30
0.0
 40
2.399999999999993
  0
LINE
  5
ABD
100
AcDbEntity
  8
L1
100
AcDbLine
 10
1145.010368737085
 20
320.2071877906173
 30
0.0
 11
1145.010368737085
 21
311.2071877906173
 31
0.0
  0
LINE
  5
ABE
100
AcDbEntity
  8
L1
100
AcDbLine
 10
1139.010368737085
 20
322.4571877906182
 30
0.0
 11
1144.066938753763
 21
322.4571877906182
 31
0.0
  0
LINE
  5
ABF
100
AcDbEntity
  8
L1
100
AcDbLine
 10
1139.010368737085
 20
322.4571877906182
 30
0.0
 11
1144.066938753764
 21
322.4571877906182
 31
0.0
  0
LINE
  5
AC0
100
AcDbEntity
  8
L1
100
AcDbLine
 10
1144.066938753763
 20
323.9571877906182
 30
0.0
 11
1139.010368737085
 21
323.9571877906182
 31
0.0
  0
LINE
  5
AC1
100
AcDbEntity
  8
L1
100
AcDbLine
 10
1144.066938753764
 20
323.9571877906182
 30
0.0
 11
1139.010368737085
 21
323.9571877906182
 31
0.0
  0
LINE
  5
AC2
100
AcDbEntity
  8
L1
100
AcDbLine
 10
1115.303769887012
 20
373.2071877906169
 30
0.0
 11
1145.010368737085
 21
373.2071877906169
 31
0.0
  0
LINE
  5
AC3
100
AcDbEntity
  8
L1
100
AcDbLine
 10
1105.403769887012
 20
383.2071877906169
 30
0.0
 11
1115.403769887012
 21
373.2071877906169
 31
0.0
  0
LINE
  5
AC4
100
AcDbEntity
  8
L1
100
AcDbLine
 10
1219.010368737085
 20
553.2071877906169
 30
0.0
 11
1219.010368737085
 21
552.8137866406892
 31
0.0
  0
LINE
  5
AC5
100
AcDbEntity
  8
L1
100
AcDbLine
 10
1219.010368737085
 20
559.6005889405441
 30
0.0
 11
1219.010368737085
 21
546.8137866406891
 31
0.0
  0
LINE
  5
AC6
100
AcDbEntity
  8
L1
100
AcDbLine
 10
902.5103687370854
 20
802.2071877906151
 30
0.0
 11
1295.510368737085
 21
802.2071877906171
 31
0.0
  0
LINE
  5
AC7
100
AcDbEntity
  8
L1
100
AcDbLine
 10
1289.010368737085
 20
798.2071877906155
 30
0.0
 11
909.0103687370854
 21
798.2071877906155
 31
0.0
  0
LINE
  5
AC8
100
AcDbEntity
  8
L1
100
AcDbLine
 10
1275.510368737084
 20
795.2071877906155
 30
0.0
 11
922.5103687370854
 21
795.2071877906155
 31
0.0
  0
LINE
  5
AC9
100
AcDbEntity
  8
L1
100
AcDbLine
 10
1003.010368737085
 20
733.2071877906169
 30
0.0
 11
1045.010368737085
 21
733.2071877906169
 31
0.0
  0
LINE
  5
ACA
100
AcDbEntity
  8
L1
100
AcDbLine
 10
1003.953798720406
 20
782.4571877906155
 30
0.0
 11
1009.010368737085
 21
782.4571877906155
 31
0.0
  0
LINE
  5
ACB
100
AcDbEntity
  8
L6
 48
0.3
100
AcDbLine
 39
0.2
 10
1010.010368737085
 20
783.2071877906155
 30
0.0
 11
987.0103687370853
 21
783.2071877906155
 31
0.0
  0
LINE
  5
ACC
100
AcDbEntity
  8
L1
100
AcDbLine
 10
1009.010368737085
 20
783.9571877906155
 30
0.0
 11
1003.953798720406
 21
783.9571877906155
 31
0.0
  0
LINE
  5
ACD
100
AcDbEntity
  8
L1
100
AcDbLine
 10
969.0103687370854
 20
657.2071877906169
 30
0.0
 11
969.0103687370854
 21
699.207187790616
 31
0.0
  0
LINE
  5
ACE
100
AcDbEntity
  8
L6
 48
0.3
100
AcDbLine
 39
0.2
 10
919.0103687370854
 20
689.2071877906159
 30
0.0
 11
919.0103687370854
 21
666.207187790616
 31
0.0
  0
ARC
  5
ACF
100
AcDbEntity
  8
L1
100
AcDbCircle
 10
902.5103687370854
 20
799.7071877906155
 30
0.0
 40
2.499999999999993
100
AcDbArc
 50
90.0
 51
180.0
  0
LINE
  5
AD0
100
AcDbEntity
  8
L1
100
AcDbLine
 10
995.0103687370853
 20
733.2071877906169
 30
0.0
 11
995.0103687370853
 21
780.2071877906164
 31
0.0
  0
LINE
  5
AD1
100
AcDbEntity
  8
L1
100
AcDbLine
 10
1003.010368737085
 20
733.2071877906169
 30
0.0
 11
1003.010368737085
 21
780.2071877906164
 31
0.0
  0
ARC
  5
AD2
100
AcDbEntity
  8
L1
100
AcDbCircle
 10
935.8228272679559
 20
729.9302631656787
 30
0.0
 40
2.5
100
AcDbArc
 50
314.9999999999999
 51
135.0
  0
CIRCLE
  5
AD3
100
AcDbEntity
  8
L1
100
AcDbCircle
 10
934.0550603149898
 20
728.1624962127125
 30
0.0
 40
8.0
  0
CIRCLE
  5
AD4
100
AcDbEntity
  8
L1
100
AcDbCircle
 10
934.0550603149898
 20
728.1624962127125
 30
0.0
 40
10.0
  0
CIRCLE
  5
AD5
100
AcDbEntity
  8
L1
100
AcDbCircle
 10
935.0103687370848
 20
767.2071877906168
 30
0.0
 40
6.0
  0
ARC
  5
AD6
100
AcDbEntity
  8
L1
100
AcDbCircle
 10
913.0103687370853
 20
789.2071877906155
 30
0.0
 40
5.999999999999984
100
AcDbArc
 50
270.0
 51
0.0
  0
LINE
  5
AD7
100
AcDbEntity
  8
L6
 48
0.3
100
AcDbLine
 39
0.2
 10
913.0103687370853
 20
798.2071877906155
 30
0.0
 11
913.0103687370853
 21
780.2071877906155
 31
0.0
  0
ARC
  5
AD8
100
AcDbEntity
  8
L1
100
AcDbCircle
 10
908.0103687370854
 20
784.2071877906155
 30
0.0
 40
0.9999999999999975
100
AcDbArc
 50
180.0
 51
270.0
  0
ARC
  5
AD9
100
AcDbEntity
  8
L1
100
AcDbCircle
 10
913.0103687370853
 20
789.2071877906155
 30
0.0
 40
8.499999999999978
100
AcDbArc
 50
270.0
 51
0.0
  0
LINE
  5
ADA
100
AcDbEntity
  8
L1
100
AcDbLine
 10
918.0103687370854
 20
795.2071877906155
 30
0.0
 11
909.0103687370854
 21
795.2071877906155
 31
0.0
  0
LINE
  5
ADB
100
AcDbEntity
  8
L6
 48
0.3
100
AcDbLine
 39
0.2
 10
904.0103687370853
 20
789.2071877906155
 30
0.0
 11
922.0103687370853
 21
789.2071877906155
 31
0.0
  0
ARC
  5
ADD
100
AcDbEntity
  8
L1
100
AcDbCircle
 10
909.0103687370854
 20
793.2071877906155
 30
0.0
 40
1.999999999999994
100
AcDbArc
 50
90.0
 51
180.0
  0
LINE
  5
ADF
100
AcDbEntity
  8
L1
100
AcDbLine
 10
907.0103687370854
 20
793.2071877906155
 30
0.0
 11
907.0103687370854
 21
784.2071877906155
 31
0.0
  0
ARC
  5
AE0
100
AcDbEntity
  8
L1
100
AcDbCircle
 10
909.0103687370854
 20
793.2071877906155
 30
0.0
 40
4.999999999999987
100
AcDbArc
 50
90.0
 51
180.0
  0
LINE
  5
AE2
100
AcDbEntity
  8
L1
100
AcDbLine
 10
921.5103687370854
 20
789.2071877906155
 30
0.0
 11
921.5103687370854
 21
794.2071877906155
 31
0.0
  0
ARC
  5
AE3
100
AcDbEntity
  8
L1
100
AcDbCircle
 10
922.5103687370854
 20
794.2071877906155
 30
0.0
 40
0.9999999999999975
100
AcDbArc
 50
90.0
 51
180.0
  0
ARC
  5
AE4
100
AcDbEntity
  8
L1
100
AcDbCircle
 10
918.0103687370854
 20
794.2071877906155
 30
0.0
 40
0.9999999999999975
100
AcDbArc
 50
0.0
 51
90.0
  0
LINE
  5
AE5
100
AcDbEntity
  8
L1
100
AcDbLine
 10
919.0103687370854
 20
789.2071877906155
 30
0.0
 11
919.0103687370854
 21
794.2071877906155
 31
0.0
  0
LINE
  5
AE7
100
AcDbEntity
  8
L1
100
AcDbLine
 10
919.0103687370854
 20
793.2071877906155
 30
0.0
 11
921.5103687370854
 21
793.2071877906155
 31
0.0
  0
LINE
  5
AE8
100
AcDbEntity
  8
L1
100
AcDbLine
 10
919.0103687370854
 20
791.2071877906155
 30
0.0
 11
921.5103687370854
 21
791.2071877906155
 31
0.0
  0
ARC
  5
AE9
100
AcDbEntity
  8
L1
100
AcDbCircle
 10
908.0103687370854
 20
779.7071877906155
 30
0.0
 40
0.9999999999999975
100
AcDbArc
 50
90.0
 51
180.0
  0
LINE
  5
AEA
100
AcDbEntity
  8
L1
100
AcDbLine
 10
913.0103687370853
 20
780.7071877906155
 30
0.0
 11
908.0103687370854
 21
780.7071877906155
 31
0.0
  0
LINE
  5
AEB
100
AcDbEntity
  8
L1
100
AcDbLine
 10
913.0103687370853
 20
783.2071877906155
 30
0.0
 11
908.0103687370854
 21
783.2071877906155
 31
0.0
  0
LINE
  5
AEC
100
AcDbEntity
  8
L1
100
AcDbLine
 10
911.0103687370854
 20
783.2071877906155
 30
0.0
 11
911.0103687370854
 21
780.7071877906155
 31
0.0
  0
LINE
  5
AED
100
AcDbEntity
  8
L1
100
AcDbLine
 10
909.0103687370854
 20
783.2071877906155
 30
0.0
 11
909.0103687370854
 21
780.7071877906155
 31
0.0
  0
ARC
  5
AEE
100
AcDbEntity
  8
L1
100
AcDbCircle
 10
919.0103687370854
 20
753.2071877906155
 30
0.0
 40
4.999999999999987
100
AcDbArc
 50
98.62692655867867
 51
261.3730734413213
  0
LINE
  5
AEF
100
AcDbEntity
  8
L6
 48
0.3
100
AcDbLine
 39
0.2
 10
919.0103687370854
 20
764.2071877906155
 30
0.0
 11
919.0103687370854
 21
741.2071877906155
 31
0.0
  0
ARC
  5
AF0
100
AcDbEntity
  8
L1
100
AcDbCircle
 10
919.0103687370854
 20
753.2071877906155
 30
0.0
 40
4.999999999999987
100
AcDbArc
 50
278.6269265586786
 51
81.37307344132118
  0
LINE
  5
AF1
100
AcDbEntity
  8
L6
 48
0.3
100
AcDbLine
 39
0.2
 10
912.0103687370853
 20
753.2071877906155
 30
0.0
 11
926.0103687370854
 21
753.2071877906155
 31
0.0
  0
LINE
  5
AF2
100
AcDbEntity
  8
L1
100
AcDbLine
 10
919.7603687370854
 20
763.2071877906155
 30
0.0
 11
918.2603687370853
 21
763.2071877906155
 31
0.0
  0
LINE
  5
AF3
100
AcDbEntity
  8
L1
100
AcDbLine
 10
918.2603687370853
 20
763.2071877906155
 30
0.0
 11
918.2603687370853
 21
758.1506177739365
 31
0.0
  0
LINE
  5
AF4
100
AcDbEntity
  8
L1
100
AcDbLine
 10
919.7603687370854
 20
758.1506177739365
 30
0.0
 11
919.7603687370854
 21
763.2071877906155
 31
0.0
  0
CIRCLE
  5
AF5
100
AcDbEntity
  8
L1
100
AcDbCircle
 10
919.0103687370854
 20
753.2071877906155
 30
0.0
 40
2.399999999999993
  0
CIRCLE
  5
AF6
100
AcDbEntity
  8
L1
100
AcDbCircle
 10
919.0103687370854
 20
753.2071877906155
 30
0.0
 40
2.099999999999994
  0
LINE
  5
AF7
100
AcDbEntity
  8
L1
100
AcDbLine
 10
918.2603687370853
 20
743.2071877906155
 30
0.0
 11
918.2603687370853
 21
748.2637578072945
 31
0.0
  0
LINE
  5
AF8
100
AcDbEntity
  8
L1
100
AcDbLine
 10
919.7603687370854
 20
748.2637578072945
 30
0.0
 11
919.7603687370854
 21
743.2071877906155
 31
0.0
  0
LINE
  5
AF9
100
AcDbEntity
  8
L1
100
AcDbLine
 10
919.7603687370854
 20
743.2071877906155
 30
0.0
 11
918.2603687370853
 21
743.2071877906155
 31
0.0
  0
LINE
  5
AFA
100
AcDbEntity
  8
L6
 48
0.3
100
AcDbLine
 39
0.2
 10
935.0103687370848
 20
764.2071877906168
 30
0.0
 11
935.0103687370848
 21
770.2071877906169
 31
0.0
  0
CIRCLE
  5
AFB
100
AcDbEntity
  8
L1
100
AcDbCircle
 10
935.0103687370848
 20
767.2071877906168
 30
0.0
 40
2.099999999999994
  0
CIRCLE
  5
AFC
100
AcDbEntity
  8
L1
100
AcDbCircle
 10
935.0103687370848
 20
767.2071877906168
 30
0.0
 40
2.399999999999993
  0
LINE
  5
AFD
100
AcDbEntity
  8
L1
100
AcDbLine
 10
939.0103687370853
 20
782.4571877906155
 30
0.0
 11
939.0103687370853
 21
783.9571877906155
 31
0.0
  0
LINE
  5
AFE
100
AcDbEntity
  8
L1
100
AcDbLine
 10
959.0103687370854
 20
782.4571877906155
 30
0.0
 11
959.0103687370854
 21
783.9571877906155
 31
0.0
  0
CIRCLE
  5
AFF
100
AcDbEntity
  8
L1
100
AcDbCircle
 10
949.0103687370854
 20
783.2071877906155
 30
0.0
 40
2.399999999999993
  0
CIRCLE
  5
B00
100
AcDbEntity
  8
L1
100
AcDbCircle
 10
949.0103687370854
 20
783.2071877906155
 30
0.0
 40
2.099999999999994
  0
LINE
  5
B01
100
AcDbEntity
  8
L6
 48
0.3
100
AcDbLine
 39
0.2
 10
949.0103687370854
 20
790.2071877906155
 30
0.0
 11
949.0103687370854
 21
776.2071877906155
 31
0.0
  0
ARC
  5
B02
100
AcDbEntity
  8
L1
100
AcDbCircle
 10
949.0103687370854
 20
783.2071877906155
 30
0.0
 40
4.999999999999987
100
AcDbArc
 50
8.626926558678659
 51
171.3730734413213
  0
LINE
  5
B03
100
AcDbEntity
  8
L1
100
AcDbLine
 10
939.0103687370853
 20
783.9571877906155
 30
0.0
 11
944.0669387537639
 21
783.9571877906155
 31
0.0
  0
LINE
  5
B04
100
AcDbEntity
  8
L1
100
AcDbLine
 10
959.0103687370854
 20
783.9571877906155
 30
0.0
 11
953.9537987204068
 21
783.9571877906155
 31
0.0
  0
ARC
  5
B05
100
AcDbEntity
  8
L1
100
AcDbCircle
 10
949.0103687370854
 20
783.2071877906155
 30
0.0
 40
4.999999999999987
100
AcDbArc
 50
188.6269265586786
 51
351.3730734413211
  0
LINE
  5
B06
100
AcDbEntity
  8
L6
 48
0.3
100
AcDbLine
 39
0.2
 10
960.0103687370854
 20
783.2071877906155
 30
0.0
 11
937.0103687370853
 21
783.2071877906155
 31
0.0
  0
LINE
  5
B07
100
AcDbEntity
  8
L1
100
AcDbLine
 10
944.0669387537639
 20
782.4571877906155
 30
0.0
 11
939.0103687370853
 21
782.4571877906155
 31
0.0
  0
LINE
  5
B08
100
AcDbEntity
  8
L6
 48
0.3
100
AcDbLine
 39
0.2
 10
932.0103687370849
 20
767.2071877906168
 30
0.0
 11
938.010368737085
 21
767.2071877906168
 31
0.0
  0
LINE
  5
B09
100
AcDbEntity
  8
L1
100
AcDbLine
 10
953.9537987204068
 20
782.4571877906155
 30
0.0
 11
959.0103687370854
 21
782.4571877906155
 31
0.0
  0
LINE
  5
B0A
100
AcDbEntity
  8
L1
100
AcDbLine
 10
989.0103687370853
 20
782.4571877906155
 30
0.0
 11
989.0103687370853
 21
783.9571877906155
 31
0.0
  0
LINE
  5
B0B
100
AcDbEntity
  8
L6
 48
0.3
100
AcDbLine
 39
0.2
 10
999.0103687370854
 20
790.2071877906155
 30
0.0
 11
999.0103687370854
 21
776.2071877906155
 31
0.0
  0
CIRCLE
  5
B0C
100
AcDbEntity
  8
L1
100
AcDbCircle
 10
999.0103687370854
 20
783.2071877906155
 30
0.0
 40
2.099999999999994
  0
CIRCLE
  5
B0D
100
AcDbEntity
  8
L1
100
AcDbCircle
 10
999.0103687370854
 20
783.2071877906155
 30
0.0
 40
2.399999999999993
  0
LINE
  5
B0E
100
AcDbEntity
  8
L1
100
AcDbLine
 10
1003.010368737085
 20
786.2071877906164
 30
0.0
 11
1003.010368737085
 21
795.2071877906164
 31
0.0
  0
LINE
  5
B0F
100
AcDbEntity
  8
L1
100
AcDbLine
 10
989.0103687370853
 20
783.9571877906155
 30
0.0
 11
994.0669387537639
 21
783.9571877906155
 31
0.0
  0
LINE
  5
B10
100
AcDbEntity
  8
L1
100
AcDbLine
 10
995.0103687370853
 20
786.2071877906164
 30
0.0
 11
995.0103687370853
 21
795.2071877906164
 31
0.0
  0
ARC
  5
B11
100
AcDbEntity
  8
L1
100
AcDbCircle
 10
999.0103687370854
 20
783.2071877906155
 30
0.0
 40
4.999999999999987
100
AcDbArc
 50
8.626926558678659
 51
171.3730734413213
  0
LINE
  5
B12
100
AcDbEntity
  8
L1
100
AcDbLine
 10
994.0669387537639
 20
782.4571877906155
 30
0.0
 11
989.0103687370853
 21
782.4571877906155
 31
0.0
  0
ARC
  5
B13
100
AcDbEntity
  8
L1
100
AcDbCircle
 10
999.0103687370854
 20
783.2071877906155
 30
0.0
 40
4.999999999999987
100
AcDbArc
 50
188.6269265586786
 51
351.3730734413211
  0
ARC
  5
B14
100
AcDbEntity
  8
L1
100
AcDbCircle
 10
932.2872933620233
 20
726.3947292597463
 30
0.0
 40
2.5
100
AcDbArc
 50
135.0
 51
314.9999999999999
  0
LINE
  5
B15
100
AcDbEntity
  8
L1
100
AcDbLine
 10
930.5195264090569
 20
728.1624962127125
 30
0.0
 11
934.0550603149898
 21
731.6980301186454
 31
0.0
  0
LINE
  5
B16
100
AcDbEntity
  8
L1
100
AcDbLine
 10
969.0103687370854
 20
699.207187790616
 30
0.0
 11
922.0103687370853
 21
699.207187790616
 31
0.0
  0
LINE
  5
B17
100
AcDbEntity
  8
L1
100
AcDbLine
 10
969.0103687370854
 20
707.207187790616
 30
0.0
 11
922.0103687370853
 21
707.207187790616
 31
0.0
  0
ARC
  5
B18
100
AcDbEntity
  8
L1
100
AcDbCircle
 10
919.0103687370854
 20
703.207187790616
 30
0.0
 40
4.999999999999987
100
AcDbArc
 50
98.62692655867867
 51
261.3730734413213
  0
LINE
  5
B19
100
AcDbEntity
  8
L6
 48
0.3
100
AcDbLine
 39
0.2
 10
919.0103687370854
 20
714.2071877906159
 30
0.0
 11
919.0103687370854
 21
691.207187790616
 31
0.0
  0
ARC
  5
B1A
100
AcDbEntity
  8
L1
100
AcDbCircle
 10
919.0103687370854
 20
703.207187790616
 30
0.0
 40
4.999999999999987
100
AcDbArc
 50
278.6269265586786
 51
81.37307344132118
  0
LINE
  5
B1B
100
AcDbEntity
  8
L1
100
AcDbLine
 10
916.0103687370854
 20
707.207187790616
 30
0.0
 11
907.0103687370854
 21
707.207187790616
 31
0.0
  0
LINE
  5
B1C
100
AcDbEntity
  8
L6
 48
0.3
100
AcDbLine
 39
0.2
 10
912.0103687370853
 20
703.207187790616
 30
0.0
 11
926.0103687370854
 21
703.207187790616
 31
0.0
  0
LINE
  5
B1D
100
AcDbEntity
  8
L1
100
AcDbLine
 10
918.2603687370853
 20
713.207187790616
 30
0.0
 11
918.2603687370853
 21
708.150617773937
 31
0.0
  0
LINE
  5
B1E
100
AcDbEntity
  8
L1
100
AcDbLine
 10
919.7603687370854
 20
708.150617773937
 30
0.0
 11
919.7603687370854
 21
713.207187790616
 31
0.0
  0
LINE
  5
B1F
100
AcDbEntity
  8
L1
100
AcDbLine
 10
919.7603687370854
 20
713.207187790616
 30
0.0
 11
918.2603687370853
 21
713.207187790616
 31
0.0
  0
CIRCLE
  5
B20
100
AcDbEntity
  8
L1
100
AcDbCircle
 10
919.0103687370854
 20
703.207187790616
 30
0.0
 40
2.399999999999993
  0
CIRCLE
  5
B21
100
AcDbEntity
  8
L1
100
AcDbCircle
 10
919.0103687370854
 20
703.207187790616
 30
0.0
 40
2.099999999999994
  0
LINE
  5
B22
100
AcDbEntity
  8
L1
100
AcDbLine
 10
919.7603687370854
 20
683.150617773937
 30
0.0
 11
919.7603687370854
 21
688.207187790616
 31
0.0
  0
LINE
  5
B23
100
AcDbEntity
  8
L1
100
AcDbLine
 10
918.2603687370853
 20
688.207187790616
 30
0.0
 11
918.2603687370853
 21
683.150617773937
 31
0.0
  0
LINE
  5
B24
100
AcDbEntity
  8
L1
100
AcDbLine
 10
916.0103687370854
 20
699.207187790616
 30
0.0
 11
907.0103687370854
 21
699.207187790616
 31
0.0
  0
LINE
  5
B25
100
AcDbEntity
  8
L1
100
AcDbLine
 10
918.2603687370853
 20
693.2071877906159
 30
0.0
 11
918.2603687370853
 21
698.2637578072949
 31
0.0
  0
LINE
  5
B26
100
AcDbEntity
  8
L1
100
AcDbLine
 10
919.7603687370854
 20
698.2637578072949
 30
0.0
 11
919.7603687370854
 21
693.2071877906159
 31
0.0
  0
LINE
  5
B27
100
AcDbEntity
  8
L1
100
AcDbLine
 10
919.7603687370854
 20
693.2071877906159
 30
0.0
 11
918.2603687370853
 21
693.2071877906159
 31
0.0
  0
LINE
  5
B28
100
AcDbEntity
  8
L1
100
AcDbLine
 10
919.7603687370854
 20
688.207187790616
 30
0.0
 11
918.2603687370853
 21
688.207187790616
 31
0.0
  0
LINE
  5
B29
100
AcDbEntity
  8
L6
 48
0.3
100
AcDbLine
 39
0.2
 10
912.0103687370853
 20
678.207187790616
 30
0.0
 11
926.0103687370854
 21
678.207187790616
 31
0.0
  0
LINE
  5
B2A
100
AcDbEntity
  8
L1
100
AcDbLine
 10
919.7603687370854
 20
668.2071877906159
 30
0.0
 11
918.2603687370853
 21
668.2071877906159
 31
0.0
  0
LINE
  5
B2B
100
AcDbEntity
  8
L1
100
AcDbLine
 10
919.7603687370854
 20
673.2637578072949
 30
0.0
 11
919.7603687370854
 21
668.2071877906159
 31
0.0
  0
LINE
  5
B2C
100
AcDbEntity
  8
L1
100
AcDbLine
 10
918.2603687370853
 20
668.2071877906159
 30
0.0
 11
918.2603687370853
 21
673.2637578072949
 31
0.0
  0
ARC
  5
B2D
100
AcDbEntity
  8
L1
100
AcDbCircle
 10
919.0103687370854
 20
678.207187790616
 30
0.0
 40
4.999999999999987
100
AcDbArc
 50
98.62692655867867
 51
261.3730734413213
  0
ARC
  5
B2E
100
AcDbEntity
  8
L1
100
AcDbCircle
 10
919.0103687370854
 20
678.207187790616
 30
0.0
 40
4.999999999999987
100
AcDbArc
 50
278.6269265586786
 51
81.37307344132118
  0
CIRCLE
  5
B2F
100
AcDbEntity
  8
L1
100
AcDbCircle
 10
919.0103687370854
 20
678.207187790616
 30
0.0
 40
2.099999999999994
  0
CIRCLE
  5
B30
100
AcDbEntity
  8
L1
100
AcDbCircle
 10
919.0103687370854
 20
678.207187790616
 30
0.0
 40
2.399999999999993
  0
LINE
  5
B31
100
AcDbEntity
  8
L1
100
AcDbLine
 10
995.0103687370853
 20
733.2071877906169
 30
0.0
 11
969.0103687370854
 21
733.2071877906169
 31
0.0
  0
LINE
  5
B32
100
AcDbEntity
  8
L1
100
AcDbLine
 10
969.0103687370854
 20
707.207187790616
 30
0.0
 11
969.0103687370854
 21
733.2071877906155
 31
0.0
  0
LINE
  5
B33
100
AcDbEntity
  8
L1
100
AcDbLine
 10
937.5905942209223
 20
728.1624962127129
 30
0.0
 11
934.0550603149898
 21
724.6269623067801
 31
0.0
  0
ARC
  5
B34
100
AcDbEntity
  8
L1
100
AcDbCircle
 10
919.0103687370854
 20
603.2071877906169
 30
0.0
 40
4.999999999999987
100
AcDbArc
 50
98.62692655867867
 51
261.3730734413213
  0
LINE
  5
B35
100
AcDbEntity
  8
L6
 48
0.3
100
AcDbLine
 39
0.2
 10
919.0103687370854
 20
614.2071877906168
 30
0.0
 11
919.0103687370854
 21
591.2071877906169
 31
0.0
  0
ARC
  5
B37
100
AcDbEntity
  8
L1
100
AcDbCircle
 10
919.0103687370854
 20
603.2071877906169
 30
0.0
 40
4.999999999999987
100
AcDbArc
 50
98.62692655867867
 51
261.3730734413213
  0
ARC
  5
B38
100
AcDbEntity
  8
L1
100
AcDbCircle
 10
919.0103687370854
 20
603.2071877906169
 30
0.0
 40
4.999999999999987
100
AcDbArc
 50
278.6269265586786
 51
81.37307344132118
  0
ARC
  5
B39
100
AcDbEntity
  8
L1
100
AcDbCircle
 10
919.0103687370854
 20
603.2071877906169
 30
0.0
 40
4.999999999999987
100
AcDbArc
 50
278.6269265586786
 51
81.37307344132118
  0
LINE
  5
B3A
100
AcDbEntity
  8
L1
100
AcDbLine
 10
969.0103687370854
 20
607.2071877906169
 30
0.0
 11
922.0103687370853
 21
607.2071877906169
 31
0.0
  0
LINE
  5
B3B
100
AcDbEntity
  8
L1
100
AcDbLine
 10
969.0103687370854
 20
649.2071877906169
 30
0.0
 11
922.0103687370853
 21
649.2071877906169
 31
0.0
  0
LINE
  5
B3C
100
AcDbEntity
  8
L1
100
AcDbLine
 10
969.0103687370854
 20
657.2071877906169
 30
0.0
 11
922.0103687370853
 21
657.2071877906169
 31
0.0
  0
LINE
  5
B3D
100
AcDbEntity
  8
L6
 48
0.3
100
AcDbLine
 39
0.2
 10
919.0103687370854
 20
664.2071877906159
 30
0.0
 11
919.0103687370854
 21
641.2071877906169
 31
0.0
  0
ARC
  5
B3E
100
AcDbEntity
  8
L1
100
AcDbCircle
 10
919.0103687370854
 20
653.2071877906169
 30
0.0
 40
4.999999999999987
100
AcDbArc
 50
278.6269265586786
 51
81.37307344132118
  0
ARC
  5
B3F
100
AcDbEntity
  8
L1
100
AcDbCircle
 10
919.0103687370854
 20
653.2071877906169
 30
0.0
 40
4.999999999999987
100
AcDbArc
 50
98.62692655867867
 51
261.3730734413213
  0
LINE
  5
B40
100
AcDbEntity
  8
L1
100
AcDbLine
 10
916.0103687370854
 20
657.2071877906169
 30
0.0
 11
907.0103687370854
 21
657.2071877906169
 31
0.0
  0
LINE
  5
B41
100
AcDbEntity
  8
L6
 48
0.3
100
AcDbLine
 39
0.2
 10
912.0103687370853
 20
653.2071877906169
 30
0.0
 11
926.0103687370854
 21
653.2071877906169
 31
0.0
  0
LINE
  5
B42
100
AcDbEntity
  8
L1
100
AcDbLine
 10
919.7603687370854
 20
658.1506177739379
 30
0.0
 11
919.7603687370854
 21
663.207187790616
 31
0.0
  0
LINE
  5
B43
100
AcDbEntity
  8
L1
100
AcDbLine
 10
918.2603687370853
 20
663.207187790616
 30
0.0
 11
918.2603687370853
 21
658.1506177739379
 31
0.0
  0
LINE
  5
B44
100
AcDbEntity
  8
L1
100
AcDbLine
 10
919.7603687370854
 20
663.207187790616
 30
0.0
 11
918.2603687370853
 21
663.207187790616
 31
0.0
  0
CIRCLE
  5
B45
100
AcDbEntity
  8
L1
100
AcDbCircle
 10
919.0103687370854
 20
653.2071877906169
 30
0.0
 40
2.099999999999994
  0
CIRCLE
  5
B46
100
AcDbEntity
  8
L1
100
AcDbCircle
 10
919.0103687370854
 20
653.2071877906169
 30
0.0
 40
2.399999999999993
  0
LINE
  5
B47
100
AcDbEntity
  8
L1
100
AcDbLine
 10
916.0103687370854
 20
649.2071877906169
 30
0.0
 11
907.0103687370854
 21
649.2071877906169
 31
0.0
  0
LINE
  5
B48
100
AcDbEntity
  8
L1
100
AcDbLine
 10
919.7603687370854
 20
643.2071877906168
 30
0.0
 11
918.2603687370853
 21
643.2071877906168
 31
0.0
  0
LINE
  5
B49
100
AcDbEntity
  8
L1
100
AcDbLine
 10
919.7603687370854
 20
648.2637578072949
 30
0.0
 11
919.7603687370854
 21
643.2071877906168
 31
0.0
  0
LINE
  5
B4A
100
AcDbEntity
  8
L1
100
AcDbLine
 10
918.2603687370853
 20
643.2071877906168
 30
0.0
 11
918.2603687370853
 21
648.2637578072949
 31
0.0
  0
LINE
  5
B4B
100
AcDbEntity
  8
L1
100
AcDbLine
 10
916.0103687370854
 20
607.2071877906169
 30
0.0
 11
907.0103687370854
 21
607.2071877906169
 31
0.0
  0
LINE
  5
B4C
100
AcDbEntity
  8
L6
 48
0.3
100
AcDbLine
 39
0.2
 10
912.0103687370853
 20
603.2071877906169
 30
0.0
 11
926.0103687370854
 21
603.2071877906169
 31
0.0
  0
LINE
  5
B4D
100
AcDbEntity
  8
L1
100
AcDbLine
 10
904.0103687370853
 20
603.2071877906169
 30
0.0
 11
904.0103687370853
 21
604.2071877906169
 31
0.0
1001
ACAD
1000
ASC_BOUNDS
1002
{
1070
    19
1002
}
  0
LINE
  5
B4E
100
AcDbEntity
  8
L1
100
AcDbLine
 10
918.2603687370853
 20
613.2071877906168
 30
0.0
 11
918.2603687370853
 21
608.1506177739379
 31
0.0
  0
LINE
  5
B4F
100
AcDbEntity
  8
L1
100
AcDbLine
 10
919.7603687370854
 20
608.1506177739379
 30
0.0
 11
919.7603687370854
 21
613.2071877906168
 31
0.0
  0
LINE
  5
B50
100
AcDbEntity
  8
L1
100
AcDbLine
 10
919.7603687370854
 20
613.2071877906168
 30
0.0
 11
918.2603687370853
 21
613.2071877906168
 31
0.0
  0
CIRCLE
  5
B51
100
AcDbEntity
  8
L1
100
AcDbCircle
 10
919.0103687370854
 20
603.2071877906169
 30
0.0
 40
2.399999999999993
  0
CIRCLE
  5
B52
100
AcDbEntity
  8
L1
100
AcDbCircle
 10
919.0103687370854
 20
603.2071877906169
 30
0.0
 40
2.099999999999994
  0
CIRCLE
  5
B53
100
AcDbEntity
  8
L1
100
AcDbCircle
 10
919.0103687370854
 20
603.2071877906169
 30
0.0
 40
2.099999999999994
  0
CIRCLE
  5
B54
100
AcDbEntity
  8
L1
100
AcDbCircle
 10
919.0103687370854
 20
603.2071877906169
 30
0.0
 40
2.399999999999993
  0
LINE
  5
B55
100
AcDbEntity
  8
L1
100
AcDbLine
 10
969.0103687370854
 20
607.2071877906169
 30
0.0
 11
969.0103687370854
 21
649.2071877906169
 31
0.0
  0
LINE
  5
B56
100
AcDbEntity
  8
L1
100
AcDbLine
 10
969.0103687370854
 20
599.2071877906169
 30
0.0
 11
922.0103687370853
 21
599.2071877906169
 31
0.0
  0
LINE
  5
B57
100
AcDbEntity
  8
L1
100
AcDbLine
 10
916.0103687370854
 20
599.2071877906169
 30
0.0
 11
907.0103687370854
 21
599.2071877906169
 31
0.0
  0
LINE
  5
B58
100
AcDbEntity
  8
L1
100
AcDbLine
 10
916.0103687370854
 20
599.2071877906169
 30
0.0
 11
907.0103687370854
 21
599.2071877906169
 31
0.0
  0
LINE
  5
B59
100
AcDbEntity
  8
L1
100
AcDbLine
 10
918.2603687370853
 20
593.2071877906168
 30
0.0
 11
918.2603687370853
 21
598.2637578072949
 31
0.0
  0
LINE
  5
B5A
100
AcDbEntity
  8
L1
100
AcDbLine
 10
919.7603687370854
 20
598.2637578072949
 30
0.0
 11
919.7603687370854
 21
593.2071877906168
 31
0.0
  0
LINE
  5
B5B
100
AcDbEntity
  8
L1
100
AcDbLine
 10
919.7603687370854
 20
593.2071877906168
 30
0.0
 11
918.2603687370853
 21
593.2071877906168
 31
0.0
  0
LINE
  5
B5C
100
AcDbEntity
  8
L1
100
AcDbLine
 10
919.7603687370854
 20
593.2071877906168
 30
0.0
 11
918.2603687370853
 21
593.2071877906168
 31
0.0
  0
LINE
  5
B5D
100
AcDbEntity
  8
L1
100
AcDbLine
 10
919.7603687370854
 20
598.2637578072949
 30
0.0
 11
919.7603687370854
 21
593.2071877906168
 31
0.0
  0
LINE
  5
B5E
100
AcDbEntity
  8
L1
100
AcDbLine
 10
918.2603687370853
 20
593.2071877906168
 30
0.0
 11
918.2603687370853
 21
598.2637578072949
 31
0.0
  0
LINE
  5
B5F
100
AcDbEntity
  8
L1
100
AcDbLine
 10
969.0103687370854
 20
569.6005889405437
 30
0.0
 11
969.0103687370854
 21
599.2071877906169
 31
0.0
  0
LINE
  5
B60
100
AcDbEntity
  8
L6
 48
0.3
100
AcDbLine
 39
0.2
 10
1279.010368737085
 20
689.2071877906159
 30
0.0
 11
1279.010368737085
 21
666.207187790616
 31
0.0
  0
LINE
  5
B61
100
AcDbEntity
  8
L1
100
AcDbLine
 10
1229.010368737085
 20
657.2071877906169
 30
0.0
 11
1229.010368737085
 21
699.207187790616
 31
0.0
  0
ARC
  5
B62
100
AcDbEntity
  8
L1
100
AcDbCircle
 10
1295.510368737085
 20
799.7071877906155
 30
0.0
 40
2.499999999999993
100
AcDbArc
 50
0.0
 51
90.0
  0
LINE
  5
B63
100
AcDbEntity
  8
L6
100
AcDbLine
 10
1099.010368737085
 20
291.9226917071869
 30
0.0
 11
1099.010368737085
 21
815.3968063110978
 31
0.0
  0
LINE
  5
B64
100
AcDbEntity
  8
L1
100
AcDbLine
 10
1153.953798720406
 20
782.4571877906155
 30
0.0
 11
1159.010368737085
 21
782.4571877906155
 31
0.0
  0
LINE
  5
B65
100
AcDbEntity
  8
L1
100
AcDbLine
 10
1159.010368737085
 20
783.9571877906155
 30
0.0
 11
1153.953798720406
 21
783.9571877906155
 31
0.0
  0
LINE
  5
B66
100
AcDbEntity
  8
L6
 48
0.3
100
AcDbLine
 39
0.2
 10
1138.010368737085
 20
783.2071877906155
 30
0.0
 11
1161.010368737085
 21
783.2071877906155
 31
0.0
  0
LINE
  5
B67
100
AcDbEntity
  8
L1
100
AcDbLine
 10
1195.010368737085
 20
733.2071877906169
 30
0.0
 11
1153.010368737085
 21
733.2071877906169
 31
0.0
  0
LINE
  5
B68
100
AcDbEntity
  8
L1
100
AcDbLine
 10
1145.010368737085
 20
733.2071877906169
 30
0.0
 11
1145.010368737085
 21
780.2071877906164
 31
0.0
  0
LINE
  5
B69
100
AcDbEntity
  8
L1
100
AcDbLine
 10
1153.010368737085
 20
733.2071877906169
 30
0.0
 11
1153.010368737085
 21
780.2071877906164
 31
0.0
  0
LINE
  5
B6B
100
AcDbEntity
  8
L1
100
AcDbLine
 10
1045.010368737085
 20
733.2071877906169
 30
0.0
 11
1045.010368737085
 21
780.2071877906164
 31
0.0
  0
LINE
  5
B6C
100
AcDbEntity
  8
L1
100
AcDbLine
 10
1053.010368737085
 20
733.2071877906169
 30
0.0
 11
1053.010368737085
 21
780.2071877906164
 31
0.0
  0
ARC
  5
B6D
100
AcDbEntity
  8
L1
100
AcDbCircle
 10
1049.010368737085
 20
783.2071877906155
 30
0.0
 40
4.999999999999987
100
AcDbArc
 50
188.6269265586786
 51
351.3730734413211
  0
LINE
  5
B6E
100
AcDbEntity
  8
L6
 48
0.3
100
AcDbLine
 39
0.2
 10
1060.010368737084
 20
783.2071877906155
 30
0.0
 11
1037.010368737085
 21
783.2071877906155
 31
0.0
  0
ARC
  5
B6F
100
AcDbEntity
  8
L1
100
AcDbCircle
 10
1049.010368737085
 20
783.2071877906155
 30
0.0
 40
4.999999999999987
100
AcDbArc
 50
8.626926558678659
 51
171.3730734413213
  0
LINE
  5
B70
100
AcDbEntity
  8
L1
100
AcDbLine
 10
1039.010368737085
 20
782.4571877906155
 30
0.0
 11
1039.010368737085
 21
783.9571877906155
 31
0.0
  0
LINE
  5
B71
100
AcDbEntity
  8
L1
100
AcDbLine
 10
1009.010368737085
 20
782.4571877906155
 30
0.0
 11
1009.010368737085
 21
783.9571877906155
 31
0.0
  0
LINE
  5
B72
100
AcDbEntity
  8
L1
100
AcDbLine
 10
1045.010368737085
 20
786.2071877906164
 30
0.0
 11
1045.010368737085
 21
795.2071877906164
 31
0.0
  0
LINE
  5
B73
100
AcDbEntity
  8
L1
100
AcDbLine
 10
1039.010368737085
 20
783.9571877906155
 30
0.0
 11
1044.066938753763
 21
783.9571877906155
 31
0.0
  0
LINE
  5
B74
100
AcDbEntity
  8
L1
100
AcDbLine
 10
1044.066938753763
 20
782.4571877906155
 30
0.0
 11
1039.010368737085
 21
782.4571877906155
 31
0.0
  0
LINE
  5
B75
100
AcDbEntity
  8
L6
 48
0.3
100
AcDbLine
 39
0.2
 10
1049.010368737085
 20
790.2071877906155
 30
0.0
 11
1049.010368737085
 21
776.2071877906155
 31
0.0
  0
LINE
  5
B76
100
AcDbEntity
  8
L1
100
AcDbLine
 10
1059.010368737084
 20
782.4571877906155
 30
0.0
 11
1059.010368737084
 21
783.9571877906155
 31
0.0
  0
CIRCLE
  5
B77
100
AcDbEntity
  8
L1
100
AcDbCircle
 10
1049.010368737085
 20
783.2071877906155
 30
0.0
 40
2.099999999999994
  0
CIRCLE
  5
B78
100
AcDbEntity
  8
L1
100
AcDbCircle
 10
1049.010368737085
 20
783.2071877906155
 30
0.0
 40
2.399999999999993
  0
LINE
  5
B79
100
AcDbEntity
  8
L1
100
AcDbLine
 10
1059.010368737084
 20
782.4571877906155
 30
0.0
 11
1059.010368737084
 21
783.9571877906155
 31
0.0
  0
CIRCLE
  5
B7A
100
AcDbEntity
  8
L1
100
AcDbCircle
 10
1049.010368737084
 20
783.2071877906155
 30
0.0
 40
2.099999999999994
  0
CIRCLE
  5
B7B
100
AcDbEntity
  8
L1
100
AcDbCircle
 10
1049.010368737084
 20
783.2071877906155
 30
0.0
 40
2.399999999999993
  0
LINE
  5
B7C
100
AcDbEntity
  8
L1
100
AcDbLine
 10
1053.010368737085
 20
786.2071877906164
 30
0.0
 11
1053.010368737085
 21
795.2071877906164
 31
0.0
  0
LINE
  5
B7D
100
AcDbEntity
  8
L1
100
AcDbLine
 10
1059.010368737084
 20
783.9571877906155
 30
0.0
 11
1053.953798720406
 21
783.9571877906155
 31
0.0
  0
LINE
  5
B7E
100
AcDbEntity
  8
L1
100
AcDbLine
 10
1059.010368737084
 20
783.9571877906155
 30
0.0
 11
1053.953798720405
 21
783.9571877906155
 31
0.0
  0
LINE
  5
B7F
100
AcDbEntity
  8
L1
100
AcDbLine
 10
1053.953798720406
 20
782.4571877906155
 30
0.0
 11
1059.010368737084
 21
782.4571877906155
 31
0.0
  0
LINE
  5
B80
100
AcDbEntity
  8
L1
100
AcDbLine
 10
1053.953798720405
 20
782.4571877906155
 30
0.0
 11
1059.010368737084
 21
782.4571877906155
 31
0.0
  0
LINE
  5
B81
100
AcDbEntity
  8
L1
100
AcDbLine
 10
1109.010368737084
 20
782.4571877906155
 30
0.0
 11
1109.010368737084
 21
783.9571877906155
 31
0.0
  0
LINE
  5
B82
100
AcDbEntity
  8
L1
100
AcDbLine
 10
1109.010368737084
 20
782.4571877906155
 30
0.0
 11
1109.010368737084
 21
783.9571877906155
 31
0.0
  0
CIRCLE
  5
B83
100
AcDbEntity
  8
L1
100
AcDbCircle
 10
1099.010368737084
 20
783.2071877906155
 30
0.0
 40
2.099999999999994
  0
CIRCLE
  5
B84
100
AcDbEntity
  8
L1
100
AcDbCircle
 10
1099.010368737084
 20
783.2071877906155
 30
0.0
 40
2.399999999999993
  0
CIRCLE
  5
B85
100
AcDbEntity
  8
L1
100
AcDbCircle
 10
1099.010368737084
 20
783.2071877906155
 30
0.0
 40
2.099999999999994
  0
CIRCLE
  5
B86
100
AcDbEntity
  8
L1
100
AcDbCircle
 10
1099.010368737084
 20
783.2071877906155
 30
0.0
 40
2.399999999999993
  0
LINE
  5
B87
100
AcDbEntity
  8
L1
100
AcDbLine
 10
1089.010368737084
 20
782.4571877906155
 30
0.0
 11
1089.010368737085
 21
783.9571877906155
 31
0.0
  0
ARC
  5
B88
100
AcDbEntity
  8
L1
100
AcDbCircle
 10
1099.010368737084
 20
783.2071877906155
 30
0.0
 40
4.999999999999987
100
AcDbArc
 50
8.626926558678659
 51
171.3730734413213
  0
ARC
  5
B89
100
AcDbEntity
  8
L1
100
AcDbCircle
 10
1099.010368737084
 20
783.2071877906155
 30
0.0
 40
4.999999999999987
100
AcDbArc
 50
8.626926558678659
 51
171.3730734413213
  0
LINE
  5
B8A
100
AcDbEntity
  8
L1
100
AcDbLine
 10
1089.010368737085
 20
783.9571877906155
 30
0.0
 11
1094.066938753763
 21
783.9571877906155
 31
0.0
  0
LINE
  5
B8B
100
AcDbEntity
  8
L1
100
AcDbLine
 10
1089.010368737084
 20
783.9571877906155
 30
0.0
 11
1094.066938753763
 21
783.9571877906155
 31
0.0
  0
LINE
  5
B8C
100
AcDbEntity
  8
L1
100
AcDbLine
 10
1109.010368737084
 20
783.9571877906155
 30
0.0
 11
1103.953798720405
 21
783.9571877906155
 31
0.0
  0
LINE
  5
B8D
100
AcDbEntity
  8
L1
100
AcDbLine
 10
1109.010368737084
 20
783.9571877906155
 30
0.0
 11
1103.953798720405
 21
783.9571877906155
 31
0.0
  0
ARC
  5
B8E
100
AcDbEntity
  8
L1
100
AcDbCircle
 10
1099.010368737084
 20
783.2071877906155
 30
0.0
 40
4.999999999999987
100
AcDbArc
 50
188.6269265586786
 51
351.3730734413211
  0
ARC
  5
B8F
100
AcDbEntity
  8
L1
100
AcDbCircle
 10
1099.010368737084
 20
783.2071877906155
 30
0.0
 40
4.999999999999987
100
AcDbArc
 50
188.6269265586786
 51
351.3730734413211
  0
LINE
  5
B90
100
AcDbEntity
  8
L6
 48
0.3
100
AcDbLine
 39
0.2
 10
1110.010368737085
 20
783.2071877906155
 30
0.0
 11
1087.010368737085
 21
783.2071877906155
 31
0.0
  0
LINE
  5
B91
100
AcDbEntity
  8
L6
100
AcDbLine
 10
1110.010368737084
 20
783.2071877906155
 30
0.0
 11
1087.010368737084
 21
783.2071877906155
 31
0.0
  0
LINE
  5
B92
100
AcDbEntity
  8
L1
100
AcDbLine
 10
1094.066938753763
 20
782.4571877906155
 30
0.0
 11
1089.010368737085
 21
782.4571877906155
 31
0.0
  0
LINE
  5
B93
100
AcDbEntity
  8
L1
100
AcDbLine
 10
1094.066938753763
 20
782.4571877906155
 30
0.0
 11
1089.010368737084
 21
782.4571877906155
 31
0.0
  0
LINE
  5
B94
100
AcDbEntity
  8
L1
100
AcDbLine
 10
1103.953798720405
 20
782.4571877906155
 30
0.0
 11
1109.010368737084
 21
782.4571877906155
 31
0.0
  0
LINE
  5
B95
100
AcDbEntity
  8
L1
100
AcDbLine
 10
1103.953798720405
 20
782.4571877906155
 30
0.0
 11
1109.010368737084
 21
782.4571877906155
 31
0.0
  0
CIRCLE
  5
B96
100
AcDbEntity
  8
L1
100
AcDbCircle
 10
1149.010368737085
 20
783.2071877906155
 30
0.0
 40
2.399999999999993
  0
CIRCLE
  5
B97
100
AcDbEntity
  8
L1
100
AcDbCircle
 10
1149.010368737085
 20
783.2071877906155
 30
0.0
 40
2.099999999999994
  0
LINE
  5
B98
100
AcDbEntity
  8
L1
100
AcDbLine
 10
1139.010368737085
 20
782.4571877906155
 30
0.0
 11
1139.010368737085
 21
783.9571877906155
 31
0.0
  0
CIRCLE
  5
B99
100
AcDbEntity
  8
L1
100
AcDbCircle
 10
1149.010368737085
 20
783.2071877906155
 30
0.0
 40
2.399999999999993
  0
CIRCLE
  5
B9A
100
AcDbEntity
  8
L1
100
AcDbCircle
 10
1149.010368737085
 20
783.2071877906155
 30
0.0
 40
2.099999999999994
  0
LINE
  5
B9B
100
AcDbEntity
  8
L1
100
AcDbLine
 10
1139.010368737085
 20
782.4571877906155
 30
0.0
 11
1139.010368737085
 21
783.9571877906155
 31
0.0
  0
LINE
  5
B9C
100
AcDbEntity
  8
L6
 48
0.3
100
AcDbLine
 39
0.2
 10
1149.010368737085
 20
790.2071877906155
 30
0.0
 11
1149.010368737085
 21
776.2071877906155
 31
0.0
  0
LINE
  5
B9D
100
AcDbEntity
  8
L1
100
AcDbLine
 10
1139.010368737085
 20
783.9571877906155
 30
0.0
 11
1144.066938753764
 21
783.9571877906155
 31
0.0
  0
LINE
  5
B9E
100
AcDbEntity
  8
L1
100
AcDbLine
 10
1139.010368737085
 20
783.9571877906155
 30
0.0
 11
1144.066938753763
 21
783.9571877906155
 31
0.0
  0
LINE
  5
B9F
100
AcDbEntity
  8
L1
100
AcDbLine
 10
1145.010368737085
 20
786.2071877906164
 30
0.0
 11
1145.010368737085
 21
795.2071877906164
 31
0.0
  0
LINE
  5
BA0
100
AcDbEntity
  8
L1
100
AcDbLine
 10
1153.010368737085
 20
786.2071877906164
 30
0.0
 11
1153.010368737085
 21
795.2071877906164
 31
0.0
  0
ARC
  5
BA1
100
AcDbEntity
  8
L1
100
AcDbCircle
 10
1149.010368737085
 20
783.2071877906155
 30
0.0
 40
4.999999999999987
100
AcDbArc
 50
8.62692655867861
 51
171.3730734413213
  0
LINE
  5
BA2
100
AcDbEntity
  8
L1
100
AcDbLine
 10
1144.066938753764
 20
782.4571877906155
 30
0.0
 11
1139.010368737085
 21
782.4571877906155
 31
0.0
  0
LINE
  5
BA3
100
AcDbEntity
  8
L1
100
AcDbLine
 10
1144.066938753763
 20
782.4571877906155
 30
0.0
 11
1139.010368737085
 21
782.4571877906155
 31
0.0
  0
ARC
  5
BA4
100
AcDbEntity
  8
L1
100
AcDbCircle
 10
1149.010368737085
 20
783.2071877906155
 30
0.0
 40
4.999999999999987
100
AcDbArc
 50
188.6269265586788
 51
351.3730734413213
  0
LINE
  5
BA5
100
AcDbEntity
  8
L1
100
AcDbLine
 10
1092.616967587157
 20
723.2071877906169
 30
0.0
 11
1082.616967587157
 21
733.2071877906169
 31
0.0
  0
LINE
  5
BA6
100
AcDbEntity
  8
L1
100
AcDbLine
 10
1082.716967587158
 20
733.2071877906169
 30
0.0
 11
1053.010368737085
 21
733.2071877906169
 31
0.0
  0
LINE
  5
BA7
100
AcDbEntity
  8
L1
100
AcDbLine
 10
1115.303769887012
 20
733.2071877906169
 30
0.0
 11
1145.010368737085
 21
733.2071877906169
 31
0.0
  0
LINE
  5
BA9
100
AcDbEntity
  8
L1
100
AcDbLine
 10
1105.403769887012
 20
723.2071877906169
 30
0.0
 11
1092.616967587158
 21
723.2071877906169
 31
0.0
  0
LINE
  5
BAA
100
AcDbEntity
  8
L1
100
AcDbLine
 10
1105.403769887012
 20
723.2071877906169
 30
0.0
 11
1115.403769887012
 21
733.2071877906169
 31
0.0
  0
CIRCLE
  5
BAB
100
AcDbEntity
  8
L1
100
AcDbCircle
 10
1263.96567715918
 20
728.1624962127125
 30
0.0
 40
10.0
  0
CIRCLE
  5
BAC
100
AcDbEntity
  8
L1
100
AcDbCircle
 10
1263.96567715918
 20
728.1624962127125
 30
0.0
 40
8.0
  0
ARC
  5
BAD
100
AcDbEntity
  8
L1
100
AcDbCircle
 10
1262.197910206214
 20
729.9302631656787
 30
0.0
 40
2.5
100
AcDbArc
 50
45.0
 51
225.0
  0
LINE
  5
BAE
100
AcDbEntity
  8
L1
100
AcDbLine
 10
1195.010368737085
 20
733.2071877906169
 30
0.0
 11
1195.010368737085
 21
780.2071877906164
 31
0.0
  0
LINE
  5
BAF
100
AcDbEntity
  8
L1
100
AcDbLine
 10
1203.010368737085
 20
733.2071877906169
 30
0.0
 11
1203.010368737085
 21
780.2071877906164
 31
0.0
  0
ARC
  5
BB0
100
AcDbEntity
  8
L1
100
AcDbCircle
 10
1199.010368737084
 20
783.2071877906155
 30
0.0
 40
4.999999999999987
100
AcDbArc
 50
188.6269265586788
 51
351.3730734413213
  0
ARC
  5
BB1
100
AcDbEntity
  8
L1
100
AcDbCircle
 10
1199.010368737084
 20
783.2071877906155
 30
0.0
 40
4.999999999999987
100
AcDbArc
 50
8.62692655867861
 51
171.3730734413213
  0
LINE
  5
BB2
100
AcDbEntity
  8
L6
 48
0.3
100
AcDbLine
 39
0.2
 10
1188.010368737085
 20
783.2071877906155
 30
0.0
 11
1211.010368737085
 21
783.2071877906155
 31
0.0
  0
LINE
  5
BB3
100
AcDbEntity
  8
L1
100
AcDbLine
 10
1189.010368737084
 20
782.4571877906155
 30
0.0
 11
1189.010368737084
 21
783.9571877906155
 31
0.0
  0
LINE
  5
BB4
100
AcDbEntity
  8
L1
100
AcDbLine
 10
1159.010368737085
 20
782.4571877906155
 30
0.0
 11
1159.010368737085
 21
783.9571877906155
 31
0.0
  0
LINE
  5
BB5
100
AcDbEntity
  8
L1
100
AcDbLine
 10
1195.010368737085
 20
786.2071877906164
 30
0.0
 11
1195.010368737085
 21
795.2071877906164
 31
0.0
  0
LINE
  5
BB6
100
AcDbEntity
  8
L1
100
AcDbLine
 10
1189.010368737084
 20
783.9571877906155
 30
0.0
 11
1194.066938753763
 21
783.9571877906155
 31
0.0
  0
LINE
  5
BB7
100
AcDbEntity
  8
L1
100
AcDbLine
 10
1194.066938753763
 20
782.4571877906155
 30
0.0
 11
1189.010368737084
 21
782.4571877906155
 31
0.0
  0
CIRCLE
  5
BB8
100
AcDbEntity
  8
L1
100
AcDbCircle
 10
1199.010368737084
 20
783.2071877906155
 30
0.0
 40
2.399999999999993
  0
CIRCLE
  5
BB9
100
AcDbEntity
  8
L1
100
AcDbCircle
 10
1199.010368737084
 20
783.2071877906155
 30
0.0
 40
2.099999999999994
  0
LINE
  5
BBA
100
AcDbEntity
  8
L6
 48
0.3
100
AcDbLine
 39
0.2
 10
1199.010368737084
 20
790.2071877906155
 30
0.0
 11
1199.010368737084
 21
776.2071877906155
 31
0.0
  0
LINE
  5
BBB
100
AcDbEntity
  8
L1
100
AcDbLine
 10
1209.010368737085
 20
782.4571877906155
 30
0.0
 11
1209.010368737085
 21
783.9571877906155
 31
0.0
  0
LINE
  5
BBC
100
AcDbEntity
  8
L1
100
AcDbLine
 10
1203.010368737085
 20
786.2071877906164
 30
0.0
 11
1203.010368737085
 21
795.2071877906164
 31
0.0
  0
LINE
  5
BBD
100
AcDbEntity
  8
L1
100
AcDbLine
 10
1209.010368737085
 20
783.9571877906155
 30
0.0
 11
1203.953798720406
 21
783.9571877906155
 31
0.0
  0
LINE
  5
BBE
100
AcDbEntity
  8
L1
100
AcDbLine
 10
1203.953798720406
 20
782.4571877906155
 30
0.0
 11
1209.010368737085
 21
782.4571877906155
 31
0.0
  0
CIRCLE
  5
BBF
100
AcDbEntity
  8
L1
100
AcDbCircle
 10
1263.010368737085
 20
767.2071877906168
 30
0.0
 40
2.399999999999993
  0
CIRCLE
  5
BC0
100
AcDbEntity
  8
L1
100
AcDbCircle
 10
1263.010368737085
 20
767.2071877906168
 30
0.0
 40
2.099999999999994
  0
LINE
  5
BC1
100
AcDbEntity
  8
L6
 48
0.3
100
AcDbLine
 39
0.2
 10
1263.010368737085
 20
764.2071877906168
 30
0.0
 11
1263.010368737085
 21
770.2071877906169
 31
0.0
  0
CIRCLE
  5
BC2
100
AcDbEntity
  8
L1
100
AcDbCircle
 10
1263.010368737085
 20
767.2071877906168
 30
0.0
 40
6.0
  0
LINE
  5
BC3
100
AcDbEntity
  8
L6
 48
0.3
100
AcDbLine
 39
0.2
 10
1249.010368737085
 20
790.2071877906155
 30
0.0
 11
1249.010368737085
 21
776.2071877906155
 31
0.0
  0
CIRCLE
  5
BC4
100
AcDbEntity
  8
L1
100
AcDbCircle
 10
1249.010368737085
 20
783.2071877906155
 30
0.0
 40
2.099999999999994
  0
CIRCLE
  5
BC5
100
AcDbEntity
  8
L1
100
AcDbCircle
 10
1249.010368737085
 20
783.2071877906155
 30
0.0
 40
2.399999999999993
  0
LINE
  5
BC6
100
AcDbEntity
  8
L1
100
AcDbLine
 10
1239.010368737085
 20
782.4571877906155
 30
0.0
 11
1239.010368737085
 21
783.9571877906155
 31
0.0
  0
LINE
  5
BC7
100
AcDbEntity
  8
L1
100
AcDbLine
 10
1259.010368737085
 20
782.4571877906155
 30
0.0
 11
1259.010368737085
 21
783.9571877906155
 31
0.0
  0
ARC
  5
BC8
100
AcDbEntity
  8
L1
100
AcDbCircle
 10
1249.010368737085
 20
783.2071877906155
 30
0.0
 40
4.999999999999987
100
AcDbArc
 50
8.62692655867861
 51
171.3730734413213
  0
LINE
  5
BC9
100
AcDbEntity
  8
L1
100
AcDbLine
 10
1239.010368737085
 20
783.9571877906155
 30
0.0
 11
1244.066938753763
 21
783.9571877906155
 31
0.0
  0
LINE
  5
BCA
100
AcDbEntity
  8
L1
100
AcDbLine
 10
1259.010368737085
 20
783.9571877906155
 30
0.0
 11
1253.953798720406
 21
783.9571877906155
 31
0.0
  0
LINE
  5
BCB
100
AcDbEntity
  8
L6
 48
0.3
100
AcDbLine
 39
0.2
 10
1238.010368737085
 20
783.2071877906155
 30
0.0
 11
1261.010368737085
 21
783.2071877906155
 31
0.0
  0
ARC
  5
BCC
100
AcDbEntity
  8
L1
100
AcDbCircle
 10
1249.010368737085
 20
783.2071877906155
 30
0.0
 40
4.999999999999987
100
AcDbArc
 50
188.6269265586788
 51
351.3730734413213
  0
LINE
  5
BCD
100
AcDbEntity
  8
L1
100
AcDbLine
 10
1244.066938753763
 20
782.4571877906155
 30
0.0
 11
1239.010368737085
 21
782.4571877906155
 31
0.0
  0
LINE
  5
BCE
100
AcDbEntity
  8
L6
 48
0.3
100
AcDbLine
 39
0.2
 10
1266.010368737085
 20
767.2071877906168
 30
0.0
 11
1260.010368737085
 21
767.2071877906168
 31
0.0
  0
LINE
  5
BCF
100
AcDbEntity
  8
L1
100
AcDbLine
 10
1253.953798720406
 20
782.4571877906155
 30
0.0
 11
1259.010368737085
 21
782.4571877906155
 31
0.0
  0
ARC
  5
BD0
100
AcDbEntity
  8
L1
100
AcDbCircle
 10
1285.010368737085
 20
789.2071877906155
 30
0.0
 40
8.499999999999978
100
AcDbArc
 50
180.0
 51
270.0
  0
ARC
  5
BD1
100
AcDbEntity
  8
L1
100
AcDbCircle
 10
1290.010368737084
 20
784.2071877906155
 30
0.0
 40
0.9999999999999975
100
AcDbArc
 50
270.0
 51
0.0
  0
LINE
  5
BD2
100
AcDbEntity
  8
L6
 48
0.3
100
AcDbLine
 39
0.2
 10
1285.010368737085
 20
798.2071877906155
 30
0.0
 11
1285.010368737085
 21
780.2071877906155
 31
0.0
  0
ARC
  5
BD3
100
AcDbEntity
  8
L1
100
AcDbCircle
 10
1285.010368737085
 20
789.2071877906155
 30
0.0
 40
5.999999999999984
100
AcDbArc
 50
180.0
 51
270.0
  0
ARC
  5
BD4
100
AcDbEntity
  8
L1
100
AcDbCircle
 10
1289.010368737085
 20
793.2071877906155
 30
0.0
 40
4.999999999999987
100
AcDbArc
 50
0.0
 51
90.0
  0
ARC
  5
BD6
100
AcDbEntity
  8
L1
100
AcDbCircle
 10
1289.010368737085
 20
793.2071877906155
 30
0.0
 40
1.999999999999994
100
AcDbArc
 50
0.0
 51
90.0
  0
LINE
  5
BD7
100
AcDbEntity
  8
L6
 48
0.3
100
AcDbLine
 39
0.2
 10
1294.010368737085
 20
789.2071877906155
 30
0.0
 11
1276.010368737084
 21
789.2071877906155
 31
0.0
  0
LINE
  5
BD8
100
AcDbEntity
  8
L1
100
AcDbLine
 10
1279.010368737085
 20
791.2071877906155
 30
0.0
 11
1276.510368737085
 21
791.2071877906155
 31
0.0
  0
LINE
  5
BD9
100
AcDbEntity
  8
L1
100
AcDbLine
 10
1279.010368737085
 20
793.2071877906155
 30
0.0
 11
1276.510368737085
 21
793.2071877906155
 31
0.0
  0
LINE
  5
BDB
100
AcDbEntity
  8
L1
100
AcDbLine
 10
1279.010368737085
 20
789.2071877906155
 30
0.0
 11
1279.010368737085
 21
794.2071877906155
 31
0.0
  0
ARC
  5
BDC
100
AcDbEntity
  8
L1
100
AcDbCircle
 10
1280.010368737085
 20
794.2071877906155
 30
0.0
 40
0.9999999999999975
100
AcDbArc
 50
90.0
 51
180.0
  0
ARC
  5
BDD
100
AcDbEntity
  8
L1
100
AcDbCircle
 10
1275.510368737085
 20
794.2071877906155
 30
0.0
 40
0.9999999999999975
100
AcDbArc
 50
0.0
 51
90.0
  0
LINE
  5
BDE
100
AcDbEntity
  8
L1
100
AcDbLine
 10
1276.510368737085
 20
789.2071877906155
 30
0.0
 11
1276.510368737085
 21
794.2071877906155
 31
0.0
  0
LINE
  5
BE1
100
AcDbEntity
  8
L1
100
AcDbLine
 10
1280.010368737085
 20
795.2071877906155
 30
0.0
 11
1289.010368737085
 21
795.2071877906155
 31
0.0
  0
LINE
  5
BE2
100
AcDbEntity
  8
L1
100
AcDbLine
 10
1291.010368737085
 20
793.2071877906155
 30
0.0
 11
1291.010368737085
 21
784.2071877906155
 31
0.0
  0
ARC
  5
BE3
100
AcDbEntity
  8
L1
100
AcDbCircle
 10
1290.010368737084
 20
779.7071877906155
 30
0.0
 40
0.9999999999999975
100
AcDbArc
 50
0.0
 51
90.0
  0
LINE
  5
BE4
100
AcDbEntity
  8
L1
100
AcDbLine
 10
1289.010368737085
 20
783.2071877906155
 30
0.0
 11
1289.010368737085
 21
780.7071877906155
 31
0.0
  0
LINE
  5
BE5
100
AcDbEntity
  8
L1
100
AcDbLine
 10
1287.010368737085
 20
783.2071877906155
 30
0.0
 11
1287.010368737085
 21
780.7071877906155
 31
0.0
  0
LINE
  5
BE6
100
AcDbEntity
  8
L1
100
AcDbLine
 10
1285.010368737085
 20
783.2071877906155
 30
0.0
 11
1290.010368737084
 21
783.2071877906155
 31
0.0
  0
LINE
  5
BE7
100
AcDbEntity
  8
L1
100
AcDbLine
 10
1285.010368737085
 20
780.7071877906155
 30
0.0
 11
1290.010368737084
 21
780.7071877906155
 31
0.0
  0
ARC
  5
BE8
100
AcDbEntity
  8
L1
100
AcDbCircle
 10
1279.010368737085
 20
753.2071877906155
 30
0.0
 40
4.999999999999987
100
AcDbArc
 50
98.62692655867881
 51
261.3730734413213
  0
LINE
  5
BE9
100
AcDbEntity
  8
L6
 48
0.3
100
AcDbLine
 39
0.2
 10
1279.010368737085
 20
764.2071877906155
 30
0.0
 11
1279.010368737085
 21
741.2071877906155
 31
0.0
  0
ARC
  5
BEA
100
AcDbEntity
  8
L1
100
AcDbCircle
 10
1279.010368737085
 20
753.2071877906155
 30
0.0
 40
4.999999999999987
100
AcDbArc
 50
278.6269265586786
 51
81.37307344132134
  0
CIRCLE
  5
BEB
100
AcDbEntity
  8
L1
100
AcDbCircle
 10
1279.010368737085
 20
753.2071877906155
 30
0.0
 40
2.099999999999994
  0
CIRCLE
  5
BEC
100
AcDbEntity
  8
L1
100
AcDbCircle
 10
1279.010368737085
 20
753.2071877906155
 30
0.0
 40
2.399999999999993
  0
LINE
  5
BED
100
AcDbEntity
  8
L1
100
AcDbLine
 10
1278.260368737085
 20
758.1506177739365
 30
0.0
 11
1278.260368737085
 21
763.2071877906155
 31
0.0
  0
LINE
  5
BEE
100
AcDbEntity
  8
L1
100
AcDbLine
 10
1279.760368737085
 20
763.2071877906155
 30
0.0
 11
1279.760368737085
 21
758.1506177739365
 31
0.0
  0
LINE
  5
BEF
100
AcDbEntity
  8
L1
100
AcDbLine
 10
1278.260368737085
 20
763.2071877906155
 30
0.0
 11
1279.760368737085
 21
763.2071877906155
 31
0.0
  0
LINE
  5
BF0
100
AcDbEntity
  8
L6
 48
0.3
100
AcDbLine
 39
0.2
 10
1286.010368737085
 20
753.2071877906155
 30
0.0
 11
1272.010368737085
 21
753.2071877906155
 31
0.0
  0
LINE
  5
BF1
100
AcDbEntity
  8
L1
100
AcDbLine
 10
1278.260368737085
 20
743.2071877906155
 30
0.0
 11
1279.760368737085
 21
743.2071877906155
 31
0.0
  0
LINE
  5
BF2
100
AcDbEntity
  8
L1
100
AcDbLine
 10
1278.260368737085
 20
748.2637578072945
 30
0.0
 11
1278.260368737085
 21
743.2071877906155
 31
0.0
  0
LINE
  5
BF3
100
AcDbEntity
  8
L1
100
AcDbLine
 10
1279.760368737085
 20
743.2071877906155
 30
0.0
 11
1279.760368737085
 21
748.2637578072945
 31
0.0
  0
LINE
  5
BF4
100
AcDbEntity
  8
L1
100
AcDbLine
 10
1229.010368737085
 20
707.207187790616
 30
0.0
 11
1276.010368737084
 21
707.207187790616
 31
0.0
  0
LINE
  5
BF5
100
AcDbEntity
  8
L1
100
AcDbLine
 10
1229.010368737085
 20
699.207187790616
 30
0.0
 11
1276.010368737084
 21
699.207187790616
 31
0.0
  0
LINE
  5
BF6
100
AcDbEntity
  8
L1
100
AcDbLine
 10
1229.010368737085
 20
707.207187790616
 30
0.0
 11
1229.010368737085
 21
733.2071877906155
 31
0.0
  0
LINE
  5
BF7
100
AcDbEntity
  8
L1
100
AcDbLine
 10
1203.010368737085
 20
733.2071877906169
 30
0.0
 11
1229.010368737085
 21
733.2071877906169
 31
0.0
  0
ARC
  5
BF8
100
AcDbEntity
  8
L1
100
AcDbCircle
 10
1279.010368737085
 20
703.207187790616
 30
0.0
 40
4.999999999999987
100
AcDbArc
 50
98.62692655867881
 51
261.3730734413213
  0
LINE
  5
BF9
100
AcDbEntity
  8
L6
 48
0.3
100
AcDbLine
 39
0.2
 10
1279.010368737085
 20
714.2071877906159
 30
0.0
 11
1279.010368737085
 21
691.207187790616
 31
0.0
  0
ARC
  5
BFA
100
AcDbEntity
  8
L1
100
AcDbCircle
 10
1279.010368737085
 20
703.207187790616
 30
0.0
 40
4.999999999999987
100
AcDbArc
 50
278.6269265586786
 51
81.37307344132134
  0
LINE
  5
BFB
100
AcDbEntity
  8
L1
100
AcDbLine
 10
1260.430143253248
 20
728.1624962127129
 30
0.0
 11
1263.96567715918
 21
724.6269623067801
 31
0.0
  0
LINE
  5
BFC
100
AcDbEntity
  8
L1
100
AcDbLine
 10
1267.501211065113
 20
728.1624962127125
 30
0.0
 11
1263.96567715918
 21
731.6980301186454
 31
0.0
  0
ARC
  5
BFD
100
AcDbEntity
  8
L1
100
AcDbCircle
 10
1265.733444112147
 20
726.3947292597463
 30
0.0
 40
2.5
100
AcDbArc
 50
225.0
 51
45.0
  0
LINE
  5
BFE
100
AcDbEntity
  8
L1
100
AcDbLine
 10
1282.010368737084
 20
707.207187790616
 30
0.0
 11
1291.010368737085
 21
707.207187790616
 31
0.0
  0
CIRCLE
  5
BFF
100
AcDbEntity
  8
L1
100
AcDbCircle
 10
1279.010368737085
 20
703.207187790616
 30
0.0
 40
2.099999999999994
  0
CIRCLE
  5
C00
100
AcDbEntity
  8
L1
100
AcDbCircle
 10
1279.010368737085
 20
703.207187790616
 30
0.0
 40
2.399999999999993
  0
LINE
  5
C01
100
AcDbEntity
  8
L1
100
AcDbLine
 10
1278.260368737085
 20
713.207187790616
 30
0.0
 11
1279.760368737085
 21
713.207187790616
 31
0.0
  0
LINE
  5
C02
100
AcDbEntity
  8
L1
100
AcDbLine
 10
1278.260368737085
 20
708.150617773937
 30
0.0
 11
1278.260368737085
 21
713.207187790616
 31
0.0
  0
LINE
  5
C03
100
AcDbEntity
  8
L1
100
AcDbLine
 10
1279.760368737085
 20
713.207187790616
 30
0.0
 11
1279.760368737085
 21
708.150617773937
 31
0.0
  0
LINE
  5
C04
100
AcDbEntity
  8
L6
 48
0.3
100
AcDbLine
 39
0.2
 10
1286.010368737085
 20
703.207187790616
 30
0.0
 11
1272.010368737085
 21
703.207187790616
 31
0.0
  0
LINE
  5
C05
100
AcDbEntity
  8
L1
100
AcDbLine
 10
1279.760368737085
 20
688.207187790616
 30
0.0
 11
1279.760368737085
 21
683.150617773937
 31
0.0
  0
LINE
  5
C06
100
AcDbEntity
  8
L1
100
AcDbLine
 10
1278.260368737085
 20
683.150617773937
 30
0.0
 11
1278.260368737085
 21
688.207187790616
 31
0.0
  0
LINE
  5
C07
100
AcDbEntity
  8
L1
100
AcDbLine
 10
1282.010368737084
 20
699.207187790616
 30
0.0
 11
1291.010368737085
 21
699.207187790616
 31
0.0
  0
LINE
  5
C08
100
AcDbEntity
  8
L1
100
AcDbLine
 10
1278.260368737085
 20
688.207187790616
 30
0.0
 11
1279.760368737085
 21
688.207187790616
 31
0.0
  0
LINE
  5
C09
100
AcDbEntity
  8
L1
100
AcDbLine
 10
1278.260368737085
 20
693.2071877906159
 30
0.0
 11
1279.760368737085
 21
693.2071877906159
 31
0.0
  0
LINE
  5
C0A
100
AcDbEntity
  8
L1
100
AcDbLine
 10
1278.260368737085
 20
698.2637578072949
 30
0.0
 11
1278.260368737085
 21
693.2071877906159
 31
0.0
  0
LINE
  5
C0B
100
AcDbEntity
  8
L1
100
AcDbLine
 10
1279.760368737085
 20
693.2071877906159
 30
0.0
 11
1279.760368737085
 21
698.2637578072949
 31
0.0
  0
CIRCLE
  5
C0C
100
AcDbEntity
  8
L1
100
AcDbCircle
 10
1279.010368737085
 20
678.207187790616
 30
0.0
 40
2.399999999999993
  0
CIRCLE
  5
C0D
100
AcDbEntity
  8
L1
100
AcDbCircle
 10
1279.010368737085
 20
678.207187790616
 30
0.0
 40
2.099999999999994
  0
ARC
  5
C0E
100
AcDbEntity
  8
L1
100
AcDbCircle
 10
1279.010368737085
 20
678.207187790616
 30
0.0
 40
4.999999999999987
100
AcDbArc
 50
98.62692655867881
 51
261.3730734413213
  0
ARC
  5
C0F
100
AcDbEntity
  8
L1
100
AcDbCircle
 10
1279.010368737085
 20
678.207187790616
 30
0.0
 40
4.999999999999987
100
AcDbArc
 50
278.6269265586786
 51
81.37307344132134
  0
LINE
  5
C10
100
AcDbEntity
  8
L1
100
AcDbLine
 10
1279.760368737085
 20
668.2071877906159
 30
0.0
 11
1279.760368737085
 21
673.2637578072949
 31
0.0
  0
LINE
  5
C11
100
AcDbEntity
  8
L1
100
AcDbLine
 10
1278.260368737085
 20
673.2637578072949
 30
0.0
 11
1278.260368737085
 21
668.2071877906159
 31
0.0
  0
LINE
  5
C12
100
AcDbEntity
  8
L1
100
AcDbLine
 10
1278.260368737085
 20
668.2071877906159
 30
0.0
 11
1279.760368737085
 21
668.2071877906159
 31
0.0
  0
LINE
  5
C13
100
AcDbEntity
  8
L6
 48
0.3
100
AcDbLine
 39
0.2
 10
1286.010368737085
 20
678.207187790616
 30
0.0
 11
1272.010368737085
 21
678.207187790616
 31
0.0
  0
ARC
  5
C14
100
AcDbEntity
  8
L1
100
AcDbCircle
 10
1279.010368737085
 20
603.2071877906169
 30
0.0
 40
4.999999999999987
100
AcDbArc
 50
98.62692655867881
 51
261.3730734413213
  0
ARC
  5
C15
100
AcDbEntity
  8
L1
100
AcDbCircle
 10
1279.010368737085
 20
603.2071877906169
 30
0.0
 40
4.999999999999987
100
AcDbArc
 50
98.62692655867881
 51
261.3730734413213
  0
ARC
  5
C16
100
AcDbEntity
  8
L1
100
AcDbCircle
 10
1279.010368737085
 20
603.2071877906169
 30
0.0
 40
4.999999999999987
100
AcDbArc
 50
278.6269265586786
 51
81.37307344132134
  0
LINE
  5
C17
100
AcDbEntity
  8
L6
 48
0.3
100
AcDbLine
 39
0.2
 10
1279.010368737085
 20
614.2071877906159
 30
0.0
 11
1279.010368737085
 21
591.2071877906169
 31
0.0
  0
LINE
  5
C18
100
AcDbEntity
  8
L6
100
AcDbLine
 10
1279.010368737085
 20
614.2071877906168
 30
0.0
 11
1279.010368737085
 21
591.2071877906169
 31
0.0
  0
ARC
  5
C19
100
AcDbEntity
  8
L1
100
AcDbCircle
 10
1279.010368737085
 20
603.2071877906169
 30
0.0
 40
4.999999999999987
100
AcDbArc
 50
278.6269265586786
 51
81.37307344132134
  0
LINE
  5
C1A
100
AcDbEntity
  8
L1
100
AcDbLine
 10
1229.010368737085
 20
657.2071877906169
 30
0.0
 11
1276.010368737084
 21
657.2071877906169
 31
0.0
  0
LINE
  5
C1B
100
AcDbEntity
  8
L1
100
AcDbLine
 10
1229.010368737085
 20
649.2071877906169
 30
0.0
 11
1276.010368737084
 21
649.2071877906169
 31
0.0
  0
LINE
  5
C1C
100
AcDbEntity
  8
L1
100
AcDbLine
 10
1229.010368737085
 20
607.2071877906169
 30
0.0
 11
1276.010368737084
 21
607.2071877906169
 31
0.0
  0
LINE
  5
C1D
100
AcDbEntity
  8
L1
100
AcDbLine
 10
1229.010368737085
 20
607.2071877906169
 30
0.0
 11
1229.010368737085
 21
649.2071877906169
 31
0.0
  0
ARC
  5
C1E
100
AcDbEntity
  8
L1
100
AcDbCircle
 10
1279.010368737085
 20
653.2071877906169
 30
0.0
 40
4.999999999999987
100
AcDbArc
 50
278.6269265586786
 51
81.37307344132134
  0
ARC
  5
C1F
100
AcDbEntity
  8
L1
100
AcDbCircle
 10
1279.010368737085
 20
653.2071877906169
 30
0.0
 40
4.999999999999987
100
AcDbArc
 50
98.62692655867881
 51
261.3730734413213
  0
LINE
  5
C20
100
AcDbEntity
  8
L6
 48
0.3
100
AcDbLine
 39
0.2
 10
1279.010368737085
 20
664.2071877906159
 30
0.0
 11
1279.010368737085
 21
641.2071877906169
 31
0.0
  0
LINE
  5
C21
100
AcDbEntity
  8
L1
100
AcDbLine
 10
1282.010368737084
 20
657.2071877906169
 30
0.0
 11
1291.010368737085
 21
657.2071877906169
 31
0.0
  0
CIRCLE
  5
C22
100
AcDbEntity
  8
L1
100
AcDbCircle
 10
1279.010368737085
 20
653.2071877906169
 30
0.0
 40
2.399999999999993
  0
CIRCLE
  5
C23
100
AcDbEntity
  8
L1
100
AcDbCircle
 10
1279.010368737085
 20
653.2071877906169
 30
0.0
 40
2.099999999999994
  0
LINE
  5
C24
100
AcDbEntity
  8
L1
100
AcDbLine
 10
1278.260368737085
 20
663.207187790616
 30
0.0
 11
1279.760368737085
 21
663.207187790616
 31
0.0
  0
LINE
  5
C25
100
AcDbEntity
  8
L1
100
AcDbLine
 10
1279.760368737085
 20
663.207187790616
 30
0.0
 11
1279.760368737085
 21
658.1506177739379
 31
0.0
  0
LINE
  5
C26
100
AcDbEntity
  8
L1
100
AcDbLine
 10
1278.260368737085
 20
658.1506177739379
 30
0.0
 11
1278.260368737085
 21
663.207187790616
 31
0.0
  0
LINE
  5
C27
100
AcDbEntity
  8
L6
 48
0.3
100
AcDbLine
 39
0.2
 10
1286.010368737085
 20
653.2071877906169
 30
0.0
 11
1272.010368737085
 21
653.2071877906169
 31
0.0
  0
LINE
  5
C28
100
AcDbEntity
  8
L1
100
AcDbLine
 10
1282.010368737084
 20
649.2071877906169
 30
0.0
 11
1291.010368737085
 21
649.2071877906169
 31
0.0
  0
LINE
  5
C29
100
AcDbEntity
  8
L1
100
AcDbLine
 10
1279.760368737085
 20
643.2071877906168
 30
0.0
 11
1279.760368737085
 21
648.2637578072949
 31
0.0
  0
LINE
  5
C2A
100
AcDbEntity
  8
L1
100
AcDbLine
 10
1278.260368737085
 20
648.2637578072949
 30
0.0
 11
1278.260368737085
 21
643.2071877906168
 31
0.0
  0
LINE
  5
C2B
100
AcDbEntity
  8
L1
100
AcDbLine
 10
1278.260368737085
 20
643.2071877906168
 30
0.0
 11
1279.760368737085
 21
643.2071877906168
 31
0.0
  0
LINE
  5
C2C
100
AcDbEntity
  8
L1
100
AcDbLine
 10
1282.010368737084
 20
607.2071877906169
 30
0.0
 11
1291.010368737085
 21
607.2071877906169
 31
0.0
  0
CIRCLE
  5
C2D
100
AcDbEntity
  8
L1
100
AcDbCircle
 10
1279.010368737085
 20
603.2071877906169
 30
0.0
 40
2.399999999999993
  0
CIRCLE
  5
C2E
100
AcDbEntity
  8
L1
100
AcDbCircle
 10
1279.010368737085
 20
603.2071877906169
 30
0.0
 40
2.099999999999994
  0
CIRCLE
  5
C2F
100
AcDbEntity
  8
L1
100
AcDbCircle
 10
1279.010368737085
 20
603.2071877906169
 30
0.0
 40
2.099999999999994
  0
CIRCLE
  5
C30
100
AcDbEntity
  8
L1
100
AcDbCircle
 10
1279.010368737085
 20
603.2071877906169
 30
0.0
 40
2.399999999999993
  0
LINE
  5
C31
100
AcDbEntity
  8
L1
100
AcDbLine
 10
1278.260368737085
 20
613.2071877906168
 30
0.0
 11
1279.760368737085
 21
613.2071877906168
 31
0.0
  0
LINE
  5
C32
100
AcDbEntity
  8
L1
100
AcDbLine
 10
1278.260368737085
 20
608.1506177739379
 30
0.0
 11
1278.260368737085
 21
613.2071877906168
 31
0.0
  0
LINE
  5
C33
100
AcDbEntity
  8
L1
100
AcDbLine
 10
1279.760368737085
 20
613.2071877906168
 30
0.0
 11
1279.760368737085
 21
608.1506177739379
 31
0.0
  0
LINE
  5
C34
100
AcDbEntity
  8
L6
 48
0.3
100
AcDbLine
 39
0.2
 10
1286.010368737085
 20
603.2071877906169
 30
0.0
 11
1272.010368737085
 21
603.2071877906169
 31
0.0
  0
LINE
  5
C35
100
AcDbEntity
  8
L1
100
AcDbLine
 10
1294.010368737085
 20
603.2071877906169
 30
0.0
 11
1294.010368737085
 21
604.2071877906169
 31
0.0
1001
ACAD
1000
ASC_BOUNDS
1002
{
1070
    19
1002
}
  0
LINE
  5
C36
100
AcDbEntity
  8
L1
100
AcDbLine
 10
1229.010368737085
 20
599.2071877906169
 30
0.0
 11
1276.010368737084
 21
599.2071877906169
 31
0.0
  0
LINE
  5
C37
100
AcDbEntity
  8
L1
100
AcDbLine
 10
1229.010368737085
 20
569.6005889405437
 30
0.0
 11
1229.010368737085
 21
599.2071877906169
 31
0.0
  0
LINE
  5
C38
100
AcDbEntity
  8
L1
100
AcDbLine
 10
1282.010368737084
 20
599.2071877906169
 30
0.0
 11
1291.010368737085
 21
599.2071877906169
 31
0.0
  0
LINE
  5
C39
100
AcDbEntity
  8
L1
100
AcDbLine
 10
1282.010368737084
 20
599.2071877906169
 30
0.0
 11
1291.010368737085
 21
599.2071877906169
 31
0.0
  0
LINE
  5
C3A
100
AcDbEntity
  8
L1
100
AcDbLine
 10
1279.760368737085
 20
593.2071877906168
 30
0.0
 11
1279.760368737085
 21
598.2637578072949
 31
0.0
  0
LINE
  5
C3B
100
AcDbEntity
  8
L1
100
AcDbLine
 10
1278.260368737085
 20
598.2637578072949
 30
0.0
 11
1278.260368737085
 21
593.2071877906168
 31
0.0
  0
LINE
  5
C3C
100
AcDbEntity
  8
L1
100
AcDbLine
 10
1278.260368737085
 20
593.2071877906168
 30
0.0
 11
1279.760368737085
 21
593.2071877906168
 31
0.0
  0
LINE
  5
C3D
100
AcDbEntity
  8
L1
100
AcDbLine
 10
1278.260368737085
 20
593.2071877906168
 30
0.0
 11
1279.760368737085
 21
593.2071877906168
 31
0.0
  0
LINE
  5
C3E
100
AcDbEntity
  8
L1
100
AcDbLine
 10
1278.260368737085
 20
598.2637578072949
 30
0.0
 11
1278.260368737085
 21
593.2071877906168
 31
0.0
  0
LINE
  5
C3F
100
AcDbEntity
  8
L1
100
AcDbLine
 10
1279.760368737085
 20
593.2071877906168
 30
0.0
 11
1279.760368737085
 21
598.2637578072949
 31
0.0
  0
LINE
  5
C40
100
AcDbEntity
  8
L1
100
AcDbLine
 10
979.0103687370853
 20
559.6005889405441
 30
0.0
 11
969.0103687370854
 21
569.6005889405437
 31
0.0
  0
LINE
  5
C41
100
AcDbEntity
  8
L1
100
AcDbLine
 10
1219.010368737085
 20
559.6005889405441
 30
0.0
 11
1229.010368737085
 21
569.6005889405437
 31
0.0
  0
LINE
  5
D29
100
AcDbEntity
  8
L1
100
AcDbLine
 10
1291.445963039755
 20
946.3340496506647
 30
0.0
 11
1245.945963039754
 21
946.3340496506647
 31
0.0
  0
LINE
  5
D2B
100
AcDbEntity
  8
L1
100
AcDbLine
 10
1291.445963039755
 20
948.3340496506649
 30
0.0
 11
1291.445963039755
 21
946.3340496506647
 31
0.0
  0
LINE
  5
D2C
100
AcDbEntity
  8
L1
100
AcDbLine
 10
1271.445963039755
 20
948.334049650664
 30
0.0
 11
1271.376121500772
 21
946.3340496506647
 31
0.0
  0
LINE
  5
D2D
100
AcDbEntity
  8
L1
100
AcDbLine
 10
1272.345963039754
 20
946.3340496506647
 30
0.0
 11
1272.345963039754
 21
948.3340496506649
 31
0.0
  0
LINE
  5
D2E
100
AcDbEntity
  8
L1
100
AcDbLine
 10
1275.945963039754
 20
946.3340496506647
 30
0.0
 11
1274.791262501375
 21
948.3340496506649
 31
0.0
  0
LINE
  5
D2F
100
AcDbEntity
  8
L1
100
AcDbLine
 10
1282.945963039755
 20
946.3340496506647
 30
0.0
 11
1284.100663578134
 21
948.3340496506649
 31
0.0
  0
LINE
  5
D30
100
AcDbEntity
  8
L1
100
AcDbLine
 10
1257.445963039754
 20
948.334049650664
 30
0.0
 11
1257.515804578738
 21
946.3340496506647
 31
0.0
  0
LINE
  5
D31
100
AcDbEntity
  8
L1
100
AcDbLine
 10
1249.445963039754
 20
946.3340496506647
 30
0.0
 11
1252.945963039755
 21
946.3340496506647
 31
0.0
  0
LINE
  5
D32
100
AcDbEntity
  8
L1
100
AcDbLine
 10
1252.945963039755
 20
946.3340496506647
 30
0.0
 11
1254.100663578133
 21
948.3340496506649
 31
0.0
  0
LINE
  5
D35
100
AcDbEntity
  8
L1
100
AcDbLine
 10
1245.945963039754
 20
946.3340496506647
 30
0.0
 11
1244.791262501375
 21
948.3340496506649
 31
0.0
  0
LINE
  5
D36
100
AcDbEntity
  8
L1
100
AcDbLine
 10
1195.945963039754
 20
946.3340496506647
 30
0.0
 11
1202.945963039754
 21
946.3340496506647
 31
0.0
  0
LINE
  5
D37
100
AcDbEntity
  8
L1
100
AcDbLine
 10
1202.945963039754
 20
946.3340496506647
 30
0.0
 11
1204.100663578134
 21
948.3340496506649
 31
0.0
  0
LINE
  5
D38
100
AcDbEntity
  8
L1
100
AcDbLine
 10
1195.945963039754
 20
946.3340496506647
 30
0.0
 11
1194.791262501375
 21
948.3340496506649
 31
0.0
  0
LINE
  5
D3A
100
AcDbEntity
  8
L1
100
AcDbLine
 10
1152.945963039754
 20
946.3340496506647
 30
0.0
 11
1154.100663578134
 21
948.3340496506649
 31
0.0
  0
LINE
  5
D3B
100
AcDbEntity
  8
L1
100
AcDbLine
 10
1145.945963039754
 20
946.3340496506647
 30
0.0
 11
1152.945963039754
 21
946.3340496506647
 31
0.0
  0
LINE
  5
D3C
100
AcDbEntity
  8
L1
100
AcDbLine
 10
1145.945963039754
 20
946.3340496506647
 30
0.0
 11
1144.791262501375
 21
948.3340496506649
 31
0.0
  0
LINE
  5
D75
100
AcDbEntity
  8
L6
100
AcDbLine
 10
32.26528447308647
 20
308.2071877906196
 30
0.0
 11
32.26528447308647
 21
326.2071877906196
 31
0.0
  0
LINE
  5
D76
100
AcDbEntity
  8
L6
100
AcDbLine
 10
374.2652844730864
 20
323.2071877906196
 30
0.0
 11
362.2652844730864
 21
323.2071877906196
 31
0.0
  0
LINE
  5
D77
100
AcDbEntity
  8
L1
100
AcDbLine
 10
363.4652844730867
 20
538.2071877906168
 30
0.0
 11
348.2652844730869
 21
538.2071877906168
 31
0.0
  0
LINE
  5
D78
100
AcDbEntity
  8
L1
100
AcDbLine
 10
395.8941033328101
 20
507.2071877906178
 30
0.0
 11
348.2652844730864
 21
507.2071877906178
 31
0.0
  0
LINE
  5
D79
100
AcDbEntity
  8
L1
100
AcDbLine
 10
348.2652844730864
 20
499.2071877906178
 30
0.0
 11
395.8941033328101
 21
499.2071877906178
 31
0.0
  0
LINE
  5
D7A
100
AcDbEntity
  8
L1
100
AcDbLine
 10
348.2652844730864
 20
449.2071877906178
 30
0.0
 11
395.8941033328101
 21
449.2071877906178
 31
0.0
  0
LINE
  5
D7B
100
AcDbEntity
  8
L1
100
AcDbLine
 10
395.8941033328101
 20
457.2071877906187
 30
0.0
 11
348.2652844730864
 21
457.2071877906187
 31
0.0
  0
LINE
  5
D7C
100
AcDbEntity
  8
L1
100
AcDbLine
 10
348.2652844730864
 20
407.2071877906187
 30
0.0
 11
395.8941033328101
 21
407.2071877906187
 31
0.0
  0
LINE
  5
D7D
100
AcDbEntity
  8
L1
100
AcDbLine
 10
395.8941033328101
 20
399.2071877906187
 30
0.0
 11
348.2652844730864
 21
399.2071877906187
 31
0.0
  0
LINE
  5
D7E
100
AcDbEntity
  8
L1
100
AcDbLine
 10
348.2652844730864
 20
382.286877573832
 30
0.0
 11
397.8449742563034
 21
332.707187790615
 31
0.0
  0
LINE
  5
D7F
100
AcDbEntity
  8
L1
100
AcDbLine
 10
339.1855946898695
 20
373.207187790615
 30
0.0
 11
384.9992669946363
 21
327.3935154858477
 31
0.0
  0
LINE
  5
D80
100
AcDbEntity
  8
L1
100
AcDbLine
 10
413.6936251083811
 20
322.7788471553244
 30
0.0
 11
413.6936251083811
 21
783.6355284259093
 31
0.0
  0
LINE
  5
D81
100
AcDbEntity
  8
L1
100
AcDbLine
 10
417.2652844730865
 20
306.7071877906196
 30
0.0
 11
417.2652844730839
 21
799.7071877906141
 31
0.0
  0
LINE
  5
D82
100
AcDbEntity
  8
L6
100
AcDbLine
 10
382.2652844730864
 20
344.787187790564
 30
0.0
 11
382.2652844730864
 21
333.6271877906697
 31
0.0
  0
CIRCLE
  5
D83
100
AcDbEntity
  8
L1
100
AcDbCircle
 10
382.2652844730864
 20
339.2071877906169
 30
0.0
 40
4.649999999999988
  0
LINE
  5
D84
100
AcDbEntity
  8
L6
100
AcDbLine
 10
395.2652844730864
 20
317.2071877906196
 30
0.0
 11
413.2652844730865
 21
317.2071877906196
 31
0.0
  0
ARC
  5
D85
100
AcDbEntity
  8
L1
100
AcDbCircle
 10
404.2652844730865
 20
317.2071877906196
 30
0.0
 40
5.449999999999986
100
AcDbArc
 50
26.71425704307089
 51
243.2857429569141
  0
LINE
  5
D86
100
AcDbEntity
  8
L1
100
AcDbLine
 10
410.2652844730864
 20
330.2071877906196
 30
0.0
 11
398.8805081622358
 21
330.2071877906196
 31
0.0
  0
LINE
  5
D87
100
AcDbEntity
  8
L1
100
AcDbLine
 10
410.2652844730864
 20
332.7071877906196
 30
0.0
 11
397.8449742563034
 21
332.7071877906196
 31
0.0
  0
LINE
  5
D88
100
AcDbEntity
  8
L1
100
AcDbLine
 10
400.7652844730865
 20
305.7071877906196
 30
0.0
 11
398.6936251083816
 21
307.7788471553244
 31
0.0
  0
LINE
  5
D89
100
AcDbEntity
  8
L6
100
AcDbLine
 10
404.2652844730865
 20
308.2071877906196
 30
0.0
 11
404.2652844730865
 21
326.2071877906196
 31
0.0
  0
LINE
  5
D8A
100
AcDbEntity
  8
L1
100
AcDbLine
 10
415.7652844730864
 20
320.7071877906196
 30
0.0
 11
413.6936251083811
 21
322.7788471553244
 31
0.0
  0
LINE
  5
D8B
100
AcDbEntity
  8
L1
100
AcDbLine
 10
410.9099152479325
 20
319.0071877906179
 30
0.0
 11
407.3829759267041
 21
319.0071877906189
 31
0.0
  0
LINE
  5
D8C
100
AcDbEntity
  8
L1
100
AcDbLine
 10
407.8652844730854
 20
317.2071877906187
 30
0.0
 11
409.6763841764737
 21
316.5571877906254
 31
0.0
  0
LINE
  5
D8D
100
AcDbEntity
  8
L1
100
AcDbLine
 10
409.1335490509532
 20
319.6571877905948
 30
0.0
 11
407.3829759267041
 21
319.0071877906189
 31
0.0
  0
ARC
  5
D8E
100
AcDbEntity
  8
L1
100
AcDbCircle
 10
404.2652844730859
 20
317.2071877906196
 30
0.0
 40
3.599999999999818
100
AcDbArc
 50
359.9999999999855
 51
29.99999999998134
  0
LINE
  5
D8F
100
AcDbEntity
  8
L1
100
AcDbLine
 10
410.9099152479325
 20
317.2071877906178
 30
0.0
 11
407.8652844730809
 21
317.2071877906187
 31
0.0
  0
LINE
  5
D90
100
AcDbEntity
  8
L1
100
AcDbLine
 10
410.3625701104133
 20
308.917871131613
 30
0.0
 11
406.863859602668
 21
312.4165816393574
 31
0.0
  0
LINE
  5
D91
100
AcDbEntity
  8
L1
100
AcDbLine
 10
411.1858317170467
 20
311.5594327527937
 30
0.0
 11
407.3664320849234
 21
315.3788323849171
 31
0.0
  0
LINE
  5
D92
100
AcDbEntity
  8
L1
100
AcDbLine
 10
409.9130395109109
 20
310.2866405466579
 30
0.0
 11
406.0936398787866
 21
314.1060401787813
 31
0.0
  0
LINE
  5
D93
100
AcDbEntity
  8
L1
100
AcDbLine
 10
409.0558906243067
 20
314.6086126610766
 30
0.0
 11
407.3664320849261
 21
315.3788323849135
 31
0.0
  0
ARC
  5
D94
100
AcDbEntity
  8
L1
100
AcDbCircle
 10
412.1956475184506
 20
316.8571877906192
 30
0.0
 40
0.3
100
AcDbArc
 50
270.0
 51
344.5761478010012
  0
ARC
  5
D95
100
AcDbEntity
  8
L1
100
AcDbCircle
 10
404.2652844730865
 20
317.2071877906196
 30
0.0
 40
5.449999999999986
100
AcDbArc
 50
331.5232063643771
 51
353.1502535641704
  0
ARC
  5
D96
100
AcDbEntity
  8
L1
100
AcDbCircle
 10
408.2548768330002
 20
313.2175954307044
 30
0.0
 40
4.999999999999997
100
AcDbArc
 50
299.576147800951
 51
330.4238521990511
  0
LINE
  5
D97
100
AcDbEntity
  8
L1
100
AcDbLine
 10
412.5546011320916
 20
311.1099021532913
 30
0.0
 11
409.0558906243472
 21
314.6086126610357
 31
0.0
  0
ARC
  5
D98
100
AcDbEntity
  8
L1
100
AcDbCircle
 10
410.5747021447696
 20
309.1300031659689
 30
0.0
 40
0.3
100
AcDbArc
 50
225.0000000000306
 51
299.5761478009323
  0
ARC
  5
D99
100
AcDbEntity
  8
L1
100
AcDbCircle
 10
412.3424690977357
 20
310.8977701189355
 30
0.0
 40
0.3
100
AcDbArc
 50
330.4238521990298
 51
45.0
  0
ARC
  5
D9A
100
AcDbEntity
  8
L1
100
AcDbCircle
 10
410.9736996826909
 20
311.3473007184379
 30
0.0
 40
0.3
100
AcDbArc
 50
325.4756816970211
 51
45.0
  0
ARC
  5
D9B
100
AcDbEntity
  8
L1
100
AcDbCircle
 10
408.2548768330002
 20
313.2175954307044
 30
0.0
 40
3.599999999999997
100
AcDbArc
 50
304.5243183029814
 51
325.4756816970034
  0
ARC
  5
D9C
100
AcDbEntity
  8
L1
100
AcDbCircle
 10
410.1251715452667
 20
310.4987725810137
 30
0.0
 40
0.3
100
AcDbArc
 50
225.0
 51
304.5243183029787
  0
LINE
  5
D9D
100
AcDbEntity
  8
L1
100
AcDbLine
 10
412.5546011320916
 20
311.1099021532913
 30
0.0
 11
411.1858317170467
 21
311.5594327527937
 31
0.0
  0
LINE
  5
D9E
100
AcDbEntity
  8
L1
100
AcDbLine
 10
411.2208653964712
 20
311.1772739262946
 30
0.0
 11
412.6033792423081
 21
310.7496961628571
 31
0.0
  0
LINE
  5
D9F
100
AcDbEntity
  8
L1
100
AcDbLine
 10
410.2951983374091
 20
310.2516068672325
 30
0.0
 11
410.7227761008402
 21
308.8690930214102
 31
0.0
  0
LINE
  5
DA0
100
AcDbEntity
  8
L1
100
AcDbLine
 10
409.9130395109105
 20
310.2866405466579
 30
0.0
 11
410.3625701104138
 21
308.917871131613
 31
0.0
  0
LINE
  5
DA1
100
AcDbEntity
  8
L1
100
AcDbLine
 10
412.1956475184502
 20
319.6571877906185
 30
0.0
 11
409.1335490510023
 21
319.6571877906194
 31
0.0
  0
LINE
  5
DA2
100
AcDbEntity
  8
L1
100
AcDbLine
 10
412.1956475184506
 20
316.557187790619
 30
0.0
 11
409.6763841765282
 21
316.557187790619
 31
0.0
  0
LINE
  5
DA3
100
AcDbEntity
  8
L1
100
AcDbLine
 10
410.9099152479325
 20
317.2071877906178
 30
0.0
 11
412.1956475184506
 21
316.557187790619
 31
0.0
  0
LINE
  5
DA4
100
AcDbEntity
  8
L1
100
AcDbLine
 10
411.2049148979308
 20
317.4526423360343
 30
0.0
 11
412.4848429494181
 21
316.7774005565729
 31
0.0
  0
LINE
  5
DA5
100
AcDbEntity
  8
L1
100
AcDbLine
 10
411.2049148977425
 20
318.7617332451668
 30
0.0
 11
412.4848429494181
 21
319.4369750246655
 31
0.0
  0
LINE
  5
DA6
100
AcDbEntity
  8
L1
100
AcDbLine
 10
410.9099152479325
 20
319.0071877906179
 30
0.0
 11
412.1956475184502
 21
319.6571877906185
 31
0.0
  0
ARC
  5
DA7
100
AcDbEntity
  8
L1
100
AcDbCircle
 10
407.6649191002102
 20
318.1071877906183
 30
0.0
 40
4.999999999999997
100
AcDbArc
 50
344.5761478009643
 51
15.42385219905132
  0
ARC
  5
DA8
100
AcDbEntity
  8
L1
100
AcDbCircle
 10
412.1956475184502
 20
319.3571877906183
 30
0.0
 40
0.3
100
AcDbArc
 50
15.42385219908254
 51
90.0
  0
ARC
  5
DA9
100
AcDbEntity
  8
L1
100
AcDbCircle
 10
410.9099152479325
 20
317.507187790618
 30
0.0
 40
0.3
100
AcDbArc
 50
270.0
 51
349.5243183029787
  0
ARC
  5
DAA
100
AcDbEntity
  8
L1
100
AcDbCircle
 10
410.9099152479325
 20
318.7071877906187
 30
0.0
 40
0.3
100
AcDbArc
 50
10.47568169702118
 51
90.0
  0
ARC
  5
DAB
100
AcDbEntity
  8
L1
100
AcDbCircle
 10
407.6649191002102
 20
318.1071877906183
 30
0.0
 40
3.599999999999997
100
AcDbArc
 50
349.5243183029814
 51
10.47568169700344
  0
CIRCLE
  5
DAC
100
AcDbEntity
  8
L1
100
AcDbCircle
 10
404.2652844730865
 20
317.2071877906196
 30
0.0
 40
3.449999999999991
  0
LINE
  5
DAD
100
AcDbEntity
  8
L1
100
AcDbLine
 10
401.8152844730852
 20
309.2768247452545
 30
0.0
 11
401.8152844730852
 21
312.3389232127033
 31
0.0
  0
LINE
  5
DAE
100
AcDbEntity
  8
L1
100
AcDbLine
 10
404.9152844730847
 20
309.2768247452536
 30
0.0
 11
404.9152844730856
 21
311.7960880871764
 31
0.0
  0
LINE
  5
DAF
100
AcDbEntity
  8
L1
100
AcDbLine
 10
402.4652844730858
 20
310.5625570157722
 30
0.0
 11
401.8152844730852
 21
309.2768247452545
 31
0.0
  0
LINE
  5
DB0
100
AcDbEntity
  8
L1
100
AcDbLine
 10
402.7107390185369
 20
310.2675573659621
 30
0.0
 11
402.0354972390382
 21
308.9876293142874
 31
0.0
  0
LINE
  5
DB1
100
AcDbEntity
  8
L1
100
AcDbLine
 10
404.0198299276698
 20
310.2675573657738
 30
0.0
 11
404.6950717071313
 21
308.9876293142865
 31
0.0
  0
LINE
  5
DB2
100
AcDbEntity
  8
L1
100
AcDbLine
 10
404.2652844730859
 20
310.5625570157722
 30
0.0
 11
404.9152844730847
 21
309.2768247452536
 31
0.0
  0
ARC
  5
DB3
100
AcDbEntity
  8
L1
100
AcDbCircle
 10
402.1152844730854
 20
309.2768247452545
 30
0.0
 40
0.3
100
AcDbArc
 50
179.99999999999
 51
254.5761478009074
  0
ARC
  5
DB4
100
AcDbEntity
  8
L1
100
AcDbCircle
 10
403.3652844730863
 20
313.8075531634954
 30
0.0
 40
4.999999999999997
100
AcDbArc
 50
254.5761478009386
 51
285.4238521990255
  0
ARC
  5
DB5
100
AcDbEntity
  8
L1
100
AcDbCircle
 10
404.6152844730845
 20
309.2768247452545
 30
0.0
 40
0.3
100
AcDbArc
 50
285.4238521989888
 51
359.99999999999
  0
LINE
  5
DB6
100
AcDbEntity
  8
L1
100
AcDbLine
 10
404.2652844730859
 20
310.5625570157722
 30
0.0
 11
404.2652844730859
 21
313.6071877906238
 31
0.0
  0
LINE
  5
DB7
100
AcDbEntity
  8
L1
100
AcDbLine
 10
402.4652844730858
 20
310.5625570157722
 30
0.0
 11
402.4652844730862
 21
314.0894963370005
 31
0.0
  0
ARC
  5
DB8
100
AcDbEntity
  8
L1
100
AcDbCircle
 10
403.3652844730863
 20
313.8075531634954
 30
0.0
 40
3.599999999999997
100
AcDbArc
 50
259.5243183029865
 51
280.4756816970085
  0
ARC
  5
DB9
100
AcDbEntity
  8
L1
100
AcDbCircle
 10
402.7652844730855
 20
310.5625570157722
 30
0.0
 40
0.3
100
AcDbArc
 50
179.99999999999
 51
259.5243183029688
  0
ARC
  5
DBA
100
AcDbEntity
  8
L1
100
AcDbCircle
 10
403.9652844730863
 20
310.5625570157722
 30
0.0
 40
0.3
100
AcDbArc
 50
280.4756816970112
 51
359.99999999999
  0
ARC
  5
DBB
100
AcDbEntity
  8
L1
100
AcDbCircle
 10
404.2652844730859
 20
317.2071877906187
 30
0.0
 40
3.599999999999818
100
AcDbArc
 50
240.0000000000086
 51
270.0000000000045
  0
LINE
  5
DBC
100
AcDbEntity
  8
L1
100
AcDbLine
 10
401.8152844731098
 20
312.3389232127524
 30
0.0
 11
402.4652844730862
 21
314.0894963370005
 31
0.0
  0
LINE
  5
DBD
100
AcDbEntity
  8
L1
100
AcDbLine
 10
404.2652844730865
 20
313.6071877906192
 30
0.0
 11
404.9152844730793
 21
311.796088087231
 31
0.0
  0
LINE
  5
DBE
100
AcDbEntity
  8
L1
100
AcDbLine
 10
406.0936398787903
 20
314.1060401787776
 30
0.0
 11
406.863859602628
 21
312.4165816393974
 31
0.0
  0
ARC
  5
DBF
100
AcDbEntity
  8
L1
100
AcDbCircle
 10
404.2652844730859
 20
317.2071877906196
 30
0.0
 40
3.599999999999818
100
AcDbArc
 50
300.5224878140591
 51
329.4775121859147
  0
ARC
  5
DC0
100
AcDbEntity
  8
L1
100
AcDbCircle
 10
404.2652844730865
 20
317.2071877906196
 30
0.0
 40
5.449999999999986
100
AcDbArc
 50
276.8497464358775
 51
298.4767936356035
  0
LINE
  5
DC1
100
AcDbEntity
  8
L1
100
AcDbLine
 10
415.7652844730864
 20
308.2071877906196
 30
0.0
 11
415.7652844730864
 21
320.7071877906196
 31
0.0
  0
LINE
  5
DC2
100
AcDbEntity
  8
L1
100
AcDbLine
 10
415.5291307576208
 20
307.1465276188396
 30
0.0
 11
415.3259446448664
 21
307.1465276188396
 31
0.0
  0
LINE
  5
DC3
100
AcDbEntity
  8
L1
100
AcDbLine
 10
414.3259446448665
 20
305.9433415060853
 30
0.0
 11
414.3259446448665
 21
306.1465276188396
 31
0.0
  0
ARC
  5
DC4
100
AcDbEntity
  8
L1
100
AcDbCircle
 10
413.2652844730865
 20
308.2071877906196
 30
0.0
 40
2.499999999999993
100
AcDbArc
 50
270.0000000000003
 51
295.1040902502246
  0
LINE
  5
DC5
100
AcDbEntity
  8
L1
100
AcDbLine
 10
413.2652844730865
 20
305.7071877906196
 30
0.0
 11
400.7652844730865
 21
305.7071877906196
 31
0.0
  0
ARC
  5
DC6
100
AcDbEntity
  8
L1
100
AcDbCircle
 10
414.7652844730864
 20
306.7071877906196
 30
0.0
 40
2.499999999999993
100
AcDbArc
 50
270.0000000000004
 51
0.0
  0
ARC
  5
DC7
100
AcDbEntity
  8
L1
100
AcDbCircle
 10
415.3259446448664
 20
306.1465276188396
 30
0.0
 40
0.9999999999999975
100
AcDbArc
 50
89.99999999999729
 51
180.0000000000026
  0
ARC
  5
DC8
100
AcDbEntity
  8
L1
100
AcDbCircle
 10
413.2652844730865
 20
308.2071877906196
 30
0.0
 40
2.499999999999993
100
AcDbArc
 50
334.8959097497888
 51
0.0
  0
LINE
  5
DC9
100
AcDbEntity
  8
L1
100
AcDbLine
 10
410.2652844730864
 20
330.2071877906196
 30
0.0
 11
410.2652844730864
 21
332.7071877906196
 31
0.0
  0
LINE
  5
DCB
100
AcDbEntity
  8
L6
100
AcDbLine
 10
368.2652844730864
 20
317.2071877906196
 30
0.0
 11
368.2652844730864
 21
329.2071877906196
 31
0.0
  0
LINE
  5
DCC
100
AcDbEntity
  8
L1
100
AcDbLine
 10
391.2652844730864
 20
311.2071877906196
 30
0.0
 11
391.2652844730864
 21
322.5919641014693
 31
0.0
  0
LINE
  5
DCD
100
AcDbEntity
  8
L1
100
AcDbLine
 10
388.7652844730864
 20
311.2071877906196
 30
0.0
 11
388.7652844730864
 21
323.6274980074026
 31
0.0
  0
CIRCLE
  5
DCE
100
AcDbEntity
  8
L1
100
AcDbCircle
 10
368.2652844730864
 20
323.2071877906196
 30
0.0
 40
3.499999999999991
  0
CIRCLE
  5
DCF
100
AcDbEntity
  8
L1
100
AcDbCircle
 10
368.2652844730864
 20
323.2071877906196
 30
0.0
 40
4.649999999999988
  0
CIRCLE
  5
DD0
100
AcDbEntity
  8
L1
100
AcDbCircle
 10
382.2652844730864
 20
323.2071877906169
 30
0.0
 40
4.0
  0
ARC
  5
DD1
100
AcDbEntity
  8
L1
100
AcDbCircle
 10
382.2652844730864
 20
323.2071877906169
 30
0.0
 40
5.0
100
AcDbArc
 50
56.85248385516853
 51
33.14751614482929
  0
LINE
  5
DD2
100
AcDbEntity
  8
L6
100
AcDbLine
 10
382.2652844730864
 20
316.2071877906169
 30
0.0
 11
382.2652844730864
 21
330.2071877906168
 31
0.0
  0
LINE
  5
DD6
100
AcDbEntity
  8
L1
100
AcDbLine
 10
391.2652844730864
 20
311.2071877906196
 30
0.0
 11
388.7652844730864
 21
311.2071877906196
 31
0.0
  0
LINE
  5
DD7
100
AcDbEntity
  8
L6
100
AcDbLine
 10
387.8452844730336
 20
339.2071877906169
 30
0.0
 11
376.6852844731392
 21
339.2071877906169
 31
0.0
  0
LINE
  5
DD8
100
AcDbEntity
  8
L6
100
AcDbLine
 10
375.2652844730864
 20
323.2071877906169
 30
0.0
 11
389.2652844730864
 21
323.2071877906169
 31
0.0
  0
CIRCLE
  5
DD9
100
AcDbEntity
  8
L1
100
AcDbCircle
 10
382.2652844730864
 20
339.2071877906169
 30
0.0
 40
3.499999999999991
  0
LINE
  5
DDB
100
AcDbEntity
  8
L1
100
AcDbLine
 10
386.4516121683177
 20
325.9411703121664
 30
0.0
 11
388.7652844730841
 21
323.6274980073999
 31
0.0
  0
LINE
  5
DDC
100
AcDbEntity
  8
L1
100
AcDbLine
 10
397.8449742563034
 20
332.7071877906196
 30
0.0
 11
388.7652844730864
 21
323.6274980074026
 31
0.0
  0
LINE
  5
DDD
100
AcDbEntity
  8
L1
100
AcDbLine
 10
398.8805081622358
 20
330.2071877906196
 30
0.0
 11
391.2652844730864
 21
322.5919641014693
 31
0.0
  0
CIRCLE
  5
DDE
100
AcDbEntity
  8
L1
100
AcDbCircle
 10
398.2652844730864
 20
353.2071877906196
 30
0.0
 40
3.499999999999991
  0
CIRCLE
  5
DDF
100
AcDbEntity
  8
L1
100
AcDbCircle
 10
398.2652844730864
 20
353.2071877906196
 30
0.0
 40
4.649999999999988
  0
LINE
  5
DE0
100
AcDbEntity
  8
L6
100
AcDbLine
 10
405.2652844730864
 20
353.2071877906196
 30
0.0
 11
391.2652844730864
 21
353.2071877906196
 31
0.0
  0
LINE
  5
DE1
100
AcDbEntity
  8
L6
100
AcDbLine
 10
398.2652844730864
 20
347.2071877906196
 30
0.0
 11
398.2652844730864
 21
359.2071877906196
 31
0.0
  0
LINE
  5
DE2
100
AcDbEntity
  8
L1
100
AcDbLine
 10
383.2652844730864
 20
381.7427216965493
 30
0.0
 11
379.7297505671536
 21
378.2071877906169
 31
0.0
  0
LINE
  5
DE3
100
AcDbEntity
  8
L1
100
AcDbLine
 10
381.8510709107135
 20
383.1569352589226
 30
0.0
 11
378.3155370047807
 21
379.6214013529893
 31
0.0
  0
LINE
  5
DE4
100
AcDbEntity
  8
L6
100
AcDbLine
 10
373.8061295416919
 20
378.2071877906169
 30
0.0
 11
392.7244394044805
 21
378.2071877906169
 31
0.0
  0
ARC
  5
DE5
100
AcDbEntity
  8
L1
100
AcDbCircle
 10
381.4975175201197
 20
376.4394208376502
 30
0.0
 40
2.5
100
AcDbArc
 50
135.0000000000036
 51
314.9999999999999
  0
ARC
  5
DE6
100
AcDbEntity
  8
L1
100
AcDbCircle
 10
381.4975175201197
 20
376.4394208376502
 30
0.0
 40
4.5
100
AcDbArc
 50
135.0000000000036
 51
314.9999999999999
  0
LINE
  5
DE7
100
AcDbEntity
  8
L6
100
AcDbLine
 10
389.9539170693692
 20
384.8958203869001
 30
0.0
 11
376.5766518768032
 21
371.5185551943336
 31
0.0
  0
ARC
  5
DE8
100
AcDbEntity
  8
L1
100
AcDbCircle
 10
385.0330514260522
 20
379.9749547435835
 30
0.0
 40
2.5
100
AcDbArc
 50
315.0000000000037
 51
135.0
  0
LINE
  5
DE9
100
AcDbEntity
  8
L1
100
AcDbLine
 10
388.2150319413927
 20
376.7929742282444
 30
0.0
 11
384.6794980354598
 21
373.2574403223111
 31
0.0
  0
LINE
  5
DEA
100
AcDbEntity
  8
L1
100
AcDbLine
 10
386.8008183790193
 20
378.2071877906169
 30
0.0
 11
383.2652844730864
 21
374.6716538846835
 31
0.0
  0
ARC
  5
DEB
100
AcDbEntity
  8
L1
100
AcDbCircle
 10
385.0330514260522
 20
379.9749547435835
 30
0.0
 40
4.5
100
AcDbArc
 50
315.0000000000037
 51
135.0
  0
LINE
  5
DEC
100
AcDbEntity
  8
L6
100
AcDbLine
 10
383.2652844730864
 20
387.0818853099103
 30
0.0
 11
383.265284473086
 21
368.7480328592223
 31
0.0
  0
LINE
  5
DED
100
AcDbEntity
  8
L6
100
AcDbLine
 10
398.2652844730864
 20
422.2071877906187
 30
0.0
 11
398.2652844730864
 21
434.2071877906187
 31
0.0
  0
CIRCLE
  5
DEE
100
AcDbEntity
  8
L1
100
AcDbCircle
 10
398.2652844730864
 20
428.2071877906187
 30
0.0
 40
4.649999999999988
  0
CIRCLE
  5
DEF
100
AcDbEntity
  8
L1
100
AcDbCircle
 10
398.2652844730864
 20
428.2071877906187
 30
0.0
 40
3.499999999999991
  0
LINE
  5
DF0
100
AcDbEntity
  8
L6
100
AcDbLine
 10
405.2652844730864
 20
428.2071877906187
 30
0.0
 11
391.2652844730864
 21
428.2071877906187
 31
0.0
  0
LINE
  5
DF1
100
AcDbEntity
  8
L6
100
AcDbLine
 10
405.2652844730864
 20
403.2071877906187
 30
0.0
 11
391.2652844730864
 21
403.2071877906187
 31
0.0
  0
CIRCLE
  5
DF2
100
AcDbEntity
  8
L1
100
AcDbCircle
 10
398.2652844730864
 20
403.2071877906187
 30
0.0
 40
3.499999999999991
  0
CIRCLE
  5
DF3
100
AcDbEntity
  8
L1
100
AcDbCircle
 10
398.2652844730864
 20
403.2071877906187
 30
0.0
 40
4.649999999999988
  0
LINE
  5
DF4
100
AcDbEntity
  8
L1
100
AcDbLine
 10
400.6364656133623
 20
407.2071877906187
 30
0.0
 11
412.2652844730864
 21
407.2071877906187
 31
0.0
  0
LINE
  5
DF5
100
AcDbEntity
  8
L1
100
AcDbLine
 10
412.2652844730864
 20
399.2071877906187
 30
0.0
 11
400.6364656133623
 21
399.2071877906187
 31
0.0
  0
LINE
  5
DF6
100
AcDbEntity
  8
L1
100
AcDbLine
 10
412.2652844730864
 20
407.2071877906187
 30
0.0
 11
412.2652844730864
 21
399.2071877906187
 31
0.0
  0
LINE
  5
DF7
100
AcDbEntity
  8
L6
100
AcDbLine
 10
398.2652844730864
 20
397.2071877906187
 30
0.0
 11
398.2652844730864
 21
409.2071877906187
 31
0.0
  0
CIRCLE
  5
DF8
100
AcDbEntity
  8
L1
100
AcDbCircle
 10
398.2652844730864
 20
453.2071877906187
 30
0.0
 40
4.649999999999988
  0
CIRCLE
  5
DF9
100
AcDbEntity
  8
L1
100
AcDbCircle
 10
398.2652844730864
 20
453.2071877906187
 30
0.0
 40
3.499999999999991
  0
LINE
  5
DFA
100
AcDbEntity
  8
L6
100
AcDbLine
 10
405.2652844730864
 20
453.2071877906187
 30
0.0
 11
391.2652844730864
 21
453.2071877906187
 31
0.0
  0
LINE
  5
DFB
100
AcDbEntity
  8
L1
100
AcDbLine
 10
412.2652844730864
 20
449.2071877906178
 30
0.0
 11
412.2652844730864
 21
457.2071877906187
 31
0.0
  0
LINE
  5
DFC
100
AcDbEntity
  8
L1
100
AcDbLine
 10
400.6364656133619
 20
449.2071877906178
 30
0.0
 11
412.2652844730864
 21
449.2071877906178
 31
0.0
  0
LINE
  5
DFD
100
AcDbEntity
  8
L1
100
AcDbLine
 10
412.2652844730864
 20
457.2071877906187
 30
0.0
 11
400.6364656133623
 21
457.2071877906187
 31
0.0
  0
LINE
  5
DFE
100
AcDbEntity
  8
L6
100
AcDbLine
 10
398.2652844730864
 20
447.2071877906176
 30
0.0
 11
398.2652844730864
 21
459.2071877906188
 31
0.0
  0
LINE
  5
DFF
100
AcDbEntity
  8
L6
100
AcDbLine
 10
405.2652844730864
 20
503.2071877906178
 30
0.0
 11
391.2652844730864
 21
503.2071877906178
 31
0.0
  0
CIRCLE
  5
E00
100
AcDbEntity
  8
L1
100
AcDbCircle
 10
398.2652844730864
 20
503.2071877906178
 30
0.0
 40
3.499999999999991
  0
CIRCLE
  5
E01
100
AcDbEntity
  8
L1
100
AcDbCircle
 10
398.2652844730864
 20
503.2071877906178
 30
0.0
 40
4.649999999999988
  0
LINE
  5
E02
100
AcDbEntity
  8
L1
100
AcDbLine
 10
412.2652844730864
 20
507.2071877906178
 30
0.0
 11
400.6364656133623
 21
507.2071877906178
 31
0.0
  0
LINE
  5
E03
100
AcDbEntity
  8
L1
100
AcDbLine
 10
400.6364656133619
 20
499.2071877906178
 30
0.0
 11
412.2652844730864
 21
499.2071877906178
 31
0.0
  0
LINE
  5
E04
100
AcDbEntity
  8
L1
100
AcDbLine
 10
412.2652844730864
 20
499.2071877906178
 30
0.0
 11
412.2652844730864
 21
507.2071877906178
 31
0.0
  0
LINE
  5
E05
100
AcDbEntity
  8
L6
100
AcDbLine
 10
398.2652844730864
 20
497.2071877906178
 30
0.0
 11
398.2652844730864
 21
509.2071877906177
 31
0.0
  0
CIRCLE
  5
E06
100
AcDbEntity
  8
L1
100
AcDbCircle
 10
398.2652844730864
 20
553.2071877906169
 30
0.0
 40
3.499999999999991
  0
CIRCLE
  5
E07
100
AcDbEntity
  8
L1
100
AcDbCircle
 10
398.2652844730864
 20
553.2071877906169
 30
0.0
 40
4.649999999999988
  0
LINE
  5
E08
100
AcDbEntity
  8
L1
100
AcDbLine
 10
412.2652844730864
 20
549.2071877906169
 30
0.0
 11
412.2652844730864
 21
557.2071877906169
 31
0.0
  0
LINE
  5
E09
100
AcDbEntity
  8
L1
100
AcDbLine
 10
400.6364656133619
 20
549.2071877906169
 30
0.0
 11
412.2652844730864
 21
549.2071877906169
 31
0.0
  0
LINE
  5
E0A
100
AcDbEntity
  8
L1
100
AcDbLine
 10
372.2652844730864
 20
547.007187790617
 30
0.0
 11
363.4652844730867
 21
538.2071877906168
 31
0.0
  0
LINE
  5
E0B
100
AcDbEntity
  8
L1
100
AcDbLine
 10
372.265284473086
 20
549.2071877906169
 30
0.0
 11
395.8941033328101
 21
549.2071877906169
 31
0.0
  0
LINE
  5
E0C
100
AcDbEntity
  8
L6
100
AcDbLine
 10
398.2652844730864
 20
547.2071877906168
 30
0.0
 11
398.2652844730864
 21
559.2071877906168
 31
0.0
  0
LINE
  5
E0D
100
AcDbEntity
  8
L1
100
AcDbLine
 10
372.2652844730864
 20
547.007187790617
 30
0.0
 11
372.265284473086
 21
549.2071877906169
 31
0.0
  0
LINE
  5
E0E
100
AcDbEntity
  8
L1
100
AcDbLine
 10
348.2652844730864
 20
399.2071877906187
 30
0.0
 11
348.2652844730864
 21
382.286877573832
 31
0.0
  0
LINE
  5
E0F
100
AcDbEntity
  8
L1
100
AcDbLine
 10
272.2652844730864
 20
373.2071877906196
 30
0.0
 11
314.2652844730864
 21
373.2071877906196
 31
0.0
  0
LINE
  5
E10
100
AcDbEntity
  8
L1
100
AcDbLine
 10
322.2652844730864
 20
373.2071877906196
 30
0.0
 11
322.2652844730864
 21
325.578368930895
 31
0.0
  0
LINE
  5
E11
100
AcDbEntity
  8
L1
100
AcDbLine
 10
314.2652844730864
 20
373.2071877906196
 30
0.0
 11
314.2652844730864
 21
325.578368930895
 31
0.0
  0
LINE
  5
E12
100
AcDbEntity
  8
L6
100
AcDbLine
 10
318.2652844730864
 20
317.2071877906196
 30
0.0
 11
318.2652844730864
 21
329.2071877906196
 31
0.0
  0
CIRCLE
  5
E13
100
AcDbEntity
  8
L1
100
AcDbCircle
 10
318.2652844730864
 20
323.2071877906196
 30
0.0
 40
4.649999999999988
  0
CIRCLE
  5
E14
100
AcDbEntity
  8
L1
100
AcDbCircle
 10
318.2652844730864
 20
323.2071877906196
 30
0.0
 40
3.499999999999991
  0
LINE
  5
E15
100
AcDbEntity
  8
L1
100
AcDbLine
 10
322.2652844730864
 20
309.2071877906196
 30
0.0
 11
314.2652844730864
 21
309.2071877906196
 31
0.0
  0
LINE
  5
E16
100
AcDbEntity
  8
L1
100
AcDbLine
 10
314.2652844730864
 20
320.8360066503432
 30
0.0
 11
314.2652844730864
 21
309.2071877906196
 31
0.0
  0
LINE
  5
E17
100
AcDbEntity
  8
L1
100
AcDbLine
 10
322.2652844730864
 20
320.8360066503432
 30
0.0
 11
322.2652844730864
 21
309.2071877906196
 31
0.0
  0
LINE
  5
E18
100
AcDbEntity
  8
L6
100
AcDbLine
 10
324.2652844730864
 20
323.2071877906196
 30
0.0
 11
312.2652844730864
 21
323.2071877906196
 31
0.0
  0
LINE
  5
E19
100
AcDbEntity
  8
L1
100
AcDbLine
 10
339.1855946898654
 20
373.2071877906187
 30
0.0
 11
322.2652844730864
 21
373.2071877906196
 31
0.0
  0
LINE
  5
E1A
100
AcDbEntity
  8
L1
100
AcDbLine
 10
222.2652844730864
 20
349.2071877906159
 30
0.0
 11
222.2652844730864
 21
325.5783689308905
 31
0.0
  0
LINE
  5
E1B
100
AcDbEntity
  8
L1
100
AcDbLine
 10
272.2652844730864
 20
373.2071877906196
 30
0.0
 11
272.2652844730864
 21
325.578368930895
 31
0.0
  0
LINE
  5
E1C
100
AcDbEntity
  8
L1
100
AcDbLine
 10
264.2652844730864
 20
373.2071877906196
 30
0.0
 11
264.2652844730864
 21
325.578368930895
 31
0.0
  0
LINE
  5
E1D
100
AcDbEntity
  8
L6
100
AcDbLine
 10
268.2652844730864
 20
317.2071877906196
 30
0.0
 11
268.2652844730864
 21
329.2071877906196
 31
0.0
  0
ARC
  5
E1E
100
AcDbEntity
  8
L1
100
AcDbCircle
 10
268.2652844730864
 20
323.2071877906196
 30
0.0
 40
3.499999999999991
100
AcDbArc
 50
270.0
 51
90.0
  0
ARC
  5
E1F
100
AcDbEntity
  8
L1
100
AcDbCircle
 10
268.2652844730864
 20
323.2071877906196
 30
0.0
 40
3.499999999999991
100
AcDbArc
 50
90.0
 51
270.0
  0
ARC
  5
E20
100
AcDbEntity
  8
L1
100
AcDbCircle
 10
268.2652844730864
 20
323.2071877906196
 30
0.0
 40
4.649999999999988
100
AcDbArc
 50
90.0
 51
270.0
  0
ARC
  5
E21
100
AcDbEntity
  8
L1
100
AcDbCircle
 10
268.2652844730864
 20
323.2071877906196
 30
0.0
 40
4.649999999999988
100
AcDbArc
 50
270.0
 51
90.0
  0
LINE
  5
E22
100
AcDbEntity
  8
L1
100
AcDbLine
 10
272.2652844730864
 20
309.2071877906196
 30
0.0
 11
264.2652844730864
 21
309.2071877906196
 31
0.0
  0
LINE
  5
E23
100
AcDbEntity
  8
L1
100
AcDbLine
 10
272.2652844730864
 20
320.8360066503432
 30
0.0
 11
272.2652844730864
 21
309.2071877906196
 31
0.0
  0
LINE
  5
E24
100
AcDbEntity
  8
L1
100
AcDbLine
 10
264.2652844730864
 20
320.8360066503432
 30
0.0
 11
264.2652844730864
 21
309.2071877906196
 31
0.0
  0
LINE
  5
E25
100
AcDbEntity
  8
L6
100
AcDbLine
 10
262.2652844730864
 20
323.2071877906196
 30
0.0
 11
274.2652844730864
 21
323.2071877906196
 31
0.0
  0
LINE
  5
E26
100
AcDbEntity
  8
L6
100
AcDbLine
 10
273.2652844730864
 20
323.2071877906196
 30
0.0
 11
263.2652844730864
 21
323.2071877906196
 31
0.0
  0
LINE
  5
E27
100
AcDbEntity
  8
L1
100
AcDbLine
 10
222.2652844730864
 20
320.8360066503387
 30
0.0
 11
222.2652844730864
 21
309.207187790615
 31
0.0
  0
LINE
  5
E28
100
AcDbEntity
  8
L1
100
AcDbLine
 10
233.265284473086
 20
373.207187790615
 30
0.0
 11
264.2652844730864
 21
373.207187790615
 31
0.0
  0
LINE
  5
E29
100
AcDbEntity
  8
L1
100
AcDbLine
 10
233.2652844730864
 20
358.0071877906152
 30
0.0
 11
233.265284473086
 21
373.207187790615
 31
0.0
  0
LINE
  5
E2A
100
AcDbEntity
  8
L1
100
AcDbLine
 10
233.2652844730864
 20
358.0071877906152
 30
0.0
 11
224.4652844730862
 21
349.2071877906151
 31
0.0
  0
LINE
  5
E2B
100
AcDbEntity
  8
L1
100
AcDbLine
 10
222.2652844730864
 20
349.2071877906159
 30
0.0
 11
224.4652844730862
 21
349.2071877906151
 31
0.0
  0
LINE
  5
E2C
100
AcDbEntity
  8
L1
100
AcDbLine
 10
348.2652844730864
 20
457.2071877906187
 30
0.0
 11
348.2652844730864
 21
499.2071877906178
 31
0.0
  0
LINE
  5
E2D
100
AcDbEntity
  8
L1
100
AcDbLine
 10
348.2652844730864
 20
407.2071877906187
 30
0.0
 11
348.2652844730864
 21
449.2071877906178
 31
0.0
  0
LINE
  5
E2E
100
AcDbEntity
  8
L1
100
AcDbLine
 10
348.2652844730864
 20
507.2071877906178
 30
0.0
 11
348.2652844730864
 21
538.2071877906168
 31
0.0
  0
LINE
  5
E31
100
AcDbEntity
  8
L1
100
AcDbLine
 10
222.2652844730864
 20
309.207187790615
 30
0.0
 11
218.2652844730864
 21
309.207187790615
 31
0.0
  0
LINE
  5
E32
100
AcDbEntity
  8
L1
100
AcDbLine
 10
37.8369438377922
 20
798.6355284259093
 30
0.0
 11
398.6936251083839
 21
798.6355284259119
 31
0.0
  0
LINE
  5
E33
100
AcDbEntity
  8
L1
100
AcDbLine
 10
21.76528447308646
 20
802.2071877906141
 30
0.0
 11
414.7652844730864
 21
802.2071877906164
 31
0.0
  0
LINE
  5
E34
100
AcDbEntity
  8
L1
100
AcDbLine
 10
372.265284473086
 20
557.2071877906169
 30
0.0
 11
395.8941033328101
 21
557.2071877906169
 31
0.0
  0
ARC
  5
E35
100
AcDbEntity
  8
L1
100
AcDbCircle
 10
381.4975175201197
 20
729.9749547435835
 30
0.0
 40
4.5
100
AcDbArc
 50
45.0
 51
224.9999999999963
  0
LINE
  5
E36
100
AcDbEntity
  8
L6
100
AcDbLine
 10
373.8061295416919
 20
728.2071877906169
 30
0.0
 11
392.7244394044805
 21
728.2071877906169
 31
0.0
  0
LINE
  5
E37
100
AcDbEntity
  8
L6
100
AcDbLine
 10
375.2652844730864
 20
783.2071877906169
 30
0.0
 11
389.2652844730864
 21
783.2071877906169
 31
0.0
  0
LINE
  5
E38
100
AcDbEntity
  8
L1
100
AcDbLine
 10
339.1855946898695
 20
733.2071877906187
 30
0.0
 11
384.9992669946363
 21
779.020860095386
 31
0.0
  0
LINE
  5
E39
100
AcDbEntity
  8
L1
100
AcDbLine
 10
348.2652844730864
 20
724.1274980074017
 30
0.0
 11
397.8449742563034
 21
773.7071877906187
 31
0.0
  0
LINE
  5
E3A
100
AcDbEntity
  8
L1
100
AcDbLine
 10
395.8941033328101
 20
707.207187790615
 30
0.0
 11
348.2652844730864
 21
707.207187790615
 31
0.0
  0
LINE
  5
E3B
100
AcDbEntity
  8
L1
100
AcDbLine
 10
348.2652844730864
 20
699.207187790615
 30
0.0
 11
395.8941033328101
 21
699.207187790615
 31
0.0
  0
LINE
  5
E3C
100
AcDbEntity
  8
L1
100
AcDbLine
 10
395.8941033328101
 20
649.207187790615
 30
0.0
 11
348.2652844730864
 21
649.207187790615
 31
0.0
  0
LINE
  5
E3D
100
AcDbEntity
  8
L1
100
AcDbLine
 10
348.2652844730864
 20
657.207187790616
 30
0.0
 11
395.8941033328101
 21
657.207187790616
 31
0.0
  0
LINE
  5
E3E
100
AcDbEntity
  8
L1
100
AcDbLine
 10
348.2652844730864
 20
607.207187790616
 30
0.0
 11
395.8941033328101
 21
607.207187790616
 31
0.0
  0
LINE
  5
E3F
100
AcDbEntity
  8
L1
100
AcDbLine
 10
395.8941033328101
 20
599.207187790616
 30
0.0
 11
348.2652844730864
 21
599.207187790616
 31
0.0
  0
LINE
  5
E40
100
AcDbEntity
  8
L6
100
AcDbLine
 10
62.26528447308647
 20
783.2071877906141
 30
0.0
 11
74.26528447308647
 21
783.2071877906141
 31
0.0
  0
LINE
  5
E41
100
AcDbEntity
  8
L1
100
AcDbLine
 10
73.06528447308619
 20
568.2071877906168
 30
0.0
 11
88.26528447308602
 21
568.2071877906168
 31
0.0
  0
LINE
  5
E42
100
AcDbEntity
  8
L1
100
AcDbLine
 10
40.63646561336281
 20
599.207187790616
 30
0.0
 11
88.26528447308646
 21
599.207187790616
 31
0.0
  0
LINE
  5
E43
100
AcDbEntity
  8
L1
100
AcDbLine
 10
88.26528447308646
 20
607.207187790616
 30
0.0
 11
40.63646561336281
 21
607.207187790616
 31
0.0
  0
LINE
  5
E44
100
AcDbEntity
  8
L1
100
AcDbLine
 10
88.26528447308646
 20
657.207187790616
 30
0.0
 11
40.63646561336281
 21
657.207187790616
 31
0.0
  0
LINE
  5
E45
100
AcDbEntity
  8
L1
100
AcDbLine
 10
40.63646561336281
 20
649.207187790615
 30
0.0
 11
88.26528447308646
 21
649.207187790615
 31
0.0
  0
LINE
  5
E46
100
AcDbEntity
  8
L1
100
AcDbLine
 10
88.26528447308646
 20
699.207187790615
 30
0.0
 11
40.63646561336281
 21
699.207187790615
 31
0.0
  0
LINE
  5
E47
100
AcDbEntity
  8
L1
100
AcDbLine
 10
40.63646561336281
 20
707.207187790615
 30
0.0
 11
88.26528447308646
 21
707.207187790615
 31
0.0
  0
LINE
  5
E48
100
AcDbEntity
  8
L1
100
AcDbLine
 10
88.26528447308646
 20
724.1274980074017
 30
0.0
 11
38.6855946898695
 21
773.7071877906187
 31
0.0
  0
LINE
  5
E49
100
AcDbEntity
  8
L1
100
AcDbLine
 10
97.34497425630344
 20
733.2071877906187
 30
0.0
 11
51.53130195153654
 21
779.020860095386
 31
0.0
  0
LINE
  5
E4A
100
AcDbEntity
  8
L6
100
AcDbLine
 10
54.26528447308647
 20
761.6271877906697
 30
0.0
 11
54.26528447308647
 21
772.7871877905641
 31
0.0
  0
CIRCLE
  5
E4B
100
AcDbEntity
  8
L1
100
AcDbCircle
 10
54.26528447308647
 20
767.2071877906168
 30
0.0
 40
4.649999999999988
  0
LINE
  5
E4C
100
AcDbEntity
  8
L6
100
AcDbLine
 10
41.26528447308646
 20
789.2071877906142
 30
0.0
 11
23.26528447308646
 21
789.2071877906142
 31
0.0
  0
ARC
  5
E4D
100
AcDbEntity
  8
L1
100
AcDbCircle
 10
32.26528447308647
 20
789.2071877906142
 30
0.0
 40
5.449999999999986
100
AcDbArc
 50
206.7142570430708
 51
63.28574295691414
  0
LINE
  5
E4E
100
AcDbEntity
  8
L1
100
AcDbLine
 10
26.26528447308646
 20
776.2071877906142
 30
0.0
 11
37.65006078393708
 21
776.2071877906142
 31
0.0
  0
LINE
  5
E4F
100
AcDbEntity
  8
L1
100
AcDbLine
 10
26.26528447308646
 20
773.7071877906141
 30
0.0
 11
38.6855946898695
 21
773.7071877906141
 31
0.0
  0
LINE
  5
E50
100
AcDbEntity
  8
L1
100
AcDbLine
 10
35.76528447308646
 20
800.7071877906142
 30
0.0
 11
37.83694383779129
 21
798.6355284259093
 31
0.0
  0
LINE
  5
E51
100
AcDbEntity
  8
L6
100
AcDbLine
 10
32.26528447308647
 20
798.2071877906141
 30
0.0
 11
32.26528447308647
 21
780.2071877906142
 31
0.0
  0
LINE
  5
E52
100
AcDbEntity
  8
L1
100
AcDbLine
 10
20.76528447308646
 20
785.7071877906141
 30
0.0
 11
22.83694383779175
 21
783.6355284259093
 31
0.0
  0
LINE
  5
E53
100
AcDbEntity
  8
L1
100
AcDbLine
 10
25.6206536982404
 20
787.4071877906158
 30
0.0
 11
29.14759301946878
 21
787.4071877906149
 31
0.0
  0
LINE
  5
E54
100
AcDbEntity
  8
L1
100
AcDbLine
 10
28.66528447308747
 20
789.207187790615
 30
0.0
 11
26.85418476969926
 21
789.8571877906083
 31
0.0
  0
LINE
  5
E55
100
AcDbEntity
  8
L1
100
AcDbLine
 10
27.39701989521972
 20
786.7571877906389
 30
0.0
 11
29.14759301946878
 21
787.4071877906149
 31
0.0
  0
ARC
  5
E56
100
AcDbEntity
  8
L1
100
AcDbCircle
 10
32.26528447308692
 20
789.2071877906142
 30
0.0
 40
3.599999999999818
100
AcDbArc
 50
179.9999999999855
 51
209.9999999999813
  0
LINE
  5
E57
100
AcDbEntity
  8
L1
100
AcDbLine
 10
25.6206536982404
 20
789.2071877906159
 30
0.0
 11
28.66528447309201
 21
789.207187790615
 31
0.0
  0
LINE
  5
E58
100
AcDbEntity
  8
L1
100
AcDbLine
 10
26.16799883575959
 20
797.4965044496207
 30
0.0
 11
29.66670934350486
 21
793.9977939418763
 31
0.0
  0
LINE
  5
E59
100
AcDbEntity
  8
L1
100
AcDbLine
 10
25.34473722912617
 20
794.85494282844
 30
0.0
 11
29.16413686124951
 21
791.0355431963166
 31
0.0
  0
LINE
  5
E5A
100
AcDbEntity
  8
L1
100
AcDbLine
 10
26.61752943526198
 20
796.1277350345758
 30
0.0
 11
30.43692906738624
 21
792.3083354024525
 31
0.0
  0
LINE
  5
E5B
100
AcDbEntity
  8
L1
100
AcDbLine
 10
27.47467832186612
 20
791.805762920157
 30
0.0
 11
29.16413686124679
 21
791.0355431963203
 31
0.0
  0
ARC
  5
E5C
100
AcDbEntity
  8
L1
100
AcDbCircle
 10
24.33492142772229
 20
789.5571877906145
 30
0.0
 40
0.3
100
AcDbArc
 50
90.0
 51
164.5761478010011
  0
ARC
  5
E5D
100
AcDbEntity
  8
L1
100
AcDbCircle
 10
32.26528447308647
 20
789.2071877906142
 30
0.0
 40
5.449999999999986
100
AcDbArc
 50
151.5232063643772
 51
173.1502535641704
  0
ARC
  5
E5E
100
AcDbEntity
  8
L1
100
AcDbCircle
 10
28.27569211317268
 20
793.1967801505293
 30
0.0
 40
4.999999999999997
100
AcDbArc
 50
119.576147800951
 51
150.4238521990512
  0
LINE
  5
E5F
100
AcDbEntity
  8
L1
100
AcDbLine
 10
23.97596781408128
 20
795.3044734279424
 30
0.0
 11
27.47467832182564
 21
791.805762920198
 31
0.0
  0
ARC
  5
E60
100
AcDbEntity
  8
L1
100
AcDbCircle
 10
25.95586680140332
 20
797.2843724152649
 30
0.0
 40
0.3
100
AcDbArc
 50
45.00000000003069
 51
119.5761478009323
  0
ARC
  5
E61
100
AcDbEntity
  8
L1
100
AcDbCircle
 10
24.1880998484371
 20
795.5166054622982
 30
0.0
 40
0.3
100
AcDbArc
 50
150.4238521990298
 51
225.0
  0
ARC
  5
E62
100
AcDbEntity
  8
L1
100
AcDbCircle
 10
25.55686926348198
 20
795.0670748627958
 30
0.0
 40
0.3
100
AcDbArc
 50
145.4756816970211
 51
225.0
  0
ARC
  5
E63
100
AcDbEntity
  8
L1
100
AcDbCircle
 10
28.27569211317268
 20
793.1967801505293
 30
0.0
 40
3.599999999999997
100
AcDbArc
 50
124.5243183029814
 51
145.4756816970034
  0
ARC
  5
E64
100
AcDbEntity
  8
L1
100
AcDbCircle
 10
26.40539740090616
 20
795.9156030002199
 30
0.0
 40
0.3
100
AcDbArc
 50
45.0
 51
124.5243183029787
  0
LINE
  5
E65
100
AcDbEntity
  8
L1
100
AcDbLine
 10
23.97596781408128
 20
795.3044734279424
 30
0.0
 11
25.34473722912617
 21
794.85494282844
 31
0.0
  0
LINE
  5
E66
100
AcDbEntity
  8
L1
100
AcDbLine
 10
25.30970354970168
 20
795.2371016549391
 30
0.0
 11
23.92718970386476
 21
795.6646794183766
 31
0.0
  0
LINE
  5
E67
100
AcDbEntity
  8
L1
100
AcDbLine
 10
26.23537060876378
 20
796.1627687140012
 30
0.0
 11
25.80779284533264
 21
797.5452825598235
 31
0.0
  0
LINE
  5
E68
100
AcDbEntity
  8
L1
100
AcDbLine
 10
26.61752943526244
 20
796.1277350345758
 30
0.0
 11
26.16799883575913
 21
797.4965044496207
 31
0.0
  0
LINE
  5
E69
100
AcDbEntity
  8
L1
100
AcDbLine
 10
24.33492142772275
 20
786.7571877906152
 30
0.0
 11
27.39701989517061
 21
786.7571877906144
 31
0.0
  0
LINE
  5
E6A
100
AcDbEntity
  8
L1
100
AcDbLine
 10
24.33492142772229
 20
789.8571877906147
 30
0.0
 11
26.85418476964469
 21
789.8571877906147
 31
0.0
  0
LINE
  5
E6B
100
AcDbEntity
  8
L1
100
AcDbLine
 10
25.6206536982404
 20
789.2071877906159
 30
0.0
 11
24.33492142772229
 21
789.8571877906147
 31
0.0
  0
LINE
  5
E6C
100
AcDbEntity
  8
L1
100
AcDbLine
 10
25.32565404824208
 20
788.9617332451994
 30
0.0
 11
24.04572599675475
 21
789.6369750246608
 31
0.0
  0
LINE
  5
E6D
100
AcDbEntity
  8
L1
100
AcDbLine
 10
25.32565404843035
 20
787.6526423360669
 30
0.0
 11
24.04572599675475
 21
786.9774005565682
 31
0.0
  0
LINE
  5
E6E
100
AcDbEntity
  8
L1
100
AcDbLine
 10
25.6206536982404
 20
787.4071877906158
 30
0.0
 11
24.33492142772275
 21
786.7571877906152
 31
0.0
  0
ARC
  5
E6F
100
AcDbEntity
  8
L1
100
AcDbCircle
 10
28.86564984596271
 20
788.3071877906155
 30
0.0
 40
4.999999999999997
100
AcDbArc
 50
164.5761478009644
 51
195.4238521990513
  0
ARC
  5
E70
100
AcDbEntity
  8
L1
100
AcDbCircle
 10
24.33492142772275
 20
787.0571877906154
 30
0.0
 40
0.3
100
AcDbArc
 50
195.4238521990825
 51
270.0
  0
ARC
  5
E71
100
AcDbEntity
  8
L1
100
AcDbCircle
 10
25.6206536982404
 20
788.9071877906157
 30
0.0
 40
0.3
100
AcDbArc
 50
90.0
 51
169.5243183029788
  0
ARC
  5
E72
100
AcDbEntity
  8
L1
100
AcDbCircle
 10
25.6206536982404
 20
787.7071877906151
 30
0.0
 40
0.3
100
AcDbArc
 50
190.4756816970211
 51
270.0
  0
ARC
  5
E73
100
AcDbEntity
  8
L1
100
AcDbCircle
 10
28.86564984596271
 20
788.3071877906155
 30
0.0
 40
3.599999999999997
100
AcDbArc
 50
169.5243183029814
 51
190.4756816970034
  0
CIRCLE
  5
E74
100
AcDbEntity
  8
L1
100
AcDbCircle
 10
32.26528447308647
 20
789.2071877906142
 30
0.0
 40
3.449999999999991
  0
LINE
  5
E75
100
AcDbEntity
  8
L1
100
AcDbLine
 10
34.71528447308765
 20
797.1375508359792
 30
0.0
 11
34.71528447308765
 21
794.0754523685304
 31
0.0
  0
LINE
  5
E76
100
AcDbEntity
  8
L1
100
AcDbLine
 10
31.61528447308819
 20
797.1375508359801
 30
0.0
 11
31.61528447308728
 21
794.6182874940573
 31
0.0
  0
LINE
  5
E77
100
AcDbEntity
  8
L1
100
AcDbLine
 10
34.0652844730871
 20
795.8518185654615
 30
0.0
 11
34.71528447308765
 21
797.1375508359792
 31
0.0
  0
LINE
  5
E78
100
AcDbEntity
  8
L1
100
AcDbLine
 10
33.81982992763596
 20
796.1468182152716
 30
0.0
 11
34.49507170713468
 21
797.4267462669463
 31
0.0
  0
LINE
  5
E79
100
AcDbEntity
  8
L1
100
AcDbLine
 10
32.51073901850304
 20
796.1468182154598
 30
0.0
 11
31.83549723904161
 21
797.4267462669472
 31
0.0
  0
LINE
  5
E7A
100
AcDbEntity
  8
L1
100
AcDbLine
 10
32.26528447308692
 20
795.8518185654615
 30
0.0
 11
31.61528447308819
 21
797.1375508359801
 31
0.0
  0
ARC
  5
E7B
100
AcDbEntity
  8
L1
100
AcDbCircle
 10
34.41528447308746
 20
797.1375508359792
 30
0.0
 40
0.3
100
AcDbArc
 50
359.99999999999
 51
74.57614780090747
  0
ARC
  5
E7C
100
AcDbEntity
  8
L1
100
AcDbCircle
 10
33.16528447308655
 20
792.6068224177384
 30
0.0
 40
4.999999999999997
100
AcDbArc
 50
74.57614780093867
 51
105.4238521990255
  0
ARC
  5
E7D
100
AcDbEntity
  8
L1
100
AcDbCircle
 10
31.91528447308837
 20
797.1375508359792
 30
0.0
 40
0.3
100
AcDbArc
 50
105.4238521989888
 51
179.9999999999899
  0
LINE
  5
E7E
100
AcDbEntity
  8
L1
100
AcDbLine
 10
32.26528447308692
 20
795.8518185654615
 30
0.0
 11
32.26528447308692
 21
792.8071877906099
 31
0.0
  0
LINE
  5
E7F
100
AcDbEntity
  8
L1
100
AcDbLine
 10
34.0652844730871
 20
795.8518185654615
 30
0.0
 11
34.06528447308664
 21
792.3248792442332
 31
0.0
  0
ARC
  5
E80
100
AcDbEntity
  8
L1
100
AcDbCircle
 10
33.16528447308655
 20
792.6068224177384
 30
0.0
 40
3.599999999999997
100
AcDbArc
 50
79.52431830298657
 51
100.4756816970085
  0
ARC
  5
E81
100
AcDbEntity
  8
L1
100
AcDbCircle
 10
33.76528447308738
 20
795.8518185654615
 30
0.0
 40
0.3
100
AcDbArc
 50
359.99999999999
 51
79.5243183029688
  0
ARC
  5
E82
100
AcDbEntity
  8
L1
100
AcDbCircle
 10
32.56528447308665
 20
795.8518185654615
 30
0.0
 40
0.3
100
AcDbArc
 50
100.4756816970112
 51
179.9999999999899
  0
ARC
  5
E83
100
AcDbEntity
  8
L1
100
AcDbCircle
 10
32.26528447308692
 20
789.207187790615
 30
0.0
 40
3.599999999999818
100
AcDbArc
 50
60.00000000000868
 51
90.00000000000447
  0
LINE
  5
E84
100
AcDbEntity
  8
L1
100
AcDbLine
 10
34.71528447306309
 20
794.0754523684813
 30
0.0
 11
34.06528447308664
 21
792.3248792442332
 31
0.0
  0
LINE
  5
E85
100
AcDbEntity
  8
L1
100
AcDbLine
 10
32.26528447308647
 20
792.8071877906145
 30
0.0
 11
31.61528447309365
 21
794.6182874940027
 31
0.0
  0
LINE
  5
E86
100
AcDbEntity
  8
L1
100
AcDbLine
 10
30.4369290673826
 20
792.3083354024561
 30
0.0
 11
29.66670934354488
 21
793.9977939418363
 31
0.0
  0
ARC
  5
E87
100
AcDbEntity
  8
L1
100
AcDbCircle
 10
32.26528447308692
 20
789.2071877906142
 30
0.0
 40
3.599999999999818
100
AcDbArc
 50
120.5224878140591
 51
149.4775121859147
  0
ARC
  5
E88
100
AcDbEntity
  8
L1
100
AcDbCircle
 10
32.26528447308647
 20
789.2071877906142
 30
0.0
 40
5.449999999999986
100
AcDbArc
 50
96.84974643587761
 51
118.4767936356035
  0
LINE
  5
E89
100
AcDbEntity
  8
L1
100
AcDbLine
 10
20.76528447308646
 20
798.2071877906141
 30
0.0
 11
20.76528447308646
 21
785.7071877906141
 31
0.0
  0
LINE
  5
E8A
100
AcDbEntity
  8
L1
100
AcDbLine
 10
21.00143818855213
 20
799.2678479623942
 30
0.0
 11
21.20462430130646
 21
799.2678479623942
 31
0.0
  0
LINE
  5
E8B
100
AcDbEntity
  8
L1
100
AcDbLine
 10
22.20462430130646
 20
800.4710340751485
 30
0.0
 11
22.20462430130646
 21
800.2678479623941
 31
0.0
  0
ARC
  5
E8C
100
AcDbEntity
  8
L1
100
AcDbCircle
 10
23.26528447308646
 20
798.2071877906141
 30
0.0
 40
2.499999999999993
100
AcDbArc
 50
90.00000000000035
 51
115.1040902502246
  0
LINE
  5
E8D
100
AcDbEntity
  8
L1
100
AcDbLine
 10
23.26528447308646
 20
800.7071877906142
 30
0.0
 11
35.76528447308646
 21
800.7071877906142
 31
0.0
  0
ARC
  5
E8E
100
AcDbEntity
  8
L1
100
AcDbCircle
 10
21.76528447308646
 20
799.7071877906141
 30
0.0
 40
2.499999999999993
100
AcDbArc
 50
90.00000000000046
 51
180.0
  0
ARC
  5
E8F
100
AcDbEntity
  8
L1
100
AcDbCircle
 10
21.20462430130646
 20
800.2678479623941
 30
0.0
 40
0.9999999999999975
100
AcDbArc
 50
269.9999999999973
 51
0.0000000000026971
  0
ARC
  5
E90
100
AcDbEntity
  8
L1
100
AcDbCircle
 10
23.26528447308646
 20
798.2071877906141
 30
0.0
 40
2.499999999999993
100
AcDbArc
 50
154.8959097497888
 51
180.0
  0
LINE
  5
E91
100
AcDbEntity
  8
L1
100
AcDbLine
 10
26.26528447308646
 20
776.2071877906142
 30
0.0
 11
26.26528447308646
 21
773.7071877906141
 31
0.0
  0
LINE
  5
E93
100
AcDbEntity
  8
L6
100
AcDbLine
 10
68.26528447308646
 20
789.2071877906142
 30
0.0
 11
68.26528447308646
 21
777.2071877906141
 31
0.0
  0
LINE
  5
E94
100
AcDbEntity
  8
L1
100
AcDbLine
 10
45.26528447308646
 20
795.2071877906141
 30
0.0
 11
45.26528447308646
 21
783.8224114797644
 31
0.0
  0
LINE
  5
E95
100
AcDbEntity
  8
L1
100
AcDbLine
 10
47.76528447308646
 20
795.2071877906141
 30
0.0
 11
47.76528447308646
 21
782.7868775738311
 31
0.0
  0
CIRCLE
  5
E96
100
AcDbEntity
  8
L1
100
AcDbCircle
 10
68.26528447308646
 20
783.2071877906141
 30
0.0
 40
3.499999999999991
  0
CIRCLE
  5
E97
100
AcDbEntity
  8
L1
100
AcDbCircle
 10
68.26528447308646
 20
783.2071877906141
 30
0.0
 40
4.649999999999988
  0
CIRCLE
  5
E98
100
AcDbEntity
  8
L1
100
AcDbCircle
 10
54.26528447308647
 20
783.2071877906169
 30
0.0
 40
4.0
  0
ARC
  5
E99
100
AcDbEntity
  8
L1
100
AcDbCircle
 10
54.26528447308647
 20
783.2071877906169
 30
0.0
 40
5.0
100
AcDbArc
 50
236.8524838551685
 51
213.1475161448293
  0
LINE
  5
E9A
100
AcDbEntity
  8
L6
100
AcDbLine
 10
54.26528447308647
 20
790.2071877906169
 30
0.0
 11
54.26528447308647
 21
776.2071877906168
 31
0.0
  0
LINE
  5
E9E
100
AcDbEntity
  8
L1
100
AcDbLine
 10
45.26528447308646
 20
795.2071877906141
 30
0.0
 11
47.76528447308646
 21
795.2071877906141
 31
0.0
  0
LINE
  5
E9F
100
AcDbEntity
  8
L6
100
AcDbLine
 10
48.68528447313929
 20
767.2071877906168
 30
0.0
 11
59.84528447303365
 21
767.2071877906168
 31
0.0
  0
LINE
  5
EA0
100
AcDbEntity
  8
L6
100
AcDbLine
 10
61.26528447308647
 20
783.2071877906169
 30
0.0
 11
47.26528447308647
 21
783.2071877906169
 31
0.0
  0
CIRCLE
  5
EA1
100
AcDbEntity
  8
L1
100
AcDbCircle
 10
54.26528447308647
 20
767.2071877906168
 30
0.0
 40
3.499999999999991
  0
LINE
  5
EA3
100
AcDbEntity
  8
L1
100
AcDbLine
 10
50.07895677785518
 20
780.4732052690674
 30
0.0
 11
47.76528447308874
 21
782.7868775738338
 31
0.0
  0
LINE
  5
EA4
100
AcDbEntity
  8
L1
100
AcDbLine
 10
38.6855946898695
 20
773.7071877906141
 30
0.0
 11
47.76528447308646
 21
782.7868775738311
 31
0.0
  0
LINE
  5
EA5
100
AcDbEntity
  8
L1
100
AcDbLine
 10
37.65006078393708
 20
776.2071877906142
 30
0.0
 11
45.26528447308646
 21
783.8224114797644
 31
0.0
  0
CIRCLE
  5
EA6
100
AcDbEntity
  8
L1
100
AcDbCircle
 10
38.26528447308646
 20
753.2071877906141
 30
0.0
 40
3.499999999999991
  0
CIRCLE
  5
EA7
100
AcDbEntity
  8
L1
100
AcDbCircle
 10
38.26528447308646
 20
753.2071877906141
 30
0.0
 40
4.649999999999988
  0
LINE
  5
EA8
100
AcDbEntity
  8
L6
100
AcDbLine
 10
31.26528447308646
 20
753.2071877906141
 30
0.0
 11
45.26528447308646
 21
753.2071877906141
 31
0.0
  0
LINE
  5
EA9
100
AcDbEntity
  8
L6
100
AcDbLine
 10
38.26528447308646
 20
759.2071877906142
 30
0.0
 11
38.26528447308646
 21
747.2071877906142
 31
0.0
  0
LINE
  5
EAA
100
AcDbEntity
  8
L1
100
AcDbLine
 10
53.26528447308646
 20
724.6716538846844
 30
0.0
 11
56.80081837901934
 21
728.2071877906169
 31
0.0
  0
LINE
  5
EAB
100
AcDbEntity
  8
L1
100
AcDbLine
 10
54.67949803545934
 20
723.2574403223111
 30
0.0
 11
58.21503194139222
 21
726.7929742282444
 31
0.0
  0
LINE
  5
EAC
100
AcDbEntity
  8
L6
100
AcDbLine
 10
62.72443940448102
 20
728.2071877906169
 30
0.0
 11
43.80612954169237
 21
728.2071877906169
 31
0.0
  0
ARC
  5
EAD
100
AcDbEntity
  8
L1
100
AcDbCircle
 10
55.03305142605313
 20
729.9749547435835
 30
0.0
 40
2.5
100
AcDbArc
 50
315.0000000000037
 51
135.0
  0
ARC
  5
EAE
100
AcDbEntity
  8
L1
100
AcDbCircle
 10
55.03305142605313
 20
729.9749547435835
 30
0.0
 40
4.5
100
AcDbArc
 50
315.0000000000037
 51
135.0
  0
LINE
  5
EAF
100
AcDbEntity
  8
L6
100
AcDbLine
 10
46.57665187680367
 20
721.5185551943336
 30
0.0
 11
59.9539170693697
 21
734.8958203869001
 31
0.0
  0
ARC
  5
EB0
100
AcDbEntity
  8
L1
100
AcDbCircle
 10
51.49751752012071
 20
726.4394208376502
 30
0.0
 40
2.5
100
AcDbArc
 50
135.0000000000037
 51
314.9999999999999
  0
LINE
  5
EB1
100
AcDbEntity
  8
L1
100
AcDbLine
 10
48.31553700478025
 20
729.6214013529893
 30
0.0
 11
51.85107091071313
 21
733.1569352589227
 31
0.0
  0
LINE
  5
EB2
100
AcDbEntity
  8
L1
100
AcDbLine
 10
49.72975056715359
 20
728.2071877906169
 30
0.0
 11
53.26528447308646
 21
731.7427216965502
 31
0.0
  0
ARC
  5
EB3
100
AcDbEntity
  8
L1
100
AcDbCircle
 10
51.49751752012071
 20
726.4394208376502
 30
0.0
 40
4.5
100
AcDbArc
 50
135.0000000000037
 51
314.9999999999999
  0
LINE
  5
EB4
100
AcDbEntity
  8
L6
100
AcDbLine
 10
53.26528447308646
 20
719.3324902713234
 30
0.0
 11
53.26528447308692
 21
737.6663427220115
 31
0.0
  0
LINE
  5
EB5
100
AcDbEntity
  8
L6
100
AcDbLine
 10
38.26528447308646
 20
684.2071877906151
 30
0.0
 11
38.26528447308646
 21
672.2071877906151
 31
0.0
  0
CIRCLE
  5
EB6
100
AcDbEntity
  8
L1
100
AcDbCircle
 10
38.26528447308646
 20
678.207187790615
 30
0.0
 40
4.649999999999988
  0
CIRCLE
  5
EB7
100
AcDbEntity
  8
L1
100
AcDbCircle
 10
38.26528447308646
 20
678.207187790615
 30
0.0
 40
3.499999999999991
  0
LINE
  5
EB8
100
AcDbEntity
  8
L6
100
AcDbLine
 10
31.26528447308646
 20
678.207187790615
 30
0.0
 11
45.26528447308646
 21
678.207187790615
 31
0.0
  0
LINE
  5
EB9
100
AcDbEntity
  8
L6
100
AcDbLine
 10
31.26528447308646
 20
703.207187790615
 30
0.0
 11
45.26528447308646
 21
703.207187790615
 31
0.0
  0
CIRCLE
  5
EBA
100
AcDbEntity
  8
L1
100
AcDbCircle
 10
38.26528447308646
 20
703.207187790615
 30
0.0
 40
3.499999999999991
  0
CIRCLE
  5
EBB
100
AcDbEntity
  8
L1
100
AcDbCircle
 10
38.26528447308646
 20
703.207187790615
 30
0.0
 40
4.649999999999988
  0
LINE
  5
EBC
100
AcDbEntity
  8
L1
100
AcDbLine
 10
35.89410333281057
 20
699.207187790615
 30
0.0
 11
24.26528447308646
 21
699.207187790615
 31
0.0
  0
LINE
  5
EBD
100
AcDbEntity
  8
L1
100
AcDbLine
 10
24.26528447308646
 20
707.207187790615
 30
0.0
 11
35.89410333281057
 21
707.207187790615
 31
0.0
  0
LINE
  5
EBE
100
AcDbEntity
  8
L1
100
AcDbLine
 10
24.26528447308646
 20
699.207187790615
 30
0.0
 11
24.26528447308646
 21
707.207187790615
 31
0.0
  0
LINE
  5
EBF
100
AcDbEntity
  8
L6
100
AcDbLine
 10
38.26528447308646
 20
709.2071877906151
 30
0.0
 11
38.26528447308646
 21
697.2071877906151
 31
0.0
  0
CIRCLE
  5
EC0
100
AcDbEntity
  8
L1
100
AcDbCircle
 10
38.26528447308646
 20
653.207187790615
 30
0.0
 40
4.649999999999988
  0
CIRCLE
  5
EC1
100
AcDbEntity
  8
L1
100
AcDbCircle
 10
38.26528447308646
 20
653.207187790615
 30
0.0
 40
3.499999999999991
  0
LINE
  5
EC2
100
AcDbEntity
  8
L6
100
AcDbLine
 10
31.26528447308646
 20
653.207187790615
 30
0.0
 11
45.26528447308646
 21
653.207187790615
 31
0.0
  0
LINE
  5
EC3
100
AcDbEntity
  8
L1
100
AcDbLine
 10
24.26528447308646
 20
657.207187790616
 30
0.0
 11
24.26528447308646
 21
649.207187790615
 31
0.0
  0
LINE
  5
EC4
100
AcDbEntity
  8
L1
100
AcDbLine
 10
35.89410333281103
 20
657.207187790616
 30
0.0
 11
24.26528447308646
 21
657.207187790616
 31
0.0
  0
LINE
  5
EC5
100
AcDbEntity
  8
L1
100
AcDbLine
 10
24.26528447308646
 20
649.207187790615
 30
0.0
 11
35.89410333281057
 21
649.207187790615
 31
0.0
  0
LINE
  5
EC6
100
AcDbEntity
  8
L6
100
AcDbLine
 10
38.26528447308646
 20
659.207187790616
 30
0.0
 11
38.26528447308646
 21
647.207187790615
 31
0.0
  0
LINE
  5
EC7
100
AcDbEntity
  8
L6
100
AcDbLine
 10
31.26528447308646
 20
603.207187790616
 30
0.0
 11
45.26528447308646
 21
603.207187790616
 31
0.0
  0
CIRCLE
  5
EC8
100
AcDbEntity
  8
L1
100
AcDbCircle
 10
38.26528447308646
 20
603.207187790616
 30
0.0
 40
3.499999999999991
  0
CIRCLE
  5
EC9
100
AcDbEntity
  8
L1
100
AcDbCircle
 10
38.26528447308646
 20
603.207187790616
 30
0.0
 40
4.649999999999988
  0
LINE
  5
ECA
100
AcDbEntity
  8
L1
100
AcDbLine
 10
24.26528447308646
 20
599.207187790616
 30
0.0
 11
35.89410333281057
 21
599.207187790616
 31
0.0
  0
LINE
  5
ECB
100
AcDbEntity
  8
L1
100
AcDbLine
 10
35.89410333281103
 20
607.207187790616
 30
0.0
 11
24.26528447308646
 21
607.207187790616
 31
0.0
  0
LINE
  5
ECC
100
AcDbEntity
  8
L1
100
AcDbLine
 10
24.26528447308646
 20
607.207187790616
 30
0.0
 11
24.26528447308646
 21
599.207187790616
 31
0.0
  0
LINE
  5
ECD
100
AcDbEntity
  8
L6
100
AcDbLine
 10
38.26528447308646
 20
609.207187790616
 30
0.0
 11
38.26528447308646
 21
597.2071877906159
 31
0.0
  0
LINE
  5
ECE
100
AcDbEntity
  8
L1
100
AcDbLine
 10
35.89410333281103
 20
557.2071877906169
 30
0.0
 11
24.26528447308646
 21
557.2071877906169
 31
0.0
  0
LINE
  5
ECF
100
AcDbEntity
  8
L1
100
AcDbLine
 10
64.26528447308647
 20
559.4071877906166
 30
0.0
 11
73.06528447308619
 21
568.2071877906168
 31
0.0
  0
LINE
  5
ED0
100
AcDbEntity
  8
L1
100
AcDbLine
 10
64.26528447308692
 20
557.2071877906169
 30
0.0
 11
40.63646561336281
 21
557.2071877906169
 31
0.0
  0
LINE
  5
ED1
100
AcDbEntity
  8
L1
100
AcDbLine
 10
64.26528447308647
 20
559.4071877906166
 30
0.0
 11
64.26528447308692
 21
557.2071877906169
 31
0.0
  0
LINE
  5
ED2
100
AcDbEntity
  8
L1
100
AcDbLine
 10
348.2652844730864
 20
707.207187790615
 30
0.0
 11
348.2652844730864
 21
724.1274980074017
 31
0.0
  0
LINE
  5
ED3
100
AcDbEntity
  8
L1
100
AcDbLine
 10
88.26528447308646
 20
707.207187790615
 30
0.0
 11
88.26528447308646
 21
724.1274980074017
 31
0.0
  0
LINE
  5
ED4
100
AcDbEntity
  8
L1
100
AcDbLine
 10
233.2652844730864
 20
748.4071877906185
 30
0.0
 11
224.4652844730862
 21
757.2071877906187
 31
0.0
  0
LINE
  5
ED6
100
AcDbEntity
  8
L1
100
AcDbLine
 10
164.2652844730864
 20
733.2071877906141
 30
0.0
 11
122.2652844730864
 21
733.2071877906141
 31
0.0
  0
LINE
  5
ED7
100
AcDbEntity
  8
L1
100
AcDbLine
 10
114.2652844730864
 20
733.2071877906141
 30
0.0
 11
114.2652844730864
 21
780.8360066503387
 31
0.0
  0
LINE
  5
ED8
100
AcDbEntity
  8
L1
100
AcDbLine
 10
122.2652844730864
 20
733.2071877906141
 30
0.0
 11
122.2652844730864
 21
780.8360066503387
 31
0.0
  0
LINE
  5
ED9
100
AcDbEntity
  8
L6
100
AcDbLine
 10
118.2652844730864
 20
789.2071877906142
 30
0.0
 11
118.2652844730864
 21
777.2071877906141
 31
0.0
  0
CIRCLE
  5
EDA
100
AcDbEntity
  8
L1
100
AcDbCircle
 10
118.2652844730864
 20
783.2071877906141
 30
0.0
 40
4.649999999999988
  0
CIRCLE
  5
EDB
100
AcDbEntity
  8
L1
100
AcDbCircle
 10
118.2652844730864
 20
783.2071877906141
 30
0.0
 40
3.499999999999991
  0
LINE
  5
EDC
100
AcDbEntity
  8
L1
100
AcDbLine
 10
114.2652844730864
 20
797.2071877906142
 30
0.0
 11
122.2652844730864
 21
797.2071877906142
 31
0.0
  0
LINE
  5
EDD
100
AcDbEntity
  8
L1
100
AcDbLine
 10
122.2652844730864
 20
785.5783689308905
 30
0.0
 11
122.2652844730864
 21
797.2071877906142
 31
0.0
  0
LINE
  5
EDE
100
AcDbEntity
  8
L1
100
AcDbLine
 10
114.2652844730864
 20
785.5783689308905
 30
0.0
 11
114.2652844730864
 21
797.2071877906142
 31
0.0
  0
LINE
  5
EDF
100
AcDbEntity
  8
L6
100
AcDbLine
 10
112.2652844730864
 20
783.2071877906141
 30
0.0
 11
124.2652844730864
 21
783.2071877906141
 31
0.0
  0
LINE
  5
EE0
100
AcDbEntity
  8
L1
100
AcDbLine
 10
97.34497425630753
 20
733.2071877906151
 30
0.0
 11
114.2652844730864
 21
733.2071877906141
 31
0.0
  0
LINE
  5
EE1
100
AcDbEntity
  8
L1
100
AcDbLine
 10
222.2652844730864
 20
757.2071877906178
 30
0.0
 11
222.2652844730864
 21
780.8360066503433
 31
0.0
  0
LINE
  5
EE2
100
AcDbEntity
  8
L1
100
AcDbLine
 10
214.2652844730864
 20
757.2071877906178
 30
0.0
 11
214.2652844730864
 21
780.8360066503433
 31
0.0
  0
LINE
  5
EE3
100
AcDbEntity
  8
L1
100
AcDbLine
 10
164.2652844730864
 20
733.2071877906141
 30
0.0
 11
164.2652844730864
 21
780.8360066503387
 31
0.0
  0
LINE
  5
EE4
100
AcDbEntity
  8
L1
100
AcDbLine
 10
172.2652844730864
 20
733.2071877906141
 30
0.0
 11
172.2652844730864
 21
780.8360066503387
 31
0.0
  0
LINE
  5
EE5
100
AcDbEntity
  8
L6
100
AcDbLine
 10
168.2652844730864
 20
789.2071877906142
 30
0.0
 11
168.2652844730864
 21
777.2071877906141
 31
0.0
  0
ARC
  5
EE6
100
AcDbEntity
  8
L1
100
AcDbCircle
 10
168.2652844730864
 20
783.2071877906141
 30
0.0
 40
3.499999999999991
100
AcDbArc
 50
90.0
 51
270.0
  0
ARC
  5
EE7
100
AcDbEntity
  8
L1
100
AcDbCircle
 10
168.2652844730864
 20
783.2071877906141
 30
0.0
 40
3.499999999999991
100
AcDbArc
 50
270.0
 51
90.0
  0
ARC
  5
EE8
100
AcDbEntity
  8
L1
100
AcDbCircle
 10
168.2652844730864
 20
783.2071877906141
 30
0.0
 40
4.649999999999988
100
AcDbArc
 50
270.0
 51
90.0
  0
ARC
  5
EE9
100
AcDbEntity
  8
L1
100
AcDbCircle
 10
168.2652844730864
 20
783.2071877906141
 30
0.0
 40
4.649999999999988
100
AcDbArc
 50
90.0
 51
270.0
  0
LINE
  5
EEA
100
AcDbEntity
  8
L1
100
AcDbLine
 10
164.2652844730864
 20
797.2071877906142
 30
0.0
 11
172.2652844730864
 21
797.2071877906142
 31
0.0
  0
LINE
  5
EEB
100
AcDbEntity
  8
L1
100
AcDbLine
 10
164.2652844730864
 20
785.5783689308905
 30
0.0
 11
164.2652844730864
 21
797.2071877906142
 31
0.0
  0
LINE
  5
EEC
100
AcDbEntity
  8
L1
100
AcDbLine
 10
172.2652844730864
 20
785.5783689308905
 30
0.0
 11
172.2652844730864
 21
797.2071877906142
 31
0.0
  0
LINE
  5
EED
100
AcDbEntity
  8
L6
100
AcDbLine
 10
174.2652844730864
 20
783.2071877906141
 30
0.0
 11
162.2652844730864
 21
783.2071877906141
 31
0.0
  0
LINE
  5
EEE
100
AcDbEntity
  8
L6
100
AcDbLine
 10
163.2652844730864
 20
783.2071877906141
 30
0.0
 11
173.2652844730864
 21
783.2071877906141
 31
0.0
  0
LINE
  5
EEF
100
AcDbEntity
  8
L6
100
AcDbLine
 10
218.2652844730864
 20
778.2071877906187
 30
0.0
 11
218.2652844730864
 21
788.2071877906187
 31
0.0
  0
ARC
  5
EF0
100
AcDbEntity
  8
L1
100
AcDbCircle
 10
218.2652844730864
 20
783.2071877906187
 30
0.0
 40
3.499999999999991
100
AcDbArc
 50
270.0
 51
90.0
  0
ARC
  5
EF1
100
AcDbEntity
  8
L1
100
AcDbCircle
 10
218.2652844730864
 20
783.2071877906187
 30
0.0
 40
4.649999999999988
100
AcDbArc
 50
270.0
 51
90.0
  0
ARC
  5
EF2
100
AcDbEntity
  8
L1
100
AcDbCircle
 10
218.2652844730864
 20
783.2071877906187
 30
0.0
 40
4.649999999999988
100
AcDbArc
 50
90.0
 51
270.0
  0
ARC
  5
EF3
100
AcDbEntity
  8
L1
100
AcDbCircle
 10
218.2652844730864
 20
783.2071877906187
 30
0.0
 40
3.499999999999991
100
AcDbArc
 50
90.0
 51
270.0
  0
LINE
  5
EF4
100
AcDbEntity
  8
L6
100
AcDbLine
 10
218.2652844730864
 20
790.2071877906187
 30
0.0
 11
218.2652844730864
 21
776.2071877906187
 31
0.0
  0
LINE
  5
EF5
100
AcDbEntity
  8
L1
100
AcDbLine
 10
222.2652844730864
 20
797.2071877906187
 30
0.0
 11
218.2652844730864
 21
797.2071877906187
 31
0.0
  0
LINE
  5
EF6
100
AcDbEntity
  8
L1
100
AcDbLine
 10
222.2652844730864
 20
785.578368930895
 30
0.0
 11
222.2652844730864
 21
797.2071877906187
 31
0.0
  0
LINE
  5
EF7
100
AcDbEntity
  8
L1
100
AcDbLine
 10
214.2652844730864
 20
785.578368930895
 30
0.0
 11
214.2652844730864
 21
797.2071877906187
 31
0.0
  0
LINE
  5
EF8
100
AcDbEntity
  8
L1
100
AcDbLine
 10
214.2652844730864
 20
797.2071877906187
 30
0.0
 11
218.2652844730864
 21
797.2071877906187
 31
0.0
  0
LINE
  5
EF9
100
AcDbEntity
  8
L6
100
AcDbLine
 10
224.2652844730864
 20
783.2071877906187
 30
0.0
 11
212.2652844730864
 21
783.2071877906187
 31
0.0
  0
LINE
  5
EFA
100
AcDbEntity
  8
L6
100
AcDbLine
 10
213.2652844730864
 20
783.2071877906187
 30
0.0
 11
223.2652844730864
 21
783.2071877906187
 31
0.0
  0
LINE
  5
EFB
100
AcDbEntity
  8
L1
100
AcDbLine
 10
203.2652844730869
 20
733.2071877906187
 30
0.0
 11
172.2652844730864
 21
733.2071877906187
 31
0.0
  0
LINE
  5
EFC
100
AcDbEntity
  8
L1
100
AcDbLine
 10
203.2652844730864
 20
748.4071877906185
 30
0.0
 11
203.2652844730869
 21
733.2071877906187
 31
0.0
  0
LINE
  5
EFD
100
AcDbEntity
  8
L1
100
AcDbLine
 10
203.2652844730864
 20
748.4071877906185
 30
0.0
 11
212.0652844730866
 21
757.2071877906187
 31
0.0
  0
LINE
  5
EFE
100
AcDbEntity
  8
L1
100
AcDbLine
 10
222.2652844730864
 20
757.2071877906178
 30
0.0
 11
224.4652844730862
 21
757.2071877906187
 31
0.0
  0
LINE
  5
EFF
100
AcDbEntity
  8
L1
100
AcDbLine
 10
214.2652844730864
 20
757.2071877906178
 30
0.0
 11
212.0652844730866
 21
757.2071877906187
 31
0.0
  0
LINE
  5
F00
100
AcDbEntity
  8
L1
100
AcDbLine
 10
272.2652844730864
 20
733.2071877906141
 30
0.0
 11
314.2652844730864
 21
733.2071877906141
 31
0.0
  0
LINE
  5
F01
100
AcDbEntity
  8
L1
100
AcDbLine
 10
264.2652844730864
 20
733.2071877906141
 30
0.0
 11
264.2652844730864
 21
780.8360066503387
 31
0.0
  0
LINE
  5
F02
100
AcDbEntity
  8
L1
100
AcDbLine
 10
272.2652844730864
 20
733.2071877906141
 30
0.0
 11
272.2652844730864
 21
780.8360066503387
 31
0.0
  0
LINE
  5
F03
100
AcDbEntity
  8
L6
100
AcDbLine
 10
262.2652844730864
 20
783.2071877906141
 30
0.0
 11
274.2652844730864
 21
783.2071877906141
 31
0.0
  0
ARC
  5
F04
100
AcDbEntity
  8
L1
100
AcDbCircle
 10
268.2652844730864
 20
783.2071877906141
 30
0.0
 40
4.649999999999988
100
AcDbArc
 50
270.0
 51
90.0
  0
ARC
  5
F05
100
AcDbEntity
  8
L1
100
AcDbCircle
 10
268.2652844730864
 20
783.2071877906141
 30
0.0
 40
4.649999999999988
100
AcDbArc
 50
90.0
 51
270.0
  0
ARC
  5
F06
100
AcDbEntity
  8
L1
100
AcDbCircle
 10
268.2652844730864
 20
783.2071877906141
 30
0.0
 40
3.499999999999991
100
AcDbArc
 50
90.0
 51
270.0
  0
ARC
  5
F07
100
AcDbEntity
  8
L1
100
AcDbCircle
 10
268.2652844730864
 20
783.2071877906141
 30
0.0
 40
3.499999999999991
100
AcDbArc
 50
270.0
 51
90.0
  0
LINE
  5
F08
100
AcDbEntity
  8
L6
100
AcDbLine
 10
268.2652844730864
 20
789.2071877906142
 30
0.0
 11
268.2652844730864
 21
777.2071877906141
 31
0.0
  0
LINE
  5
F09
100
AcDbEntity
  8
L1
100
AcDbLine
 10
264.2652844730864
 20
785.5783689308905
 30
0.0
 11
264.2652844730864
 21
797.2071877906142
 31
0.0
  0
LINE
  5
F0A
100
AcDbEntity
  8
L1
100
AcDbLine
 10
272.2652844730864
 20
785.5783689308905
 30
0.0
 11
272.2652844730864
 21
797.2071877906142
 31
0.0
  0
LINE
  5
F0B
100
AcDbEntity
  8
L1
100
AcDbLine
 10
272.2652844730864
 20
797.2071877906142
 30
0.0
 11
264.2652844730864
 21
797.2071877906142
 31
0.0
  0
LINE
  5
F0C
100
AcDbEntity
  8
L6
100
AcDbLine
 10
273.2652844730864
 20
783.2071877906141
 30
0.0
 11
263.2652844730864
 21
783.2071877906141
 31
0.0
  0
LINE
  5
F0D
100
AcDbEntity
  8
L1
100
AcDbLine
 10
233.265284473086
 20
733.2071877906187
 30
0.0
 11
264.2652844730864
 21
733.2071877906187
 31
0.0
  0
LINE
  5
F0E
100
AcDbEntity
  8
L1
100
AcDbLine
 10
233.2652844730864
 20
748.4071877906185
 30
0.0
 11
233.265284473086
 21
733.2071877906187
 31
0.0
  0
LINE
  5
F0F
100
AcDbEntity
  8
L1
100
AcDbLine
 10
314.2652844730864
 20
733.2071877906141
 30
0.0
 11
314.2652844730864
 21
780.8360066503387
 31
0.0
  0
LINE
  5
F10
100
AcDbEntity
  8
L1
100
AcDbLine
 10
322.2652844730864
 20
733.2071877906141
 30
0.0
 11
322.2652844730864
 21
780.8360066503387
 31
0.0
  0
CIRCLE
  5
F11
100
AcDbEntity
  8
L1
100
AcDbCircle
 10
318.2652844730864
 20
783.2071877906141
 30
0.0
 40
3.499999999999991
  0
CIRCLE
  5
F12
100
AcDbEntity
  8
L1
100
AcDbCircle
 10
318.2652844730864
 20
783.2071877906141
 30
0.0
 40
4.649999999999988
  0
LINE
  5
F13
100
AcDbEntity
  8
L6
100
AcDbLine
 10
318.2652844730864
 20
789.2071877906142
 30
0.0
 11
318.2652844730864
 21
777.2071877906141
 31
0.0
  0
LINE
  5
F14
100
AcDbEntity
  8
L1
100
AcDbLine
 10
322.2652844730864
 20
797.2071877906142
 30
0.0
 11
314.2652844730864
 21
797.2071877906142
 31
0.0
  0
LINE
  5
F15
100
AcDbEntity
  8
L1
100
AcDbLine
 10
314.2652844730864
 20
785.5783689308905
 30
0.0
 11
314.2652844730864
 21
797.2071877906142
 31
0.0
  0
LINE
  5
F16
100
AcDbEntity
  8
L1
100
AcDbLine
 10
322.2652844730864
 20
785.5783689308905
 30
0.0
 11
322.2652844730864
 21
797.2071877906142
 31
0.0
  0
LINE
  5
F17
100
AcDbEntity
  8
L6
100
AcDbLine
 10
324.2652844730864
 20
783.2071877906141
 30
0.0
 11
312.2652844730864
 21
783.2071877906141
 31
0.0
  0
CIRCLE
  5
F18
100
AcDbEntity
  8
L1
100
AcDbCircle
 10
368.2652844730864
 20
783.2071877906141
 30
0.0
 40
4.649999999999988
  0
CIRCLE
  5
F19
100
AcDbEntity
  8
L1
100
AcDbCircle
 10
368.2652844730864
 20
783.2071877906141
 30
0.0
 40
3.499999999999991
  0
LINE
  5
F1A
100
AcDbEntity
  8
L6
100
AcDbLine
 10
368.2652844730864
 20
789.2071877906142
 30
0.0
 11
368.2652844730864
 21
777.2071877906141
 31
0.0
  0
LINE
  5
F1B
100
AcDbEntity
  8
L6
100
AcDbLine
 10
374.2652844730864
 20
783.2071877906141
 30
0.0
 11
362.2652844730864
 21
783.2071877906141
 31
0.0
  0
LINE
  5
F1C
100
AcDbEntity
  8
L1
100
AcDbLine
 10
339.1855946898654
 20
733.2071877906151
 30
0.0
 11
322.2652844730864
 21
733.2071877906141
 31
0.0
  0
LINE
  5
F1D
100
AcDbEntity
  8
L1
100
AcDbLine
 10
88.26528447308646
 20
649.207187790615
 30
0.0
 11
88.26528447308646
 21
607.207187790616
 31
0.0
  0
LINE
  5
F1E
100
AcDbEntity
  8
L1
100
AcDbLine
 10
88.26528447308646
 20
699.207187790615
 30
0.0
 11
88.26528447308646
 21
657.207187790616
 31
0.0
  0
LINE
  5
F1F
100
AcDbEntity
  8
L1
100
AcDbLine
 10
88.26528447308646
 20
599.207187790616
 30
0.0
 11
88.26528447308646
 21
568.2071877906168
 31
0.0
  0
LINE
  5
F20
100
AcDbEntity
  8
L1
100
AcDbLine
 10
348.2652844730864
 20
649.207187790615
 30
0.0
 11
348.2652844730864
 21
607.207187790616
 31
0.0
  0
LINE
  5
F21
100
AcDbEntity
  8
L1
100
AcDbLine
 10
348.2652844730864
 20
699.207187790615
 30
0.0
 11
348.2652844730864
 21
657.207187790616
 31
0.0
  0
LINE
  5
F22
100
AcDbEntity
  8
L1
100
AcDbLine
 10
348.2652844730864
 20
599.207187790616
 30
0.0
 11
348.2652844730864
 21
568.2071877906168
 31
0.0
  0
LINE
  5
F23
100
AcDbEntity
  8
L1
100
AcDbLine
 10
372.2652844730864
 20
559.4071877906166
 30
0.0
 11
363.4652844730867
 21
568.2071877906168
 31
0.0
  0
LINE
  5
F24
100
AcDbEntity
  8
L1
100
AcDbLine
 10
363.4652844730867
 20
568.2071877906168
 30
0.0
 11
348.2652844730869
 21
568.2071877906168
 31
0.0
  0
LINE
  5
F25
100
AcDbEntity
  8
L1
100
AcDbLine
 10
372.2652844730864
 20
559.4071877906166
 30
0.0
 11
372.265284473086
 21
557.2071877906169
 31
0.0
  0
CIRCLE
  5
F26
100
AcDbEntity
  8
L1
100
AcDbCircle
 10
382.2652844730864
 20
767.2071877906168
 30
0.0
 40
4.649999999999988
  0
LINE
  5
F27
100
AcDbEntity
  8
L6
100
AcDbLine
 10
382.2652844730864
 20
761.6271877906697
 30
0.0
 11
382.2652844730864
 21
772.7871877905641
 31
0.0
  0
ARC
  5
F28
100
AcDbEntity
  8
L1
100
AcDbCircle
 10
413.2652844730865
 20
798.2071877906141
 30
0.0
 40
2.499999999999993
100
AcDbArc
 50
64.89590974977537
 51
89.99999999999964
  0
LINE
  5
F29
100
AcDbEntity
  8
L6
100
AcDbLine
 10
382.2652844730864
 20
790.2071877906169
 30
0.0
 11
382.2652844730864
 21
776.2071877906168
 31
0.0
  0
ARC
  5
F2A
100
AcDbEntity
  8
L1
100
AcDbCircle
 10
382.2652844730864
 20
783.2071877906169
 30
0.0
 40
5.0
100
AcDbArc
 50
326.8524838551706
 51
303.1475161448315
  0
CIRCLE
  5
F2B
100
AcDbEntity
  8
L1
100
AcDbCircle
 10
382.2652844730864
 20
783.2071877906169
 30
0.0
 40
4.0
  0
LINE
  5
F2C
100
AcDbEntity
  8
L1
100
AcDbLine
 10
388.7652844730864
 20
795.2071877906141
 30
0.0
 11
388.7652844730864
 21
782.7868775738311
 31
0.0
  0
LINE
  5
F2D
100
AcDbEntity
  8
L1
100
AcDbLine
 10
391.2652844730864
 20
795.2071877906141
 30
0.0
 11
391.2652844730864
 21
783.8224114797644
 31
0.0
  0
LINE
  5
F2E
100
AcDbEntity
  8
L6
100
AcDbLine
 10
404.2652844730865
 20
798.2071877906141
 30
0.0
 11
404.2652844730865
 21
780.2071877906142
 31
0.0
  0
ARC
  5
F2F
100
AcDbEntity
  8
L1
100
AcDbCircle
 10
404.2652844730865
 20
789.2071877906142
 30
0.0
 40
5.449999999999986
100
AcDbArc
 50
116.7142570430858
 51
333.285742956929
  0
LINE
  5
F30
100
AcDbEntity
  8
L1
100
AcDbLine
 10
391.2652844730864
 20
795.2071877906141
 30
0.0
 11
388.7652844730864
 21
795.2071877906141
 31
0.0
  0
LINE
  5
F34
100
AcDbEntity
  8
L1
100
AcDbLine
 10
413.2652844730865
 20
800.7071877906142
 30
0.0
 11
400.7652844730865
 21
800.7071877906142
 31
0.0
  0
ARC
  5
F35
100
AcDbEntity
  8
L1
100
AcDbCircle
 10
404.2652844730865
 20
789.2071877906142
 30
0.0
 40
5.449999999999986
100
AcDbArc
 50
61.5232063643965
 51
83.1502535641224
  0
ARC
  5
F36
100
AcDbEntity
  8
L1
100
AcDbCircle
 10
404.2652844730859
 20
789.2071877906142
 30
0.0
 40
3.599999999999818
100
AcDbArc
 50
30.52248781408523
 51
59.47751218594082
  0
LINE
  5
F37
100
AcDbEntity
  8
L1
100
AcDbLine
 10
406.0936398787903
 20
792.3083354024561
 30
0.0
 11
406.863859602628
 21
793.9977939418363
 31
0.0
  0
LINE
  5
F38
100
AcDbEntity
  8
L1
100
AcDbLine
 10
404.2652844730865
 20
792.8071877906145
 30
0.0
 11
404.9152844730793
 21
794.6182874940027
 31
0.0
  0
LINE
  5
F39
100
AcDbEntity
  8
L1
100
AcDbLine
 10
401.8152844731098
 20
794.0754523684813
 30
0.0
 11
402.4652844730862
 21
792.3248792442332
 31
0.0
  0
ARC
  5
F3A
100
AcDbEntity
  8
L1
100
AcDbCircle
 10
404.2652844730859
 20
789.207187790615
 30
0.0
 40
3.599999999999818
100
AcDbArc
 50
89.99999999999552
 51
119.9999999999913
  0
ARC
  5
F3B
100
AcDbEntity
  8
L1
100
AcDbCircle
 10
403.9652844730863
 20
795.8518185654615
 30
0.0
 40
0.3
100
AcDbArc
 50
0.0000000000099742
 51
79.52431830298876
  0
ARC
  5
F3C
100
AcDbEntity
  8
L1
100
AcDbCircle
 10
402.7652844730855
 20
795.8518185654615
 30
0.0
 40
0.3
100
AcDbArc
 50
100.4756816970311
 51
180.00000000001
  0
ARC
  5
F3D
100
AcDbEntity
  8
L1
100
AcDbCircle
 10
403.3652844730863
 20
792.6068224177384
 30
0.0
 40
3.599999999999997
100
AcDbArc
 50
79.5243183029914
 51
100.4756816970134
  0
LINE
  5
F3E
100
AcDbEntity
  8
L1
100
AcDbLine
 10
402.4652844730858
 20
795.8518185654615
 30
0.0
 11
402.4652844730862
 21
792.3248792442332
 31
0.0
  0
LINE
  5
F3F
100
AcDbEntity
  8
L1
100
AcDbLine
 10
404.2652844730859
 20
795.8518185654615
 30
0.0
 11
404.2652844730859
 21
792.8071877906099
 31
0.0
  0
ARC
  5
F40
100
AcDbEntity
  8
L1
100
AcDbCircle
 10
404.6152844730845
 20
797.1375508359792
 30
0.0
 40
0.3
100
AcDbArc
 50
0.0000000000099742
 51
74.57614780101116
  0
ARC
  5
F41
100
AcDbEntity
  8
L1
100
AcDbCircle
 10
403.3652844730863
 20
792.6068224177384
 30
0.0
 40
4.999999999999997
100
AcDbArc
 50
74.57614780097441
 51
105.4238521990613
  0
ARC
  5
F42
100
AcDbEntity
  8
L1
100
AcDbCircle
 10
402.1152844730854
 20
797.1375508359792
 30
0.0
 40
0.3
100
AcDbArc
 50
105.4238521990925
 51
180.00000000001
  0
LINE
  5
F43
100
AcDbEntity
  8
L1
100
AcDbLine
 10
404.2652844730859
 20
795.8518185654615
 30
0.0
 11
404.9152844730847
 21
797.1375508359801
 31
0.0
  0
LINE
  5
F44
100
AcDbEntity
  8
L1
100
AcDbLine
 10
404.0198299276698
 20
796.1468182154598
 30
0.0
 11
404.6950717071313
 21
797.4267462669472
 31
0.0
  0
LINE
  5
F45
100
AcDbEntity
  8
L1
100
AcDbLine
 10
402.7107390185369
 20
796.1468182152716
 30
0.0
 11
402.0354972390382
 21
797.4267462669463
 31
0.0
  0
LINE
  5
F46
100
AcDbEntity
  8
L1
100
AcDbLine
 10
402.4652844730858
 20
795.8518185654615
 30
0.0
 11
401.8152844730852
 21
797.1375508359792
 31
0.0
  0
LINE
  5
F47
100
AcDbEntity
  8
L1
100
AcDbLine
 10
404.9152844730847
 20
797.1375508359801
 30
0.0
 11
404.9152844730856
 21
794.6182874940573
 31
0.0
  0
LINE
  5
F48
100
AcDbEntity
  8
L1
100
AcDbLine
 10
401.8152844730852
 20
797.1375508359792
 30
0.0
 11
401.8152844730852
 21
794.0754523685304
 31
0.0
  0
CIRCLE
  5
F49
100
AcDbEntity
  8
L1
100
AcDbCircle
 10
404.2652844730865
 20
789.2071877906142
 30
0.0
 40
3.449999999999991
  0
ARC
  5
F4A
100
AcDbEntity
  8
L1
100
AcDbCircle
 10
407.6649191002102
 20
788.3071877906155
 30
0.0
 40
3.599999999999997
100
AcDbArc
 50
349.5243183029965
 51
10.47568169701856
  0
ARC
  5
F4B
100
AcDbEntity
  8
L1
100
AcDbCircle
 10
410.9099152479325
 20
787.7071877906151
 30
0.0
 40
0.3
100
AcDbArc
 50
270.0
 51
349.5243183029787
  0
ARC
  5
F4C
100
AcDbEntity
  8
L1
100
AcDbCircle
 10
410.9099152479325
 20
788.9071877906157
 30
0.0
 40
0.3
100
AcDbArc
 50
10.47568169702121
 51
90.0
  0
ARC
  5
F4D
100
AcDbEntity
  8
L1
100
AcDbCircle
 10
412.1956475184502
 20
787.0571877906154
 30
0.0
 40
0.3
100
AcDbArc
 50
270.0
 51
344.5761478009174
  0
ARC
  5
F4E
100
AcDbEntity
  8
L1
100
AcDbCircle
 10
407.6649191002102
 20
788.3071877906155
 30
0.0
 40
4.999999999999997
100
AcDbArc
 50
344.5761478009486
 51
15.42385219903557
  0
LINE
  5
F4F
100
AcDbEntity
  8
L1
100
AcDbLine
 10
410.9099152479325
 20
787.4071877906158
 30
0.0
 11
412.1956475184502
 21
786.7571877906152
 31
0.0
  0
LINE
  5
F50
100
AcDbEntity
  8
L1
100
AcDbLine
 10
411.2049148977425
 20
787.6526423360669
 30
0.0
 11
412.4848429494181
 21
786.9774005565682
 31
0.0
  0
LINE
  5
F51
100
AcDbEntity
  8
L1
100
AcDbLine
 10
411.2049148979308
 20
788.9617332451994
 30
0.0
 11
412.4848429494181
 21
789.6369750246608
 31
0.0
  0
LINE
  5
F52
100
AcDbEntity
  8
L1
100
AcDbLine
 10
410.9099152479325
 20
789.2071877906159
 30
0.0
 11
412.1956475184506
 21
789.8571877906147
 31
0.0
  0
LINE
  5
F53
100
AcDbEntity
  8
L1
100
AcDbLine
 10
412.1956475184506
 20
789.8571877906147
 30
0.0
 11
409.6763841765282
 21
789.8571877906147
 31
0.0
  0
LINE
  5
F54
100
AcDbEntity
  8
L1
100
AcDbLine
 10
412.1956475184502
 20
786.7571877906152
 30
0.0
 11
409.1335490510023
 21
786.7571877906144
 31
0.0
  0
LINE
  5
F55
100
AcDbEntity
  8
L1
100
AcDbLine
 10
409.9130395109105
 20
796.1277350345758
 30
0.0
 11
410.3625701104138
 21
797.4965044496207
 31
0.0
  0
LINE
  5
F56
100
AcDbEntity
  8
L1
100
AcDbLine
 10
410.2951983374091
 20
796.1627687140012
 30
0.0
 11
410.7227761008402
 21
797.5452825598235
 31
0.0
  0
LINE
  5
F57
100
AcDbEntity
  8
L1
100
AcDbLine
 10
411.2208653964712
 20
795.2371016549391
 30
0.0
 11
412.6033792423081
 21
795.6646794183766
 31
0.0
  0
LINE
  5
F58
100
AcDbEntity
  8
L1
100
AcDbLine
 10
412.5546011320916
 20
795.3044734279424
 30
0.0
 11
411.1858317170467
 21
794.85494282844
 31
0.0
  0
ARC
  5
F59
100
AcDbEntity
  8
L1
100
AcDbCircle
 10
410.1251715452667
 20
795.9156030002199
 30
0.0
 40
0.3
100
AcDbArc
 50
55.4756816970212
 51
135.0
  0
ARC
  5
F5A
100
AcDbEntity
  8
L1
100
AcDbCircle
 10
408.2548768330002
 20
793.1967801505293
 30
0.0
 40
3.599999999999997
100
AcDbArc
 50
34.52431830299655
 51
55.47568169701857
  0
ARC
  5
F5B
100
AcDbEntity
  8
L1
100
AcDbCircle
 10
410.9736996826909
 20
795.0670748627958
 30
0.0
 40
0.3
100
AcDbArc
 50
314.9999999999999
 51
34.52431830297883
  0
ARC
  5
F5C
100
AcDbEntity
  8
L1
100
AcDbCircle
 10
412.3424690977357
 20
795.5166054622982
 30
0.0
 40
0.3
100
AcDbArc
 50
314.9999999999999
 51
29.57614780097012
  0
ARC
  5
F5D
100
AcDbEntity
  8
L1
100
AcDbCircle
 10
410.5747021447696
 20
797.2843724152649
 30
0.0
 40
0.3
100
AcDbArc
 50
60.42385219906768
 51
134.9999999999693
  0
LINE
  5
F5E
100
AcDbEntity
  8
L1
100
AcDbLine
 10
412.5546011320916
 20
795.3044734279424
 30
0.0
 11
409.0558906243472
 21
791.805762920198
 31
0.0
  0
ARC
  5
F5F
100
AcDbEntity
  8
L1
100
AcDbCircle
 10
408.2548768330002
 20
793.1967801505293
 30
0.0
 40
4.999999999999997
100
AcDbArc
 50
29.5761478009488
 51
60.4238521990489
  0
ARC
  5
F60
100
AcDbEntity
  8
L1
100
AcDbCircle
 10
404.2652844730865
 20
789.2071877906142
 30
0.0
 40
5.449999999999986
100
AcDbArc
 50
6.84974643582962
 51
28.47679363562278
  0
ARC
  5
F61
100
AcDbEntity
  8
L1
100
AcDbCircle
 10
412.1956475184506
 20
789.5571877906145
 30
0.0
 40
0.3
100
AcDbArc
 50
15.42385219899883
 51
90.0
  0
LINE
  5
F62
100
AcDbEntity
  8
L1
100
AcDbLine
 10
409.0558906243067
 20
791.805762920157
 30
0.0
 11
407.3664320849261
 21
791.0355431963203
 31
0.0
  0
LINE
  5
F63
100
AcDbEntity
  8
L1
100
AcDbLine
 10
409.9130395109109
 20
796.1277350345758
 30
0.0
 11
406.0936398787866
 21
792.3083354024525
 31
0.0
  0
LINE
  5
F64
100
AcDbEntity
  8
L1
100
AcDbLine
 10
411.1858317170467
 20
794.85494282844
 30
0.0
 11
407.3664320849234
 21
791.0355431963166
 31
0.0
  0
LINE
  5
F65
100
AcDbEntity
  8
L1
100
AcDbLine
 10
410.3625701104133
 20
797.4965044496207
 30
0.0
 11
406.863859602668
 21
793.9977939418763
 31
0.0
  0
LINE
  5
F66
100
AcDbEntity
  8
L1
100
AcDbLine
 10
410.9099152479325
 20
789.2071877906159
 30
0.0
 11
407.8652844730809
 21
789.207187790615
 31
0.0
  0
ARC
  5
F67
100
AcDbEntity
  8
L1
100
AcDbCircle
 10
404.2652844730859
 20
789.2071877906142
 30
0.0
 40
3.599999999999818
100
AcDbArc
 50
330.0000000000186
 51
0.0000000000144524
  0
LINE
  5
F68
100
AcDbEntity
  8
L1
100
AcDbLine
 10
409.1335490509532
 20
786.7571877906389
 30
0.0
 11
407.3829759267041
 21
787.4071877906149
 31
0.0
  0
LINE
  5
F69
100
AcDbEntity
  8
L1
100
AcDbLine
 10
407.8652844730854
 20
789.207187790615
 30
0.0
 11
409.6763841764737
 21
789.8571877906083
 31
0.0
  0
LINE
  5
F6A
100
AcDbEntity
  8
L1
100
AcDbLine
 10
410.9099152479325
 20
787.4071877906158
 30
0.0
 11
407.3829759267041
 21
787.4071877906149
 31
0.0
  0
LINE
  5
F6B
100
AcDbEntity
  8
L1
100
AcDbLine
 10
400.7652844730865
 20
800.7071877906142
 30
0.0
 11
398.6936251083816
 21
798.6355284259093
 31
0.0
  0
LINE
  5
F6C
100
AcDbEntity
  8
L6
100
AcDbLine
 10
395.2652844730864
 20
789.2071877906142
 30
0.0
 11
413.2652844730865
 21
789.2071877906142
 31
0.0
  0
LINE
  5
F6D
100
AcDbEntity
  8
L1
100
AcDbLine
 10
398.8805081622358
 20
776.2071877906142
 30
0.0
 11
391.2652844730864
 21
783.8224114797644
 31
0.0
  0
LINE
  5
F6E
100
AcDbEntity
  8
L1
100
AcDbLine
 10
397.8449742563034
 20
773.7071877906141
 30
0.0
 11
388.7652844730864
 21
782.7868775738311
 31
0.0
  0
LINE
  5
F6F
100
AcDbEntity
  8
L1
100
AcDbLine
 10
386.4516121683177
 20
780.4732052690674
 30
0.0
 11
388.7652844730841
 21
782.7868775738338
 31
0.0
  0
CIRCLE
  5
F70
100
AcDbEntity
  8
L1
100
AcDbCircle
 10
382.2652844730864
 20
767.2071877906168
 30
0.0
 40
3.499999999999991
  0
LINE
  5
F71
100
AcDbEntity
  8
L6
100
AcDbLine
 10
387.8452844730336
 20
767.2071877906168
 30
0.0
 11
376.6852844731392
 21
767.2071877906168
 31
0.0
  0
LINE
  5
F74
100
AcDbEntity
  8
L1
100
AcDbLine
 10
410.2652844730864
 20
776.2071877906142
 30
0.0
 11
410.2652844730864
 21
773.7071877906141
 31
0.0
  0
LINE
  5
F75
100
AcDbEntity
  8
L1
100
AcDbLine
 10
410.2652844730864
 20
773.7071877906141
 30
0.0
 11
397.8449742563034
 21
773.7071877906141
 31
0.0
  0
LINE
  5
F76
100
AcDbEntity
  8
L1
100
AcDbLine
 10
410.2652844730864
 20
776.2071877906142
 30
0.0
 11
398.8805081622358
 21
776.2071877906142
 31
0.0
  0
LINE
  5
F77
100
AcDbEntity
  8
L1
100
AcDbLine
 10
415.7652844730864
 20
785.7071877906141
 30
0.0
 11
413.6936251083811
 21
783.6355284259093
 31
0.0
  0
ARC
  5
F78
100
AcDbEntity
  8
L1
100
AcDbCircle
 10
413.2652844730865
 20
798.2071877906141
 30
0.0
 40
2.499999999999993
100
AcDbArc
 50
0.0
 51
25.10409025020767
  0
ARC
  5
F79
100
AcDbEntity
  8
L1
100
AcDbCircle
 10
415.3259446448664
 20
800.2678479623941
 30
0.0
 40
0.9999999999999975
100
AcDbArc
 50
179.9999999999972
 51
270.0000000000026
  0
ARC
  5
F7A
100
AcDbEntity
  8
L1
100
AcDbCircle
 10
414.7652844730864
 20
799.7071877906141
 30
0.0
 40
2.499999999999993
100
AcDbArc
 50
0.0
 51
89.99999999999955
  0
LINE
  5
F7B
100
AcDbEntity
  8
L1
100
AcDbLine
 10
414.3259446448665
 20
800.4710340751485
 30
0.0
 11
414.3259446448665
 21
800.2678479623941
 31
0.0
  0
LINE
  5
F7C
100
AcDbEntity
  8
L1
100
AcDbLine
 10
415.5291307576208
 20
799.2678479623942
 30
0.0
 11
415.3259446448664
 21
799.2678479623942
 31
0.0
  0
LINE
  5
F7D
100
AcDbEntity
  8
L1
100
AcDbLine
 10
415.7652844730864
 20
798.2071877906141
 30
0.0
 11
415.7652844730864
 21
785.7071877906141
 31
0.0
  0
LINE
  5
F7E
100
AcDbEntity
  8
L6
100
AcDbLine
 10
405.2652844730864
 20
753.2071877906141
 30
0.0
 11
391.2652844730864
 21
753.2071877906141
 31
0.0
  0
CIRCLE
  5
F7F
100
AcDbEntity
  8
L1
100
AcDbCircle
 10
398.2652844730864
 20
753.2071877906141
 30
0.0
 40
4.649999999999988
  0
LINE
  5
F80
100
AcDbEntity
  8
L6
100
AcDbLine
 10
398.2652844730864
 20
759.2071877906142
 30
0.0
 11
398.2652844730864
 21
747.2071877906142
 31
0.0
  0
CIRCLE
  5
F81
100
AcDbEntity
  8
L1
100
AcDbCircle
 10
398.2652844730864
 20
753.2071877906141
 30
0.0
 40
3.499999999999991
  0
LINE
  5
F82
100
AcDbEntity
  8
L6
100
AcDbLine
 10
383.2652844730864
 20
719.3324902713234
 30
0.0
 11
383.265284473086
 21
737.6663427220115
 31
0.0
  0
ARC
  5
F83
100
AcDbEntity
  8
L1
100
AcDbCircle
 10
385.0330514260522
 20
726.4394208376502
 30
0.0
 40
4.5
100
AcDbArc
 50
225.0
 51
44.99999999999628
  0
LINE
  5
F84
100
AcDbEntity
  8
L1
100
AcDbLine
 10
386.8008183790193
 20
728.2071877906169
 30
0.0
 11
383.2652844730864
 21
731.7427216965502
 31
0.0
  0
LINE
  5
F85
100
AcDbEntity
  8
L1
100
AcDbLine
 10
388.2150319413927
 20
729.6214013529893
 30
0.0
 11
384.6794980354598
 21
733.1569352589227
 31
0.0
  0
ARC
  5
F86
100
AcDbEntity
  8
L1
100
AcDbCircle
 10
385.0330514260522
 20
726.4394208376502
 30
0.0
 40
2.5
100
AcDbArc
 50
225.0
 51
44.99999999999628
  0
LINE
  5
F87
100
AcDbEntity
  8
L6
100
AcDbLine
 10
389.9539170693692
 20
721.5185551943336
 30
0.0
 11
376.5766518768032
 21
734.8958203869001
 31
0.0
  0
ARC
  5
F88
100
AcDbEntity
  8
L1
100
AcDbCircle
 10
381.4975175201197
 20
729.9749547435835
 30
0.0
 40
2.5
100
AcDbArc
 50
45.0
 51
224.9999999999963
  0
LINE
  5
F89
100
AcDbEntity
  8
L1
100
AcDbLine
 10
381.8510709107135
 20
723.2574403223111
 30
0.0
 11
378.3155370047807
 21
726.7929742282444
 31
0.0
  0
LINE
  5
F8A
100
AcDbEntity
  8
L1
100
AcDbLine
 10
383.2652844730864
 20
724.6716538846844
 30
0.0
 11
379.7297505671536
 21
728.2071877906169
 31
0.0
  0
CIRCLE
  5
F8B
100
AcDbEntity
  8
L1
100
AcDbCircle
 10
398.2652844730864
 20
678.207187790615
 30
0.0
 40
4.649999999999988
  0
LINE
  5
F8C
100
AcDbEntity
  8
L6
100
AcDbLine
 10
398.2652844730864
 20
684.2071877906151
 30
0.0
 11
398.2652844730864
 21
672.2071877906151
 31
0.0
  0
CIRCLE
  5
F8D
100
AcDbEntity
  8
L1
100
AcDbCircle
 10
398.2652844730864
 20
703.207187790615
 30
0.0
 40
4.649999999999988
  0
LINE
  5
F8E
100
AcDbEntity
  8
L6
100
AcDbLine
 10
405.2652844730864
 20
703.207187790615
 30
0.0
 11
391.2652844730864
 21
703.207187790615
 31
0.0
  0
LINE
  5
F8F
100
AcDbEntity
  8
L6
100
AcDbLine
 10
398.2652844730864
 20
709.2071877906151
 30
0.0
 11
398.2652844730864
 21
697.2071877906151
 31
0.0
  0
LINE
  5
F90
100
AcDbEntity
  8
L1
100
AcDbLine
 10
412.2652844730864
 20
699.207187790615
 30
0.0
 11
412.2652844730864
 21
707.207187790615
 31
0.0
  0
LINE
  5
F91
100
AcDbEntity
  8
L1
100
AcDbLine
 10
412.2652844730864
 20
707.207187790615
 30
0.0
 11
400.6364656133623
 21
707.207187790615
 31
0.0
  0
LINE
  5
F92
100
AcDbEntity
  8
L1
100
AcDbLine
 10
400.6364656133623
 20
699.207187790615
 30
0.0
 11
412.2652844730864
 21
699.207187790615
 31
0.0
  0
CIRCLE
  5
F93
100
AcDbEntity
  8
L1
100
AcDbCircle
 10
398.2652844730864
 20
703.207187790615
 30
0.0
 40
3.499999999999991
  0
LINE
  5
F94
100
AcDbEntity
  8
L6
100
AcDbLine
 10
405.2652844730864
 20
678.207187790615
 30
0.0
 11
391.2652844730864
 21
678.207187790615
 31
0.0
  0
CIRCLE
  5
F95
100
AcDbEntity
  8
L1
100
AcDbCircle
 10
398.2652844730864
 20
678.207187790615
 30
0.0
 40
3.499999999999991
  0
LINE
  5
F96
100
AcDbEntity
  8
L6
100
AcDbLine
 10
398.2652844730864
 20
659.207187790616
 30
0.0
 11
398.2652844730864
 21
647.207187790615
 31
0.0
  0
LINE
  5
F97
100
AcDbEntity
  8
L1
100
AcDbLine
 10
412.2652844730864
 20
657.207187790616
 30
0.0
 11
412.2652844730864
 21
649.207187790615
 31
0.0
  0
CIRCLE
  5
F98
100
AcDbEntity
  8
L1
100
AcDbCircle
 10
398.2652844730864
 20
653.207187790615
 30
0.0
 40
3.499999999999991
  0
CIRCLE
  5
F99
100
AcDbEntity
  8
L1
100
AcDbCircle
 10
398.2652844730864
 20
653.207187790615
 30
0.0
 40
4.649999999999988
  0
LINE
  5
F9A
100
AcDbEntity
  8
L6
100
AcDbLine
 10
405.2652844730864
 20
653.207187790615
 30
0.0
 11
391.2652844730864
 21
653.207187790615
 31
0.0
  0
LINE
  5
F9B
100
AcDbEntity
  8
L1
100
AcDbLine
 10
400.6364656133619
 20
657.207187790616
 30
0.0
 11
412.2652844730864
 21
657.207187790616
 31
0.0
  0
LINE
  5
F9C
100
AcDbEntity
  8
L1
100
AcDbLine
 10
412.2652844730864
 20
649.207187790615
 30
0.0
 11
400.6364656133623
 21
649.207187790615
 31
0.0
  0
LINE
  5
F9D
100
AcDbEntity
  8
L6
100
AcDbLine
 10
398.2652844730864
 20
609.207187790616
 30
0.0
 11
398.2652844730864
 21
597.2071877906159
 31
0.0
  0
CIRCLE
  5
F9E
100
AcDbEntity
  8
L1
100
AcDbCircle
 10
398.2652844730864
 20
603.207187790616
 30
0.0
 40
4.649999999999988
  0
LINE
  5
F9F
100
AcDbEntity
  8
L6
100
AcDbLine
 10
405.2652844730864
 20
603.207187790616
 30
0.0
 11
391.2652844730864
 21
603.207187790616
 31
0.0
  0
LINE
  5
FA0
100
AcDbEntity
  8
L1
100
AcDbLine
 10
412.2652844730864
 20
607.207187790616
 30
0.0
 11
412.2652844730864
 21
599.207187790616
 31
0.0
  0
LINE
  5
FA1
100
AcDbEntity
  8
L1
100
AcDbLine
 10
400.6364656133619
 20
607.207187790616
 30
0.0
 11
412.2652844730864
 21
607.207187790616
 31
0.0
  0
LINE
  5
FA2
100
AcDbEntity
  8
L1
100
AcDbLine
 10
412.2652844730864
 20
599.207187790616
 30
0.0
 11
400.6364656133623
 21
599.207187790616
 31
0.0
  0
CIRCLE
  5
FA3
100
AcDbEntity
  8
L1
100
AcDbCircle
 10
398.2652844730864
 20
603.207187790616
 30
0.0
 40
3.499999999999991
  0
LINE
  5
FA4
100
AcDbEntity
  8
L1
100
AcDbLine
 10
400.6364656133619
 20
557.2071877906169
 30
0.0
 11
412.2652844730864
 21
557.2071877906169
 31
0.0
  0
LINE
  5
FA6
100
AcDbEntity
  8
L6
100
AcDbLine
 10
5.879882499705672
 20
553.2071877906169
 30
0.0
 11
426.5142438094094
 21
553.2071877906169
 31
0.0
  0
LINE
  5
FAB
100
AcDbEntity
  8
L6
100
AcDbLine
 10
218.2652844730864
 20
293.8686913836081
 30
0.0
 11
218.2652844730864
 21
815.3968063110978
 31
0.0
  0
LINE
  5
13FA
100
AcDbEntity
  8
L1
100
AcDbLine
 10
902.5115126496633
 20
1091.002970252538
 30
0.0
 11
1295.509224824507
 21
1091.002970252538
 31
0.0
1001
ACAD
1000
ASC_BOUNDS
1002
{
1070
    19
1002
}
  0
LINE
  5
14BA
100
AcDbEntity
  8
L1
100
AcDbLine
 10
917.0103687370849
 20
948.3340496506649
 30
0.0
 11
917.0103687370849
 21
1091.134049650664
 31
0.0
  0
LINE
  5
14BB
100
AcDbEntity
  8
L1
100
AcDbLine
 10
1282.010368737084
 20
948.3340496506649
 30
0.0
 11
1282.010368737084
 21
1091.134049650664
 31
0.0
  0
LINE
  5
14D9
100
AcDbEntity
  8
L2
 48
3.0
100
AcDbLine
 10
1459.685661064503
 20
791.2071877906155
 30
0.0
 11
1459.685661064503
 21
315.2071877906182
 31
0.0
1001
ACAD
1000
ASC_BOUNDS
1002
{
1070
    19
1002
}
  0
ARC
  5
14DA
100
AcDbEntity
  8
L1
100
AcDbCircle
 10
1555.803491196262
 20
553.0916284954992
 30
0.0
 40
100.1178968229071
100
AcDbArc
 50
171.89489908541
 51
177.5700163961659
  0
LINE
  5
14DB
100
AcDbEntity
  8
L1
100
AcDbLine
 10
1454.685661064503
 20
556.7071877906169
 30
0.0
 11
1456.685661064503
 21
557.8618883289959
 31
0.0
  0
LINE
  5
14DC
100
AcDbEntity
  8
L1
100
AcDbLine
 10
1599.485661064503
 20
304.2071877906191
 30
0.0
 11
1599.485661064503
 21
799.2505036695827
 31
0.0
  0
LINE
  5
14DD
100
AcDbEntity
  8
L1
100
AcDbLine
 10
1456.685661064503
 20
305.7071877906187
 30
0.0
 11
1456.685661064503
 21
799.7678479623955
 31
0.0
  0
LINE
  5
14DE
100
AcDbEntity
  8
L1
100
AcDbLine
 10
1606.685661064503
 20
304.2071877906191
 30
0.0
 11
1606.685661064503
 21
802.2071877906146
 31
0.0
  0
LINE
  5
14DF
100
AcDbEntity
  8
L1
100
AcDbLine
 10
1609.685661064503
 20
309.011035367911
 30
0.0
 11
1609.685661064503
 21
797.4033402133223
 31
0.0
  0
LINE
  5
14E0
100
AcDbEntity
  8
L2
 48
2.0
100
AcDbLine
 10
1609.685661064503
 20
311.2071877906182
 30
0.0
 11
1463.685661064503
 21
311.2071877906182
 31
0.0
  0
LINE
  5
14E1
100
AcDbEntity
  8
L1
100
AcDbLine
 10
1599.485661064503
 20
320.707187790618
 30
0.0
 11
1456.685661064503
 21
320.7071877906182
 31
0.0
  0
LINE
  5
14E2
100
AcDbEntity
  8
L1
100
AcDbLine
 10
1599.428739189623
 20
306.6465276188382
 30
0.0
 11
1456.685661064503
 21
306.6465276188382
 31
0.0
  0
LINE
  5
14E3
100
AcDbEntity
  8
L1
100
AcDbLine
 10
1456.685661064503
 20
305.7071877906187
 30
0.0
 11
1599.407049395578
 21
305.7071877906187
 31
0.0
  0
LINE
  5
14E5
100
AcDbEntity
  8
L1
100
AcDbLine
 10
1599.485661064503
 20
304.2071877906191
 30
0.0
 11
1606.685661064503
 21
304.2071877906191
 31
0.0
  0
LINE
  5
14E6
100
AcDbEntity
  8
L1
100
AcDbLine
 10
1606.685661064503
 20
308.2071877906182
 30
0.0
 11
1609.685661064503
 21
309.0110353679115
 31
0.0
  0
LINE
  5
14E7
100
AcDbEntity
  8
L1
100
AcDbLine
 10
1454.685661064503
 20
311.2071877906182
 30
0.0
 11
1454.685661064503
 21
332.8071877906177
 31
0.0
  0
ARC
  5
14E8
100
AcDbEntity
  8
L2
 48
2.0
100
AcDbCircle
 10
1463.685661064503
 20
315.2071877906182
 30
0.0
 40
4.0
100
AcDbArc
 50
180.0
 51
270.0
  0
LINE
  5
14E9
100
AcDbEntity
  8
L1
100
AcDbLine
 10
1456.685661064503
 20
311.2071877906182
 30
0.0
 11
1454.685661064503
 21
311.2071877906182
 31
0.0
  0
LINE
  5
14EA
100
AcDbEntity
  8
L1
100
AcDbLine
 10
1454.685661064503
 20
330.3071877906177
 30
0.0
 11
1456.685661064503
 21
330.3071877906177
 31
0.0
  0
LINE
  5
14EB
100
AcDbEntity
  8
L1
100
AcDbLine
 10
1454.685661064503
 20
332.8071877906177
 30
0.0
 11
1456.685661064503
 21
332.8071877906177
 31
0.0
  0
LINE
  5
14EC
100
AcDbEntity
  8
L1
100
AcDbLine
 10
1454.685661064503
 20
321.8071877906177
 30
0.0
 11
1456.685661064503
 21
321.8071877906177
 31
0.0
  0
LINE
  5
14ED
100
AcDbEntity
  8
L1
100
AcDbLine
 10
1454.685661064503
 20
356.7071877906182
 30
0.0
 11
1456.685661064503
 21
357.8618883289973
 31
0.0
  0
LINE
  5
14EE
100
AcDbEntity
  8
L1
100
AcDbLine
 10
1454.685661064503
 20
349.7071877906182
 30
0.0
 11
1456.685661064503
 21
348.5524872522391
 31
0.0
  0
LINE
  5
14EF
100
AcDbEntity
  8
L1
100
AcDbLine
 10
1454.685661064503
 20
356.7071877906182
 30
0.0
 11
1454.685661064503
 21
349.7071877906182
 31
0.0
  0
LINE
  5
14F0
100
AcDbEntity
  8
L6
100
AcDbLine
 10
1440.451675808932
 20
553.2071877906169
 30
0.0
 11
1624.553621208059
 21
553.2071877906169
 31
0.0
  0
LINE
  5
14F1
100
AcDbEntity
  8
L1
100
AcDbLine
 10
1454.685661064503
 20
399.7071877906178
 30
0.0
 11
1454.685661064503
 21
406.7071877906178
 31
0.0
  0
LINE
  5
14F2
100
AcDbEntity
  8
L1
100
AcDbLine
 10
1454.685661064503
 20
399.7071877906178
 30
0.0
 11
1456.685661064503
 21
398.5524872522387
 31
0.0
  0
LINE
  5
14F3
100
AcDbEntity
  8
L1
100
AcDbLine
 10
1454.685661064503
 20
406.7071877906178
 30
0.0
 11
1456.685661064503
 21
407.8618883289968
 31
0.0
  0
LINE
  5
14F4
100
AcDbEntity
  8
L1
100
AcDbLine
 10
1454.685661064503
 20
456.7071877906178
 30
0.0
 11
1456.685661064503
 21
457.8618883289968
 31
0.0
  0
LINE
  5
14F5
100
AcDbEntity
  8
L1
100
AcDbLine
 10
1454.685661064503
 20
449.7071877906178
 30
0.0
 11
1456.685661064503
 21
448.5524872522387
 31
0.0
  0
LINE
  5
14F6
100
AcDbEntity
  8
L1
100
AcDbLine
 10
1454.685661064503
 20
449.7071877906178
 30
0.0
 11
1454.685661064503
 21
456.7071877906178
 31
0.0
  0
LINE
  5
14F7
100
AcDbEntity
  8
L1
100
AcDbLine
 10
1454.685661064503
 20
506.7071877906178
 30
0.0
 11
1456.685661064503
 21
507.8618883289968
 31
0.0
  0
LINE
  5
14F8
100
AcDbEntity
  8
L1
100
AcDbLine
 10
1454.685661064503
 20
499.7071877906178
 30
0.0
 11
1454.685661064503
 21
506.7071877906178
 31
0.0
  0
LINE
  5
14F9
100
AcDbEntity
  8
L1
100
AcDbLine
 10
1454.685661064503
 20
499.7071877906178
 30
0.0
 11
1456.685661064503
 21
498.5524872522387
 31
0.0
  0
ARC
  5
14FA
100
AcDbEntity
  8
L2
 48
0.2
100
AcDbCircle
 10
1555.803491194529
 20
553.0916284955052
 30
0.0
 40
100.117896821175
100
AcDbArc
 50
178.3942619125057
 51
181.4766994731187
  0
ARC
  5
14FB
100
AcDbEntity
  8
L1
100
AcDbCircle
 10
1555.803491196262
 20
553.0916284954992
 30
0.0
 40
100.1178968229071
100
AcDbArc
 50
182.2943761445083
 51
188.1051009145904
  0
LINE
  5
14FC
100
AcDbEntity
  8
L1
100
AcDbLine
 10
1454.685661064503
 20
549.7071877906169
 30
0.0
 11
1456.685661064503
 21
548.5524872522378
 31
0.0
  0
LINE
  5
14FD
100
AcDbEntity
  8
L1
100
AcDbLine
 10
1454.685661064503
 20
556.7071877906169
 30
0.0
 11
1454.685661064503
 21
549.7071877906169
 31
0.0
  0
LINE
  5
14FE
100
AcDbEntity
  8
L1
100
AcDbLine
 10
1454.685661064503
 20
606.7071877906159
 30
0.0
 11
1454.685661064503
 21
599.707187790616
 31
0.0
  0
LINE
  5
14FF
100
AcDbEntity
  8
L1
100
AcDbLine
 10
1454.685661064503
 20
599.707187790616
 30
0.0
 11
1456.685661064503
 21
598.5524872522368
 31
0.0
  0
LINE
  5
1500
100
AcDbEntity
  8
L1
100
AcDbLine
 10
1454.685661064503
 20
606.7071877906159
 30
0.0
 11
1456.685661064503
 21
607.8618883289951
 31
0.0
  0
LINE
  5
1501
100
AcDbEntity
  8
L1
100
AcDbLine
 10
1454.685661064503
 20
656.7071877906159
 30
0.0
 11
1456.685661064503
 21
657.8618883289951
 31
0.0
  0
LINE
  5
1502
100
AcDbEntity
  8
L1
100
AcDbLine
 10
1454.685661064503
 20
649.707187790616
 30
0.0
 11
1456.685661064503
 21
648.5524872522368
 31
0.0
  0
LINE
  5
1503
100
AcDbEntity
  8
L1
100
AcDbLine
 10
1454.685661064503
 20
656.7071877906159
 30
0.0
 11
1454.685661064503
 21
649.707187790616
 31
0.0
  0
LINE
  5
1504
100
AcDbEntity
  8
L1
100
AcDbLine
 10
1454.685661064503
 20
706.7071877906159
 30
0.0
 11
1456.685661064503
 21
707.8618883289951
 31
0.0
  0
LINE
  5
1505
100
AcDbEntity
  8
L1
100
AcDbLine
 10
1454.685661064503
 20
699.707187790616
 30
0.0
 11
1456.685661064503
 21
698.5524872522368
 31
0.0
  0
LINE
  5
1506
100
AcDbEntity
  8
L1
100
AcDbLine
 10
1454.685661064503
 20
706.7071877906159
 30
0.0
 11
1454.685661064503
 21
699.707187790616
 31
0.0
  0
LINE
  5
1507
100
AcDbEntity
  8
L2
 48
2.0
100
AcDbLine
 10
1609.685661064503
 20
795.2071877906155
 30
0.0
 11
1463.685661064503
 21
795.2071877906155
 31
0.0
  0
LINE
  5
1508
100
AcDbEntity
  8
L1
100
AcDbLine
 10
1599.485661064503
 20
785.7071877906157
 30
0.0
 11
1456.685661064503
 21
785.7071877906155
 31
0.0
  0
LINE
  5
1509
100
AcDbEntity
  8
L1
100
AcDbLine
 10
1599.428739189623
 20
799.7678479623955
 30
0.0
 11
1456.685661064503
 21
799.7678479623955
 31
0.0
  0
LINE
  5
150A
100
AcDbEntity
  8
L1
100
AcDbLine
 10
1456.685661064503
 20
800.7071877906151
 30
0.0
 11
1599.407049395578
 21
800.7071877906151
 31
0.0
  0
LINE
  5
150B
100
AcDbEntity
  8
L1
100
AcDbLine
 10
1599.485661064503
 20
802.2071877906146
 30
0.0
 11
1606.685661064503
 21
802.2071877906146
 31
0.0
  0
LINE
  5
150C
100
AcDbEntity
  8
L1
100
AcDbLine
 10
1606.685661064503
 20
798.2071877906155
 30
0.0
 11
1609.685661064503
 21
797.4033402133223
 31
0.0
  0
LINE
  5
150D
100
AcDbEntity
  8
L1
100
AcDbLine
 10
1599.485661064503
 20
802.2071877906146
 30
0.0
 11
1599.407049395578
 21
800.7071877906151
 31
0.0
  0
ARC
  5
150E
100
AcDbEntity
  8
L1
100
AcDbCircle
 10
1607.845492790122
 20
800.432115050189
 30
0.0
 40
8.442925555484167
100
AcDbArc
 50
178.1329579964241
 51
188.0451171142378
  0
LINE
  5
150F
100
AcDbEntity
  8
L1
100
AcDbLine
 10
1454.685661064503
 20
795.2071877906155
 30
0.0
 11
1454.685661064503
 21
773.6071877906161
 31
0.0
  0
LINE
  5
1510
100
AcDbEntity
  8
L1
100
AcDbLine
 10
1454.685661064503
 20
749.7071877906155
 30
0.0
 11
1454.685661064503
 21
756.7071877906155
 31
0.0
  0
LINE
  5
1511
100
AcDbEntity
  8
L1
100
AcDbLine
 10
1454.685661064503
 20
749.7071877906155
 30
0.0
 11
1456.685661064503
 21
748.5524872522364
 31
0.0
  0
LINE
  5
1512
100
AcDbEntity
  8
L1
100
AcDbLine
 10
1454.685661064503
 20
773.6071877906161
 30
0.0
 11
1456.685661064503
 21
773.6071877906161
 31
0.0
  0
LINE
  5
1513
100
AcDbEntity
  8
L1
100
AcDbLine
 10
1454.685661064503
 20
776.1071877906161
 30
0.0
 11
1456.685661064503
 21
776.1071877906161
 31
0.0
  0
LINE
  5
1514
100
AcDbEntity
  8
L1
100
AcDbLine
 10
1454.685661064503
 20
756.7071877906155
 30
0.0
 11
1456.685661064503
 21
757.8618883289946
 31
0.0
  0
ARC
  5
1515
100
AcDbEntity
  8
L2
 48
2.0
100
AcDbCircle
 10
1463.685661064503
 20
791.2071877906155
 30
0.0
 40
4.0
100
AcDbArc
 50
90.0
 51
180.0
  0
LINE
  5
1516
100
AcDbEntity
  8
L1
100
AcDbLine
 10
1456.685661064503
 20
795.2071877906155
 30
0.0
 11
1454.685661064503
 21
795.2071877906155
 31
0.0
  0
LINE
  5
1517
100
AcDbEntity
  8
L1
100
AcDbLine
 10
1454.685661064503
 20
784.6071877906161
 30
0.0
 11
1456.685661064503
 21
784.6071877906161
 31
0.0
  0
LINE
  5
1518
100
AcDbEntity
  8
L1
100
AcDbLine
 10
918.2603687370853
 20
563.2071877906168
 30
0.0
 11
918.2603687370853
 21
558.1506177739379
 31
0.0
  0
LINE
  5
1519
100
AcDbEntity
  8
L1
100
AcDbLine
 10
919.7603687370854
 20
558.1506177739379
 30
0.0
 11
919.7603687370854
 21
563.2071877906168
 31
0.0
  0
LINE
  5
151A
100
AcDbEntity
  8
L1
100
AcDbLine
 10
919.7603687370854
 20
563.2071877906168
 30
0.0
 11
918.2603687370853
 21
563.2071877906168
 31
0.0
  0
LINE
  5
151B
100
AcDbEntity
  8
L6
100
AcDbLine
 10
1279.658588219567
 20
542.2071877906168
 30
0.0
 11
1279.658588219567
 21
565.2071877906169
 31
0.0
  0
ARC
  5
151C
100
AcDbEntity
  8
L1
100
AcDbCircle
 10
1279.658588219567
 20
553.2071877906169
 30
0.0
 40
4.999999999999987
100
AcDbArc
 50
278.6269265586786
 51
81.37307344132137
  0
ARC
  5
151D
100
AcDbEntity
  8
L1
100
AcDbCircle
 10
1279.658588219567
 20
553.2071877906169
 30
0.0
 40
4.999999999999987
100
AcDbArc
 50
98.62692655867867
 51
261.3730734413211
  0
ARC
  5
151E
100
AcDbEntity
  8
L1
100
AcDbCircle
 10
1279.658588219567
 20
553.2071877906169
 30
0.0
 40
4.999999999999987
100
AcDbArc
 50
278.6269265586786
 51
81.37307344132137
  0
ARC
  5
151F
100
AcDbEntity
  8
L1
100
AcDbCircle
 10
1279.658588219567
 20
553.2071877906169
 30
0.0
 40
4.999999999999987
100
AcDbArc
 50
98.62692655867867
 51
261.3730734413211
  0
LINE
  5
1520
100
AcDbEntity
  8
L6
100
AcDbLine
 10
1279.658588219567
 20
542.2071877906177
 30
0.0
 11
1279.658588219567
 21
565.2071877906169
 31
0.0
  0
LINE
  5
1521
100
AcDbEntity
  8
L6
 48
0.3
100
AcDbLine
 39
0.2
 10
1279.658588219567
 20
542.2071877906168
 30
0.0
 11
1279.658588219567
 21
565.2071877906169
 31
0.0
  0
ARC
  5
1522
100
AcDbEntity
  8
L1
100
AcDbCircle
 10
1279.658588219567
 20
553.2071877906169
 30
0.0
 40
4.999999999999987
100
AcDbArc
 50
278.6269265586786
 51
81.37307344132137
  0
ARC
  5
1523
100
AcDbEntity
  8
L1
100
AcDbCircle
 10
1279.658588219567
 20
553.2071877906169
 30
0.0
 40
4.999999999999987
100
AcDbArc
 50
98.62692655867867
 51
261.3730734413211
  0
CIRCLE
  5
1524
100
AcDbEntity
  8
L1
100
AcDbCircle
 10
1279.658588219567
 20
553.2071877906169
 30
0.0
 40
2.399999999999993
  0
CIRCLE
  5
1525
100
AcDbEntity
  8
L1
100
AcDbCircle
 10
1279.658588219567
 20
553.2071877906169
 30
0.0
 40
2.099999999999994
  0
LINE
  5
1526
100
AcDbEntity
  8
L1
100
AcDbLine
 10
1280.408588219567
 20
543.2071877906168
 30
0.0
 11
1280.408588219567
 21
548.2637578072958
 31
0.0
  0
LINE
  5
1527
100
AcDbEntity
  8
L1
100
AcDbLine
 10
1278.908588219567
 20
548.2637578072958
 30
0.0
 11
1278.908588219567
 21
543.2071877906168
 31
0.0
  0
LINE
  5
1528
100
AcDbEntity
  8
L1
100
AcDbLine
 10
1278.908588219567
 20
543.2071877906168
 30
0.0
 11
1280.408588219567
 21
543.2071877906168
 31
0.0
  0
CIRCLE
  5
1529
100
AcDbEntity
  8
L1
100
AcDbCircle
 10
1279.658588219567
 20
553.2071877906169
 30
0.0
 40
2.399999999999993
  0
CIRCLE
  5
152A
100
AcDbEntity
  8
L1
100
AcDbCircle
 10
1279.658588219567
 20
553.2071877906169
 30
0.0
 40
2.099999999999994
  0
CIRCLE
  5
152B
100
AcDbEntity
  8
L1
100
AcDbCircle
 10
1279.658588219567
 20
553.2071877906169
 30
0.0
 40
2.399999999999993
  0
CIRCLE
  5
152C
100
AcDbEntity
  8
L1
100
AcDbCircle
 10
1279.658588219567
 20
553.2071877906169
 30
0.0
 40
2.099999999999994
  0
LINE
  5
152D
100
AcDbEntity
  8
L1
100
AcDbLine
 10
1278.908588219567
 20
563.2071877906168
 30
0.0
 11
1280.408588219567
 21
563.2071877906168
 31
0.0
  0
LINE
  5
152E
100
AcDbEntity
  8
L1
100
AcDbLine
 10
1278.908588219567
 20
558.1506177739379
 30
0.0
 11
1278.908588219567
 21
563.2071877906168
 31
0.0
  0
LINE
  5
152F
100
AcDbEntity
  8
L1
100
AcDbLine
 10
1280.408588219567
 20
563.2071877906168
 30
0.0
 11
1280.408588219567
 21
558.1506177739379
 31
0.0
  0
ARC
  5
1531
100
AcDbEntity
  8
L2
 48
2.0
100
AcDbCircle
 10
911.0103687370852
 20
955.3340496506647
 30
0.0
 40
4.0
100
AcDbArc
 50
179.9999999999999
 51
270.0
  0
LINE
  5
1532
100
AcDbEntity
  8
L2
 48
2.0
100
AcDbLine
 10
1291.010368737084
 20
1101.334049650664
 30
0.0
 11
1291.010368737084
 21
955.3340496506647
 31
0.0
  0
ARC
  5
1533
100
AcDbEntity
  8
L2
 48
2.0
100
AcDbCircle
 10
1287.010368737084
 20
955.3340496506647
 30
0.0
 40
4.0
100
AcDbArc
 50
270.0
 51
0.0000000000000891
  0
LINE
  5
1534
100
AcDbEntity
  8
L2
 48
2.0
100
AcDbLine
 10
911.0103687370852
 20
155.0803259305689
 30
0.0
 11
1287.010368737084
 21
155.0803259305689
 31
0.0
1001
ACAD
1000
ASC_BOUNDS
1002
{
1070
    19
1002
}
  0
LINE
  5
1535
100
AcDbEntity
  8
L1
100
AcDbLine
 10
902.5115126496633
 20
15.41140532869531
 30
0.0
 11
1295.509224824507
 21
15.41140532869531
 31
0.0
1001
ACAD
1000
ASC_BOUNDS
1002
{
1070
    19
1002
}
  0
LINE
  5
1536
100
AcDbEntity
  8
L1
100
AcDbLine
 10
904.8142163143786
 20
5.08032593056987
 30
0.0
 11
1293.206521159791
 21
5.08032593056987
 31
0.0
  0
LINE
  5
1537
100
AcDbEntity
  8
L1
100
AcDbLine
 10
900.0103687370849
 20
8.08032593056987
 30
0.0
 11
1294.010368737085
 21
8.08032593056987
 31
0.0
1001
ACAD
1000
ASC_BOUNDS
1002
{
1070
    19
1002
}
  0
LINE
  5
1538
100
AcDbEntity
  8
L1
100
AcDbLine
 10
901.5103687370849
 20
158.0803259305701
 30
0.0
 11
1085.010368737084
 21
158.0803259305689
 31
0.0
1001
ACAD
1000
ASC_BOUNDS
1002
{
1070
    19
1002
}
  0
LINE
  5
1539
100
AcDbEntity
  8
L2
 48
2.0
100
AcDbLine
 10
907.0103687370854
 20
5.08032593056987
 30
0.0
 11
907.0103687370853
 21
151.0803259305689
 31
0.0
  0
LINE
  5
153A
100
AcDbEntity
  8
L1
100
AcDbLine
 10
917.0103687370849
 20
158.0803259305688
 30
0.0
 11
917.0103687370849
 21
15.28032593056968
 31
0.0
  0
LINE
  5
153B
100
AcDbEntity
  8
L1
100
AcDbLine
 10
903.7565654576054
 20
158.0803259305698
 30
0.0
 11
902.5115126496633
 21
15.41140532869531
 31
0.0
1001
ACAD
1000
ASC_BOUNDS
1002
{
1070
    19
1002
}
  0
LINE
  5
153C
100
AcDbEntity
  8
L1
100
AcDbLine
 10
901.5103687370849
 20
158.0803259305698
 30
0.0
 11
901.5103687370849
 21
15.35893759949385
 31
0.0
  0
LINE
  5
153D
100
AcDbEntity
  8
L1
100
AcDbLine
 10
907.0103687370849
 20
160.0803259305689
 30
0.0
 11
952.5103687370849
 21
160.0803259305689
 31
0.0
  0
ARC
  5
153E
100
AcDbEntity
  8
L2
 48
2.0
100
AcDbCircle
 10
911.0103687370852
 20
151.0803259305689
 30
0.0
 40
4.0
100
AcDbArc
 50
90.0
 51
180.0
  0
LINE
  5
153F
100
AcDbEntity
  8
L1
100
AcDbLine
 10
907.0103687370849
 20
158.0803259305689
 30
0.0
 11
907.0103687370849
 21
160.0803259305689
 31
0.0
  0
LINE
  5
1540
100
AcDbEntity
  8
L1
100
AcDbLine
 10
922.5103687370848
 20
160.0803259305689
 30
0.0
 11
923.6650692754645
 21
158.0803259305689
 31
0.0
  0
LINE
  5
1541
100
AcDbEntity
  8
L1
100
AcDbLine
 10
915.510368737085
 20
160.0803259305689
 30
0.0
 11
914.3556681987059
 21
158.0803259305689
 31
0.0
  0
LINE
  5
1542
100
AcDbEntity
  8
L1
100
AcDbLine
 10
926.1103687370853
 20
160.0803259305689
 30
0.0
 11
926.1103687370853
 21
158.0803259305689
 31
0.0
  0
LINE
  5
1543
100
AcDbEntity
  8
L2
100
AcDbLine
 10
930.5103687370849
 20
155.0803259305698
 30
0.0
 11
930.5103687370849
 21
158.0803259305698
 31
0.0
  0
LINE
  5
1544
100
AcDbEntity
  8
L2
100
AcDbLine
 10
937.5103687370849
 20
155.0803259305698
 30
0.0
 11
937.5103687370849
 21
158.0803259305698
 31
0.0
  0
LINE
  5
1545
100
AcDbEntity
  8
L1
100
AcDbLine
 10
941.0103687370849
 20
158.0803259305698
 30
0.0
 11
940.9405271981015
 21
160.0803259305689
 31
0.0
  0
LINE
  5
1546
100
AcDbEntity
  8
L1
100
AcDbLine
 10
927.0103687370845
 20
158.0803259305698
 30
0.0
 11
927.0802102760679
 21
160.0803259305689
 31
0.0
  0
LINE
  5
1547
100
AcDbEntity
  8
L1
100
AcDbLine
 10
945.5103687370849
 20
160.0803259305689
 30
0.0
 11
944.3556681987059
 21
158.0803259305689
 31
0.0
  0
LINE
  5
1548
100
AcDbEntity
  8
L1
100
AcDbLine
 10
949.0103687370849
 20
160.0803259305689
 30
0.0
 11
945.5103687370849
 21
160.0803259305689
 31
0.0
  0
LINE
  5
1549
100
AcDbEntity
  8
L1
100
AcDbLine
 10
952.5103687370849
 20
160.0803259305689
 30
0.0
 11
953.6650692754644
 21
158.0803259305689
 31
0.0
  0
LINE
  5
154A
100
AcDbEntity
  8
L1
100
AcDbLine
 10
1002.510368737085
 20
160.0803259305689
 30
0.0
 11
995.5103687370849
 21
160.0803259305689
 31
0.0
  0
LINE
  5
154B
100
AcDbEntity
  8
L1
100
AcDbLine
 10
995.5103687370849
 20
160.0803259305689
 30
0.0
 11
994.3556681987059
 21
158.0803259305689
 31
0.0
  0
LINE
  5
154C
100
AcDbEntity
  8
L1
100
AcDbLine
 10
1002.510368737085
 20
160.0803259305689
 30
0.0
 11
1003.665069275464
 21
158.0803259305689
 31
0.0
  0
LINE
  5
154D
100
AcDbEntity
  8
L1
100
AcDbLine
 10
1052.510368737084
 20
160.0803259305689
 30
0.0
 11
1045.510368737085
 21
160.0803259305689
 31
0.0
  0
LINE
  5
154E
100
AcDbEntity
  8
L1
100
AcDbLine
 10
1045.510368737085
 20
160.0803259305689
 30
0.0
 11
1044.355668198706
 21
158.0803259305689
 31
0.0
  0
LINE
  5
154F
100
AcDbEntity
  8
L1
100
AcDbLine
 10
1052.510368737084
 20
160.0803259305689
 30
0.0
 11
1053.665069275464
 21
158.0803259305689
 31
0.0
  0
LINE
  5
1550
100
AcDbEntity
  8
L1
100
AcDbLine
 10
904.010368737085
 20
8.08032593056987
 30
0.0
 11
904.8142163143786
 21
5.08032593056987
 31
0.0
1001
ACAD
1000
ASC_BOUNDS
1002
{
1070
    19
1002
}
  0
LINE
  5
1551
100
AcDbEntity
  8
L1
100
AcDbLine
 10
900.0103687370849
 20
15.28032593057014
 30
0.0
 11
902.5115126496633
 21
15.41140532869531
 31
0.0
1001
ACAD
1000
ASC_BOUNDS
1002
{
1070
    19
1002
}
  0
LINE
  5
1552
100
AcDbEntity
  8
L1
100
AcDbLine
 10
900.0103687370849
 20
8.08032593056987
 30
0.0
 11
900.0103687370849
 21
15.28032593057014
 31
0.0
1001
ACAD
1000
ASC_BOUNDS
1002
{
1070
    19
1002
}
  0
LINE
  5
1553
100
AcDbEntity
  8
L2
 48
2.0
100
AcDbLine
 10
1291.010368737084
 20
5.08032593056987
 30
0.0
 11
1291.010368737084
 21
151.0803259305689
 31
0.0
  0
LINE
  5
1554
100
AcDbEntity
  8
L1
100
AcDbLine
 10
1282.010368737084
 20
158.0803259305688
 30
0.0
 11
1282.010368737084
 21
15.28032593056968
 31
0.0
  0
LINE
  5
1555
100
AcDbEntity
  8
L1
100
AcDbLine
 10
1294.264172016564
 20
158.0803259305698
 30
0.0
 11
1295.509224824506
 21
15.41140532869531
 31
0.0
1001
ACAD
1000
ASC_BOUNDS
1002
{
1070
    19
1002
}
  0
LINE
  5
1556
100
AcDbEntity
  8
L1
100
AcDbLine
 10
1296.510368737084
 20
158.0803259305698
 30
0.0
 11
1296.510368737084
 21
15.35893759949385
 31
0.0
  0
LINE
  5
1557
100
AcDbEntity
  8
L6
100
AcDbLine
 10
1099.010368737084
 20
170.6234184072464
 30
0.0
 11
1099.010368737084
 21
-2.896372800425524
 31
0.0
  0
LINE
  5
1558
100
AcDbEntity
  8
L6
100
AcDbLine
 10
1099.010368737084
 20
170.6234184072464
 30
0.0
 11
1099.010368737084
 21
-2.896372800425524
 31
0.0
  0
LINE
  5
1559
100
AcDbEntity
  8
L6
100
AcDbLine
 10
1099.010368737084
 20
170.6234184072464
 30
0.0
 11
1099.010368737084
 21
-2.896372800425524
 31
0.0
  0
LINE
  5
155A
100
AcDbEntity
  8
L1
100
AcDbLine
 10
1195.945963039754
 20
160.0803259305689
 30
0.0
 11
1202.945963039754
 21
160.0803259305689
 31
0.0
  0
LINE
  5
155B
100
AcDbEntity
  8
L1
100
AcDbLine
 10
1296.510368737084
 20
158.0803259305701
 30
0.0
 11
1113.010368737086
 21
158.0803259305689
 31
0.0
1001
ACAD
1000
ASC_BOUNDS
1002
{
1070
    19
1002
}
  0
ARC
  5
155C
100
AcDbEntity
  8
L2
100
AcDbCircle
 10
1104.702737741439
 20
154.5803259305689
 30
0.0
 40
0.4999999999999988
100
AcDbArc
 50
90.0
 51
178.0000000000001
  0
ARC
  5
155D
100
AcDbEntity
  8
L2
100
AcDbCircle
 10
1104.702737741439
 20
154.5803259305689
 30
0.0
 40
0.4999999999999988
100
AcDbArc
 50
90.0
 51
178.0000000000001
  0
ARC
  5
155E
100
AcDbEntity
  8
L2
100
AcDbCircle
 10
1104.702737741439
 20
154.5803259305689
 30
0.0
 40
0.4999999999999988
100
AcDbArc
 50
90.0
 51
178.0000000000001
  0
ARC
  5
155F
100
AcDbEntity
  8
L2
100
AcDbCircle
 10
1109.558061923443
 20
154.5628761822176
 30
0.0
 40
0.4999999999999988
100
AcDbArc
 50
90.0
 51
178.0000000000001
  0
ARC
  5
1560
100
AcDbEntity
  8
L2
100
AcDbCircle
 10
1109.558061923443
 20
154.5628761822176
 30
0.0
 40
0.4999999999999988
100
AcDbArc
 50
90.0
 51
178.0000000000001
  0
ARC
  5
1561
100
AcDbEntity
  8
L2
100
AcDbCircle
 10
1109.558061923443
 20
154.5628761822176
 30
0.0
 40
0.4999999999999988
100
AcDbArc
 50
90.0
 51
178.0000000000001
  0
ARC
  5
1562
100
AcDbEntity
  8
L2
100
AcDbCircle
 10
1093.31799973273
 20
154.5803259305689
 30
0.0
 40
0.4999999999999988
100
AcDbArc
 50
1.999999999999875
 51
90.0
  0
ARC
  5
1563
100
AcDbEntity
  8
L2
100
AcDbCircle
 10
1088.462675550726
 20
154.5628761822176
 30
0.0
 40
0.4999999999999988
100
AcDbArc
 50
1.999999999999875
 51
90.0
  0
ARC
  5
1564
100
AcDbEntity
  8
L2
100
AcDbCircle
 10
1093.31799973273
 20
154.5803259305689
 30
0.0
 40
0.4999999999999988
100
AcDbArc
 50
1.999999999999875
 51
90.0
  0
ARC
  5
1565
100
AcDbEntity
  8
L2
100
AcDbCircle
 10
1088.462675550726
 20
154.5628761822176
 30
0.0
 40
0.4999999999999988
100
AcDbArc
 50
1.999999999999875
 51
90.0
  0
ARC
  5
1566
100
AcDbEntity
  8
L2
100
AcDbCircle
 10
1093.31799973273
 20
154.5803259305689
 30
0.0
 40
0.4999999999999988
100
AcDbArc
 50
1.999999999999875
 51
90.0
  0
ARC
  5
1567
100
AcDbEntity
  8
L2
100
AcDbCircle
 10
1088.462675550726
 20
154.5628761822176
 30
0.0
 40
0.4999999999999988
100
AcDbArc
 50
1.999999999999875
 51
90.0
  0
LINE
  5
1568
100
AcDbEntity
  8
L1
100
AcDbLine
 10
1102.510368737084
 20
160.0803259305689
 30
0.0
 11
1095.510368737085
 21
160.0803259305689
 31
0.0
  0
ARC
  5
1569
100
AcDbEntity
  8
L1
100
AcDbCircle
 10
1099.125928032202
 20
58.96249579881033
 30
0.0
 40
100.1178968229071
100
AcDbArc
 50
81.89489908540954
 51
98.10510091458993
  0
LINE
  5
156A
100
AcDbEntity
  8
L1
100
AcDbLine
 10
1099.010368737084
 20
160.0803259305689
 30
0.0
 11
1095.510368737085
 21
160.0803259305689
 31
0.0
  0
LINE
  5
156B
100
AcDbEntity
  8
L1
100
AcDbLine
 10
1095.510368737085
 20
160.0803259305689
 30
0.0
 11
1094.881079228991
 21
158.99036452988
 31
0.0
  0
LINE
  5
156C
100
AcDbEntity
  8
L1
100
AcDbLine
 10
1102.510368737084
 20
160.0803259305689
 30
0.0
 11
1103.139658245178
 21
158.99036452988
 31
0.0
  0
LINE
  5
156D
100
AcDbEntity
  8
L2
100
AcDbLine
 10
1089.010368737085
 20
149.0803259305689
 30
0.0
 11
1109.010368737084
 21
149.0803259305689
 31
0.0
  0
LINE
  5
156E
100
AcDbEntity
  8
L2
100
AcDbLine
 10
1094.010368737085
 20
149.0803259305689
 30
0.0
 11
1093.81769514624
 21
154.5977756789202
 31
0.0
  0
LINE
  5
156F
100
AcDbEntity
  8
L2
100
AcDbLine
 10
1089.010368737085
 20
149.0803259305689
 30
0.0
 11
1088.962370964235
 21
154.5803259305689
 31
0.0
  0
LINE
  5
1570
100
AcDbEntity
  8
L2
100
AcDbLine
 10
1089.010368737085
 20
149.0803259305689
 30
0.0
 11
1099.010368737084
 21
149.0803259305689
 31
0.0
  0
LINE
  5
1571
100
AcDbEntity
  8
L2
100
AcDbLine
 10
1094.010368737085
 20
149.0803259305689
 30
0.0
 11
1093.81769514624
 21
154.5977756789202
 31
0.0
  0
LINE
  5
1572
100
AcDbEntity
  8
L2
100
AcDbLine
 10
1089.010368737085
 20
149.0803259305689
 30
0.0
 11
1088.962370964235
 21
154.5803259305689
 31
0.0
  0
LINE
  5
1573
100
AcDbEntity
  8
L2
100
AcDbLine
 10
1089.010368737085
 20
149.0803259305689
 30
0.0
 11
1099.010368737084
 21
149.0803259305689
 31
0.0
  0
LINE
  5
1574
100
AcDbEntity
  8
L2
100
AcDbLine
 10
1094.010368737085
 20
149.0803259305689
 30
0.0
 11
1093.81769514624
 21
154.5977756789202
 31
0.0
  0
LINE
  5
1575
100
AcDbEntity
  8
L2
100
AcDbLine
 10
1089.010368737085
 20
149.0803259305689
 30
0.0
 11
1088.962370964235
 21
154.5803259305689
 31
0.0
  0
LINE
  5
1576
100
AcDbEntity
  8
L2
100
AcDbLine
 10
1104.010368737085
 20
149.0803259305689
 30
0.0
 11
1104.203042327929
 21
154.5977756789202
 31
0.0
  0
LINE
  5
1577
100
AcDbEntity
  8
L2
100
AcDbLine
 10
1104.010368737085
 20
149.0803259305689
 30
0.0
 11
1104.203042327929
 21
154.5977756789202
 31
0.0
  0
LINE
  5
1578
100
AcDbEntity
  8
L2
100
AcDbLine
 10
1104.010368737085
 20
149.0803259305689
 30
0.0
 11
1104.203042327929
 21
154.5977756789202
 31
0.0
  0
LINE
  5
1579
100
AcDbEntity
  8
L2
100
AcDbLine
 10
1109.010368737084
 20
149.0803259305689
 30
0.0
 11
1109.058366509934
 21
154.5803259305689
 31
0.0
  0
LINE
  5
157A
100
AcDbEntity
  8
L2
100
AcDbLine
 10
1109.010368737084
 20
149.0803259305689
 30
0.0
 11
1109.058366509934
 21
154.5803259305689
 31
0.0
  0
LINE
  5
157B
100
AcDbEntity
  8
L2
100
AcDbLine
 10
1109.010368737084
 20
149.0803259305689
 30
0.0
 11
1109.058366509934
 21
154.5803259305689
 31
0.0
  0
LINE
  5
157C
100
AcDbEntity
  8
L1
100
AcDbLine
 10
1145.945963039754
 20
160.0803259305689
 30
0.0
 11
1152.945963039754
 21
160.0803259305689
 31
0.0
  0
LINE
  5
157D
100
AcDbEntity
  8
L1
100
AcDbLine
 10
1145.945963039754
 20
160.0803259305689
 30
0.0
 11
1144.791262501375
 21
158.0803259305689
 31
0.0
  0
LINE
  5
157E
100
AcDbEntity
  8
L1
100
AcDbLine
 10
1152.945963039754
 20
160.0803259305689
 30
0.0
 11
1154.100663578134
 21
158.0803259305689
 31
0.0
  0
LINE
  5
157F
100
AcDbEntity
  8
L1
100
AcDbLine
 10
1195.945963039754
 20
160.0803259305689
 30
0.0
 11
1194.791262501375
 21
158.0803259305689
 31
0.0
  0
LINE
  5
1580
100
AcDbEntity
  8
L1
100
AcDbLine
 10
1291.445963039755
 20
160.0803259305689
 30
0.0
 11
1245.945963039754
 21
160.0803259305689
 31
0.0
  0
LINE
  5
1581
100
AcDbEntity
  8
L1
100
AcDbLine
 10
1202.945963039754
 20
160.0803259305689
 30
0.0
 11
1204.100663578134
 21
158.0803259305689
 31
0.0
  0
LINE
  5
1582
100
AcDbEntity
  8
L1
100
AcDbLine
 10
1245.945963039754
 20
160.0803259305689
 30
0.0
 11
1244.791262501375
 21
158.0803259305689
 31
0.0
  0
LINE
  5
1583
100
AcDbEntity
  8
L1
100
AcDbLine
 10
1252.945963039755
 20
160.0803259305689
 30
0.0
 11
1254.100663578133
 21
158.0803259305689
 31
0.0
  0
LINE
  5
1584
100
AcDbEntity
  8
L1
100
AcDbLine
 10
1249.445963039754
 20
160.0803259305689
 30
0.0
 11
1252.945963039755
 21
160.0803259305689
 31
0.0
  0
LINE
  5
1585
100
AcDbEntity
  8
L1
100
AcDbLine
 10
1257.445963039754
 20
158.0803259305698
 30
0.0
 11
1257.515804578738
 21
160.0803259305689
 31
0.0
  0
LINE
  5
1586
100
AcDbEntity
  8
L2
100
AcDbLine
 10
1260.510368737085
 20
155.0803259305698
 30
0.0
 11
1260.510368737085
 21
158.0803259305698
 31
0.0
  0
ARC
  5
1587
100
AcDbEntity
  8
L2
 48
2.0
100
AcDbCircle
 10
1287.010368737084
 20
151.0803259305689
 30
0.0
 40
4.0
100
AcDbArc
 50
359.9999999999998
 51
90.0
  0
LINE
  5
1588
100
AcDbEntity
  8
L1
100
AcDbLine
 10
1275.945963039754
 20
160.0803259305689
 30
0.0
 11
1274.791262501375
 21
158.0803259305689
 31
0.0
  0
LINE
  5
1589
100
AcDbEntity
  8
L1
100
AcDbLine
 10
1272.345963039754
 20
160.0803259305689
 30
0.0
 11
1272.345963039754
 21
158.0803259305689
 31
0.0
  0
LINE
  5
158A
100
AcDbEntity
  8
L1
100
AcDbLine
 10
1271.445963039755
 20
158.0803259305698
 30
0.0
 11
1271.376121500772
 21
160.0803259305689
 31
0.0
  0
LINE
  5
158B
100
AcDbEntity
  8
L2
100
AcDbLine
 10
1267.510368737085
 20
155.0803259305698
 30
0.0
 11
1267.510368737085
 21
158.0803259305698
 31
0.0
  0
LINE
  5
158C
100
AcDbEntity
  8
L1
100
AcDbLine
 10
1282.945963039755
 20
160.0803259305689
 30
0.0
 11
1284.100663578134
 21
158.0803259305689
 31
0.0
  0
LINE
  5
158D
100
AcDbEntity
  8
L1
100
AcDbLine
 10
1291.445963039755
 20
158.0803259305689
 30
0.0
 11
1291.445963039755
 21
160.0803259305689
 31
0.0
  0
LINE
  5
158E
100
AcDbEntity
  8
L1
100
AcDbLine
 10
1294.010368737085
 20
8.08032593056987
 30
0.0
 11
1293.206521159791
 21
5.08032593056987
 31
0.0
1001
ACAD
1000
ASC_BOUNDS
1002
{
1070
    19
1002
}
  0
LINE
  5
158F
100
AcDbEntity
  8
L2
100
AcDbLine
 10
1276.510368737084
 20
6.58032593056987
 30
0.0
 11
1276.510368737084
 21
14.58032593056987
 31
0.0
  0
LINE
  5
1590
100
AcDbEntity
  8
L1
100
AcDbLine
 10
1298.010368737084
 20
8.08032593056987
 30
0.0
 11
1294.010368737085
 21
8.08032593056987
 31
0.0
1001
ACAD
1000
ASC_BOUNDS
1002
{
1070
    19
1002
}
  0
LINE
  5
1591
100
AcDbEntity
  8
L1
100
AcDbLine
 10
1298.010368737084
 20
15.28032593057014
 30
0.0
 11
1295.509224824506
 21
15.41140532869531
 31
0.0
1001
ACAD
1000
ASC_BOUNDS
1002
{
1070
    19
1002
}
  0
LINE
  5
1592
100
AcDbEntity
  8
L1
100
AcDbLine
 10
1298.010368737084
 20
8.08032593056987
 30
0.0
 11
1298.010368737084
 21
15.28032593057014
 31
0.0
1001
ACAD
1000
ASC_BOUNDS
1002
{
1070
    19
1002
}
  0
LINE
  5
1594
100
AcDbEntity
  8
L2
100
AcDbLine
 10
1465.685661064503
 20
543.2071877906168
 30
0.0
 11
1465.685661064503
 21
563.2071877906167
 31
0.0
  0
LINE
  5
1595
100
AcDbEntity
  8
L2
100
AcDbLine
 10
1465.685661064503
 20
543.2071877906168
 30
0.0
 11
1460.185661064503
 21
543.1591900177677
 31
0.0
  0
LINE
  5
1596
100
AcDbEntity
  8
L2
100
AcDbLine
 10
1465.685661064503
 20
548.2071877906169
 30
0.0
 11
1460.168211316152
 21
548.0145141997727
 31
0.0
  0
LINE
  5
1597
100
AcDbEntity
  8
L2
100
AcDbLine
 10
1465.685661064503
 20
543.2071877906168
 30
0.0
 11
1465.685661064503
 21
553.2071877906169
 31
0.0
  0
LINE
  5
1598
100
AcDbEntity
  8
L2
100
AcDbLine
 10
1465.685661064503
 20
543.2071877906168
 30
0.0
 11
1460.185661064503
 21
543.1591900177677
 31
0.0
  0
LINE
  5
1599
100
AcDbEntity
  8
L2
100
AcDbLine
 10
1465.685661064503
 20
548.2071877906169
 30
0.0
 11
1460.168211316152
 21
548.0145141997727
 31
0.0
  0
LINE
  5
159A
100
AcDbEntity
  8
L2
100
AcDbLine
 10
1465.685661064503
 20
543.2071877906168
 30
0.0
 11
1465.685661064503
 21
553.2071877906169
 31
0.0
  0
LINE
  5
159B
100
AcDbEntity
  8
L2
100
AcDbLine
 10
1465.685661064503
 20
543.2071877906168
 30
0.0
 11
1460.185661064503
 21
543.1591900177677
 31
0.0
  0
LINE
  5
159C
100
AcDbEntity
  8
L2
100
AcDbLine
 10
1465.685661064503
 20
548.2071877906169
 30
0.0
 11
1460.168211316152
 21
548.0145141997727
 31
0.0
  0
ARC
  5
159D
100
AcDbEntity
  8
L2
100
AcDbCircle
 10
1460.203110812854
 20
542.6594946042582
 30
0.0
 40
0.4999999999999988
100
AcDbArc
 50
91.99999999999986
 51
180.0
  0
ARC
  5
159E
100
AcDbEntity
  8
L2
100
AcDbCircle
 10
1460.185661064503
 20
547.5148187862628
 30
0.0
 40
0.4999999999999988
100
AcDbArc
 50
91.99999999999986
 51
180.0
  0
ARC
  5
159F
100
AcDbEntity
  8
L2
100
AcDbCircle
 10
1460.203110812854
 20
542.6594946042582
 30
0.0
 40
0.4999999999999988
100
AcDbArc
 50
91.99999999999986
 51
180.0
  0
ARC
  5
15A0
100
AcDbEntity
  8
L2
100
AcDbCircle
 10
1460.185661064503
 20
547.5148187862628
 30
0.0
 40
0.4999999999999988
100
AcDbArc
 50
91.99999999999986
 51
180.0
  0
ARC
  5
15A1
100
AcDbEntity
  8
L2
100
AcDbCircle
 10
1460.203110812854
 20
542.6594946042582
 30
0.0
 40
0.4999999999999988
100
AcDbArc
 50
91.99999999999986
 51
180.0
  0
ARC
  5
15A2
100
AcDbEntity
  8
L2
100
AcDbCircle
 10
1460.185661064503
 20
547.5148187862628
 30
0.0
 40
0.4999999999999988
100
AcDbArc
 50
91.99999999999986
 51
180.0
  0
LINE
  5
15A3
100
AcDbEntity
  8
L2
100
AcDbLine
 10
1465.685661064503
 20
563.2071877906168
 30
0.0
 11
1460.185661064503
 21
563.255185563466
 31
0.0
  0
LINE
  5
15A4
100
AcDbEntity
  8
L2
100
AcDbLine
 10
1465.685661064503
 20
563.2071877906168
 30
0.0
 11
1460.185661064503
 21
563.255185563466
 31
0.0
  0
LINE
  5
15A5
100
AcDbEntity
  8
L2
100
AcDbLine
 10
1465.685661064503
 20
563.2071877906168
 30
0.0
 11
1460.185661064503
 21
563.255185563466
 31
0.0
  0
LINE
  5
15A6
100
AcDbEntity
  8
L2
100
AcDbLine
 10
1465.685661064503
 20
558.2071877906169
 30
0.0
 11
1460.168211316152
 21
558.399861381461
 31
0.0
  0
LINE
  5
15A7
100
AcDbEntity
  8
L2
100
AcDbLine
 10
1465.685661064503
 20
558.2071877906169
 30
0.0
 11
1460.168211316152
 21
558.399861381461
 31
0.0
  0
LINE
  5
15A8
100
AcDbEntity
  8
L2
100
AcDbLine
 10
1465.685661064503
 20
558.2071877906169
 30
0.0
 11
1460.168211316152
 21
558.399861381461
 31
0.0
  0
ARC
  5
15A9
100
AcDbEntity
  8
L2
100
AcDbCircle
 10
1460.203110812854
 20
563.7548809769755
 30
0.0
 40
0.4999999999999988
100
AcDbArc
 50
180.0
 51
268.0000000000001
  0
ARC
  5
15AA
100
AcDbEntity
  8
L2
100
AcDbCircle
 10
1460.203110812854
 20
563.7548809769755
 30
0.0
 40
0.4999999999999988
100
AcDbArc
 50
180.0
 51
268.0000000000001
  0
ARC
  5
15AB
100
AcDbEntity
  8
L2
100
AcDbCircle
 10
1460.203110812854
 20
563.7548809769755
 30
0.0
 40
0.4999999999999988
100
AcDbArc
 50
180.0
 51
268.0000000000001
  0
ARC
  5
15AC
100
AcDbEntity
  8
L2
100
AcDbCircle
 10
1460.185661064503
 20
558.899556794971
 30
0.0
 40
0.4999999999999988
100
AcDbArc
 50
180.0
 51
268.0000000000001
  0
ARC
  5
15AD
100
AcDbEntity
  8
L2
100
AcDbCircle
 10
1460.185661064503
 20
558.899556794971
 30
0.0
 40
0.4999999999999988
100
AcDbArc
 50
180.0
 51
268.0000000000001
  0
ARC
  5
15AE
100
AcDbEntity
  8
L2
100
AcDbCircle
 10
1460.185661064503
 20
558.899556794971
 30
0.0
 40
0.4999999999999988
100
AcDbArc
 50
180.0
 51
268.0000000000001
  0
LINE
  5
15B0
100
AcDbEntity
  8
L2
100
AcDbLine
 10
732.3350764096667
 20
543.2071877906168
 30
0.0
 11
732.3350764096667
 21
563.2071877906167
 31
0.0
  0
LINE
  5
15B1
100
AcDbEntity
  8
L1
100
AcDbLine
 10
588.3350764096672
 20
309.011035367911
 30
0.0
 11
588.3350764096672
 21
797.4033402133223
 31
0.0
  0
LINE
  5
15B2
100
AcDbEntity
  8
L1
100
AcDbLine
 10
591.3350764096671
 20
304.2071877906191
 30
0.0
 11
591.3350764096671
 21
802.2071877906146
 31
0.0
  0
LINE
  5
15B3
100
AcDbEntity
  8
L1
100
AcDbLine
 10
741.3350764096667
 20
305.7071877906187
 30
0.0
 11
741.3350764096667
 21
799.7678479623955
 31
0.0
  0
LINE
  5
15B4
100
AcDbEntity
  8
L1
100
AcDbLine
 10
598.5350764096669
 20
304.2071877906191
 30
0.0
 11
598.5350764096669
 21
799.2505036695827
 31
0.0
  0
LINE
  5
15B5
100
AcDbEntity
  8
L1
100
AcDbLine
 10
743.3350764096667
 20
556.7071877906169
 30
0.0
 11
741.3350764096667
 21
557.8618883289959
 31
0.0
  0
ARC
  5
15B6
100
AcDbEntity
  8
L1
100
AcDbCircle
 10
642.217246277908
 20
553.0916284954992
 30
0.0
 40
100.1178968229071
100
AcDbArc
 50
2.429983603834067
 51
8.105100914589943
  0
LINE
  5
15B7
100
AcDbEntity
  8
L2
 48
3.0
100
AcDbLine
 10
738.3350764096667
 20
791.2071877906155
 30
0.0
 11
738.3350764096667
 21
315.2071877906182
 31
0.0
1001
ACAD
1000
ASC_BOUNDS
1002
{
1070
    19
1002
}
  0
LINE
  5
15B8
100
AcDbEntity
  8
L6
100
AcDbLine
 10
757.5690616652377
 20
553.2071877906169
 30
0.0
 11
573.4671162661113
 21
553.2071877906169
 31
0.0
  0
LINE
  5
15B9
100
AcDbEntity
  8
L1
100
AcDbLine
 10
741.3350764096667
 20
305.7071877906187
 30
0.0
 11
598.6136880785916
 21
305.7071877906187
 31
0.0
  0
LINE
  5
15BA
100
AcDbEntity
  8
L1
100
AcDbLine
 10
598.5919982845471
 20
306.6465276188382
 30
0.0
 11
741.3350764096667
 21
306.6465276188382
 31
0.0
  0
LINE
  5
15BB
100
AcDbEntity
  8
L1
100
AcDbLine
 10
598.5350764096669
 20
320.707187790618
 30
0.0
 11
741.3350764096667
 21
320.7071877906182
 31
0.0
  0
LINE
  5
15BC
100
AcDbEntity
  8
L2
 48
2.0
100
AcDbLine
 10
588.3350764096672
 20
311.2071877906182
 30
0.0
 11
734.3350764096667
 21
311.2071877906182
 31
0.0
  0
LINE
  5
15BD
100
AcDbEntity
  8
L1
100
AcDbLine
 10
743.3350764096667
 20
311.2071877906182
 30
0.0
 11
743.3350764096667
 21
332.8071877906177
 31
0.0
  0
LINE
  5
15BE
100
AcDbEntity
  8
L1
100
AcDbLine
 10
741.3350764096667
 20
311.2071877906182
 30
0.0
 11
743.3350764096667
 21
311.2071877906182
 31
0.0
  0
ARC
  5
15BF
100
AcDbEntity
  8
L2
 48
2.0
100
AcDbCircle
 10
734.3350764096667
 20
315.2071877906182
 30
0.0
 40
4.0
100
AcDbArc
 50
270.0
 51
0.0
  0
LINE
  5
15C0
100
AcDbEntity
  8
L1
100
AcDbLine
 10
743.3350764096667
 20
321.8071877906177
 30
0.0
 11
741.3350764096667
 21
321.8071877906177
 31
0.0
  0
LINE
  5
15C1
100
AcDbEntity
  8
L1
100
AcDbLine
 10
743.3350764096667
 20
332.8071877906177
 30
0.0
 11
741.3350764096667
 21
332.8071877906177
 31
0.0
  0
LINE
  5
15C2
100
AcDbEntity
  8
L1
100
AcDbLine
 10
743.3350764096667
 20
330.3071877906177
 30
0.0
 11
741.3350764096667
 21
330.3071877906177
 31
0.0
  0
LINE
  5
15C3
100
AcDbEntity
  8
L1
100
AcDbLine
 10
743.3350764096667
 20
356.7071877906182
 30
0.0
 11
743.3350764096667
 21
349.7071877906182
 31
0.0
  0
LINE
  5
15C4
100
AcDbEntity
  8
L1
100
AcDbLine
 10
743.3350764096667
 20
349.7071877906182
 30
0.0
 11
741.3350764096667
 21
348.5524872522391
 31
0.0
  0
LINE
  5
15C5
100
AcDbEntity
  8
L1
100
AcDbLine
 10
743.3350764096667
 20
356.7071877906182
 30
0.0
 11
741.3350764096667
 21
357.8618883289973
 31
0.0
  0
LINE
  5
15C6
100
AcDbEntity
  8
L1
100
AcDbLine
 10
743.3350764096667
 20
399.7071877906178
 30
0.0
 11
743.3350764096667
 21
406.7071877906178
 31
0.0
  0
LINE
  5
15C7
100
AcDbEntity
  8
L1
100
AcDbLine
 10
743.3350764096667
 20
399.7071877906178
 30
0.0
 11
741.3350764096667
 21
398.5524872522387
 31
0.0
  0
LINE
  5
15C8
100
AcDbEntity
  8
L1
100
AcDbLine
 10
743.3350764096667
 20
406.7071877906178
 30
0.0
 11
741.3350764096667
 21
407.8618883289968
 31
0.0
  0
LINE
  5
15C9
100
AcDbEntity
  8
L1
100
AcDbLine
 10
743.3350764096667
 20
449.7071877906178
 30
0.0
 11
743.3350764096667
 21
456.7071877906178
 31
0.0
  0
LINE
  5
15CA
100
AcDbEntity
  8
L1
100
AcDbLine
 10
743.3350764096667
 20
449.7071877906178
 30
0.0
 11
741.3350764096667
 21
448.5524872522387
 31
0.0
  0
LINE
  5
15CB
100
AcDbEntity
  8
L1
100
AcDbLine
 10
743.3350764096667
 20
456.7071877906178
 30
0.0
 11
741.3350764096667
 21
457.8618883289968
 31
0.0
  0
LINE
  5
15CC
100
AcDbEntity
  8
L1
100
AcDbLine
 10
743.3350764096667
 20
499.7071877906178
 30
0.0
 11
741.3350764096667
 21
498.5524872522387
 31
0.0
  0
LINE
  5
15CD
100
AcDbEntity
  8
L1
100
AcDbLine
 10
743.3350764096667
 20
499.7071877906178
 30
0.0
 11
743.3350764096667
 21
506.7071877906178
 31
0.0
  0
LINE
  5
15CE
100
AcDbEntity
  8
L1
100
AcDbLine
 10
743.3350764096667
 20
506.7071877906178
 30
0.0
 11
741.3350764096667
 21
507.8618883289968
 31
0.0
  0
LINE
  5
15CF
100
AcDbEntity
  8
L2
100
AcDbLine
 10
732.3350764096667
 20
548.2071877906169
 30
0.0
 11
737.852526158018
 21
548.0145141997727
 31
0.0
  0
LINE
  5
15D0
100
AcDbEntity
  8
L2
100
AcDbLine
 10
732.3350764096667
 20
548.2071877906169
 30
0.0
 11
737.852526158018
 21
548.0145141997727
 31
0.0
  0
LINE
  5
15D1
100
AcDbEntity
  8
L2
100
AcDbLine
 10
732.3350764096667
 20
548.2071877906169
 30
0.0
 11
737.852526158018
 21
548.0145141997727
 31
0.0
  0
LINE
  5
15D2
100
AcDbEntity
  8
L2
100
AcDbLine
 10
732.3350764096667
 20
543.2071877906168
 30
0.0
 11
737.8350764096667
 21
543.1591900177677
 31
0.0
  0
LINE
  5
15D3
100
AcDbEntity
  8
L2
100
AcDbLine
 10
732.3350764096667
 20
543.2071877906168
 30
0.0
 11
737.8350764096667
 21
543.1591900177677
 31
0.0
  0
LINE
  5
15D4
100
AcDbEntity
  8
L2
100
AcDbLine
 10
732.3350764096667
 20
543.2071877906168
 30
0.0
 11
737.8350764096667
 21
543.1591900177677
 31
0.0
  0
ARC
  5
15D5
100
AcDbEntity
  8
L2
100
AcDbCircle
 10
737.8176266613154
 20
542.6594946042582
 30
0.0
 40
0.4999999999999988
100
AcDbArc
 50
0.0
 51
88.00000000000013
  0
ARC
  5
15D6
100
AcDbEntity
  8
L2
100
AcDbCircle
 10
737.8176266613154
 20
542.6594946042582
 30
0.0
 40
0.4999999999999988
100
AcDbArc
 50
0.0
 51
88.00000000000013
  0
ARC
  5
15D7
100
AcDbEntity
  8
L2
100
AcDbCircle
 10
737.8176266613154
 20
542.6594946042582
 30
0.0
 40
0.4999999999999988
100
AcDbArc
 50
0.0
 51
88.00000000000013
  0
ARC
  5
15D8
100
AcDbEntity
  8
L2
100
AcDbCircle
 10
737.8350764096667
 20
547.5148187862628
 30
0.0
 40
0.4999999999999988
100
AcDbArc
 50
0.0
 51
88.00000000000013
  0
ARC
  5
15D9
100
AcDbEntity
  8
L2
100
AcDbCircle
 10
737.8350764096667
 20
547.5148187862628
 30
0.0
 40
0.4999999999999988
100
AcDbArc
 50
0.0
 51
88.00000000000013
  0
ARC
  5
15DA
100
AcDbEntity
  8
L2
100
AcDbCircle
 10
737.8350764096667
 20
547.5148187862628
 30
0.0
 40
0.4999999999999988
100
AcDbArc
 50
0.0
 51
88.00000000000013
  0
LINE
  5
15DB
100
AcDbEntity
  8
L2
100
AcDbLine
 10
732.3350764096667
 20
543.2071877906168
 30
0.0
 11
732.3350764096667
 21
553.2071877906169
 31
0.0
  0
LINE
  5
15DC
100
AcDbEntity
  8
L2
100
AcDbLine
 10
732.3350764096667
 20
543.2071877906168
 30
0.0
 11
732.3350764096667
 21
553.2071877906169
 31
0.0
  0
LINE
  5
15DD
100
AcDbEntity
  8
L1
100
AcDbLine
 10
743.3350764096667
 20
556.7071877906169
 30
0.0
 11
743.3350764096667
 21
549.7071877906169
 31
0.0
  0
LINE
  5
15DE
100
AcDbEntity
  8
L1
100
AcDbLine
 10
743.3350764096667
 20
549.7071877906169
 30
0.0
 11
741.3350764096667
 21
548.5524872522378
 31
0.0
  0
ARC
  5
15DF
100
AcDbEntity
  8
L1
100
AcDbCircle
 10
642.217246277908
 20
553.0916284954992
 30
0.0
 40
100.1178968229071
100
AcDbArc
 50
351.8948990854095
 51
357.7056238554916
  0
ARC
  5
15E0
100
AcDbEntity
  8
L2
 48
0.2
100
AcDbCircle
 10
642.2172462796408
 20
553.0916284955052
 30
0.0
 40
100.117896821175
100
AcDbArc
 50
358.5233005268812
 51
1.605738087494279
  0
LINE
  5
15E1
100
AcDbEntity
  8
L1
100
AcDbLine
 10
591.3350764096671
 20
308.2071877906182
 30
0.0
 11
588.3350764096672
 21
309.0110353679115
 31
0.0
  0
LINE
  5
15E2
100
AcDbEntity
  8
L1
100
AcDbLine
 10
598.5350764096669
 20
304.2071877906191
 30
0.0
 11
591.3350764096671
 21
304.2071877906191
 31
0.0
  0
LINE
  5
15E4
100
AcDbEntity
  8
L1
100
AcDbLine
 10
741.3350764096667
 20
800.7071877906151
 30
0.0
 11
598.6136880785916
 21
800.7071877906151
 31
0.0
  0
LINE
  5
15E5
100
AcDbEntity
  8
L1
100
AcDbLine
 10
598.5919982845471
 20
799.7678479623955
 30
0.0
 11
741.3350764096667
 21
799.7678479623955
 31
0.0
  0
LINE
  5
15E6
100
AcDbEntity
  8
L1
100
AcDbLine
 10
598.5350764096669
 20
785.7071877906157
 30
0.0
 11
741.3350764096667
 21
785.7071877906155
 31
0.0
  0
LINE
  5
15E7
100
AcDbEntity
  8
L2
 48
2.0
100
AcDbLine
 10
588.3350764096672
 20
795.2071877906155
 30
0.0
 11
734.3350764096667
 21
795.2071877906155
 31
0.0
  0
LINE
  5
15E8
100
AcDbEntity
  8
L1
100
AcDbLine
 10
743.3350764096667
 20
606.7071877906159
 30
0.0
 11
743.3350764096667
 21
599.707187790616
 31
0.0
  0
LINE
  5
15E9
100
AcDbEntity
  8
L2
100
AcDbLine
 10
732.3350764096667
 20
563.2071877906168
 30
0.0
 11
737.8350764096667
 21
563.255185563466
 31
0.0
  0
LINE
  5
15EA
100
AcDbEntity
  8
L2
100
AcDbLine
 10
732.3350764096667
 20
563.2071877906168
 30
0.0
 11
737.8350764096667
 21
563.255185563466
 31
0.0
  0
LINE
  5
15EB
100
AcDbEntity
  8
L2
100
AcDbLine
 10
732.3350764096667
 20
563.2071877906168
 30
0.0
 11
737.8350764096667
 21
563.255185563466
 31
0.0
  0
LINE
  5
15EC
100
AcDbEntity
  8
L2
100
AcDbLine
 10
732.3350764096667
 20
558.2071877906169
 30
0.0
 11
737.852526158018
 21
558.399861381461
 31
0.0
  0
LINE
  5
15ED
100
AcDbEntity
  8
L2
100
AcDbLine
 10
732.3350764096667
 20
558.2071877906169
 30
0.0
 11
737.852526158018
 21
558.399861381461
 31
0.0
  0
LINE
  5
15EE
100
AcDbEntity
  8
L2
100
AcDbLine
 10
732.3350764096667
 20
558.2071877906169
 30
0.0
 11
737.852526158018
 21
558.399861381461
 31
0.0
  0
ARC
  5
15EF
100
AcDbEntity
  8
L2
100
AcDbCircle
 10
737.8350764096667
 20
558.899556794971
 30
0.0
 40
0.4999999999999988
100
AcDbArc
 50
271.9999999999998
 51
0.0
  0
ARC
  5
15F0
100
AcDbEntity
  8
L2
100
AcDbCircle
 10
737.8350764096667
 20
558.899556794971
 30
0.0
 40
0.4999999999999988
100
AcDbArc
 50
271.9999999999998
 51
0.0
  0
ARC
  5
15F1
100
AcDbEntity
  8
L2
100
AcDbCircle
 10
737.8350764096667
 20
558.899556794971
 30
0.0
 40
0.4999999999999988
100
AcDbArc
 50
271.9999999999998
 51
0.0
  0
ARC
  5
15F2
100
AcDbEntity
  8
L2
100
AcDbCircle
 10
737.8176266613154
 20
563.7548809769755
 30
0.0
 40
0.4999999999999988
100
AcDbArc
 50
271.9999999999998
 51
0.0
  0
ARC
  5
15F3
100
AcDbEntity
  8
L2
100
AcDbCircle
 10
737.8176266613154
 20
563.7548809769755
 30
0.0
 40
0.4999999999999988
100
AcDbArc
 50
271.9999999999998
 51
0.0
  0
ARC
  5
15F4
100
AcDbEntity
  8
L2
100
AcDbCircle
 10
737.8176266613154
 20
563.7548809769755
 30
0.0
 40
0.4999999999999988
100
AcDbArc
 50
271.9999999999998
 51
0.0
  0
LINE
  5
15F5
100
AcDbEntity
  8
L1
100
AcDbLine
 10
743.3350764096667
 20
599.707187790616
 30
0.0
 11
741.3350764096667
 21
598.5524872522368
 31
0.0
  0
LINE
  5
15F6
100
AcDbEntity
  8
L1
100
AcDbLine
 10
743.3350764096667
 20
606.7071877906159
 30
0.0
 11
741.3350764096667
 21
607.8618883289951
 31
0.0
  0
LINE
  5
15F7
100
AcDbEntity
  8
L1
100
AcDbLine
 10
743.3350764096667
 20
656.7071877906159
 30
0.0
 11
743.3350764096667
 21
649.707187790616
 31
0.0
  0
LINE
  5
15F8
100
AcDbEntity
  8
L1
100
AcDbLine
 10
743.3350764096667
 20
649.707187790616
 30
0.0
 11
741.3350764096667
 21
648.5524872522368
 31
0.0
  0
LINE
  5
15F9
100
AcDbEntity
  8
L1
100
AcDbLine
 10
743.3350764096667
 20
656.7071877906159
 30
0.0
 11
741.3350764096667
 21
657.8618883289951
 31
0.0
  0
LINE
  5
15FA
100
AcDbEntity
  8
L1
100
AcDbLine
 10
743.3350764096667
 20
706.7071877906159
 30
0.0
 11
743.3350764096667
 21
699.707187790616
 31
0.0
  0
LINE
  5
15FB
100
AcDbEntity
  8
L1
100
AcDbLine
 10
743.3350764096667
 20
699.707187790616
 30
0.0
 11
741.3350764096667
 21
698.5524872522368
 31
0.0
  0
LINE
  5
15FC
100
AcDbEntity
  8
L1
100
AcDbLine
 10
743.3350764096667
 20
706.7071877906159
 30
0.0
 11
741.3350764096667
 21
707.8618883289951
 31
0.0
  0
LINE
  5
15FD
100
AcDbEntity
  8
L1
100
AcDbLine
 10
743.3350764096667
 20
795.2071877906155
 30
0.0
 11
743.3350764096667
 21
773.6071877906161
 31
0.0
  0
LINE
  5
15FE
100
AcDbEntity
  8
L1
100
AcDbLine
 10
743.3350764096667
 20
749.7071877906155
 30
0.0
 11
743.3350764096667
 21
756.7071877906155
 31
0.0
  0
LINE
  5
15FF
100
AcDbEntity
  8
L1
100
AcDbLine
 10
743.3350764096667
 20
749.7071877906155
 30
0.0
 11
741.3350764096667
 21
748.5524872522364
 31
0.0
  0
LINE
  5
1600
100
AcDbEntity
  8
L1
100
AcDbLine
 10
743.3350764096667
 20
756.7071877906155
 30
0.0
 11
741.3350764096667
 21
757.8618883289946
 31
0.0
  0
LINE
  5
1601
100
AcDbEntity
  8
L1
100
AcDbLine
 10
743.3350764096667
 20
776.1071877906161
 30
0.0
 11
741.3350764096667
 21
776.1071877906161
 31
0.0
  0
LINE
  5
1602
100
AcDbEntity
  8
L1
100
AcDbLine
 10
743.3350764096667
 20
773.6071877906161
 30
0.0
 11
741.3350764096667
 21
773.6071877906161
 31
0.0
  0
LINE
  5
1603
100
AcDbEntity
  8
L1
100
AcDbLine
 10
743.3350764096667
 20
784.6071877906161
 30
0.0
 11
741.3350764096667
 21
784.6071877906161
 31
0.0
  0
LINE
  5
1604
100
AcDbEntity
  8
L1
100
AcDbLine
 10
741.3350764096667
 20
795.2071877906155
 30
0.0
 11
743.3350764096667
 21
795.2071877906155
 31
0.0
  0
ARC
  5
1605
100
AcDbEntity
  8
L2
 48
2.0
100
AcDbCircle
 10
734.3350764096667
 20
791.2071877906155
 30
0.0
 40
4.0
100
AcDbArc
 50
0.0
 51
90.0
  0
LINE
  5
1606
100
AcDbEntity
  8
L1
100
AcDbLine
 10
591.3350764096671
 20
798.2071877906155
 30
0.0
 11
588.3350764096672
 21
797.4033402133223
 31
0.0
  0
ARC
  5
1607
100
AcDbEntity
  8
L1
100
AcDbCircle
 10
590.1752446840478
 20
800.432115050189
 30
0.0
 40
8.442925555484167
100
AcDbArc
 50
351.9548828857621
 51
1.867042003575853
  0
LINE
  5
1608
100
AcDbEntity
  8
L1
100
AcDbLine
 10
598.5350764096669
 20
802.2071877906146
 30
0.0
 11
598.6136880785916
 21
800.7071877906151
 31
0.0
  0
LINE
  5
1609
100
AcDbEntity
  8
L1
100
AcDbLine
 10
598.5350764096669
 20
802.2071877906146
 30
0.0
 11
591.3350764096671
 21
802.2071877906146
 31
0.0
  0
ENDSEC
  0
SECTION
  2
OBJECTS
  0
DICTIONARY
  5
1B
100
AcDbDictionary
  3
ACAD_GROUP
350
19
  3
ACAD_MLINESTYLE
350
1A
  0
DICTIONARY
  5
19
102
{ACAD_REACTORS
330
1B
102
}
100
AcDbDictionary
  0
DICTIONARY
  5
1A
102
{ACAD_REACTORS
330
1B
102
}
100
AcDbDictionary
  3
STANDARD
350
1E
  0
MLINESTYLE
  5
1E
102
{ACAD_REACTORS
330
1A
102
}
100
AcDbMlineStyle
  2
STANDARD
 70
     0
  3

 62
     0
 51
90.0
 52
90.0
 71
     2
 49
0.5
 62
   256
  6
BYLAYER
 49
-0.5
 62
   256
  6
BYLAYER
  0
ENDSEC
  0
EOF
