  0
SECTION
  2
HEADER
  9
$ACADVER
  1
AC1012
  9
$DWGCODEPAGE
  3
ansi_1252
  9
$INSBASE
 10
0.0
 20
0.0
 30
0.0
  9
$EXTMIN
 10
11.97031301918741
 20
22.21918979587962
 30
0.0
  9
$EXTMAX
 10
1141.328758617183
 20
794.6169369223298
 30
0.0
  9
$LIMMIN
 10
0.0
 20
0.0
  9
$LIMMAX
 10
1148.218078840183
 20
821.0948645146849
  9
$ORTHOMODE
 70
     1
  9
$REGENMODE
 70
     1
  9
$FILLMODE
 70
     1
  9
$QTEXTMODE
 70
     0
  9
$MIRRTEXT
 70
     1
  9
$DRAGMODE
 70
     2
  9
$LTSCALE
 40
20.0
  9
$OSMODE
 70
    39
  9
$ATTMODE
 70
     1
  9
$TEXTSIZE
 40
3.5
  9
$TRACEWID
 40
0.05
  9
$TEXTSTYLE
  7
CAEISO
  9
$CLAYER
  8
L1
  9
$CELTYPE
  6
BYLAYER
  9
$CECOLOR
 62
   256
  9
$CELTSCALE
 40
1.0
  9
$DELOBJ
 70
     1
  9
$DISPSILH
 70
     1
  9
$DIMSCALE
 40
1.0
  9
$DIMASZ
 40
3.5
  9
$DIMEXO
 40
0.1
  9
$DIMDLI
 40
0.4
  9
$DIMRND
 40
0.0
  9
$DIMDLE
 40
0.0
  9
$DIMEXE
 40
0.2
  9
$DIMTP
 40
0.0
  9
$DIMTM
 40
0.0
  9
$DIMTXT
 40
3.5
  9
$DIMCEN
 40
0.1
  9
$DIMTSZ
 40
0.0
  9
$DIMTOL
 70
     0
  9
$DIMLIM
 70
     0
  9
$DIMTIH
 70
     0
  9
$DIMTOH
 70
     0
  9
$DIMSE1
 70
     0
  9
$DIMSE2
 70
     0
  9
$DIMTAD
 70
     1
  9
$DIMZIN
 70
    12
  9
$DIMBLK
  1

  9
$DIMASO
 70
     1
  9
$DIMSHO
 70
     1
  9
$DIMPOST
  1

  9
$DIMAPOST
  1

  9
$DIMALT
 70
     0
  9
$DIMALTD
 70
     2
  9
$DIMALTF
 40
25.4
  9
$DIMLFAC
 40
1.0
  9
$DIMTOFL
 70
     0
  9
$DIMTVP
 40
0.0
  9
$DIMTIX
 70
     0
  9
$DIMSOXD
 70
     0
  9
$DIMSAH
 70
     0
  9
$DIMBLK1
  1

  9
$DIMBLK2
  1

  9
$DIMSTYLE
  2
ACADUS
  9
$DIMCLRD
 70
     0
  9
$DIMCLRE
 70
     0
  9
$DIMCLRT
 70
     3
  9
$DIMTFAC
 40
0.2571428571428572
  9
$DIMGAP
 40
0.1
  9
$DIMJUST
 70
     0
  9
$DIMSD1
 70
     0
  9
$DIMSD2
 70
     0
  9
$DIMTOLJ
 70
     1
  9
$DIMTZIN
 70
    12
  9
$DIMALTZ
 70
    12
  9
$DIMALTTZ
 70
    12
  9
$DIMFIT
 70
     5
  9
$DIMUPT
 70
     0
  9
$DIMUNIT
 70
     2
  9
$DIMDEC
 70
     1
  9
$DIMTDEC
 70
     1
  9
$DIMALTU
 70
     2
  9
$DIMALTTD
 70
     2
  9
$DIMTXSTY
  7
CAEISO
  9
$DIMAUNIT
 70
     0
  9
$LUNITS
 70
     2
  9
$LUPREC
 70
     1
  9
$SKETCHINC
 40
1.0
  9
$FILLETRAD
 40
1.0
  9
$AUNITS
 70
     0
  9
$AUPREC
 70
     1
  9
$MENU
  1
CAESAR
  9
$ELEVATION
 40
0.0
  9
$PELEVATION
 40
0.0
  9
$THICKNESS
 40
0.0
  9
$LIMCHECK
 70
     0
  9
$BLIPMODE
 70
     0
  9
$CHAMFERA
 40
5.0
  9
$CHAMFERB
 40
5.0
  9
$CHAMFERC
 40
0.0
  9
$CHAMFERD
 40
0.0
  9
$SKPOLY
 70
     0
  9
$TDCREATE
 40
2450484.546572800
  9
$TDUPDATE
 40
2450779.567415764
  9
$TDINDWG
 40
0.7606726157
  9
$TDUSRTIMER
 40
0.7606726157
  9
$USRTIMER
 70
     1
  9
$ANGBASE
 50
0.0
  9
$ANGDIR
 70
     0
  9
$PDMODE
 70
     0
  9
$PDSIZE
 40
0.0
  9
$PLINEWID
 40
0.0
  9
$COORDS
 70
     2
  9
$SPLFRAME
 70
     0
  9
$SPLINETYPE
 70
     6
  9
$SPLINESEGS
 70
     8
  9
$ATTDIA
 70
     0
  9
$ATTREQ
 70
     1
  9
$HANDLING
 70
     1
  9
$HANDSEED
  5
729
  9
$SURFTAB1
 70
     6
  9
$SURFTAB2
 70
     6
  9
$SURFTYPE
 70
     6
  9
$SURFU
 70
     6
  9
$SURFV
 70
     6
  9
$UCSNAME
  2

  9
$UCSORG
 10
0.0
 20
0.0
 30
0.0
  9
$UCSXDIR
 10
1.0
 20
0.0
 30
0.0
  9
$UCSYDIR
 10
0.0
 20
1.0
 30
0.0
  9
$PUCSNAME
  2

  9
$PUCSORG
 10
0.0
 20
0.0
 30
0.0
  9
$PUCSXDIR
 10
1.0
 20
0.0
 30
0.0
  9
$PUCSYDIR
 10
0.0
 20
1.0
 30
0.0
  9
$USERI1
 70
     0
  9
$USERI2
 70
     0
  9
$USERI3
 70
     0
  9
$USERI4
 70
     0
  9
$USERI5
 70
     0
  9
$USERR1
 40
1.0
  9
$USERR2
 40
0.0
  9
$USERR3
 40
3.5
  9
$USERR4
 40
5.0
  9
$USERR5
 40
0.0
  9
$WORLDVIEW
 70
     1
  9
$SHADEDGE
 70
     3
  9
$SHADEDIF
 70
    70
  9
$TILEMODE
 70
     1
  9
$MAXACTVP
 70
    16
  9
$PINSBASE
 10
0.0
 20
0.0
 30
0.0
  9
$PLIMCHECK
 70
     0
  9
$PEXTMIN
 10
1.000000000000000E+20
 20
1.000000000000000E+20
 30
1.000000000000000E+20
  9
$PEXTMAX
 10
-1.000000000000000E+20
 20
-1.000000000000000E+20
 30
-1.000000000000000E+20
  9
$PLIMMIN
 10
0.0
 20
0.0
  9
$PLIMMAX
 10
420.0
 20
297.0
  9
$UNITMODE
 70
     0
  9
$VISRETAIN
 70
     0
  9
$PLINEGEN
 70
     0
  9
$PSLTSCALE
 70
     0
  9
$TREEDEPTH
 70
  3020
  9
$PICKSTYLE
 70
     1
  9
$CMLSTYLE
  2
STANDARD
  9
$CMLJUST
 70
     0
  9
$CMLSCALE
 40
1.0
  9
$SAVEIMAGES
 70
     0
  0
ENDSEC
  0
SECTION
  2
CLASSES
  0
CLASS
  1
ACMESCOPE
  2
AcMeScope
  3
ACME_MODULE_NAME
 90
        0
280
     0
281
     0
  0
CLASS
  1
ACMECOMMANDHISTORY
  2
AcMeCommandHistory
  3
ACME_MODULE_NAME
 90
        0
280
     0
281
     0
  0
CLASS
  1
AcRfInsAdjusterMgr
  2
AcRfInsAdjusterMgr
  3
ACME_MODULE_NAME
 90
        0
280
     0
281
     0
  0
CLASS
  1
ACGREFMASTER
  2
AcGrefMaster
  3
"AcadRfServer"
 90
        0
280
     0
281
     0
  0
CLASS
  1
AmiMaster
  2
AmiMaster
  3
"AmiServices"
 90
        0
280
     0
281
     0
  0
CLASS
  1
ACASGREFMASTER
  2
AcAsGrefMaster
  3
"AutoSurfResolver"
 90
        0
280
     0
281
     0
  0
CLASS
  1
ADAPPL
  2
AcAdAppl
  3
DesignerServices
 90
        0
280
     0
281
     0
  0
CLASS
  1
DEPMGR
  2
AcAdDepMgr
  3
DesignerServices
 90
        0
280
     0
281
     0
  0
CLASS
  1
PARAMMGR
  2
AcAdParamMgr
  3
DesignerServices
 90
        0
280
     0
281
     0
  0
CLASS
  1
PARAMSCOPE
  2
AcAdParamScope
  3
DesignerServices
 90
        0
280
     0
281
     0
  0
CLASS
  1
"IM_SYSVAR_MAN"
  2
AcImSysVarManager
  3
"ADAM"
 90
        0
280
     0
281
     0
  0
CLASS
  1
SYSTEM_VAR_INT
  2
AcImIntSysVar
  3
"ADAM"
 90
        0
280
     0
281
     0
  0
CLASS
  1
SYSTEM_VAR_REAL
  2
AcImRealSysVar
  3
"ADAM"
 90
        0
280
     0
281
     0
  0
CLASS
  1
SYSTEM_VAR_STR
  2
AcImStrSysVar
  3
"ADAM"
 90
        0
280
     0
281
     0
  0
CLASS
  1
NAMEDAPPL
  2
AcAdNamedAppl
  3
DesignerServices
 90
        0
280
     0
281
     0
  0
CLASS
  1
ADPART
  2
AcAdPart
  3
DesignerServices
 90
        0
280
     0
281
     1
  0
CLASS
  1
ADBASE
  2
AcAdBase
  3
DesignerServices
 90
        0
280
     0
281
     0
  0
CLASS
  1
BODYID
  2
AcAdBodyId
  3
DesignerServices
 90
        0
280
     0
281
     0
  0
CLASS
  1
WORKPLANEDISPLAYMGR
  2
AcAdDisplayMgr
  3
DesignerServices
 90
        0
280
     0
281
     0
  0
CLASS
  1
ADHNTMPLT
  2
AdHoleNoteTemplateMgr
  3
DesignerServices
 90
        0
280
     0
281
     0
  0
CLASS
  1
AM_HNTEMPLATE_MGR_NAME
  2
AdHoleNoteTemplateMgrName
  3
DesignerServices
 90
        0
280
     0
281
     0
  0
CLASS
  1
AcAdGrefModule
  2
AcAdGrefModule
  3
AD_GREF_SERVICES_NSTR
 90
        0
280
     0
281
     0
  0
CLASS
  1
AM_DRAWING_MGR
  2
AcDmDwgMgr
  3
AcMechDwgViewMgmt
 90
        0
280
     0
281
     0
  0
CLASS
  1
AM_DWG_DOCUMENT
  2
AcDmDwgDocument
  3
AcMechDwgViewMgmt
 90
        0
280
     0
281
     0
  0
CLASS
  1
AM_DWG_SHEET
  2
AcDmSheet
  3
AcMechDwgViewMgmt
 90
        0
280
     0
281
     0
  0
CLASS
  1
AM_VIEWDIMPARMAP
  2
AcDmViewDimParMap
  3
AcMechDwgViewMgmt
 90
        0
280
     0
281
     0
  0
CLASS
  1
AM_DWGMGR_NAME
  2
AcDmDwgMgrName
  3
AcMechDwgViewMgmt
 90
        0
280
     0
281
     0
  0
CLASS
  1
ACAMPROJECT
  2
AcAmProject
  3
DesignerAssemblies
 90
        0
280
     0
281
     0
  0
CLASS
  1
ACAMGRCOMPSET
  2
AcAmGrCompSet
  3
DesignerAssemblies
 90
        0
280
     0
281
     0
  0
CLASS
  1
ACAMGRCOMPDEFSET
  2
AcAmGrCompDefSet
  3
DesignerAssemblies
 90
        0
280
     0
281
     0
  0
CLASS
  1
ACAMGRCOMPDEF
  2
AcAmGrCompDef
  3
DesignerAssemblies
 90
        0
280
     0
281
     0
  0
CLASS
  1
ACAMCOMPDEF
  2
AcAmCompDef
  3
DesignerAssemblies
 90
        0
280
     0
281
     0
  0
CLASS
  1
ACAMCOMPDEFMGR
  2
AcAmCompDefMgr
  3
DesignerAssemblies
 90
        0
280
     0
281
     0
  0
CLASS
  1
AMCONTEXTMGR
  2
AcAmContextMgr
  3
DesignerAssemblies
 90
        0
280
     0
281
     0
  0
CLASS
  1
ACAMCONTEXTMODELER
  2
AcAmContextModeler
  3
DesignerAssemblies
 90
        0
280
     0
281
     0
  0
CLASS
  1
ACAMDRAWINGMAN
  2
AcAmDrawingMan
  3
DesignerAssemblies
 90
        0
280
     0
281
     0
  0
CLASS
  1
ACDMVIEWGEOM
  2
AcDmViewGeometry
  3
AcMechDwgViewMgmt
 90
        0
280
     0
281
     1
  0
CLASS
  1
ASSYSVARS
  2
AcAsSysVars
  3
"AutoSurf"
 90
        0
280
     0
281
     0
  0
CLASS
  1
ASSTATICVARS
  2
AcAsStaticVars
  3
"AutoSurf"
 90
        0
280
     0
281
     0
  0
CLASS
  1
ASAPP
  2
AcAsAppObject
  3
"AutoSurf"
 90
        0
280
     0
281
     0
  0
ENDSEC
  0
SECTION
  2
TABLES
  0
TABLE
  2
VPORT
  5
13
100
AcDbSymbolTable
 70
     3
  0
VPORT
  5
728
100
AcDbSymbolTableRecord
100
AcDbViewportTableRecord
  2
*ACTIVE
 70
     0
 10
0.0
 20
0.0
 11
1.0
 21
1.0
 12
591.765231649515
 22
409.2398813878115
 13
0.0
 23
0.0
 14
1.0
 24
1.0
 15
10.0
 25
10.0
 16
0.0
 26
0.0
 36
1.0
 17
0.0
 27
0.0
 37
0.0
 40
792.0382640434284
 41
1.672965116279069
 42
50.0
 43
0.0
 44
0.0
 50
0.0
 51
0.0
 71
     0
 72
   500
 73
     1
 74
     0
 75
     0
 76
     0
 77
     0
 78
     0
  0
ENDTAB
  0
TABLE
  2
LTYPE
  5
F
100
AcDbSymbolTable
 70
     3
  0
LTYPE
  5
10
100
AcDbSymbolTableRecord
100
AcDbLinetypeTableRecord
  2
BYBLOCK
 70
     0
  3

 72
    65
 73
     0
 40
0.0
  0
LTYPE
  5
6
100
AcDbSymbolTableRecord
100
AcDbLinetypeTableRecord
  2
BYLAYER
 70
     0
  3

 72
    65
 73
     0
 40
0.0
  0
LTYPE
  5
5
100
AcDbSymbolTableRecord
100
AcDbLinetypeTableRecord
  2
CONTINUOUS
 70
    64
  3
Solid line
 72
    65
 73
     0
 40
0.0
  0
LTYPE
  5
DE
100
AcDbSymbolTableRecord
100
AcDbLinetypeTableRecord
  2
CENTER
 70
    64
  3
____ _ ____ _ ____ _ ____ _ ____ _ ____ _ ____ 
 72
    65
 73
     4
 40
2.0
 49
1.25
 74
     0
 49
-0.25
 74
     0
 49
0.25
 74
     0
 49
-0.25
 74
     0
  0
LTYPE
  5
314
100
AcDbSymbolTableRecord
100
AcDbLinetypeTableRecord
  2
HIDDEN
 70
    64
  3
__ __ __ __ __ __ __ __ __ __ __ __ __ __ __ __
 72
    65
 73
     2
 40
0.375
 49
0.25
 74
     0
 49
-0.125
 74
     0
  0
ENDTAB
  0
TABLE
  2
LAYER
  5
B
100
AcDbSymbolTable
 70
     6
  0
LAYER
  5
C
100
AcDbSymbolTableRecord
100
AcDbLayerTableRecord
  2
0
 70
    64
 62
     7
  6
CONTINUOUS
  0
LAYER
  5
1C
100
AcDbSymbolTableRecord
100
AcDbLayerTableRecord
  2
L1
 70
    64
 62
     7
  6
CONTINUOUS
  0
LAYER
  5
FC
100
AcDbSymbolTableRecord
100
AcDbLayerTableRecord
  2
L2
 70
    64
 62
     1
  6
HIDDEN
  0
LAYER
  5
DD
100
AcDbSymbolTableRecord
100
AcDbLayerTableRecord
  2
L6
 70
    64
 62
     1
  6
CENTER
  0
LAYER
  5
4
100
AcDbSymbolTableRecord
100
AcDbLayerTableRecord
  2
L22
 70
    64
 62
     1
  6
CONTINUOUS
  0
LAYER
  5
581
100
AcDbSymbolTableRecord
100
AcDbLayerTableRecord
  2
DEFPOINTS
 70
    64
 62
     7
  6
CONTINUOUS
  0
ENDTAB
  0
TABLE
  2
STYLE
  5
D
100
AcDbSymbolTable
 70
     2
  0
STYLE
  5
E
100
AcDbSymbolTableRecord
100
AcDbTextStyleTableRecord
  2
STANDARD
 70
    64
 40
0.0
 41
1.0
 50
0.0
 71
     0
 42
5.0
  3
simplex.shx
  4

  0
STYLE
  5
1D
100
AcDbSymbolTableRecord
100
AcDbTextStyleTableRecord
  2
CAEISO
 70
    64
 40
0.0
 41
1.0
 50
0.0
 71
     0
 42
3.5
  3
simplex.shx
  4

  0
ENDTAB
  0
TABLE
  2
VIEW
  5
11
100
AcDbSymbolTable
 70
     0
  0
ENDTAB
  0
TABLE
  2
UCS
  5
12
100
AcDbSymbolTable
 70
     0
  0
ENDTAB
  0
TABLE
  2
APPID
  5
15
100
AcDbSymbolTable
 70
     1
  0
APPID
  5
16
100
AcDbSymbolTableRecord
100
AcDbRegAppTableRecord
  2
ACAD
 70
    64
  0
ENDTAB
  0
TABLE
  2
DIMSTYLE
  5
17
100
AcDbSymbolTable
 70
     1
  0
DIMSTYLE
105
1F
100
AcDbSymbolTableRecord
100
AcDbDimStyleTableRecord
  2
ACADUS
 70
     0
  3

  4

  5

  6

  7

 40
1.0
 41
4.0
 42
0.1
 43
0.4
 44
0.2
 45
0.0
 46
0.0
 47
0.0
 48
0.0
140
7.0
141
0.1
142
0.0
143
25.4
144
1.0
145
0.0
146
0.2571428571428572
147
0.1
 71
     0
 72
     0
 73
     0
 74
     0
 75
     0
 76
     0
 77
     1
 78
    12
170
     0
171
     2
172
     0
173
     0
174
     0
175
     0
176
     0
177
     0
178
     3
270
     2
271
     1
272
     1
273
     2
274
     2
340
1D
275
     0
280
     0
281
     0
282
     0
283
     1
284
    12
285
    12
286
    12
287
     5
288
     0
  0
ENDTAB
  0
TABLE
  2
BLOCK_RECORD
  5
1
100
AcDbSymbolTable
 70
     0
  0
BLOCK_RECORD
  5
2
100
AcDbSymbolTableRecord
100
AcDbBlockTableRecord
  2
*MODEL_SPACE
  0
BLOCK_RECORD
  5
8
100
AcDbSymbolTableRecord
100
AcDbBlockTableRecord
  2
*PAPER_SPACE
  0
ENDTAB
  0
ENDSEC
  0
SECTION
  2
BLOCKS
  0
BLOCK
  5
3
100
AcDbEntity
  8
L22
100
AcDbBlockBegin
  2
*MODEL_SPACE
 70
     0
 10
0.0
 20
0.0
 30
0.0
  3
*MODEL_SPACE
  1

  0
ENDBLK
  5
7
100
AcDbEntity
  8
L22
100
AcDbBlockEnd
  0
BLOCK
  5
9
100
AcDbEntity
 67
     1
  8
L22
100
AcDbBlockBegin
  2
*PAPER_SPACE
 70
     0
 10
0.0
 20
0.0
 30
0.0
  3
*PAPER_SPACE
  1

  0
ENDBLK
  5
A
100
AcDbEntity
 67
     1
  8
L22
100
AcDbBlockEnd
  0
ENDSEC
  0
SECTION
  2
ENTITIES
  0
POLYLINE
  5
20
100
AcDbEntity
  8
L1
100
AcDb2dPolyline
 66
     1
 10
0.0
 20
0.0
 30
0.0
 70
     1
  0
VERTEX
  5
21
100
AcDbEntity
  8
L1
100
AcDbVertex
100
AcDb2dVertex
 10
906.6368119035473
 20
415.692498182195
 30
0.0
 42
-0.1610257855193021
  0
VERTEX
  5
22
100
AcDbEntity
  8
L1
100
AcDbVertex
100
AcDb2dVertex
 10
911.6311220396418
 20
410.6981880461002
 30
0.0
  0
VERTEX
  5
23
100
AcDbEntity
  8
L1
100
AcDbVertex
100
AcDb2dVertex
 10
911.6311220396418
 20
400.5868083182896
 30
0.0
 42
-0.1610257855192969
  0
VERTEX
  5
24
100
AcDbEntity
  8
L1
100
AcDbVertex
100
AcDb2dVertex
 10
906.6368119035473
 20
395.5924981821948
 30
0.0
  0
VERTEX
  5
25
100
AcDbEntity
  8
L1
100
AcDbVertex
100
AcDb2dVertex
 10
896.5254321757361
 20
395.5924981821948
 30
0.0
 42
-0.1610257855192772
  0
VERTEX
  5
26
100
AcDbEntity
  8
L1
100
AcDbVertex
100
AcDb2dVertex
 10
891.531122039642
 20
400.5868083182887
 30
0.0
  0
VERTEX
  5
27
100
AcDbEntity
  8
L1
100
AcDbVertex
100
AcDb2dVertex
 10
891.531122039642
 20
410.6981880461009
 30
0.0
 42
-0.161025785519284
  0
VERTEX
  5
28
100
AcDbEntity
  8
L1
100
AcDbVertex
100
AcDb2dVertex
 10
896.5254321757361
 20
415.6924981821947
 30
0.0
  0
SEQEND
  5
29
100
AcDbEntity
  8
L1
  0
LINE
  5
2A
100
AcDbEntity
  8
L1
100
AcDbLine
 10
526.5811220396415
 20
229.973333519113
 30
0.0
 11
526.5811220396419
 21
581.3116628452763
 31
0.0
  0
LINE
  5
2B
100
AcDbEntity
  8
L1
100
AcDbLine
 10
523.0811220396414
 20
229.973333519113
 30
0.0
 11
526.5811220396415
 21
229.973333519113
 31
0.0
  0
LINE
  5
2C
100
AcDbEntity
  8
L1
100
AcDbLine
 10
523.0811220396414
 20
222.9733335191129
 30
0.0
 11
526.5811220396415
 21
222.9733335191129
 31
0.0
  0
LINE
  5
2E
100
AcDbEntity
  8
L1
100
AcDbLine
 10
526.5811220396415
 20
581.3116628452763
 30
0.0
 11
523.0811220396414
 21
581.342206882544
 31
0.0
  0
LINE
  5
2F
100
AcDbEntity
  8
L1
100
AcDbLine
 10
526.5811220396415
 20
588.3119293939764
 30
0.0
 11
523.0811220396414
 21
588.342473431244
 31
0.0
  0
LINE
  5
C7
100
AcDbEntity
  8
L1
100
AcDbLine
 10
657.2623755539868
 20
565.6424981821949
 30
0.0
 11
657.2623755539868
 21
543.6424981821947
 31
0.0
  0
LINE
  5
104
100
AcDbEntity
  8
L1
100
AcDbLine
 10
526.5811220396415
 20
214.6733335191129
 30
0.0
 11
523.0811220396414
 21
214.6427894818453
 31
0.0
  0
LINE
  5
105
100
AcDbEntity
  8
L1
100
AcDbLine
 10
515.3274212870319
 20
207.7410749929025
 30
0.0
 11
514.2976503348675
 21
211.584232506538
 31
0.0
  0
ARC
  5
106
100
AcDbEntity
  8
L1
100
AcDbCircle
 10
513.3317245085784
 20
211.3254134614355
 30
0.0
 40
1.0
100
AcDbArc
 50
14.99999999999814
 51
87.00000000000029
  0
ARC
  5
107
100
AcDbEntity
  8
L1
100
AcDbCircle
 10
516.293347113321
 20
207.999894038005
 30
0.0
 40
1.0
100
AcDbArc
 50
194.9999999999977
 51
267.0000000000001
  0
LINE
  5
108
100
AcDbEntity
  8
L1
100
AcDbLine
 10
523.0811220396414
 20
206.6427894818455
 30
0.0
 11
516.2410111570779
 21
207.0012645032504
 31
0.0
  0
LINE
  5
109
100
AcDbEntity
  8
L1
100
AcDbLine
 10
473.0811220396414
 20
216.9362304976347
 30
0.0
 11
475.5776958765279
 21
214.3053906070274
 31
0.0
  0
LINE
  5
10A
100
AcDbEntity
  8
L1
100
AcDbLine
 10
475.5776958765279
 20
214.3053906070274
 30
0.0
 11
513.3840604648214
 21
212.3240429961901
 31
0.0
  0
ARC
  5
10B
100
AcDbEntity
  8
L1
100
AcDbCircle
 10
527.5804366678453
 20
244.7213253108133
 30
0.0
 40
2.0
100
AcDbArc
 50
270.0
 51
0.0
  0
LINE
  5
10C
100
AcDbEntity
  8
L1
100
AcDbLine
 10
529.5811220396415
 20
244.6427894818455
 30
0.0
 11
529.5811220396415
 21
249.5293315598122
 31
0.0
  0
LINE
  5
10D
100
AcDbEntity
  8
L1
100
AcDbLine
 10
527.5804366678453
 20
242.7213253108133
 30
0.0
 11
526.5811220396415
 21
242.7038822090943
 31
0.0
  0
LINE
  5
10F
100
AcDbEntity
  8
L1
100
AcDbLine
 10
529.5811220396415
 20
249.5293315598122
 30
0.0
 11
526.5811220396415
 21
249.5816967545968
 31
0.0
  0
LINE
  5
110
100
AcDbEntity
  8
L1
100
AcDbLine
 10
529.5811220396415
 20
263.7562474038789
 30
0.0
 11
526.5811220396415
 21
263.7038822090942
 31
0.0
  0
ARC
  5
111
100
AcDbEntity
  8
L1
100
AcDbCircle
 10
527.5804366678453
 20
268.5642536528777
 30
0.0
 40
2.0
100
AcDbArc
 50
0.0
 51
90.0
  0
LINE
  5
113
100
AcDbEntity
  8
L1
100
AcDbLine
 10
527.5804366678453
 20
270.5642536528777
 30
0.0
 11
526.5811220396415
 21
270.5816967545967
 31
0.0
  0
LINE
  5
114
100
AcDbEntity
  8
L1
100
AcDbLine
 10
473.081122039643
 20
594.3493484660582
 30
0.0
 11
473.0811220396413
 21
216.936230497635
 31
0.0
  0
LINE
  5
115
100
AcDbEntity
  8
L1
100
AcDbLine
 10
529.5811220396415
 20
263.7562474038789
 30
0.0
 11
529.5811220396415
 21
268.6427894818455
 31
0.0
  0
LINE
  5
116
100
AcDbEntity
  8
L1
100
AcDbLine
 10
475.5776958765279
 20
214.3053906070274
 30
0.0
 11
475.5776958765279
 21
596.980188356664
 31
0.0
  0
LINE
  5
117
100
AcDbEntity
  8
L1
100
AcDbLine
 10
526.5811220396415
 20
214.6733335191129
 30
0.0
 11
526.5811220396415
 21
222.9733335191129
 31
0.0
  0
LINE
  5
118
100
AcDbEntity
  8
L1
100
AcDbLine
 10
523.0811220396414
 20
206.6427894818455
 30
0.0
 11
523.0811220396414
 21
604.6427894818455
 31
0.0
  0
LINE
  5
11A
100
AcDbEntity
  8
L1
100
AcDbLine
 10
516.2410111570762
 20
604.2843144604407
 30
0.0
 11
516.24101115708
 21
207.0012645032503
 31
0.0
  0
LINE
  5
11B
100
AcDbEntity
  8
L1
100
AcDbLine
 10
473.0811220396414
 20
594.3493484660564
 30
0.0
 11
475.5776958765279
 21
596.9801883566637
 31
0.0
  0
ARC
  5
11C
100
AcDbEntity
  8
L1
100
AcDbCircle
 10
516.293347113321
 20
603.2856849256861
 30
0.0
 40
1.0
100
AcDbArc
 50
92.99999999999981
 51
165.0000000000022
  0
ARC
  5
11D
100
AcDbEntity
  8
L1
100
AcDbCircle
 10
513.3317245085784
 20
599.9601655022557
 30
0.0
 40
1.0
100
AcDbArc
 50
272.9999999999997
 51
345.0000000000018
  0
LINE
  5
11E
100
AcDbEntity
  8
L1
100
AcDbLine
 10
515.3274212870319
 20
603.5445039707886
 30
0.0
 11
514.2976503348675
 21
599.701346457153
 31
0.0
  0
LINE
  5
11F
100
AcDbEntity
  8
L1
100
AcDbLine
 10
523.0811220396414
 20
604.6427894818455
 30
0.0
 11
516.2410111570779
 21
604.2843144604407
 31
0.0
  0
LINE
  5
120
100
AcDbEntity
  8
L1
100
AcDbLine
 10
526.5811220396415
 20
596.612245444578
 30
0.0
 11
523.0811220396414
 21
596.6427894818457
 31
0.0
  0
LINE
  5
121
100
AcDbEntity
  8
L1
100
AcDbLine
 10
475.5776958765279
 20
596.9801883566637
 30
0.0
 11
513.3840604648214
 21
598.961535967501
 31
0.0
  0
LINE
  5
122
100
AcDbEntity
  8
L1
100
AcDbLine
 10
529.5811220396415
 20
566.6427894818455
 30
0.0
 11
529.5811220396415
 21
561.7562474038789
 31
0.0
  0
ARC
  5
123
100
AcDbEntity
  8
L1
100
AcDbCircle
 10
527.5804366678453
 20
566.5642536528777
 30
0.0
 40
2.0
100
AcDbArc
 50
0.0
 51
90.0
  0
LINE
  5
124
100
AcDbEntity
  8
L1
100
AcDbLine
 10
529.5811220396415
 20
561.7562474038789
 30
0.0
 11
526.5811220396415
 21
561.7038822090941
 31
0.0
  0
LINE
  5
125
100
AcDbEntity
  8
L1
100
AcDbLine
 10
527.5804366678453
 20
568.5642536528778
 30
0.0
 11
526.5811220396415
 21
568.5816967545967
 31
0.0
  0
LINE
  5
126
100
AcDbEntity
  8
L1
100
AcDbLine
 10
529.5811220396415
 20
547.5293315598121
 30
0.0
 11
526.5811220396415
 21
547.5816967545967
 31
0.0
  0
LINE
  5
128
100
AcDbEntity
  8
L1
100
AcDbLine
 10
526.5811220396415
 20
596.612245444578
 30
0.0
 11
526.5811220396415
 21
588.3119293939765
 31
0.0
  0
ARC
  5
12A
100
AcDbEntity
  8
L1
100
AcDbCircle
 10
527.5804366678453
 20
542.7213253108134
 30
0.0
 40
2.0
100
AcDbArc
 50
270.0
 51
0.0
  0
LINE
  5
12B
100
AcDbEntity
  8
L1
100
AcDbLine
 10
527.5804366678453
 20
540.7213253108134
 30
0.0
 11
526.5811220396415
 21
540.7038822090944
 31
0.0
  0
LINE
  5
12E
100
AcDbEntity
  8
L1
100
AcDbLine
 10
529.5811220396415
 20
547.5293315598121
 30
0.0
 11
529.5811220396415
 21
542.6427894818455
 31
0.0
  0
ARC
  5
132
100
AcDbEntity
  8
L1
100
AcDbCircle
 10
638.5811220396417
 20
542.6424981821947
 30
0.0
 40
2.0
100
AcDbArc
 50
180.0
 51
270.0
  0
LINE
  5
133
100
AcDbEntity
  8
L1
100
AcDbLine
 10
638.5811220396417
 20
540.6424981821946
 30
0.0
 11
657.5864196346397
 21
540.6424981821946
 31
0.0
  0
LINE
  5
135
100
AcDbEntity
  8
L1
100
AcDbLine
 10
636.5811220396417
 20
547.6424981821947
 30
0.0
 11
647.8844417155738
 21
547.6424981821947
 31
0.0
  0
ARC
  5
137
100
AcDbEntity
  8
L1
100
AcDbCircle
 10
638.5811220396417
 20
566.6424981821946
 30
0.0
 40
2.0
100
AcDbArc
 50
90.0
 51
180.0
  0
LINE
  5
138
100
AcDbEntity
  8
L1
100
AcDbLine
 10
636.5811220396417
 20
566.6424981821946
 30
0.0
 11
636.5811220396417
 21
561.6424981821946
 31
0.0
  0
LINE
  5
139
100
AcDbEntity
  8
L1
100
AcDbLine
 10
638.5811220396417
 20
568.6424981821947
 30
0.0
 11
657.5864196346397
 21
568.6424981821947
 31
0.0
  0
LINE
  5
13B
100
AcDbEntity
  8
L1
100
AcDbLine
 10
636.5811220396417
 20
561.6424981821946
 30
0.0
 11
647.8844417155733
 21
561.6424981821946
 31
0.0
  0
LINE
  5
13C
100
AcDbEntity
  8
L1
100
AcDbLine
 10
657.2623755539864
 20
565.6424981821946
 30
0.0
 11
657.2623755539864
 21
543.6424981821947
 31
0.0
  0
LINE
  5
13E
100
AcDbEntity
  8
L1
100
AcDbLine
 10
636.5811220396417
 20
547.6424981821947
 30
0.0
 11
636.5811220396417
 21
542.6424981821947
 31
0.0
  0
LINE
  5
141
100
AcDbEntity
  8
L1
100
AcDbLine
 10
657.2623755539873
 20
270.6424981821947
 30
0.0
 11
657.2623755539847
 21
540.6424981821946
 31
0.0
  0
LINE
  5
143
100
AcDbEntity
  8
L1
100
AcDbLine
 10
651.5811220396419
 20
270.6424981821947
 30
0.0
 11
651.5811220396415
 21
540.6424981821946
 31
0.0
  0
ARC
  5
154
100
AcDbEntity
  8
L1
100
AcDbCircle
 10
654.0811220396417
 20
602.1424981821946
 30
0.0
 40
2.5
100
AcDbArc
 50
90.0
 51
180.0
  0
ARC
  5
156
100
AcDbEntity
  8
L1
100
AcDbCircle
 10
659.7623755539864
 20
596.4612446678501
 30
0.0
 40
2.5
100
AcDbArc
 50
90.0
 51
179.9999999999999
  0
ARC
  5
158
100
AcDbEntity
  8
L1
100
AcDbCircle
 10
661.7437231648234
 20
594.4798970570129
 30
0.0
 40
2.5
100
AcDbArc
 50
90.0
 51
180.0
  0
LINE
  5
15E
100
AcDbEntity
  8
L1
100
AcDbLine
 10
947.0811220396416
 20
604.6424981821947
 30
0.0
 11
654.0811220396417
 21
604.6424981821947
 31
0.0
  0
LINE
  5
161
100
AcDbEntity
  8
L1
100
AcDbLine
 10
941.3998685252973
 20
598.9612446678502
 30
0.0
 11
659.7623755539864
 21
598.9612446678502
 31
0.0
  0
LINE
  5
162
100
AcDbEntity
  8
L1
100
AcDbLine
 10
661.7437231648234
 20
596.9798970570129
 30
0.0
 11
939.4185209144598
 21
596.9798970570129
 31
0.0
  0
LINE
  5
164
100
AcDbEntity
  8
L1
100
AcDbLine
 10
949.5811220396417
 20
602.1424981821946
 30
0.0
 11
949.5811220396417
 21
405.6424981821947
 31
0.0
  0
LINE
  5
165
100
AcDbEntity
  8
L1
100
AcDbLine
 10
651.5811220396417
 20
602.1424981821946
 30
0.0
 11
651.5811220396417
 21
568.6424981821947
 31
0.0
  0
LINE
  5
168
100
AcDbEntity
  8
L1
100
AcDbLine
 10
943.8998685252972
 20
596.4612446678501
 30
0.0
 11
943.8998685252972
 21
405.6424981821947
 31
0.0
  0
LINE
  5
169
100
AcDbEntity
  8
L1
100
AcDbLine
 10
941.9185209144599
 20
405.6424981821947
 30
0.0
 11
941.9185209144599
 21
594.4798970570129
 31
0.0
  0
LINE
  5
16A
100
AcDbEntity
  8
L1
100
AcDbLine
 10
657.2623755539864
 20
596.4612446678501
 30
0.0
 11
657.2623755539861
 21
568.6424981821947
 31
0.0
  0
ARC
  5
16D
100
AcDbEntity
  8
L1
100
AcDbCircle
 10
661.7437231648234
 20
216.8050993073765
 30
0.0
 40
2.5
100
AcDbArc
 50
180.0
 51
270.0
  0
ARC
  5
16E
100
AcDbEntity
  8
L1
100
AcDbCircle
 10
659.7623755539864
 20
214.8237516965392
 30
0.0
 40
2.5
100
AcDbArc
 50
180.0000000000001
 51
270.0
  0
ARC
  5
16F
100
AcDbEntity
  8
L1
100
AcDbCircle
 10
939.4185209144598
 20
216.8050993073765
 30
0.0
 40
2.5
100
AcDbArc
 50
270.0
 51
0.0
  0
ARC
  5
170
100
AcDbEntity
  8
L1
100
AcDbCircle
 10
941.3998685252973
 20
214.8237516965392
 30
0.0
 40
2.5
100
AcDbArc
 50
270.0
 51
0.0
  0
LINE
  5
176
100
AcDbEntity
  8
L1
100
AcDbLine
 10
941.9185209144599
 20
405.6424981821947
 30
0.0
 11
941.9185209144599
 21
216.8050993073765
 31
0.0
  0
LINE
  5
177
100
AcDbEntity
  8
L1
100
AcDbLine
 10
943.8998685252972
 20
214.8237516965392
 30
0.0
 11
943.8998685252972
 21
405.6424981821947
 31
0.0
  0
LINE
  5
179
100
AcDbEntity
  8
L1
100
AcDbLine
 10
661.7437231648234
 20
214.3050993073765
 30
0.0
 11
939.4185209144598
 21
214.3050993073765
 31
0.0
  0
LINE
  5
17A
100
AcDbEntity
  8
L1
100
AcDbLine
 10
941.3998685252973
 20
212.3237516965392
 30
0.0
 11
659.7623755539866
 21
212.3237516965392
 31
0.0
  0
LINE
  5
17C
100
AcDbEntity
  8
L1
100
AcDbLine
 10
657.2623755539864
 20
214.8237516965392
 30
0.0
 11
657.2623755539861
 21
242.6424981821946
 31
0.0
  0
LINE
  5
17F
100
AcDbEntity
  8
L1
100
AcDbLine
 10
659.2437231648241
 20
594.4798970570129
 30
0.0
 11
659.2437231648232
 21
216.8050993073765
 31
0.0
  0
LINE
  5
180
100
AcDbEntity
  8
L6
100
AcDbLine
 10
458.5566691281951
 20
405.6427894818456
 30
0.0
 11
544.1936713041827
 21
405.6427894818456
 31
0.0
  0
LINE
  5
183
100
AcDbEntity
  8
L1
100
AcDbLine
 10
651.5811220396417
 20
209.1424981821946
 30
0.0
 11
651.5811220396417
 21
242.6424981821946
 31
0.0
  0
ARC
  5
184
100
AcDbEntity
  8
L1
100
AcDbCircle
 10
654.0811220396417
 20
209.1424981821946
 30
0.0
 40
2.5
100
AcDbArc
 50
180.0
 51
270.0
  0
ARC
  5
186
100
AcDbEntity
  8
L1
100
AcDbCircle
 10
947.0811220396416
 20
209.1424981821946
 30
0.0
 40
2.5
100
AcDbArc
 50
270.0
 51
0.0
  0
LINE
  5
187
100
AcDbEntity
  8
L1
100
AcDbLine
 10
949.5811220396417
 20
209.1424981821946
 30
0.0
 11
949.5811220396417
 21
405.6424981821947
 31
0.0
  0
LINE
  5
188
100
AcDbEntity
  8
L1
100
AcDbLine
 10
947.0811220396416
 20
206.6424981821946
 30
0.0
 11
654.0811220396417
 21
206.6424981821946
 31
0.0
  0
LINE
  5
195
100
AcDbEntity
  8
L1
100
AcDbLine
 10
1078.081122039642
 20
206.6424981821943
 30
0.0
 11
1078.081122039641
 21
242.6430807814962
 31
0.0
  0
LINE
  5
19D
100
AcDbEntity
  8
L1
100
AcDbLine
 10
296.553130043668
 20
216.1427894818456
 30
0.0
 11
296.5531300436684
 21
214.6427894818456
 31
0.0
  0
LINE
  5
19E
100
AcDbEntity
  8
L1
100
AcDbLine
 10
316.6488344307938
 20
235.2968191118615
 30
0.0
 11
318.1488344307938
 21
235.2968191118615
 31
0.0
  0
LINE
  5
19F
100
AcDbEntity
  8
L1
100
AcDbLine
 10
307.17122854094
 20
216.1427894818456
 30
0.0
 11
307.17122854094
 21
214.6427894818456
 31
0.0
  0
LINE
  5
1A0
100
AcDbEntity
  8
L1
100
AcDbLine
 10
316.6488344307938
 20
226.0764647960206
 30
0.0
 11
318.1488344307938
 21
226.0764647960206
 31
0.0
  0
LINE
  5
1A5
100
AcDbEntity
  8
L1
100
AcDbLine
 10
53.70075270939492
 20
214.6427894818456
 30
0.0
 11
53.70075270939492
 21
216.1427894818456
 31
0.0
  0
LINE
  5
1A6
100
AcDbEntity
  8
L1
100
AcDbLine
 10
45.26750920388008
 20
214.6427894818456
 30
0.0
 11
45.26750920388008
 21
216.1427894818456
 31
0.0
  0
LINE
  5
1A7
100
AcDbEntity
  8
L1
100
AcDbLine
 10
36.14883443079361
 20
232.4623603359627
 30
0.0
 11
37.64883443079361
 21
232.4623603359627
 31
0.0
  0
LINE
  5
1A8
100
AcDbEntity
  8
L1
100
AcDbLine
 10
36.14883443079361
 20
224.0291168304478
 30
0.0
 11
37.64883443079361
 21
224.0291168304478
 31
0.0
  0
LINE
  5
1A9
100
AcDbEntity
  8
L1
100
AcDbLine
 10
1074.581122039641
 20
229.9730422194617
 30
0.0
 11
1074.581122039641
 21
242.7041735087449
 31
0.0
  0
LINE
  5
1AA
100
AcDbEntity
  8
L1
100
AcDbLine
 10
1074.581122039641
 20
229.9730422194617
 30
0.0
 11
1078.081122039641
 21
229.9730422194617
 31
0.0
  0
LINE
  5
1AB
100
AcDbEntity
  8
L2
100
AcDbLine
 10
1078.081122039641
 20
222.9730422194617
 30
0.0
 11
1078.581122039641
 21
222.9730422194617
 31
0.0
  0
LINE
  5
1AC
100
AcDbEntity
  8
L2
 48
0.4
100
AcDbLine
 10
1078.581122039641
 20
222.9730422194617
 30
0.0
 11
1078.581122039641
 21
229.9730422194617
 31
0.0
  0
SOLID
  5
1D6
100
AcDbEntity
  8
0
 62
     0
100
AcDbTrace
 10
1074.761122039642
 20
284.4499535481691
 30
0.0
 11
1074.761122039642
 21
284.3899535481691
 31
0.0
 12
1074.581122039641
 22
284.4199535481691
 32
0.0
 13
1074.581122039641
 23
284.4199535481691
 33
0.0
  0
LINE
  5
1D7
100
AcDbEntity
  8
0
 62
     0
100
AcDbLine
 10
1074.581122039641
 20
286.6984780160386
 30
0.0
 11
1074.581122039641
 21
284.2399535481691
 31
0.0
  0
LINE
  5
1E6
100
AcDbEntity
  8
L1
100
AcDbLine
 10
37.64883443079361
 20
594.1422068825436
 30
0.0
 11
37.64883443079384
 21
217.1427894818456
 31
0.0
  0
LINE
  5
1E7
100
AcDbEntity
  8
L1
100
AcDbLine
 10
36.14883443079406
 20
594.1422068825436
 30
0.0
 11
36.14883443079384
 21
217.1427894818456
 31
0.0
  0
LINE
  5
1E8
100
AcDbEntity
  8
L1
100
AcDbLine
 10
30.14883443079338
 20
602.1422068825436
 30
0.0
 11
30.14883443079384
 21
209.1427894818457
 31
0.0
  0
LINE
  5
1E9
100
AcDbEntity
  8
L1
100
AcDbLine
 10
28.14883443079384
 20
209.1427894818457
 30
0.0
 11
28.14883443079384
 21
209.1427894818457
 31
0.0
  0
LINE
  5
1EA
100
AcDbEntity
  8
L1
100
AcDbLine
 10
28.14883443079384
 20
602.1422068825436
 30
0.0
 11
28.14883443079384
 21
209.1427894818457
 31
0.0
  0
ARC
  5
1F4
100
AcDbEntity
  8
L2
100
AcDbCircle
 10
1123.108110319074
 20
218.9140071485311
 30
0.0
 40
1.0
100
AcDbArc
 50
272.0000000000002
 51
9.423230482371783
1001
ACAD
1000
ASC_BOUNDS
1002
{
1070
    19
1002
}
  0
LINE
  5
205
100
AcDbEntity
  8
L1
100
AcDbLine
 10
1074.581122039641
 20
214.6730422194617
 30
0.0
 11
1074.581122039641
 21
222.9730422194617
 31
0.0
  0
LINE
  5
22E
100
AcDbEntity
  8
L1
100
AcDbLine
 10
329.8455147548618
 20
249.6427894818456
 30
0.0
 11
329.8455147548618
 21
263.6427894818454
 31
0.0
  0
LINE
  5
248
100
AcDbEntity
  8
L1
100
AcDbLine
 10
326.1488344307952
 20
270.6427894818456
 30
0.0
 11
326.148834430792
 21
602.1422068825437
 31
0.0
  0
ARC
  5
24B
100
AcDbEntity
  8
L1
100
AcDbCircle
 10
339.1488344307938
 20
268.6427894818456
 30
0.0
 40
2.0
100
AcDbArc
 50
0.0
 51
90.0
  0
LINE
  5
24C
100
AcDbEntity
  8
L1
100
AcDbLine
 10
339.1488344307938
 20
270.6427894818456
 30
0.0
 11
326.1488344307934
 21
270.6427894818455
 31
0.0
  0
LINE
  5
24D
100
AcDbEntity
  8
L1
100
AcDbLine
 10
341.1488344307938
 20
263.6427894818456
 30
0.0
 11
329.8455147548618
 21
263.6427894818454
 31
0.0
  0
ARC
  5
24E
100
AcDbEntity
  8
L1
100
AcDbCircle
 10
339.1488344307938
 20
244.6427894818457
 30
0.0
 40
2.0
100
AcDbArc
 50
270.0
 51
0.0
  0
LINE
  5
24F
100
AcDbEntity
  8
L1
100
AcDbLine
 10
341.1488344307938
 20
244.6427894818457
 30
0.0
 11
341.1488344307938
 21
249.6427894818456
 31
0.0
  0
LINE
  5
250
100
AcDbEntity
  8
L1
100
AcDbLine
 10
339.1488344307938
 20
242.6427894818456
 30
0.0
 11
326.1488344307934
 21
242.6427894818455
 31
0.0
  0
LINE
  5
251
100
AcDbEntity
  8
L1
100
AcDbLine
 10
341.1488344307938
 20
249.6427894818456
 30
0.0
 11
329.8455147548618
 21
249.6427894818456
 31
0.0
  0
LINE
  5
255
100
AcDbEntity
  8
L1
100
AcDbLine
 10
341.1488344307938
 20
263.6427894818456
 30
0.0
 11
341.1488344307938
 21
268.6427894818456
 31
0.0
  0
LINE
  5
266
100
AcDbEntity
  8
L6
100
AcDbLine
 10
1141.328758617183
 20
405.6424981821947
 30
0.0
 11
1064.806241717652
 21
405.6424981821947
 31
0.0
  0
LINE
  5
267
100
AcDbEntity
  8
L1
100
AcDbLine
 10
1128.081122039641
 20
216.9359391979835
 30
0.0
 11
1125.584548202755
 21
214.3050993073761
 31
0.0
1001
ACAD
1000
ASC_BOUNDS
1002
{
1070
    19
1002
}
  0
ARC
  5
268
100
AcDbEntity
  8
L1
100
AcDbCircle
 10
1087.830519570704
 20
211.3251221617842
 30
0.0
 40
1.0
100
AcDbArc
 50
92.99999999999972
 51
165.0000000000018
1001
ACAD
1000
ASC_BOUNDS
1002
{
1070
    19
1002
}
  0
ARC
  5
269
100
AcDbEntity
  8
L2
 48
0.3
100
AcDbCircle
 10
1084.295811515481
 20
213.5882253303919
 30
0.0
 40
1.0
100
AcDbArc
 50
344.999999999997
 51
89.49999999999926
1001
ACAD
1000
ASC_BOUNDS
1002
{
1070
    19
1002
}
  0
LINE
  5
26A
100
AcDbEntity
  8
L2
 48
0.3
100
AcDbLine
 10
1078.081122039642
 20
214.642498182194
 30
0.0
 11
1084.30453805098
 21
214.588187253456
 31
0.0
1001
ACAD
1000
ASC_BOUNDS
1002
{
1070
    19
1002
}
  0
LINE
  5
26B
100
AcDbEntity
  8
L2
 48
0.3
100
AcDbLine
 10
1078.081122039642
 20
208.6452428741901
 30
0.0
 11
1084.091014182998
 21
208.9602079751541
 31
0.0
1001
ACAD
1000
ASC_BOUNDS
1002
{
1070
    19
1002
}
  0
LINE
  5
26C
100
AcDbEntity
  8
L1
100
AcDbLine
 10
1078.081122039641
 20
206.6424981821943
 30
0.0
 11
1084.921232922205
 21
207.0009732035991
 31
0.0
1001
ACAD
1000
ASC_BOUNDS
1002
{
1070
    19
1002
}
  0
ARC
  5
26D
100
AcDbEntity
  8
L1
100
AcDbCircle
 10
1084.868896965962
 20
207.9996027383538
 30
0.0
 40
1.0
100
AcDbArc
 50
272.9999999999998
 51
345.0000000000022
1001
ACAD
1000
ASC_BOUNDS
1002
{
1070
    19
1002
}
  0
LINE
  5
26E
100
AcDbEntity
  8
L2
 48
0.3
100
AcDbLine
 10
1084.091014182998
 20
208.9602079751538
 30
0.0
 11
1085.26173734177
 21
213.3294062852894
 31
0.0
1001
ACAD
1000
ASC_BOUNDS
1002
{
1070
    19
1002
}
  0
LINE
  5
270
100
AcDbEntity
  8
L1
100
AcDbLine
 10
1085.834822792251
 20
207.7407836932513
 30
0.0
 11
1086.864593744415
 21
211.5839412068868
 31
0.0
1001
ACAD
1000
ASC_BOUNDS
1002
{
1070
    19
1002
}
  0
LINE
  5
271
100
AcDbEntity
  8
L1
100
AcDbLine
 10
1125.584548202755
 20
214.3050993073761
 30
0.0
 11
1087.778183614461
 21
212.3237516965388
 31
0.0
1001
ACAD
1000
ASC_BOUNDS
1002
{
1070
    19
1002
}
  0
LINE
  5
272
100
AcDbEntity
  8
L2
100
AcDbLine
 10
1074.581122039641
 20
216.142498182194
 30
0.0
 11
1123.143009815776
 21
217.9146163215119
 31
0.0
1001
ACAD
1000
ASC_BOUNDS
1002
{
1070
    19
1002
}
  0
LINE
  5
273
100
AcDbEntity
  8
L1
100
AcDbLine
 10
1128.081122039642
 20
594.3490571664056
 30
0.0
 11
1128.081122039641
 21
216.9359391979833
 31
0.0
1001
ACAD
1000
ASC_BOUNDS
1002
{
1070
    19
1002
}
  0
LINE
  5
274
100
AcDbEntity
  8
L2
100
AcDbLine
 10
1124.081122039642
 20
591.7332650788798
 30
0.0
 11
1124.08112203964
 21
218.6832514516571
 31
0.0
1001
ACAD
1000
ASC_BOUNDS
1002
{
1070
    19
1002
}
  0
ARC
  5
277
100
AcDbEntity
  8
L1
100
AcDbCircle
 10
323.6488344307938
 20
209.1427894818457
 30
0.0
 40
0.5
100
AcDbArc
 50
270.0
 51
0.0
  0
ARC
  5
278
100
AcDbEntity
  8
L1
100
AcDbCircle
 10
323.6488344307938
 20
209.1427894818457
 30
0.0
 40
2.5
100
AcDbArc
 50
270.0
 51
0.0
  0
ARC
  5
279
100
AcDbEntity
  8
L1
100
AcDbCircle
 10
315.6488344307938
 20
217.1427894818456
 30
0.0
 40
1.0
100
AcDbArc
 50
270.0
 51
0.0
  0
ARC
  5
27A
100
AcDbEntity
  8
L1
 62
     2
100
AcDbCircle
 10
315.6488344307938
 20
217.1427894818456
 30
0.0
 40
8.5
100
AcDbArc
 50
270.0
 51
0.0
  0
ARC
  5
27B
100
AcDbEntity
  8
L1
100
AcDbCircle
 10
315.6488344307938
 20
217.1427894818456
 30
0.0
 40
2.5
100
AcDbArc
 50
270.0
 51
0.0
  0
LINE
  5
27C
100
AcDbEntity
  8
L1
100
AcDbLine
 10
315.6488344307938
 20
216.1427894818456
 30
0.0
 11
38.64883443079384
 21
216.1427894818457
 31
0.0
  0
LINE
  5
27D
100
AcDbEntity
  8
L1
100
AcDbLine
 10
323.6488344307938
 20
208.6427894818456
 30
0.0
 11
30.64883443079384
 21
208.6427894818456
 31
0.0
  0
LINE
  5
27E
100
AcDbEntity
  8
L1
100
AcDbLine
 10
315.6488344307938
 20
214.6427894818456
 30
0.0
 11
38.64883443079384
 21
214.6427894818457
 31
0.0
  0
LINE
  5
27F
100
AcDbEntity
  8
L1
100
AcDbLine
 10
323.6488344307938
 20
206.6427894818456
 30
0.0
 11
30.64883443079384
 21
206.6427894818456
 31
0.0
  0
LINE
  5
280
100
AcDbEntity
  8
L1
100
AcDbLine
 10
316.6488344307938
 20
594.1422068825436
 30
0.0
 11
316.6488344307938
 21
217.1427894818456
 31
0.0
  0
LINE
  5
281
100
AcDbEntity
  8
L1
100
AcDbLine
 10
324.1488344307938
 20
209.1427894818457
 30
0.0
 11
324.1488344307938
 21
602.1422068825436
 31
0.0
  0
LINE
  5
282
100
AcDbEntity
  8
L1
100
AcDbLine
 10
318.1488344307938
 20
594.1422068825436
 30
0.0
 11
318.1488344307938
 21
217.1427894818456
 31
0.0
  0
LINE
  5
283
100
AcDbEntity
  8
L1
100
AcDbLine
 10
326.1488344307938
 20
209.1427894818457
 30
0.0
 11
326.1488344307938
 21
242.6427894818455
 31
0.0
  0
ARC
  5
284
100
AcDbEntity
  8
L1
100
AcDbCircle
 10
30.64883443079384
 20
209.1427894818457
 30
0.0
 40
0.5
100
AcDbArc
 50
180.0
 51
270.0
  0
ARC
  5
285
100
AcDbEntity
  8
L1
100
AcDbCircle
 10
30.64883443079384
 20
209.1427894818457
 30
0.0
 40
2.5
100
AcDbArc
 50
180.0
 51
270.0
  0
ARC
  5
286
100
AcDbEntity
  8
L1
100
AcDbCircle
 10
38.64883443079384
 20
217.1427894818456
 30
0.0
 40
2.5
100
AcDbArc
 50
180.0
 51
270.0
  0
ARC
  5
287
100
AcDbEntity
  8
L1
 62
     2
100
AcDbCircle
 10
38.62109453029529
 20
217.1427894818456
 30
0.0
 40
8.5
100
AcDbArc
 50
180.0
 51
270.0
  0
ARC
  5
288
100
AcDbEntity
  8
L1
100
AcDbCircle
 10
38.64883443079384
 20
217.1427894818456
 30
0.0
 40
1.0
100
AcDbArc
 50
180.0
 51
270.0
  0
LINE
  5
2B8
100
AcDbEntity
  8
L1
100
AcDbLine
 10
674.9116660769092
 20
78.14249818219457
 30
0.0
 11
674.9116660769092
 21
81.64249818219445
 31
0.0
  0
LINE
  5
2B9
100
AcDbEntity
  8
L1
100
AcDbLine
 10
667.9116660769092
 20
78.14249818219457
 30
0.0
 11
667.9116660769092
 21
81.64249818219445
 31
0.0
  0
LINE
  5
2BA
100
AcDbEntity
  8
L6
 48
0.3
100
AcDbLine
 10
652.0811220396417
 20
78.14249818219457
 30
0.0
 11
634.0811220396417
 21
78.14249818219457
 31
0.0
  0
LINE
  5
2BD
100
AcDbEntity
  8
L1
100
AcDbLine
 10
647.7476938082657
 20
83.05180650211474
 30
0.0
 11
647.9904303595617
 21
82.80906995081863
 31
0.0
  0
LINE
  5
2BE
100
AcDbEntity
  8
L1
100
AcDbLine
 10
648.0893431117892
 20
82.28589312987912
 30
0.0
 11
648.0781155733116
 21
82.60740776547345
 31
0.0
  0
ARC
  5
2BF
100
AcDbEntity
  8
L1
100
AcDbCircle
 10
647.7782983252059
 20
82.5969379164627
 30
0.0
 40
0.3
100
AcDbArc
 50
2.00000000000934
 51
45.0
  0
ARC
  5
2C0
100
AcDbEntity
  8
L1
100
AcDbCircle
 10
647.5355617739096
 20
82.83967446775875
 30
0.0
 40
0.3
100
AcDbArc
 50
45.00000000000041
 51
87.99999999999107
  0
LINE
  5
2C1
100
AcDbEntity
  8
L1
100
AcDbLine
 10
647.2245169873263
 20
83.15071925434223
 30
0.0
 11
647.5460316229205
 21
83.13949171586443
 31
0.0
  0
ARC
  5
2C6
100
AcDbEntity
  8
L1
100
AcDbCircle
 10
642.6311220396419
 20
74.24249818219459
 30
0.0
 40
0.3
100
AcDbArc
 50
180.0
 51
269.999999999997
  0
LINE
  5
2C7
100
AcDbEntity
  8
L1
100
AcDbLine
 10
642.3311220396417
 20
74.24249818219459
 30
0.0
 11
642.3311220396417
 21
75.13459193363854
 31
0.0
  0
LINE
  5
2C8
100
AcDbEntity
  8
L1
100
AcDbLine
 10
643.531122039641
 20
73.94249818219453
 30
0.0
 11
642.6311220396419
 21
73.94249818219458
 31
0.0
  0
ARC
  5
2C9
100
AcDbEntity
  8
L1
100
AcDbCircle
 10
643.531122039641
 20
74.24249818219459
 30
0.0
 40
0.3
100
AcDbArc
 50
269.9999999999987
 51
0.0000000000054578
  0
LINE
  5
2CA
100
AcDbEntity
  8
L1
100
AcDbLine
 10
643.8311220396412
 20
74.24249818219459
 30
0.0
 11
643.8311220396415
 21
75.13459193363849
 31
0.0
  0
LINE
  5
2CB
100
AcDbEntity
  8
L6
 48
0.3
100
AcDbLine
 10
643.0811220396417
 20
69.14249818219457
 30
0.0
 11
643.0811220396417
 21
87.14249818219457
 31
0.0
  0
ARC
  5
2CC
100
AcDbEntity
  8
L1
100
AcDbCircle
 10
643.0811220396417
 20
78.14249818219457
 30
0.0
 40
3.1
100
AcDbArc
 50
284.0008023861786
 51
255.9991976138169
  0
ARC
  5
2CD
100
AcDbEntity
  8
L1
100
AcDbCircle
 10
643.0811220396417
 20
78.14249818219457
 30
0.0
 40
6.5
100
AcDbArc
 50
50.39840964643169
 51
239.9999999999997
  0
ARC
  5
2E1
100
AcDbEntity
  8
L1
100
AcDbCircle
 10
643.0811220396417
 20
78.14249818219457
 30
0.0
 40
6.5
100
AcDbArc
 50
0.0
 51
39.60159035356843
  0
LINE
  5
2E9
100
AcDbEntity
  8
L1
100
AcDbLine
 10
639.8311220396415
 20
72.51333305759573
 30
0.0
 11
657.3880501648536
 21
62.37683587836165
 31
0.0
  0
LINE
  5
2F0
100
AcDbEntity
  8
L1
100
AcDbLine
 10
661.874563055431
 20
28.14249818219457
 30
0.0
 11
659.2437231648234
 21
30.63907201908103
 31
0.0
1001
ACAD
1000
ASC_BOUNDS
1002
{
1070
    19
1002
}
  0
LINE
  5
2F5
100
AcDbEntity
  8
L1
100
AcDbLine
 10
659.6116660769091
 20
81.64249818219445
 30
0.0
 11
667.9116660769092
 21
81.64249818219445
 31
0.0
  0
LINE
  5
2F8
100
AcDbEntity
  8
L1
100
AcDbLine
 10
949.2226470182371
 20
71.30238729963043
 30
0.0
 11
651.747229784351
 21
71.30238729963292
 31
0.0
  0
LINE
  5
2FA
100
AcDbEntity
  8
L1
100
AcDbLine
 10
949.5811220396417
 20
78.14249818219457
 30
0.0
 11
649.5811220396417
 21
78.14249818219457
 31
0.0
  0
LINE
  5
2FB
100
AcDbEntity
  8
L1
100
AcDbLine
 10
926.2473037702331
 20
81.64249818219445
 30
0.0
 11
674.9116660769092
 21
81.64249818219492
 31
0.0
  0
LINE
  5
2FC
100
AcDbEntity
  8
L1
100
AcDbLine
 10
941.9185209144602
 20
30.63907201908103
 30
0.0
 11
659.2437231648234
 21
30.63907201908103
 31
0.0
  0
LINE
  5
2FD
100
AcDbEntity
  8
L1
100
AcDbLine
 10
661.8745630554307
 20
28.14249818219479
 30
0.0
 11
939.2876810238524
 21
28.14249818219446
 31
0.0
  0
LINE
  5
2FE
100
AcDbEntity
  8
L1
100
AcDbLine
 10
941.5505780023746
 20
81.64249818219458
 30
0.0
 11
941.5811220396422
 21
78.14249818219457
 31
0.0
  0
LINE
  5
2FF
100
AcDbEntity
  8
L1
100
AcDbLine
 10
941.5505780023746
 20
81.64249818219445
 30
0.0
 11
933.2505780023744
 21
81.64249818219445
 31
0.0
  0
LINE
  5
300
100
AcDbEntity
  8
L1
100
AcDbLine
 10
933.2505780023746
 20
78.14249818219457
 30
0.0
 11
933.2505780023746
 21
81.64249818219445
 31
0.0
  0
LINE
  5
301
100
AcDbEntity
  8
L1
100
AcDbLine
 10
926.2473037702331
 20
78.14249818219457
 30
0.0
 11
926.2473037702331
 21
81.64249818219445
 31
0.0
  0
ARC
  5
302
100
AcDbEntity
  8
L1
100
AcDbCircle
 10
948.2240174834819
 20
71.35472325587409
 30
0.0
 40
1.0
100
AcDbArc
 50
284.9999999999977
 51
357.0000000000001
  0
ARC
  5
303
100
AcDbEntity
  8
L1
100
AcDbCircle
 10
944.8984980600521
 20
68.39310065113147
 30
0.0
 40
1.0
100
AcDbArc
 50
104.9999999999981
 51
177.0000000000002
  0
LINE
  5
304
100
AcDbEntity
  8
L1
100
AcDbLine
 10
948.4828365285844
 20
70.38879742958499
 30
0.0
 11
944.6396790149492
 21
69.35902647742057
 31
0.0
  0
LINE
  5
306
100
AcDbEntity
  8
L1
100
AcDbLine
 10
949.5811220396417
 20
78.14249818219457
 30
0.0
 11
949.2226470182371
 21
71.30238729963116
 31
0.0
  0
LINE
  5
308
100
AcDbEntity
  8
L1
100
AcDbLine
 10
939.2876810238526
 20
28.14249818219457
 30
0.0
 11
941.9185209144602
 21
30.63907201908103
 31
0.0
  0
LINE
  5
309
100
AcDbEntity
  8
L1
100
AcDbLine
 10
941.9185209144602
 20
30.63907201908103
 30
0.0
 11
943.8998685252968
 21
68.44543660737452
 31
0.0
  0
LINE
  5
30B
100
AcDbEntity
  8
L6
100
AcDbLine
 10
800.5811220396417
 20
22.21918979587962
 30
0.0
 11
800.5811220396417
 21
91.78545045360852
 31
0.0
  0
ARC
  5
30E
100
AcDbEntity
  8
L1
100
AcDbCircle
 10
939.4185209144598
 20
594.4798970570128
 30
0.0
 40
2.5
100
AcDbArc
 50
0.0
 51
90.0
  0
ARC
  5
30F
100
AcDbEntity
  8
L1
100
AcDbCircle
 10
941.3998685252973
 20
596.4612446678501
 30
0.0
 40
2.5
100
AcDbArc
 50
0.0
 51
90.0
  0
ARC
  5
310
100
AcDbEntity
  8
L1
100
AcDbCircle
 10
947.0811220396416
 20
602.1424981821946
 30
0.0
 40
2.5
100
AcDbArc
 50
0.0
 51
90.0
  0
LINE
  5
312
100
AcDbEntity
  8
L6
100
AcDbLine
 10
800.5811220396417
 20
615.6329659387798
 30
0.0
 11
800.5811220396417
 21
198.4733976236823
 31
0.0
  0
LINE
  5
313
100
AcDbEntity
  8
L6
100
AcDbLine
 10
631.2461615747142
 20
405.6424981821947
 30
0.0
 11
978.860348260326
 21
405.6424981821947
 31
0.0
  0
LINE
  5
315
100
AcDbEntity
  8
L1
100
AcDbLine
 10
926.2473037702331
 20
729.6424981821949
 30
0.0
 11
674.9116660769092
 21
729.6424981821944
 31
0.0
  0
LINE
  5
316
100
AcDbEntity
  8
L1
100
AcDbLine
 10
949.5811220396417
 20
733.1424981821946
 30
0.0
 11
941.5811220396422
 21
733.1424981821946
 31
0.0
  0
LINE
  5
317
100
AcDbEntity
  8
L1
100
AcDbLine
 10
661.8745630554307
 20
783.1424981821944
 30
0.0
 11
939.2876810238524
 21
783.1424981821949
 31
0.0
  0
LINE
  5
31C
100
AcDbEntity
  8
L2
100
AcDbLine
 10
937.0428581902784
 20
779.1424981821936
 30
0.0
 11
663.7753889042905
 21
779.1424981821955
 31
0.0
1001
ACAD
1000
ASC_BOUNDS
1002
{
1070
    19
1002
}
  0
LINE
  5
31F
100
AcDbEntity
  8
L2
100
AcDbLine
 10
661.0811220396414
 20
729.6424981821947
 30
0.0
 11
662.7759980772714
 21
778.1773976788979
 31
0.0
1001
ACAD
1000
ASC_BOUNDS
1002
{
1070
    19
1002
}
  0
LINE
  5
320
100
AcDbEntity
  8
L1
100
AcDbLine
 10
639.8311220396415
 20
738.7716633067936
 30
0.0
 11
657.5864196346397
 21
749.0226891528077
 31
0.0
  0
LINE
  5
321
100
AcDbEntity
  8
L2
100
AcDbLine
 10
657.5864196346397
 20
749.0226891528076
 30
0.0
 11
657.3858902746496
 21
745.1963610249374
 31
0.0
1001
ACAD
1000
ASC_BOUNDS
1002
{
1070
    19
1002
}
  0
LINE
  5
323
100
AcDbEntity
  8
L1
100
AcDbLine
 10
659.2437231648234
 20
780.6459243453082
 30
0.0
 11
657.5864196346397
 21
749.0226891528076
 31
0.0
1001
ACAD
1000
ASC_BOUNDS
1002
{
1070
    19
1002
}
  0
ARC
  5
324
100
AcDbEntity
  8
L2
100
AcDbCircle
 10
663.7753889042905
 20
778.1424981821954
 30
0.0
 40
1.0
100
AcDbArc
 50
89.99999999999975
 51
177.9999999999995
1001
ACAD
1000
ASC_BOUNDS
1002
{
1070
    19
1002
}
  0
LINE
  5
326
100
AcDbEntity
  8
L1
100
AcDbLine
 10
661.874563055431
 20
783.1424981821947
 30
0.0
 11
659.2437231648234
 21
780.6459243453082
 31
0.0
1001
ACAD
1000
ASC_BOUNDS
1002
{
1070
    19
1002
}
  0
LINE
  5
329
100
AcDbEntity
  8
L2
 48
0.3
100
AcDbLine
 10
667.9116660769092
 20
733.6424981821949
 30
0.0
 11
674.9116660769092
 21
733.6424981821949
 31
0.0
  0
LINE
  5
32B
100
AcDbEntity
  8
L2
100
AcDbLine
 10
647.8844417155733
 20
741.9350973098148
 30
0.0
 11
656.6460797849977
 21
744.2827711548914
 31
0.0
1001
ACAD
1000
ASC_BOUNDS
1002
{
1070
    19
1002
}
  0
ARC
  5
32E
100
AcDbEntity
  8
L1
100
AcDbCircle
 10
643.0811220396417
 20
733.1424981821946
 30
0.0
 40
6.5
100
AcDbArc
 50
320.3984096464315
 51
0.0
  0
LINE
  5
330
100
AcDbEntity
  8
L1
100
AcDbLine
 10
647.2245169873263
 20
728.1342771100471
 30
0.0
 11
647.5460316229205
 21
728.1455046485248
 31
0.0
  0
ARC
  5
331
100
AcDbEntity
  8
L1
100
AcDbCircle
 10
647.5355617739096
 20
728.4453218966305
 30
0.0
 40
0.3
100
AcDbArc
 50
272.0000000000089
 51
314.9999999999995
  0
ARC
  5
332
100
AcDbEntity
  8
L1
100
AcDbCircle
 10
647.7782983252059
 20
728.6880584479265
 30
0.0
 40
0.3
100
AcDbArc
 50
314.9999999999999
 51
357.9999999999906
  0
LINE
  5
333
100
AcDbEntity
  8
L1
100
AcDbLine
 10
648.0893431117892
 20
728.9991032345101
 30
0.0
 11
648.0781155733116
 21
728.6775885989158
 31
0.0
  0
LINE
  5
334
100
AcDbEntity
  8
L1
100
AcDbLine
 10
647.7476938082657
 20
728.2331898622746
 30
0.0
 11
647.9904303595617
 21
728.4759264135707
 31
0.0
  0
LINE
  5
336
100
AcDbEntity
  8
L6
 48
0.3
100
AcDbLine
 10
652.0811220396417
 20
733.1424981821946
 30
0.0
 11
634.0811220396417
 21
733.1424981821946
 31
0.0
  0
LINE
  5
337
100
AcDbEntity
  8
L2
 48
0.3
100
AcDbLine
 10
648.4653681151403
 20
739.7670504711732
 30
0.0
 11
651.2112455647488
 21
740.5028061163107
 31
0.0
1001
ACAD
1000
ASC_BOUNDS
1002
{
1070
    19
1002
}
  0
LINE
  5
338
100
AcDbEntity
  8
L1
100
AcDbLine
 10
648.4653681151403
 20
739.7670504711732
 30
0.0
 11
647.8844417155733
 21
741.9350973098148
 31
0.0
1001
ACAD
1000
ASC_BOUNDS
1002
{
1070
    19
1002
}
  0
ARC
  5
339
100
AcDbEntity
  8
L2
100
AcDbCircle
 10
651.3406550873001
 20
740.0198432031661
 30
0.0
 40
0.5
100
AcDbArc
 50
1.999999999998145
 51
105.0000000000028
1001
ACAD
1000
ASC_BOUNDS
1002
{
1070
    19
1002
}
  0
LINE
  5
33A
100
AcDbEntity
  8
L1
100
AcDbLine
 10
643.8311220396412
 20
737.0424981821948
 30
0.0
 11
643.8311220396415
 21
736.1504044307507
 31
0.0
  0
ARC
  5
33B
100
AcDbEntity
  8
L1
100
AcDbCircle
 10
643.531122039641
 20
737.0424981821948
 30
0.0
 40
0.3
100
AcDbArc
 50
359.9999999999945
 51
90.00000000000122
  0
LINE
  5
33C
100
AcDbEntity
  8
L1
100
AcDbLine
 10
643.531122039641
 20
737.3424981821947
 30
0.0
 11
642.6311220396419
 21
737.3424981821947
 31
0.0
  0
LINE
  5
33D
100
AcDbEntity
  8
L1
100
AcDbLine
 10
642.3311220396417
 20
737.0424981821948
 30
0.0
 11
642.3311220396417
 21
736.1504044307507
 31
0.0
  0
ARC
  5
33E
100
AcDbEntity
  8
L1
100
AcDbCircle
 10
642.6311220396419
 20
737.0424981821948
 30
0.0
 40
0.3
100
AcDbArc
 50
90.00000000000296
 51
180.0
  0
LINE
  5
33F
100
AcDbEntity
  8
L1
100
AcDbLine
 10
647.8844417155733
 20
741.9350973098148
 30
0.0
 11
647.5395788788878
 21
743.222142937969
 31
0.0
1001
ACAD
1000
ASC_BOUNDS
1002
{
1070
    19
1002
}
  0
LINE
  5
341
100
AcDbEntity
  8
L1
100
AcDbLine
 10
648.4653681151403
 20
739.7670504711732
 30
0.0
 11
648.0893431117892
 21
728.9991032345101
 31
0.0
  0
LINE
  5
342
100
AcDbEntity
  8
L2
 48
0.3
100
AcDbLine
 10
652.0811220396417
 20
733.1424981821946
 30
0.0
 11
651.8403505008095
 21
740.0372929515174
 31
0.0
1001
ACAD
1000
ASC_BOUNDS
1002
{
1070
    19
1002
}
  0
ARC
  5
344
100
AcDbEntity
  8
L1
100
AcDbCircle
 10
643.0811220396417
 20
733.1424981821946
 30
0.0
 40
3.1
100
AcDbArc
 50
104.000802386183
 51
75.99919761382131
  0
LINE
  5
345
100
AcDbEntity
  8
L6
 48
0.3
100
AcDbLine
 10
643.0811220396417
 20
742.1424981821947
 30
0.0
 11
643.0811220396417
 21
724.1424981821946
 31
0.0
  0
ARC
  5
347
100
AcDbEntity
  8
L1
100
AcDbCircle
 10
643.0811220396417
 20
733.1424981821946
 30
0.0
 40
6.5
100
AcDbArc
 50
120.0000000000002
 51
309.6015903535682
  0
LINE
  5
348
100
AcDbEntity
  8
L1
100
AcDbLine
 10
659.611666076909
 20
729.6424981821949
 30
0.0
 11
667.9116660769092
 21
729.6424981821949
 31
0.0
  0
LINE
  5
34B
100
AcDbEntity
  8
L1
100
AcDbLine
 10
667.9116660769092
 20
733.1424981821946
 30
0.0
 11
667.9116660769092
 21
729.6424981821949
 31
0.0
  0
LINE
  5
34D
100
AcDbEntity
  8
L2
 48
0.3
100
AcDbLine
 10
659.5811220396415
 20
733.1424981821946
 30
0.0
 11
659.5268111109035
 21
739.3659141935329
 31
0.0
1001
ACAD
1000
ASC_BOUNDS
1002
{
1070
    19
1002
}
  0
ARC
  5
350
100
AcDbEntity
  8
L2
100
AcDbCircle
 10
656.3872607398953
 20
745.2486969811803
 30
0.0
 40
1.0
100
AcDbArc
 50
285.0000000000035
 51
356.9999999999992
1001
ACAD
1000
ASC_BOUNDS
1002
{
1070
    19
1002
}
  0
LINE
  5
351
100
AcDbEntity
  8
L2
100
AcDbLine
 10
657.3478659766954
 20
744.4708141982159
 30
0.0
 11
657.2623755539864
 21
742.8395597570147
 31
0.0
1001
ACAD
1000
ASC_BOUNDS
1002
{
1070
    19
1002
}
  0
LINE
  5
352
100
AcDbEntity
  8
L2
100
AcDbLine
 10
652.6794075506988
 20
740.8961989348043
 30
0.0
 11
656.5225650643342
 21
741.9259698869686
 31
0.0
  0
LINE
  5
353
100
AcDbEntity
  8
L2
 48
0.3
100
AcDbLine
 10
653.8988318326012
 20
739.1523903255513
 30
0.0
 11
658.268030142737
 21
740.3231134843236
 31
0.0
1001
ACAD
1000
ASC_BOUNDS
1002
{
1070
    19
1002
}
  0
LINE
  5
354
100
AcDbEntity
  8
L2
 48
0.3
100
AcDbLine
 10
653.5838667316375
 20
733.1424981821946
 30
0.0
 11
653.8988318326016
 21
739.1523903255513
 31
0.0
1001
ACAD
1000
ASC_BOUNDS
1002
{
1070
    19
1002
}
  0
LINE
  5
355
100
AcDbEntity
  8
L2
 48
0.3
100
AcDbLine
 10
649.5811220396417
 20
733.1424981821946
 30
0.0
 11
659.5811220396415
 21
733.1424981821946
 31
0.0
  0
ARC
  5
356
100
AcDbEntity
  8
L2
 48
0.3
100
AcDbCircle
 10
658.5268491878394
 20
739.3571876580344
 30
0.0
 40
1.0
100
AcDbArc
 50
0.5000000000007323
 51
105.0000000000028
1001
ACAD
1000
ASC_BOUNDS
1002
{
1070
    19
1002
}
  0
LINE
  5
357
100
AcDbEntity
  8
L1
100
AcDbLine
 10
674.9149403090507
 20
733.1424981821946
 30
0.0
 11
674.9116660769092
 21
729.6424981821949
 31
0.0
  0
LINE
  5
35B
100
AcDbEntity
  8
L1
100
AcDbLine
 10
941.9185209144602
 20
780.6459243453082
 30
0.0
 11
943.8998685252968
 21
742.8395597570147
 31
0.0
  0
LINE
  5
35C
100
AcDbEntity
  8
L1
100
AcDbLine
 10
939.2876810238526
 20
783.1424981821947
 30
0.0
 11
941.9185209144602
 21
780.6459243453082
 31
0.0
  0
LINE
  5
35D
100
AcDbEntity
  8
L1
100
AcDbLine
 10
941.5505780023746
 20
729.6424981821949
 30
0.0
 11
933.2505780023744
 21
729.6424981821949
 31
0.0
  0
LINE
  5
35E
100
AcDbEntity
  8
L1
100
AcDbLine
 10
933.2505780023746
 20
733.1424981821946
 30
0.0
 11
933.2505780023746
 21
729.6424981821949
 31
0.0
  0
LINE
  5
35F
100
AcDbEntity
  8
L1
100
AcDbLine
 10
926.2473037702331
 20
733.1424981821946
 30
0.0
 11
926.2473037702331
 21
729.6424981821949
 31
0.0
  0
LINE
  5
360
100
AcDbEntity
  8
L1
100
AcDbLine
 10
941.5505780023746
 20
729.6424981821947
 30
0.0
 11
941.5811220396422
 21
733.1424981821946
 31
0.0
  0
LINE
  5
362
100
AcDbEntity
  8
L1
100
AcDbLine
 10
948.4828365285844
 20
740.8961989348043
 30
0.0
 11
944.6396790149492
 21
741.9259698869686
 31
0.0
  0
ARC
  5
363
100
AcDbEntity
  8
L1
100
AcDbCircle
 10
944.8984980600521
 20
742.8918957132577
 30
0.0
 40
1.0
100
AcDbArc
 50
182.9999999999997
 51
255.0000000000018
  0
ARC
  5
364
100
AcDbEntity
  8
L1
100
AcDbCircle
 10
948.2240174834819
 20
739.9302731085152
 30
0.0
 40
1.0
100
AcDbArc
 50
2.999999999999813
 51
75.00000000000227
  0
LINE
  5
366
100
AcDbEntity
  8
L1
100
AcDbLine
 10
949.5811220396417
 20
733.1424981821946
 30
0.0
 11
949.2226470182371
 21
739.9826090647581
 31
0.0
  0
LINE
  5
367
100
AcDbEntity
  8
L6
100
AcDbLine
 10
800.5811220396417
 20
794.6169369223298
 30
0.0
 11
800.5811220396417
 21
722.5136498128732
 31
0.0
  0
LINE
  5
368
100
AcDbEntity
  8
L1
100
AcDbLine
 10
659.6116660769091
 20
81.64249818219458
 30
0.0
 11
659.5811220396415
 21
78.14249818219457
 31
0.0
  0
LINE
  5
36B
100
AcDbEntity
  8
L1
100
AcDbLine
 10
659.0513558881273
 20
30.63907201908103
 30
0.0
 11
657.0700082772908
 21
68.44543660737452
 31
0.0
  0
LINE
  5
36C
100
AcDbEntity
  8
L1
100
AcDbLine
 10
652.4870402740032
 20
70.38879742958499
 30
0.0
 11
656.3301977876383
 21
69.35902647742057
 31
0.0
  0
ARC
  5
36D
100
AcDbEntity
  8
L1
100
AcDbCircle
 10
656.0713787425354
 20
68.39310065113147
 30
0.0
 40
1.0
100
AcDbArc
 50
2.999999999999711
 51
75.00000000000186
  0
ARC
  5
36E
100
AcDbEntity
  8
L1
100
AcDbCircle
 10
652.7458593191056
 20
71.35472325587409
 30
0.0
 40
1.0
100
AcDbArc
 50
182.9999999999998
 51
255.0000000000022
  0
LINE
  5
36F
100
AcDbEntity
  8
L1
100
AcDbLine
 10
651.3887547629458
 20
78.14249818219457
 30
0.0
 11
651.7472297843503
 21
71.30238729963116
 31
0.0
  0
LINE
  5
370
100
AcDbEntity
  8
L1
100
AcDbLine
 10
933.2505780023746
 20
733.1424981821946
 30
0.0
 11
926.2473037702331
 21
733.1424981821946
 31
0.0
  0
LINE
  5
371
100
AcDbEntity
  8
L2
100
AcDbLine
 10
938.0414877250331
 20
778.1948341384365
 30
0.0
 11
940.5860078315027
 21
729.6424981821949
 31
0.0
  0
ARC
  5
372
100
AcDbEntity
  8
L2
100
AcDbCircle
 10
937.0428581902784
 20
778.1424981821936
 30
0.0
 40
1.0
100
AcDbArc
 50
2.999999999998592
 51
89.99999999999964
1001
ACAD
1000
ASC_BOUNDS
1002
{
1070
    19
1002
}
  0
LINE
  5
373
100
AcDbEntity
  8
L1
100
AcDbLine
 10
659.5811220396415
 20
733.1424981821946
 30
0.0
 11
659.6116660769091
 21
729.6424981821947
 31
0.0
  0
LINE
  5
374
100
AcDbEntity
  8
L1
100
AcDbLine
 10
1078.081122039641
 20
214.642498182194
 30
0.0
 11
1074.581122039641
 21
214.6730422194617
 31
0.0
  0
LINE
  5
375
100
AcDbEntity
  8
L2
 48
0.4
100
AcDbLine
 10
1078.581122039641
 20
588.3119541449268
 30
0.0
 11
1078.581122039641
 21
581.3119541449268
 31
0.0
  0
LINE
  5
376
100
AcDbEntity
  8
L2
100
AcDbLine
 10
1074.581122039641
 20
595.1424981821944
 30
0.0
 11
1123.143009815776
 21
593.3703800428766
 31
0.0
1001
ACAD
1000
ASC_BOUNDS
1002
{
1070
    19
1002
}
  0
LINE
  5
378
100
AcDbEntity
  8
L2
 48
0.3
100
AcDbLine
 10
1084.091014182998
 20
602.3247883892344
 30
0.0
 11
1085.26173734177
 21
597.9555900790987
 31
0.0
1001
ACAD
1000
ASC_BOUNDS
1002
{
1070
    19
1002
}
  0
ARC
  5
379
100
AcDbEntity
  8
L2
 48
0.3
100
AcDbCircle
 10
1084.295811515481
 20
597.6967710339963
 30
0.0
 40
1.0
100
AcDbArc
 50
270.5000000000007
 51
15.00000000000288
1001
ACAD
1000
ASC_BOUNDS
1002
{
1070
    19
1002
}
  0
LINE
  5
37A
100
AcDbEntity
  8
L2
 48
0.3
100
AcDbLine
 10
1078.081122039642
 20
602.6397534901983
 30
0.0
 11
1084.091014182998
 21
602.3247883892344
 31
0.0
1001
ACAD
1000
ASC_BOUNDS
1002
{
1070
    19
1002
}
  0
LINE
  5
37B
100
AcDbEntity
  8
L2
 48
0.3
100
AcDbLine
 10
1078.081122039642
 20
596.6424981821944
 30
0.0
 11
1084.30453805098
 21
596.6968091109325
 31
0.0
1001
ACAD
1000
ASC_BOUNDS
1002
{
1070
    19
1002
}
  0
LINE
  5
37C
100
AcDbEntity
  8
L1
100
AcDbLine
 10
1078.081122039641
 20
596.6424981821944
 30
0.0
 11
1074.581122039641
 21
596.6119541449268
 31
0.0
  0
LINE
  5
37D
100
AcDbEntity
  8
L1
100
AcDbLine
 10
1078.081122039642
 20
604.6424981821942
 30
0.0
 11
1078.081122039641
 21
568.6424981821942
 31
0.0
  0
LINE
  5
383
100
AcDbEntity
  8
L2
 48
0.3
100
AcDbLine
 10
1078.081122039641
 20
588.3119541449268
 30
0.0
 11
1078.581122039641
 21
588.3119541449268
 31
0.0
  0
ARC
  5
384
100
AcDbEntity
  8
L2
100
AcDbCircle
 10
1123.108110319074
 20
592.3709892158574
 30
0.0
 40
1.0
100
AcDbArc
 50
350.5767695176281
 51
87.99999999999977
1001
ACAD
1000
ASC_BOUNDS
1002
{
1070
    19
1002
}
  0
LINE
  5
385
100
AcDbEntity
  8
L1
100
AcDbLine
 10
1128.081122039642
 20
594.3490571664051
 30
0.0
 11
1125.584548202755
 21
596.9798970570125
 31
0.0
1001
ACAD
1000
ASC_BOUNDS
1002
{
1070
    19
1002
}
  0
LINE
  5
388
100
AcDbEntity
  8
L6
100
AcDbLine
 10
901.581122039642
 20
424.7640170640869
 30
0.0
 11
901.581122039642
 21
386.520979300303
 31
0.0
  0
ARC
  5
389
100
AcDbEntity
  8
L1
100
AcDbCircle
 10
76.14883443079384
 20
405.6427894818457
 30
0.0
 40
11.25000000000002
100
AcDbArc
 50
116.7048522475761
 51
153.2951477524252
  0
LINE
  5
38A
100
AcDbEntity
  8
L1
100
AcDbLine
 10
66.09883443079366
 20
410.698479345751
 30
0.0
 11
66.09883443079366
 21
400.5870996179405
 31
0.0
  0
ARC
  5
38B
100
AcDbEntity
  8
L1
100
AcDbCircle
 10
76.14883443079429
 20
405.642789481846
 30
0.0
 40
11.25000000000047
100
AcDbArc
 50
206.7048522475748
 51
243.2951477524223
  0
LINE
  5
38C
100
AcDbEntity
  8
L1
100
AcDbLine
 10
71.09314456688821
 20
395.5927894818457
 30
0.0
 11
81.20452429469947
 21
395.5927894818457
 31
0.0
  0
ARC
  5
38D
100
AcDbEntity
  8
L1
100
AcDbCircle
 10
76.14883443079361
 20
405.6427894818459
 30
0.0
 40
11.2500000000002
100
AcDbArc
 50
296.704852247577
 51
333.2951477524202
  0
LINE
  5
38E
100
AcDbEntity
  8
L1
100
AcDbLine
 10
86.19883443079357
 20
400.5870996179395
 30
0.0
 11
86.19883443079357
 21
410.6984793457518
 31
0.0
  0
ARC
  5
38F
100
AcDbEntity
  8
L1
100
AcDbCircle
 10
76.14883443079384
 20
405.6427894818457
 30
0.0
 40
11.24999999999983
100
AcDbArc
 50
26.70485224757876
 51
63.29514775242325
  0
LINE
  5
390
100
AcDbEntity
  8
L1
100
AcDbLine
 10
81.20452429469947
 20
415.6927894818456
 30
0.0
 11
71.09314456688821
 21
415.6927894818458
 31
0.0
  0
LINE
  5
394
100
AcDbEntity
  8
L6
100
AcDbLine
 10
76.14883443079361
 20
424.7643083637378
 30
0.0
 11
76.14883443079361
 21
386.521270599954
 31
0.0
  0
LINE
  5
397
100
AcDbEntity
  8
L6
100
AcDbLine
 10
177.1488344307938
 20
618.5299072522916
 30
0.0
 11
177.1488344307938
 21
194.127984694945
 31
0.0
  0
LINE
  5
398
100
AcDbEntity
  8
L6
100
AcDbLine
 10
343.9021691152102
 20
405.6424981821947
 30
0.0
 11
11.97031301918741
 21
405.6424981821947
 31
0.0
  0
LINE
  5
399
100
AcDbEntity
  8
L1
100
AcDbLine
 10
36.14883443079361
 20
587.2558795339414
 30
0.0
 11
37.64883443079361
 21
587.2558795339414
 31
0.0
  0
ARC
  5
39A
100
AcDbEntity
  8
L1
100
AcDbCircle
 10
38.64883443079384
 20
594.1422068825436
 30
0.0
 40
2.5
100
AcDbArc
 50
90.0
 51
180.0
  0
ARC
  5
39B
100
AcDbEntity
  8
L1
100
AcDbCircle
 10
38.64883443079384
 20
594.1422068825436
 30
0.0
 40
1.0
100
AcDbArc
 50
90.0
 51
180.0
  0
ARC
  5
39C
100
AcDbEntity
  8
L1
100
AcDbCircle
 10
30.64883443079384
 20
602.1422068825436
 30
0.0
 40
2.5
100
AcDbArc
 50
90.0
 51
180.0
  0
LINE
  5
39D
100
AcDbEntity
  8
L1
100
AcDbLine
 10
28.14883443079384
 20
602.1422068825436
 30
0.0
 11
28.14883443079384
 21
602.1422068825436
 31
0.0
  0
ARC
  5
39E
100
AcDbEntity
  8
L1
100
AcDbCircle
 10
30.64883443079384
 20
602.1422068825436
 30
0.0
 40
0.5
100
AcDbArc
 50
90.0
 51
180.0
  0
ARC
  5
39F
100
AcDbEntity
  8
L1
 62
     2
100
AcDbCircle
 10
38.62109453029529
 20
594.1422068825436
 30
0.0
 40
8.5
100
AcDbArc
 50
90.0
 51
180.0
  0
LINE
  5
3A0
100
AcDbEntity
  8
L1
100
AcDbLine
 10
45.26750920388008
 20
596.6422068825436
 30
0.0
 11
45.26750920388008
 21
595.1422068825436
 31
0.0
  0
LINE
  5
3A1
100
AcDbEntity
  8
L1
100
AcDbLine
 10
53.70075270939492
 20
596.6422068825436
 30
0.0
 11
53.70075270939492
 21
595.1422068825436
 31
0.0
  0
LINE
  5
3A2
100
AcDbEntity
  8
L1
100
AcDbLine
 10
36.14883443079361
 20
578.8226360284266
 30
0.0
 11
37.64883443079361
 21
578.8226360284266
 31
0.0
  0
LINE
  5
3A3
100
AcDbEntity
  8
L1
100
AcDbLine
 10
326.1488344307938
 20
602.1422068825436
 30
0.0
 11
326.1488344307938
 21
568.6422068825438
 31
0.0
  0
ARC
  5
3A4
100
AcDbEntity
  8
L1
100
AcDbCircle
 10
323.6488344307938
 20
602.1422068825436
 30
0.0
 40
2.5
100
AcDbArc
 50
0.0
 51
90.0
  0
LINE
  5
3A5
100
AcDbEntity
  8
L1
100
AcDbLine
 10
296.553130043668
 20
595.1422068825436
 30
0.0
 11
296.5531300436684
 21
596.6422068825436
 31
0.0
  0
ARC
  5
3A6
100
AcDbEntity
  8
L1
100
AcDbCircle
 10
323.6488344307938
 20
602.1422068825436
 30
0.0
 40
0.5
100
AcDbArc
 50
0.0
 51
90.0
  0
LINE
  5
3A7
100
AcDbEntity
  8
L1
100
AcDbLine
 10
307.17122854094
 20
595.1422068825436
 30
0.0
 11
307.17122854094
 21
596.6422068825436
 31
0.0
  0
ARC
  5
3AA
100
AcDbEntity
  8
L1
100
AcDbCircle
 10
315.6488344307938
 20
594.1422068825436
 30
0.0
 40
1.0
100
AcDbArc
 50
0.0
 51
90.0
  0
ARC
  5
3AB
100
AcDbEntity
  8
L1
 62
     2
100
AcDbCircle
 10
315.6488344307938
 20
594.1422068825436
 30
0.0
 40
8.5
100
AcDbArc
 50
0.0
 51
90.0
  0
ARC
  5
3AC
100
AcDbEntity
  8
L1
100
AcDbCircle
 10
315.6488344307938
 20
594.1422068825436
 30
0.0
 40
2.5
100
AcDbArc
 50
0.0
 51
90.0
  0
LINE
  5
3AE
100
AcDbEntity
  8
L1
100
AcDbLine
 10
339.1488344307938
 20
540.6422068825436
 30
0.0
 11
326.1488344307934
 21
540.6422068825438
 31
0.0
  0
LINE
  5
3B0
100
AcDbEntity
  8
L1
100
AcDbLine
 10
339.1488344307938
 20
568.6422068825436
 30
0.0
 11
326.1488344307934
 21
568.6422068825438
 31
0.0
  0
LINE
  5
3B4
100
AcDbEntity
  8
L1
100
AcDbLine
 10
316.6488344307938
 20
585.2085315683686
 30
0.0
 11
318.1488344307938
 21
585.2085315683686
 31
0.0
  0
LINE
  5
3B5
100
AcDbEntity
  8
L1
100
AcDbLine
 10
316.6488344307938
 20
575.9881772525277
 30
0.0
 11
318.1488344307938
 21
575.9881772525277
 31
0.0
  0
LINE
  5
3B7
100
AcDbEntity
  8
L1
100
AcDbLine
 10
341.1488344307938
 20
566.6422068825436
 30
0.0
 11
341.1488344307938
 21
561.6422068825436
 31
0.0
  0
ARC
  5
3BC
100
AcDbEntity
  8
L1
100
AcDbCircle
 10
339.1488344307938
 20
566.6422068825436
 30
0.0
 40
2.0
100
AcDbArc
 50
0.0
 51
90.0
  0
LINE
  5
3BD
100
AcDbEntity
  8
L1
100
AcDbLine
 10
341.1488344307938
 20
547.6422068825436
 30
0.0
 11
341.1488344307938
 21
542.6422068825436
 31
0.0
  0
LINE
  5
3BE
100
AcDbEntity
  8
L1
100
AcDbLine
 10
329.2645883552957
 20
561.6422068825436
 30
0.0
 11
329.2645883552952
 21
547.6422068825439
 31
0.0
  0
LINE
  5
3C4
100
AcDbEntity
  8
L1
100
AcDbLine
 10
341.1488344307938
 20
561.6422068825436
 30
0.0
 11
329.2645883552952
 21
561.6422068825436
 31
0.0
  0
LINE
  5
3C5
100
AcDbEntity
  8
L1
100
AcDbLine
 10
341.1488344307938
 20
547.6422068825436
 30
0.0
 11
329.2645883552957
 21
547.6422068825439
 31
0.0
  0
ARC
  5
3C6
100
AcDbEntity
  8
L1
100
AcDbCircle
 10
339.1488344307938
 20
542.6422068825436
 30
0.0
 40
2.0
100
AcDbArc
 50
270.0
 51
0.0
  0
LINE
  5
3C7
100
AcDbEntity
  8
L1
100
AcDbLine
 10
323.6488344307938
 20
602.6422068825436
 30
0.0
 11
30.64883443079384
 21
602.6422068825436
 31
0.0
  0
LINE
  5
3C8
100
AcDbEntity
  8
L1
100
AcDbLine
 10
315.6488344307938
 20
596.6422068825436
 30
0.0
 11
38.64883443079384
 21
596.6422068825436
 31
0.0
  0
LINE
  5
3C9
100
AcDbEntity
  8
L1
100
AcDbLine
 10
315.6488344307938
 20
595.1422068825436
 30
0.0
 11
38.64883443079384
 21
595.1422068825436
 31
0.0
  0
LINE
  5
3CA
100
AcDbEntity
  8
L1
100
AcDbLine
 10
323.6488344307938
 20
604.6422068825436
 30
0.0
 11
30.64883443079384
 21
604.6422068825436
 31
0.0
  0
LINE
  5
59F
100
AcDbEntity
  8
L2
100
AcDbLine
 10
661.0811220396414
 20
81.64249818219458
 30
0.0
 11
662.7759980772714
 21
33.10759868549132
 31
0.0
1001
ACAD
1000
ASC_BOUNDS
1002
{
1070
    19
1002
}
  0
LINE
  5
5A0
100
AcDbEntity
  8
L2
100
AcDbLine
 10
800.5811220396417
 20
32.14249818219468
 30
0.0
 11
663.7753889042905
 21
32.14249818219383
 31
0.0
1001
ACAD
1000
ASC_BOUNDS
1002
{
1070
    19
1002
}
  0
ARC
  5
5A1
100
AcDbEntity
  8
L2
100
AcDbCircle
 10
663.7753889042905
 20
33.14249818219383
 30
0.0
 40
1.0
100
AcDbArc
 50
182.0000000000004
 51
270.0000000000002
1001
ACAD
1000
ASC_BOUNDS
1002
{
1070
    19
1002
}
  0
POINT
  5
5A2
100
AcDbEntity
  8
L2
100
AcDbPoint
 10
662.5529441126277
 20
38.65945903268595
 30
0.0
  0
POINT
  5
5A3
100
AcDbEntity
  8
L2
100
AcDbPoint
 10
662.8283792315089
 20
31.60759868549178
 30
0.0
  0
LINE
  5
5A6
100
AcDbEntity
  8
L2
100
AcDbLine
 10
800.5811220396417
 20
32.14249818219468
 30
0.0
 11
937.3868551749929
 21
32.14249818219383
 31
0.0
1001
ACAD
1000
ASC_BOUNDS
1002
{
1070
    19
1002
}
  0
LINE
  5
5A7
100
AcDbEntity
  8
L2
100
AcDbLine
 10
940.081122039642
 20
81.64249818219458
 30
0.0
 11
938.386246002012
 21
33.10759868549132
 31
0.0
1001
ACAD
1000
ASC_BOUNDS
1002
{
1070
    19
1002
}
  0
POINT
  5
5A8
100
AcDbEntity
  8
L2
100
AcDbPoint
 10
938.3338648477744
 20
31.60759868549178
 30
0.0
  0
ARC
  5
5A9
100
AcDbEntity
  8
L2
100
AcDbCircle
 10
937.3868551749929
 20
33.14249818219383
 30
0.0
 40
1.0
100
AcDbArc
 50
269.9999999999997
 51
357.9999999999996
1001
ACAD
1000
ASC_BOUNDS
1002
{
1070
    19
1002
}
  0
POINT
  5
5AA
100
AcDbEntity
  8
L2
100
AcDbPoint
 10
938.6092999666557
 20
38.65945903268595
 30
0.0
  0
LINE
  5
5B2
100
AcDbEntity
  8
L2
 48
0.3
100
AcDbLine
 10
667.9116660769092
 20
77.64249818219446
 30
0.0
 11
674.9116660769092
 21
77.64249818219446
 31
0.0
  0
LINE
  5
5B5
100
AcDbEntity
  8
L2
100
AcDbLine
 10
667.9116660769092
 20
78.14249818219457
 30
0.0
 11
667.9116660769092
 21
77.64249818219446
 31
0.0
  0
LINE
  5
5B6
100
AcDbEntity
  8
L2
100
AcDbLine
 10
674.9116660769092
 20
78.14249818219457
 30
0.0
 11
674.9116660769092
 21
77.64249818219446
 31
0.0
  0
LINE
  5
5B7
100
AcDbEntity
  8
L2
 48
0.3
100
AcDbLine
 10
926.2473037702331
 20
77.64249818219446
 30
0.0
 11
933.247303770233
 21
77.64249818219446
 31
0.0
  0
LINE
  5
5B8
100
AcDbEntity
  8
L2
100
AcDbLine
 10
933.247303770233
 20
78.14249818219457
 30
0.0
 11
933.247303770233
 21
77.64249818219446
 31
0.0
  0
LINE
  5
5B9
100
AcDbEntity
  8
L2
100
AcDbLine
 10
926.2473037702331
 20
78.14249818219457
 30
0.0
 11
926.2473037702331
 21
77.64249818219446
 31
0.0
  0
LINE
  5
5BA
100
AcDbEntity
  8
L1
100
AcDbLine
 10
949.5811220396417
 20
733.1424981821948
 30
0.0
 11
649.5811220396417
 21
733.1424981821948
 31
0.0
  0
LINE
  5
5BB
100
AcDbEntity
  8
L1
100
AcDbLine
 10
949.2226470182371
 20
739.9826090647589
 30
0.0
 11
651.747229784351
 21
739.9826090647564
 31
0.0
  0
LINE
  5
5BC
100
AcDbEntity
  8
L1
100
AcDbLine
 10
651.3887547629458
 20
733.1424981821948
 30
0.0
 11
651.7472297843503
 21
739.9826090647581
 31
0.0
  0
LINE
  5
5BD
100
AcDbEntity
  8
L1
100
AcDbLine
 10
652.4870402740032
 20
740.8961989348044
 30
0.0
 11
656.3301977876383
 21
741.9259698869687
 31
0.0
  0
ARC
  5
5BE
100
AcDbEntity
  8
L1
100
AcDbCircle
 10
656.0713787425354
 20
742.8918957132578
 30
0.0
 40
1.0
100
AcDbArc
 50
284.9999999999981
 51
357.0000000000002
  0
ARC
  5
5BF
100
AcDbEntity
  8
L1
100
AcDbCircle
 10
652.7458593191056
 20
739.9302731085152
 30
0.0
 40
1.0
100
AcDbArc
 50
104.9999999999977
 51
177.0000000000001
  0
LINE
  5
5C0
100
AcDbEntity
  8
L2
 48
0.3
100
AcDbLine
 10
926.2473037702331
 20
733.6424981821949
 30
0.0
 11
933.247303770233
 21
733.6424981821949
 31
0.0
  0
LINE
  5
5C1
100
AcDbEntity
  8
L2
100
AcDbLine
 10
926.2473037702331
 20
733.6424981821949
 30
0.0
 11
926.2473037702331
 21
733.1424981821946
 31
0.0
  0
LINE
  5
5C2
100
AcDbEntity
  8
L2
100
AcDbLine
 10
933.2505780023746
 20
733.6424981821949
 30
0.0
 11
933.2505780023746
 21
733.1424981821946
 31
0.0
  0
LINE
  5
5C3
100
AcDbEntity
  8
L2
100
AcDbLine
 10
674.9149403090507
 20
733.6424981821949
 30
0.0
 11
674.9149403090507
 21
733.1424981821946
 31
0.0
  0
LINE
  5
5C4
100
AcDbEntity
  8
L2
100
AcDbLine
 10
667.9116660769092
 20
733.6424981821949
 30
0.0
 11
667.9116660769092
 21
733.1424981821946
 31
0.0
  0
LINE
  5
5C7
100
AcDbEntity
  8
L2
100
AcDbLine
 10
674.9149403090507
 20
78.14249818219463
 30
0.0
 11
674.9149403090507
 21
77.64249818219451
 31
0.0
  0
LINE
  5
5C8
100
AcDbEntity
  8
L2
100
AcDbLine
 10
667.9116660769092
 20
78.14249818219463
 30
0.0
 11
667.9116660769092
 21
77.64249818219451
 31
0.0
  0
LINE
  5
5C9
100
AcDbEntity
  8
L2
100
AcDbLine
 10
477.0811220396409
 20
591.7332650788798
 30
0.0
 11
477.0811220396425
 21
220.1099388882103
 31
0.0
1001
ACAD
1000
ASC_BOUNDS
1002
{
1070
    19
1002
}
  0
LINE
  5
5CA
100
AcDbEntity
  8
L2
100
AcDbLine
 10
526.5811220396416
 20
594.2740183483508
 30
0.0
 11
478.019234263507
 21
592.501900209033
 31
0.0
1001
ACAD
1000
ASC_BOUNDS
1002
{
1070
    19
1002
}
  0
ARC
  5
5CB
100
AcDbEntity
  8
L2
100
AcDbCircle
 10
478.0541337602095
 20
591.5025093820138
 30
0.0
 40
1.0
100
AcDbArc
 50
92.00000000000022
 51
189.4232304823717
1001
ACAD
1000
ASC_BOUNDS
1002
{
1070
    19
1002
}
  0
LINE
  5
5CC
100
AcDbEntity
  8
L2
100
AcDbLine
 10
526.5811220396416
 20
217.0109780160385
 30
0.0
 11
478.019234263507
 21
218.7830961553564
 31
0.0
1001
ACAD
1000
ASC_BOUNDS
1002
{
1070
    19
1002
}
  0
ARC
  5
5CD
100
AcDbEntity
  8
L2
100
AcDbCircle
 10
478.0541337602095
 20
219.7824869823755
 30
0.0
 40
1.0
100
AcDbArc
 50
170.5767695176282
 51
267.9999999999997
1001
ACAD
1000
ASC_BOUNDS
1002
{
1070
    19
1002
}
  0
LINE
  5
5CE
100
AcDbEntity
  8
L1
100
AcDbLine
 10
647.8844417155733
 20
547.6424981821948
 30
0.0
 11
647.8844417155733
 21
561.6424981821946
 31
0.0
  0
LINE
  5
5DB
100
AcDbEntity
  8
L1
100
AcDbLine
 10
657.5864196346397
 20
568.6424981821947
 30
0.0
 11
657.5864196346397
 21
565.6424981821946
 31
0.0
  0
LINE
  5
5DC
100
AcDbEntity
  8
L1
100
AcDbLine
 10
657.5864196346397
 20
543.6424981821947
 30
0.0
 11
657.5864196346397
 21
540.6424981821946
 31
0.0
  0
LINE
  5
5DE
100
AcDbEntity
  8
L1
100
AcDbLine
 10
657.5864196346397
 20
565.6424981821946
 30
0.0
 11
657.2623755539864
 21
565.6424981821946
 31
0.0
  0
LINE
  5
5DF
100
AcDbEntity
  8
L1
100
AcDbLine
 10
657.5864196346397
 20
543.6424981821947
 30
0.0
 11
657.2623755539864
 21
543.6424981821947
 31
0.0
  0
LINE
  5
600
100
AcDbEntity
  8
L1
100
AcDbLine
 10
1084.921232922205
 20
604.2840231607895
 30
0.0
 11
1084.921232922204
 21
568.5231036026229
 31
0.0
  0
LINE
  5
601
100
AcDbEntity
  8
L1
100
AcDbLine
 10
1078.081122039641
 20
568.6424981821942
 30
0.0
 11
1093.961313010255
 21
568.3653084177299
 31
0.0
  0
LINE
  5
602
100
AcDbEntity
  8
L1
100
AcDbLine
 10
1073.581807411437
 20
568.5639623532265
 30
0.0
 11
1078.081122039641
 21
568.6424981821942
 31
0.0
  0
ARC
  5
603
100
AcDbEntity
  8
L1
100
AcDbCircle
 10
1073.581807411437
 20
566.5639623532265
 30
0.0
 40
2.0
100
AcDbArc
 50
90.0
 51
180.0
  0
LINE
  5
604
100
AcDbEntity
  8
L1
100
AcDbLine
 10
1071.581122039641
 20
561.7559561042276
 30
0.0
 11
1078.081122039641
 21
561.6424981821942
 31
0.0
  0
LINE
  5
605
100
AcDbEntity
  8
L1
100
AcDbLine
 10
1071.581122039641
 20
566.6424981821942
 30
0.0
 11
1071.581122039641
 21
561.7559561042276
 31
0.0
  0
POINT
  5
606
100
AcDbEntity
  8
DEFPOINTS
  6
BYBLOCK
 62
     0
100
AcDbPoint
 10
1071.581122039641
 20
561.7559561042273
 30
0.0
  0
POINT
  5
607
100
AcDbEntity
  8
DEFPOINTS
  6
BYBLOCK
 62
     0
100
AcDbPoint
 10
1071.581122039641
 20
561.7559561042273
 30
0.0
  0
LINE
  5
608
100
AcDbEntity
  8
L1
100
AcDbLine
 10
1074.581122039641
 20
561.6424981821942
 30
0.0
 11
1074.581122039641
 21
547.6424981821942
 31
0.0
  0
LINE
  5
609
100
AcDbEntity
  8
L1
100
AcDbLine
 10
1071.581122039641
 20
547.5290402601608
 30
0.0
 11
1078.081122039641
 21
547.6424981821942
 31
0.0
  0
LINE
  5
60A
100
AcDbEntity
  8
L1
100
AcDbLine
 10
1071.581122039641
 20
547.5290402601608
 30
0.0
 11
1071.581122039641
 21
542.6424981821942
 31
0.0
  0
LINE
  5
60B
100
AcDbEntity
  8
L1
100
AcDbLine
 10
1084.70567432862
 20
544.0798749076054
 30
0.0
 11
1084.70567432862
 21
565.2051214567832
 31
0.0
  0
LINE
  5
60C
100
AcDbEntity
  8
L1
100
AcDbLine
 10
1078.081122039641
 20
547.6424981821942
 30
0.0
 11
1084.70567432862
 21
547.5268661918696
 31
0.0
  0
LINE
  5
60D
100
AcDbEntity
  8
L1
100
AcDbLine
 10
1084.70567432862
 20
544.0798749076054
 30
0.0
 11
1086.873721167261
 21
544.0420315092697
 31
0.0
  0
POINT
  5
60E
100
AcDbEntity
  8
DEFPOINTS
  6
BYBLOCK
 62
     0
100
AcDbPoint
 10
1086.873721167261
 20
544.0420315092694
 30
0.0
  0
LINE
  5
60F
100
AcDbEntity
  8
L1
100
AcDbLine
 10
1078.081122039641
 20
561.6424981821942
 30
0.0
 11
1084.70567432862
 21
561.7581301725188
 31
0.0
  0
LINE
  5
610
100
AcDbEntity
  8
L1
100
AcDbLine
 10
1084.70567432862
 20
565.205121456783
 30
0.0
 11
1086.873721167261
 21
565.242964855119
 31
0.0
  0
LINE
  5
611
100
AcDbEntity
  8
L1
100
AcDbLine
 10
1078.081122039641
 20
540.6424981821942
 30
0.0
 11
1093.961313010255
 21
540.9196879466588
 31
0.0
  0
LINE
  5
612
100
AcDbEntity
  8
L1
100
AcDbLine
 10
1073.581807411437
 20
540.7210340111618
 30
0.0
 11
1078.081122039641
 21
540.6424981821942
 31
0.0
  0
ARC
  5
613
100
AcDbEntity
  8
L1
100
AcDbCircle
 10
1073.581807411437
 20
542.7210340111619
 30
0.0
 40
2.0
100
AcDbArc
 50
180.0
 51
270.0
  0
LINE
  5
614
100
AcDbEntity
  8
L1
100
AcDbLine
 10
1084.921232922205
 20
540.7618927617654
 30
0.0
 11
1084.921232922205
 21
270.5236862019249
 31
0.0
  0
LINE
  5
616
100
AcDbEntity
  8
L1
100
AcDbLine
 10
1078.081122039641
 20
540.6424981821941
 30
0.0
 11
1078.081122039641
 21
270.6430807814963
 31
0.0
  0
LINE
  5
6BB
100
AcDbEntity
  8
L1
100
AcDbLine
 10
1125.584548202755
 20
596.9798970570125
 30
0.0
 11
1087.778183614462
 21
598.9612446678497
 31
0.0
  0
LINE
  5
6BC
100
AcDbEntity
  8
L1
100
AcDbLine
 10
1128.081122039642
 20
594.3490571664051
 30
0.0
 11
1125.584548202755
 21
596.9798970570125
 31
0.0
  0
LINE
  5
6BD
100
AcDbEntity
  8
L1
100
AcDbLine
 10
1078.081122039642
 20
604.6424981821942
 30
0.0
 11
1084.921232922205
 21
604.2840231607895
 31
0.0
  0
LINE
  5
6BE
100
AcDbEntity
  8
L1
100
AcDbLine
 10
1074.581122039642
 20
581.311371545625
 30
0.0
 11
1074.581122039642
 21
568.6424981821942
 31
0.0
  0
LINE
  5
6C1
100
AcDbEntity
  8
L1
100
AcDbLine
 10
1074.581122039642
 20
596.6119541449268
 30
0.0
 11
1074.581122039642
 21
588.3116380943253
 31
0.0
  0
LINE
  5
6C2
100
AcDbEntity
  8
L1
100
AcDbLine
 10
1074.581122039642
 20
596.6119541449268
 30
0.0
 11
1078.081122039642
 21
596.6424981821944
 31
0.0
  0
LINE
  5
6C3
100
AcDbEntity
  8
L1
100
AcDbLine
 10
1074.581122039642
 20
588.3116380943253
 30
0.0
 11
1078.081122039641
 21
588.3119541449268
 31
0.0
  0
LINE
  5
6C5
100
AcDbEntity
  8
L1
100
AcDbLine
 10
1085.834822792252
 20
603.5442126711373
 30
0.0
 11
1086.864593744416
 21
599.7010551575017
 31
0.0
  0
ARC
  5
6C6
100
AcDbEntity
  8
L1
100
AcDbCircle
 10
1087.830519570705
 20
599.9598742026043
 30
0.0
 40
1.0
100
AcDbArc
 50
194.9999999999981
 51
267.0000000000003
  0
ARC
  5
6C7
100
AcDbEntity
  8
L1
100
AcDbCircle
 10
1084.868896965963
 20
603.2853936260348
 30
0.0
 40
1.0
100
AcDbArc
 50
14.99999999999774
 51
87.00000000000018
  0
POINT
  5
6C8
100
AcDbEntity
  8
DEFPOINTS
  6
BYBLOCK
 62
     0
100
AcDbPoint
 10
1088.278183614462
 20
598.9612446678497
 30
0.0
  0
POINT
  5
6C9
100
AcDbEntity
  8
DEFPOINTS
  6
BYBLOCK
 62
     0
100
AcDbPoint
 10
1087.778183614462
 20
598.9612446678497
 30
0.0
  0
LINE
  5
6F1
100
AcDbEntity
  8
L1
100
AcDbLine
 10
1074.581122039641
 20
568.5814054549455
 30
0.0
 11
1074.581122039641
 21
580.4434743110832
 31
0.0
  0
LINE
  5
6F2
100
AcDbEntity
  8
L1
100
AcDbLine
 10
1078.081122039641
 20
270.6430807814963
 30
0.0
 11
1093.961313010255
 21
270.3658910170319
 31
0.0
  0
LINE
  5
6F3
100
AcDbEntity
  8
L1
100
AcDbLine
 10
1078.081122039641
 20
242.6430807814962
 30
0.0
 11
1093.961313010255
 21
242.9202705459608
 31
0.0
  0
LINE
  5
6F4
100
AcDbEntity
  8
L1
100
AcDbLine
 10
1084.70567432862
 20
246.0804575069075
 30
0.0
 11
1084.70567432862
 21
267.2057040560852
 31
0.0
  0
LINE
  5
6F5
100
AcDbEntity
  8
L1
100
AcDbLine
 10
1078.081122039641
 20
249.6430807814963
 30
0.0
 11
1084.70567432862
 21
249.5274487911717
 31
0.0
  0
ARC
  5
6F6
100
AcDbEntity
  8
L1
100
AcDbCircle
 10
1073.581807411437
 20
244.7216166104639
 30
0.0
 40
2.0
100
AcDbArc
 50
180.0
 51
270.0
  0
LINE
  5
6F7
100
AcDbEntity
  8
L1
100
AcDbLine
 10
1073.581807411437
 20
242.7216166104639
 30
0.0
 11
1078.081122039641
 21
242.6430807814962
 31
0.0
  0
LINE
  5
6F8
100
AcDbEntity
  8
L1
100
AcDbLine
 10
1071.581122039641
 20
249.5296228594629
 30
0.0
 11
1078.081122039641
 21
249.6430807814963
 31
0.0
  0
LINE
  5
6F9
100
AcDbEntity
  8
L1
100
AcDbLine
 10
1071.581122039641
 20
249.5296228594629
 30
0.0
 11
1071.581122039641
 21
244.6430807814962
 31
0.0
  0
LINE
  5
6FA
100
AcDbEntity
  8
L1
100
AcDbLine
 10
1084.70567432862
 20
246.0804575069075
 30
0.0
 11
1086.873721167261
 21
246.0426141085717
 31
0.0
  0
POINT
  5
6FB
100
AcDbEntity
  8
DEFPOINTS
  6
BYBLOCK
 62
     0
100
AcDbPoint
 10
1086.873721167261
 20
246.0426141085715
 30
0.0
  0
LINE
  5
6FC
100
AcDbEntity
  8
L1
100
AcDbLine
 10
1078.081122039641
 20
263.6430807814962
 30
0.0
 11
1084.70567432862
 21
263.7587127718208
 31
0.0
  0
LINE
  5
6FD
100
AcDbEntity
  8
L1
100
AcDbLine
 10
1071.581122039641
 20
268.6430807814963
 30
0.0
 11
1071.581122039641
 21
263.7565387035296
 31
0.0
  0
LINE
  5
6FE
100
AcDbEntity
  8
L1
100
AcDbLine
 10
1071.581122039641
 20
263.7565387035296
 30
0.0
 11
1078.081122039641
 21
263.6430807814962
 31
0.0
  0
POINT
  5
6FF
100
AcDbEntity
  8
DEFPOINTS
  6
BYBLOCK
 62
     0
100
AcDbPoint
 10
1071.581122039641
 20
263.7565387035294
 30
0.0
  0
POINT
  5
700
100
AcDbEntity
  8
DEFPOINTS
  6
BYBLOCK
 62
     0
100
AcDbPoint
 10
1071.581122039641
 20
263.7565387035294
 30
0.0
  0
LINE
  5
701
100
AcDbEntity
  8
L1
100
AcDbLine
 10
1073.581807411437
 20
270.5645449525285
 30
0.0
 11
1078.081122039641
 21
270.6430807814963
 31
0.0
  0
ARC
  5
702
100
AcDbEntity
  8
L1
100
AcDbCircle
 10
1073.581807411437
 20
268.5645449525285
 30
0.0
 40
2.0
100
AcDbArc
 50
90.0
 51
180.0
  0
LINE
  5
703
100
AcDbEntity
  8
L1
100
AcDbLine
 10
1084.70567432862
 20
267.205704056085
 30
0.0
 11
1086.873721167261
 21
267.243547454421
 31
0.0
  0
LINE
  5
704
100
AcDbEntity
  8
L1
100
AcDbLine
 10
1074.581122039641
 20
270.5819880542476
 30
0.0
 11
1074.581122039641
 21
540.7210340111618
 31
0.0
  0
LINE
  5
706
100
AcDbEntity
  8
L1
100
AcDbLine
 10
1084.921232922206
 20
242.7618927617657
 30
0.0
 11
1084.921232922205
 21
207.0009732035992
 31
0.0
  0
LINE
  5
707
100
AcDbEntity
  8
L2
 48
0.3
100
AcDbLine
 10
1078.081122039641
 20
581.3119541449268
 30
0.0
 11
1078.581122039641
 21
581.3119541449268
 31
0.0
  0
LINE
  5
708
100
AcDbEntity
  8
L1
100
AcDbLine
 10
1074.58175414084
 20
581.3116381514041
 30
0.0
 11
1078.081754140839
 21
581.3119542020057
 31
0.0
  0
LINE
  5
709
100
AcDbEntity
  8
L1
100
AcDbLine
 10
1074.581122039641
 20
222.9730422194617
 30
0.0
 11
1078.081122039641
 21
222.9730422194617
 31
0.0
  0
LINE
  5
70A
100
AcDbEntity
  8
L2
100
AcDbLine
 10
1078.081122039641
 20
229.9730422194617
 30
0.0
 11
1078.581122039641
 21
229.9730422194617
 31
0.0
  0
LINE
  5
713
100
AcDbEntity
  8
L1
100
AcDbLine
 10
1074.581122039641
 20
263.6430807814962
 30
0.0
 11
1074.581122039641
 21
249.6430807814963
 31
0.0
  0
LINE
  5
718
100
AcDbEntity
  8
L1
100
AcDbLine
 10
636.5811220396417
 20
249.6424981821947
 30
0.0
 11
647.8844417155733
 21
249.6424981821947
 31
0.0
  0
LINE
  5
719
100
AcDbEntity
  8
L1
100
AcDbLine
 10
638.5811220396417
 20
242.6424981821946
 30
0.0
 11
657.5864196346397
 21
242.6424981821946
 31
0.0
  0
LINE
  5
71A
100
AcDbEntity
  8
L1
100
AcDbLine
 10
636.5811220396417
 20
263.6424981821946
 30
0.0
 11
647.8844417155738
 21
263.6424981821946
 31
0.0
  0
LINE
  5
71B
100
AcDbEntity
  8
L1
100
AcDbLine
 10
638.5811220396417
 20
270.6424981821947
 30
0.0
 11
657.5864196346397
 21
270.6424981821947
 31
0.0
  0
LINE
  5
71C
100
AcDbEntity
  8
L1
100
AcDbLine
 10
636.5811220396417
 20
263.6424981821946
 30
0.0
 11
636.5811220396417
 21
268.6424981821947
 31
0.0
  0
ARC
  5
71D
100
AcDbEntity
  8
L1
100
AcDbCircle
 10
638.5811220396417
 20
268.6424981821947
 30
0.0
 40
2.0
100
AcDbArc
 50
90.0
 51
180.0
  0
LINE
  5
71E
100
AcDbEntity
  8
L1
100
AcDbLine
 10
636.5811220396417
 20
244.6424981821946
 30
0.0
 11
636.5811220396417
 21
249.6424981821947
 31
0.0
  0
ARC
  5
71F
100
AcDbEntity
  8
L1
100
AcDbCircle
 10
638.5811220396417
 20
244.6424981821946
 30
0.0
 40
2.0
100
AcDbArc
 50
180.0
 51
270.0
  0
LINE
  5
720
100
AcDbEntity
  8
L1
100
AcDbLine
 10
647.8844417155733
 20
263.6424981821944
 30
0.0
 11
647.8844417155733
 21
249.6424981821947
 31
0.0
  0
LINE
  5
721
100
AcDbEntity
  8
L1
100
AcDbLine
 10
657.2623755539864
 20
245.6424981821947
 30
0.0
 11
657.2623755539864
 21
267.6424981821946
 31
0.0
  0
LINE
  5
722
100
AcDbEntity
  8
L1
100
AcDbLine
 10
657.2623755539868
 20
245.6424981821944
 30
0.0
 11
657.2623755539868
 21
267.6424981821946
 31
0.0
  0
LINE
  5
723
100
AcDbEntity
  8
L1
100
AcDbLine
 10
657.5864196346397
 20
267.6424981821946
 30
0.0
 11
657.2623755539864
 21
267.6424981821946
 31
0.0
  0
LINE
  5
724
100
AcDbEntity
  8
L1
100
AcDbLine
 10
657.5864196346397
 20
267.6424981821946
 30
0.0
 11
657.5864196346397
 21
270.6424981821947
 31
0.0
  0
LINE
  5
725
100
AcDbEntity
  8
L1
100
AcDbLine
 10
657.5864196346397
 20
245.6424981821947
 30
0.0
 11
657.2623755539864
 21
245.6424981821947
 31
0.0
  0
LINE
  5
726
100
AcDbEntity
  8
L1
100
AcDbLine
 10
657.5864196346397
 20
242.6424981821946
 30
0.0
 11
657.5864196346397
 21
245.6424981821947
 31
0.0
  0
ENDSEC
  0
SECTION
  2
OBJECTS
  0
DICTIONARY
  5
1B
100
AcDbDictionary
  3
ACAD_GROUP
350
19
  3
ACAD_MLINESTYLE
350
1A
  0
DICTIONARY
  5
19
102
{ACAD_REACTORS
330
1B
102
}
100
AcDbDictionary
  0
DICTIONARY
  5
1A
102
{ACAD_REACTORS
330
1B
102
}
100
AcDbDictionary
  3
STANDARD
350
1E
  0
MLINESTYLE
  5
1E
102
{ACAD_REACTORS
330
1A
102
}
100
AcDbMlineStyle
  2
STANDARD
 70
     0
  3

 62
     0
 51
90.0
 52
90.0
 71
     2
 49
0.5
 62
   256
  6
BYLAYER
 49
-0.5
 62
   256
  6
BYLAYER
  0
ENDSEC
  0
EOF
