  0
SECTION
  2
HEADER
  9
$ACADVER
  1
AC1012
  9
$DWGCODEPAGE
  3
ansi_1252
  9
$INSBASE
 10
0.0
 20
0.0
 30
0.0
  9
$EXTMIN
 10
-804.2617026343744
 20
-380.97933181801
 30
0.0
  9
$EXTMAX
 10
414.6580317870147
 20
380.97933181801
 30
0.0
  9
$LIMMIN
 10
0.0
 20
0.0
  9
$LIMMAX
 10
420.0
 20
297.0
  9
$ORTHOMODE
 70
     1
  9
$REGENMODE
 70
     1
  9
$FILLMODE
 70
     1
  9
$QTEXTMODE
 70
     0
  9
$MIRRTEXT
 70
     1
  9
$DRAGMODE
 70
     2
  9
$LTSCALE
 40
15.0
  9
$OSMODE
 70
    39
  9
$ATTMODE
 70
     1
  9
$TEXTSIZE
 40
3.5
  9
$TRACEWID
 40
0.05
  9
$TEXTSTYLE
  7
CAEISO
  9
$CLAYER
  8
L1
  9
$CELTYPE
  6
BYLAYER
  9
$CECOLOR
 62
   256
  9
$CELTSCALE
 40
1.0
  9
$DELOBJ
 70
     1
  9
$DISPSILH
 70
     1
  9
$DIMSCALE
 40
1.0
  9
$DIMASZ
 40
3.5
  9
$DIMEXO
 40
0.1
  9
$DIMDLI
 40
0.4
  9
$DIMRND
 40
0.0
  9
$DIMDLE
 40
0.0
  9
$DIMEXE
 40
0.2
  9
$DIMTP
 40
0.0
  9
$DIMTM
 40
0.0
  9
$DIMTXT
 40
3.5
  9
$DIMCEN
 40
0.1
  9
$DIMTSZ
 40
0.0
  9
$DIMTOL
 70
     0
  9
$DIMLIM
 70
     0
  9
$DIMTIH
 70
     0
  9
$DIMTOH
 70
     0
  9
$DIMSE1
 70
     0
  9
$DIMSE2
 70
     0
  9
$DIMTAD
 70
     1
  9
$DIMZIN
 70
    12
  9
$DIMBLK
  1

  9
$DIMASO
 70
     1
  9
$DIMSHO
 70
     1
  9
$DIMPOST
  1

  9
$DIMAPOST
  1

  9
$DIMALT
 70
     0
  9
$DIMALTD
 70
     2
  9
$DIMALTF
 40
25.4
  9
$DIMLFAC
 40
1.0
  9
$DIMTOFL
 70
     0
  9
$DIMTVP
 40
0.0
  9
$DIMTIX
 70
     0
  9
$DIMSOXD
 70
     0
  9
$DIMSAH
 70
     0
  9
$DIMBLK1
  1

  9
$DIMBLK2
  1

  9
$DIMSTYLE
  2
ACADUS
  9
$DIMCLRD
 70
   256
  9
$DIMCLRE
 70
   256
  9
$DIMCLRT
 70
     3
  9
$DIMTFAC
 40
0.2
  9
$DIMGAP
 40
1.0
  9
$DIMJUST
 70
     0
  9
$DIMSD1
 70
     0
  9
$DIMSD2
 70
     0
  9
$DIMTOLJ
 70
     1
  9
$DIMTZIN
 70
    12
  9
$DIMALTZ
 70
    12
  9
$DIMALTTZ
 70
    12
  9
$DIMFIT
 70
     5
  9
$DIMUPT
 70
     0
  9
$DIMUNIT
 70
     2
  9
$DIMDEC
 70
     1
  9
$DIMTDEC
 70
     1
  9
$DIMALTU
 70
     2
  9
$DIMALTTD
 70
     2
  9
$DIMTXSTY
  7
STANDARD
  9
$DIMAUNIT
 70
     0
  9
$LUNITS
 70
     2
  9
$LUPREC
 70
     1
  9
$SKETCHINC
 40
1.0
  9
$FILLETRAD
 40
4.0
  9
$AUNITS
 70
     0
  9
$AUPREC
 70
     1
  9
$MENU
  1
CAESAR
  9
$ELEVATION
 40
0.0
  9
$PELEVATION
 40
0.0
  9
$THICKNESS
 40
0.0
  9
$LIMCHECK
 70
     0
  9
$BLIPMODE
 70
     0
  9
$CHAMFERA
 40
5.0
  9
$CHAMFERB
 40
5.0
  9
$CHAMFERC
 40
0.0
  9
$CHAMFERD
 40
0.0
  9
$SKPOLY
 70
     0
  9
$TDCREATE
 40
2450487.623637615
  9
$TDUPDATE
 40
2450779.597123645
  9
$TDINDWG
 40
0.4897406829
  9
$TDUSRTIMER
 40
0.4897406829
  9
$USRTIMER
 70
     1
  9
$ANGBASE
 50
0.0
  9
$ANGDIR
 70
     0
  9
$PDMODE
 70
    34
  9
$PDSIZE
 40
-2.0
  9
$PLINEWID
 40
0.0
  9
$COORDS
 70
     2
  9
$SPLFRAME
 70
     0
  9
$SPLINETYPE
 70
     6
  9
$SPLINESEGS
 70
     8
  9
$ATTDIA
 70
     0
  9
$ATTREQ
 70
     1
  9
$HANDLING
 70
     1
  9
$HANDSEED
  5
D9A
  9
$SURFTAB1
 70
     6
  9
$SURFTAB2
 70
     6
  9
$SURFTYPE
 70
     6
  9
$SURFU
 70
     6
  9
$SURFV
 70
     6
  9
$UCSNAME
  2

  9
$UCSORG
 10
0.0
 20
0.0
 30
0.0
  9
$UCSXDIR
 10
1.0
 20
0.0
 30
0.0
  9
$UCSYDIR
 10
0.0
 20
1.0
 30
0.0
  9
$PUCSNAME
  2

  9
$PUCSORG
 10
0.0
 20
0.0
 30
0.0
  9
$PUCSXDIR
 10
1.0
 20
0.0
 30
0.0
  9
$PUCSYDIR
 10
0.0
 20
1.0
 30
0.0
  9
$USERI1
 70
     0
  9
$USERI2
 70
     0
  9
$USERI3
 70
     0
  9
$USERI4
 70
     0
  9
$USERI5
 70
     0
  9
$USERR1
 40
1.0
  9
$USERR2
 40
0.0
  9
$USERR3
 40
3.5
  9
$USERR4
 40
0.0
  9
$USERR5
 40
0.0
  9
$WORLDVIEW
 70
     1
  9
$SHADEDGE
 70
     3
  9
$SHADEDIF
 70
    70
  9
$TILEMODE
 70
     1
  9
$MAXACTVP
 70
    16
  9
$PINSBASE
 10
0.0
 20
0.0
 30
0.0
  9
$PLIMCHECK
 70
     0
  9
$PEXTMIN
 10
1.000000000000000E+20
 20
1.000000000000000E+20
 30
1.000000000000000E+20
  9
$PEXTMAX
 10
-1.000000000000000E+20
 20
-1.000000000000000E+20
 30
-1.000000000000000E+20
  9
$PLIMMIN
 10
0.0
 20
0.0
  9
$PLIMMAX
 10
420.0
 20
297.0
  9
$UNITMODE
 70
     0
  9
$VISRETAIN
 70
     0
  9
$PLINEGEN
 70
     0
  9
$PSLTSCALE
 70
     0
  9
$TREEDEPTH
 70
  3020
  9
$PICKSTYLE
 70
     1
  9
$CMLSTYLE
  2
STANDARD
  9
$CMLJUST
 70
     0
  9
$CMLSCALE
 40
1.0
  9
$SAVEIMAGES
 70
     0
  0
ENDSEC
  0
SECTION
  2
CLASSES
  0
CLASS
  1
ACMESCOPE
  2
AcMeScope
  3
ACME_MODULE_NAME
 90
        0
280
     0
281
     0
  0
CLASS
  1
ACMECOMMANDHISTORY
  2
AcMeCommandHistory
  3
ACME_MODULE_NAME
 90
        0
280
     0
281
     0
  0
CLASS
  1
AcRfInsAdjusterMgr
  2
AcRfInsAdjusterMgr
  3
ACME_MODULE_NAME
 90
        0
280
     0
281
     0
  0
CLASS
  1
ACGREFMASTER
  2
AcGrefMaster
  3
"AcadRfServer"
 90
        0
280
     0
281
     0
  0
CLASS
  1
AmiMaster
  2
AmiMaster
  3
"AmiServices"
 90
        0
280
     0
281
     0
  0
CLASS
  1
ACASGREFMASTER
  2
AcAsGrefMaster
  3
"AutoSurfResolver"
 90
        0
280
     0
281
     0
  0
CLASS
  1
ADAPPL
  2
AcAdAppl
  3
DesignerServices
 90
        0
280
     0
281
     0
  0
CLASS
  1
DEPMGR
  2
AcAdDepMgr
  3
DesignerServices
 90
        0
280
     0
281
     0
  0
CLASS
  1
PARAMMGR
  2
AcAdParamMgr
  3
DesignerServices
 90
        0
280
     0
281
     0
  0
CLASS
  1
PARAMSCOPE
  2
AcAdParamScope
  3
DesignerServices
 90
        0
280
     0
281
     0
  0
CLASS
  1
"IM_SYSVAR_MAN"
  2
AcImSysVarManager
  3
"ADAM"
 90
        0
280
     0
281
     0
  0
CLASS
  1
SYSTEM_VAR_INT
  2
AcImIntSysVar
  3
"ADAM"
 90
        0
280
     0
281
     0
  0
CLASS
  1
SYSTEM_VAR_REAL
  2
AcImRealSysVar
  3
"ADAM"
 90
        0
280
     0
281
     0
  0
CLASS
  1
SYSTEM_VAR_STR
  2
AcImStrSysVar
  3
"ADAM"
 90
        0
280
     0
281
     0
  0
CLASS
  1
NAMEDAPPL
  2
AcAdNamedAppl
  3
DesignerServices
 90
        0
280
     0
281
     0
  0
CLASS
  1
ADPART
  2
AcAdPart
  3
DesignerServices
 90
        0
280
     0
281
     1
  0
CLASS
  1
ADBASE
  2
AcAdBase
  3
DesignerServices
 90
        0
280
     0
281
     0
  0
CLASS
  1
BODYID
  2
AcAdBodyId
  3
DesignerServices
 90
        0
280
     0
281
     0
  0
CLASS
  1
WORKPLANEDISPLAYMGR
  2
AcAdDisplayMgr
  3
DesignerServices
 90
        0
280
     0
281
     0
  0
CLASS
  1
ADHNTMPLT
  2
AdHoleNoteTemplateMgr
  3
DesignerServices
 90
        0
280
     0
281
     0
  0
CLASS
  1
AM_HNTEMPLATE_MGR_NAME
  2
AdHoleNoteTemplateMgrName
  3
DesignerServices
 90
        0
280
     0
281
     0
  0
CLASS
  1
AcAdGrefModule
  2
AcAdGrefModule
  3
AD_GREF_SERVICES_NSTR
 90
        0
280
     0
281
     0
  0
CLASS
  1
AM_DRAWING_MGR
  2
AcDmDwgMgr
  3
AcMechDwgViewMgmt
 90
        0
280
     0
281
     0
  0
CLASS
  1
AM_DWG_DOCUMENT
  2
AcDmDwgDocument
  3
AcMechDwgViewMgmt
 90
        0
280
     0
281
     0
  0
CLASS
  1
AM_DWG_SHEET
  2
AcDmSheet
  3
AcMechDwgViewMgmt
 90
        0
280
     0
281
     0
  0
CLASS
  1
AM_VIEWDIMPARMAP
  2
AcDmViewDimParMap
  3
AcMechDwgViewMgmt
 90
        0
280
     0
281
     0
  0
CLASS
  1
AM_DWGMGR_NAME
  2
AcDmDwgMgrName
  3
AcMechDwgViewMgmt
 90
        0
280
     0
281
     0
  0
CLASS
  1
ACAMPROJECT
  2
AcAmProject
  3
DesignerAssemblies
 90
        0
280
     0
281
     0
  0
CLASS
  1
ACAMGRCOMPSET
  2
AcAmGrCompSet
  3
DesignerAssemblies
 90
        0
280
     0
281
     0
  0
CLASS
  1
ACAMGRCOMPDEFSET
  2
AcAmGrCompDefSet
  3
DesignerAssemblies
 90
        0
280
     0
281
     0
  0
CLASS
  1
ACAMGRCOMPDEF
  2
AcAmGrCompDef
  3
DesignerAssemblies
 90
        0
280
     0
281
     0
  0
CLASS
  1
ACAMCOMPDEF
  2
AcAmCompDef
  3
DesignerAssemblies
 90
        0
280
     0
281
     0
  0
CLASS
  1
ACAMCOMPDEFMGR
  2
AcAmCompDefMgr
  3
DesignerAssemblies
 90
        0
280
     0
281
     0
  0
CLASS
  1
AMCONTEXTMGR
  2
AcAmContextMgr
  3
DesignerAssemblies
 90
        0
280
     0
281
     0
  0
CLASS
  1
ACAMCONTEXTMODELER
  2
AcAmContextModeler
  3
DesignerAssemblies
 90
        0
280
     0
281
     0
  0
CLASS
  1
ACAMDRAWINGMAN
  2
AcAmDrawingMan
  3
DesignerAssemblies
 90
        0
280
     0
281
     0
  0
CLASS
  1
ACDMVIEWGEOM
  2
AcDmViewGeometry
  3
AcMechDwgViewMgmt
 90
        0
280
     0
281
     1
  0
CLASS
  1
ASSYSVARS
  2
AcAsSysVars
  3
"AutoSurf"
 90
        0
280
     0
281
     0
  0
CLASS
  1
ASSTATICVARS
  2
AcAsStaticVars
  3
"AutoSurf"
 90
        0
280
     0
281
     0
  0
CLASS
  1
ASAPP
  2
AcAsAppObject
  3
"AutoSurf"
 90
        0
280
     0
281
     0
  0
ENDSEC
  0
SECTION
  2
TABLES
  0
TABLE
  2
VPORT
  5
13
100
AcDbSymbolTable
 70
     4
  0
VPORT
  5
D99
100
AcDbSymbolTableRecord
100
AcDbViewportTableRecord
  2
*ACTIVE
 70
     0
 10
0.0
 20
0.0
 11
1.0
 21
1.0
 12
-165.1437268295373
 22
1.047746682187948
 13
0.0
 23
0.0
 14
1.0
 24
1.0
 15
10.0
 25
10.0
 16
0.0
 26
0.0
 36
1.0
 17
0.0
 27
0.0
 37
0.0
 40
800.0
 41
1.672965116279069
 42
50.0
 43
0.0
 44
0.0
 50
0.0
 51
0.0
 71
     0
 72
   500
 73
     1
 74
     0
 75
     0
 76
     0
 77
     0
 78
     0
  0
ENDTAB
  0
TABLE
  2
LTYPE
  5
F
100
AcDbSymbolTable
 70
     3
  0
LTYPE
  5
10
100
AcDbSymbolTableRecord
100
AcDbLinetypeTableRecord
  2
BYBLOCK
 70
     0
  3

 72
    65
 73
     0
 40
0.0
  0
LTYPE
  5
6
100
AcDbSymbolTableRecord
100
AcDbLinetypeTableRecord
  2
BYLAYER
 70
     0
  3

 72
    65
 73
     0
 40
0.0
  0
LTYPE
  5
5
100
AcDbSymbolTableRecord
100
AcDbLinetypeTableRecord
  2
CONTINUOUS
 70
    64
  3
Solid line
 72
    65
 73
     0
 40
0.0
  0
LTYPE
  5
22
100
AcDbSymbolTableRecord
100
AcDbLinetypeTableRecord
  2
CENTER
 70
    64
  3
____ _ ____ _ ____ _ ____ _ ____ _ ____ _ ____ 
 72
    65
 73
     4
 40
2.0
 49
1.25
 74
     0
 49
-0.25
 74
     0
 49
0.25
 74
     0
 49
-0.25
 74
     0
  0
LTYPE
  5
6E9
100
AcDbSymbolTableRecord
100
AcDbLinetypeTableRecord
  2
HIDDEN
 70
    64
  3
__ __ __ __ __ __ __ __ __ __ __ __ __ __ __ __
 72
    65
 73
     2
 40
0.375
 49
0.25
 74
     0
 49
-0.125
 74
     0
  0
ENDTAB
  0
TABLE
  2
LAYER
  5
B
100
AcDbSymbolTable
 70
     7
  0
LAYER
  5
C
100
AcDbSymbolTableRecord
100
AcDbLayerTableRecord
  2
0
 70
    64
 62
     7
  6
CONTINUOUS
  0
LAYER
  5
1C
100
AcDbSymbolTableRecord
100
AcDbLayerTableRecord
  2
L1
 70
    64
 62
     7
  6
CONTINUOUS
  0
LAYER
  5
12B
100
AcDbSymbolTableRecord
100
AcDbLayerTableRecord
  2
L2
 70
    64
 62
     1
  6
HIDDEN
  0
LAYER
  5
21
100
AcDbSymbolTableRecord
100
AcDbLayerTableRecord
  2
L6
 70
    64
 62
     1
  6
CENTER
  0
LAYER
  5
4
100
AcDbSymbolTableRecord
100
AcDbLayerTableRecord
  2
L22
 70
    64
 62
     1
  6
CONTINUOUS
  0
LAYER
  5
C6D
100
AcDbSymbolTableRecord
100
AcDbLayerTableRecord
  2
A1
 70
    64
 62
     7
  6
CONTINUOUS
  0
ENDTAB
  0
TABLE
  2
STYLE
  5
D
100
AcDbSymbolTable
 70
     2
  0
STYLE
  5
E
100
AcDbSymbolTableRecord
100
AcDbTextStyleTableRecord
  2
STANDARD
 70
    64
 40
0.0
 41
1.0
 50
0.0
 71
     0
 42
5.0
  3
ISOCP.SHX
  4

  0
STYLE
  5
1D
100
AcDbSymbolTableRecord
100
AcDbTextStyleTableRecord
  2
CAEISO
 70
    64
 40
0.0
 41
1.0
 50
0.0
 71
     0
 42
3.5
  3
simplex.shx
  4

  0
ENDTAB
  0
TABLE
  2
VIEW
  5
11
100
AcDbSymbolTable
 70
     0
  0
ENDTAB
  0
TABLE
  2
UCS
  5
12
100
AcDbSymbolTable
 70
     0
  0
ENDTAB
  0
TABLE
  2
APPID
  5
15
100
AcDbSymbolTable
 70
     1
  0
APPID
  5
16
100
AcDbSymbolTableRecord
100
AcDbRegAppTableRecord
  2
ACAD
 70
    64
  0
ENDTAB
  0
TABLE
  2
DIMSTYLE
  5
17
100
AcDbSymbolTable
 70
     1
  0
DIMSTYLE
105
1F
100
AcDbSymbolTableRecord
100
AcDbDimStyleTableRecord
  2
ACADUS
 70
     0
  3

  4

  5

  6

  7

 40
1.0
 41
3.5
 42
0.1
 43
0.4
 44
0.2
 45
0.0
 46
0.0
 47
0.0
 48
0.0
140
3.5
141
0.1
142
0.0
143
25.4
144
1.0
145
0.0
146
0.2
147
1.0
 71
     0
 72
     0
 73
     0
 74
     0
 75
     0
 76
     0
 77
     1
 78
    12
170
     0
171
     2
172
     0
173
     0
174
     0
175
     0
176
   256
177
   256
178
     3
270
     2
271
     1
272
     1
273
     2
274
     2
340
E
275
     0
280
     0
281
     0
282
     0
283
     1
284
    12
285
    12
286
    12
287
     5
288
     0
  0
ENDTAB
  0
TABLE
  2
BLOCK_RECORD
  5
1
100
AcDbSymbolTable
 70
     8
  0
BLOCK_RECORD
  5
2
100
AcDbSymbolTableRecord
100
AcDbBlockTableRecord
  2
*MODEL_SPACE
  0
BLOCK_RECORD
  5
8
100
AcDbSymbolTableRecord
100
AcDbBlockTableRecord
  2
*PAPER_SPACE
  0
BLOCK_RECORD
  5
BDE
100
AcDbSymbolTableRecord
100
AcDbBlockTableRecord
  2
A$CF
  0
ENDTAB
  0
ENDSEC
  0
SECTION
  2
BLOCKS
  0
BLOCK
  5
3
100
AcDbEntity
  8
L22
100
AcDbBlockBegin
  2
*MODEL_SPACE
 70
     0
 10
0.0
 20
0.0
 30
0.0
  3
*MODEL_SPACE
  1

  0
ENDBLK
  5
7
100
AcDbEntity
  8
L22
100
AcDbBlockEnd
  0
BLOCK
  5
9
100
AcDbEntity
 67
     1
  8
L22
100
AcDbBlockBegin
  2
*PAPER_SPACE
 70
     0
 10
0.0
 20
0.0
 30
0.0
  3
*PAPER_SPACE
  1

  0
ENDBLK
  5
A
100
AcDbEntity
 67
     1
  8
L22
100
AcDbBlockEnd
  0
BLOCK
  5
BE9
100
AcDbEntity
  8
L1
100
AcDbBlockBegin
  2
A$CF
 70
     0
 10
0.0
 20
0.0
 30
0.0
  3
A$CF
  1

  0
LINE
  5
BDF
100
AcDbEntity
  8
L1
100
AcDbLine
 10
100.0473968897039
 20
0.0181246241565987
 30
0.0
 11
101.202097428083
 21
2.018124624156598
 31
0.0
  0
LINE
  5
BE0
100
AcDbEntity
  8
L1
100
AcDbLine
 10
93.04739688970348
 20
0.0181246241565987
 30
0.0
 11
91.8926963513244
 21
2.018124624156598
 31
0.0
  0
LINE
  5
BE1
100
AcDbEntity
  8
L1
100
AcDbLine
 10
50.04739688970393
 20
0.0181246241565987
 30
0.0
 11
51.20209742808301
 21
2.018124624156598
 31
0.0
  0
LINE
  5
BE2
100
AcDbEntity
  8
L1
100
AcDbLine
 10
43.04739688970347
 20
0.0181246241565987
 30
0.0
 11
41.8926963513244
 21
2.018124624156598
 31
0.0
  0
LINE
  5
BE3
100
AcDbEntity
  8
L1
100
AcDbLine
 10
119.4473968897035
 20
0.0181246241565987
 30
0.0
 11
119.4473968897035
 21
2.018124624156598
 31
0.0
  0
LINE
  5
BE4
100
AcDbEntity
  8
L1
100
AcDbLine
 10
116.9473968897035
 20
0.0181246241565987
 30
0.0
 11
116.9473968897035
 21
2.018124624156598
 31
0.0
  0
LINE
  5
BE5
100
AcDbEntity
  8
L1
100
AcDbLine
 10
123.0473968897034
 20
0.0181246241565987
 30
0.0
 11
121.8926963513244
 21
2.018124624156598
 31
0.0
  0
LINE
  5
BE6
100
AcDbEntity
  8
L1
100
AcDbLine
 10
130.0473968897034
 20
0.0181246241565987
 30
0.0
 11
131.202097428082
 21
2.018124624155689
 31
0.0
1001
ACAD
1000
ASC_BOUNDS
1002
{
1070
    19
1002
}
  0
LINE
  5
BE7
100
AcDbEntity
  8
L1
100
AcDbLine
 10
138.5473968897034
 20
2.018124624156371
 30
0.0
 11
138.5473968897034
 21
0.0181246241565987
 31
0.0
  0
LINE
  5
BE8
100
AcDbEntity
  8
L1
100
AcDbLine
 10
0.0473968897039328
 20
0.0181246241565987
 30
0.0
 11
1.202097428083007
 21
2.018124624156598
 31
0.0
  0
ENDBLK
  5
BEA
100
AcDbEntity
  8
L1
100
AcDbBlockEnd
  0
ENDSEC
  0
SECTION
  2
ENTITIES
  0
LINE
  5
23
100
AcDbEntity
  8
L1
100
AcDbLine
 10
54.96278547053396
 20
-79.99999999999983
 30
0.0
 11
80.96278547053373
 21
-79.99999999999983
 31
0.0
  0
LINE
  5
24
100
AcDbEntity
  8
L1
100
AcDbLine
 10
54.96278547053396
 20
-79.99999999999983
 30
0.0
 11
54.96278547053407
 21
-126.9999999999998
 31
0.0
  0
LINE
  5
25
100
AcDbEntity
  8
L1
100
AcDbLine
 10
46.96278547053395
 20
-79.99999999999983
 30
0.0
 11
46.96278547053407
 21
-126.9999999999998
 31
0.0
  0
LINE
  5
26
100
AcDbEntity
  8
L1
100
AcDbLine
 10
16.96278547053384
 20
-79.99999999999983
 30
0.0
 11
46.96278547053395
 21
-79.99999999999983
 31
0.0
  0
LINE
  5
27
100
AcDbEntity
  8
L1
100
AcDbLine
 10
-15.03721452946592
 20
-80.00000000000005
 30
0.0
 11
-45.03721452946604
 21
-80.00000000000005
 31
0.0
  0
LINE
  5
28
100
AcDbEntity
  8
L1
100
AcDbLine
 10
-53.03721452946604
 20
-80.00000000000005
 30
0.0
 11
-79.03721452946581
 21
-80.00000000000005
 31
0.0
  0
LINE
  5
29
100
AcDbEntity
  8
L1
100
AcDbLine
 10
-45.03721452946604
 20
-80.00000000000005
 30
0.0
 11
-45.03721452946592
 21
-127.0
 31
0.0
  0
LINE
  5
2A
100
AcDbEntity
  8
L1
100
AcDbLine
 10
-53.03721452946604
 20
-80.00000000000005
 30
0.0
 11
-53.03721452946593
 21
-127.0
 31
0.0
  0
LINE
  5
2B
100
AcDbEntity
  8
L1
100
AcDbLine
 10
-53.03721452946593
 20
-133.0
 30
0.0
 11
-53.03721452946593
 21
-142.0
 31
0.0
  0
LINE
  5
2C
100
AcDbEntity
  8
L1
100
AcDbLine
 10
127.4627854705337
 20
-141.9999999999994
 30
0.0
 11
-139.0372145294657
 21
-142.0000000000002
 31
0.0
1001
ACAD
1000
ASC_BOUNDS
1002
{
1070
    19
1002
}
  0
LINE
  5
2D
100
AcDbEntity
  8
L1
100
AcDbLine
 10
-45.03721452946592
 20
-133.0
 30
0.0
 11
-45.03721452946592
 21
-142.0
 31
0.0
  0
LINE
  5
2E
100
AcDbEntity
  8
L1
100
AcDbLine
 10
46.96278547053407
 20
-132.9999999999998
 30
0.0
 11
46.96278547053407
 21
-141.9999999999998
 31
0.0
  0
LINE
  5
2F
100
AcDbEntity
  8
L1
100
AcDbLine
 10
54.96278547053407
 20
-132.9999999999998
 30
0.0
 11
54.96278547053407
 21
-141.9999999999998
 31
0.0
  0
LINE
  5
73
100
AcDbEntity
  8
L1
100
AcDbLine
 10
66.96278547053373
 20
-80.00000000000005
 30
0.0
 11
80.96278547053373
 21
-80.00000000000005
 31
0.0
  0
LINE
  5
74
100
AcDbEntity
  8
L1
100
AcDbLine
 10
-65.03721452946604
 20
-80.00000000000005
 30
0.0
 11
-79.03721452946604
 21
-80.00000000000005
 31
0.0
  0
LINE
  5
75
100
AcDbEntity
  8
L1
100
AcDbLine
 10
-33.03721452946627
 20
-80.00000000000005
 30
0.0
 11
-19.03721452946626
 21
-80.00000000000005
 31
0.0
  0
LINE
  5
76
100
AcDbEntity
  8
L1
100
AcDbLine
 10
60.96278547053373
 20
-129.25
 30
0.0
 11
60.96278547053373
 21
-130.7499999999998
 31
0.0
  0
LINE
  5
77
100
AcDbEntity
  8
L1
100
AcDbLine
 10
55.90621545385477
 20
-129.25
 30
0.0
 11
60.96278547053373
 21
-129.25
 31
0.0
  0
LINE
  5
78
100
AcDbEntity
  8
L1
100
AcDbLine
 10
60.96278547053373
 20
-130.7499999999998
 30
0.0
 11
55.90621545385477
 21
-130.7499999999998
 31
0.0
  0
LINE
  5
7A
100
AcDbEntity
  8
L1
100
AcDbLine
 10
46.01935548721224
 20
-129.25
 30
0.0
 11
40.96278547053373
 21
-129.25
 31
0.0
  0
LINE
  5
7B
100
AcDbEntity
  8
L1
100
AcDbLine
 10
40.96278547053373
 20
-130.7499999999998
 30
0.0
 11
46.01935548721224
 21
-130.7499999999998
 31
0.0
  0
LINE
  5
7C
100
AcDbEntity
  8
L1
100
AcDbLine
 10
40.96278547053373
 20
-129.25
 30
0.0
 11
40.96278547053373
 21
-130.7499999999998
 31
0.0
  0
ARC
  5
7D
100
AcDbEntity
  8
L1
100
AcDbCircle
 10
50.96278547053373
 20
-130.0
 30
0.0
 40
4.999999999999993
100
AcDbArc
 50
8.626926558678817
 51
171.3730734413213
  0
LINE
  5
7E
100
AcDbEntity
  8
L6
 48
0.25
100
AcDbLine
 10
61.96278547053373
 20
-130.0
 30
0.0
 11
38.96278547053373
 21
-130.0
 31
0.0
  0
ARC
  5
7F
100
AcDbEntity
  8
L1
100
AcDbCircle
 10
50.96278547053373
 20
-130.0
 30
0.0
 40
4.999999999999993
100
AcDbArc
 50
188.6269265586786
 51
351.3730734413213
  0
CIRCLE
  5
80
100
AcDbEntity
  8
L1
100
AcDbCircle
 10
50.96278547053373
 20
-130.0
 30
0.0
 40
2.099999999999998
  0
CIRCLE
  5
81
100
AcDbEntity
  8
L1
100
AcDbCircle
 10
50.96278547053373
 20
-130.0
 30
0.0
 40
2.399999999999997
  0
LINE
  5
82
100
AcDbEntity
  8
L1
100
AcDbLine
 10
-39.03721452946626
 20
-130.7499999999998
 30
0.0
 11
-44.093784546145
 21
-130.7499999999998
 31
0.0
  0
LINE
  5
83
100
AcDbEntity
  8
L1
100
AcDbLine
 10
-44.093784546145
 20
-129.25
 30
0.0
 11
-39.03721452946626
 21
-129.25
 31
0.0
  0
LINE
  5
84
100
AcDbEntity
  8
L1
100
AcDbLine
 10
-39.03721452946626
 20
-129.25
 30
0.0
 11
-39.03721452946626
 21
-130.7499999999998
 31
0.0
  0
CIRCLE
  5
85
100
AcDbEntity
  8
L1
100
AcDbCircle
 10
-49.03721452946626
 20
-130.0
 30
0.0
 40
2.399999999999997
  0
CIRCLE
  5
86
100
AcDbEntity
  8
L1
100
AcDbCircle
 10
-49.03721452946626
 20
-130.0
 30
0.0
 40
2.099999999999998
  0
ARC
  5
87
100
AcDbEntity
  8
L1
100
AcDbCircle
 10
-49.03721452946626
 20
-130.0
 30
0.0
 40
4.999999999999993
100
AcDbArc
 50
188.6269265586786
 51
351.3730734413213
  0
ARC
  5
88
100
AcDbEntity
  8
L1
100
AcDbCircle
 10
-49.03721452946626
 20
-130.0
 30
0.0
 40
4.999999999999993
100
AcDbArc
 50
8.626926558678817
 51
171.3730734413213
  0
LINE
  5
8A
100
AcDbEntity
  8
L1
100
AcDbLine
 10
-59.03721452946626
 20
-129.25
 30
0.0
 11
-59.03721452946626
 21
-130.7499999999998
 31
0.0
  0
LINE
  5
8B
100
AcDbEntity
  8
L1
100
AcDbLine
 10
-59.03721452946626
 20
-130.7499999999998
 30
0.0
 11
-53.98064451278776
 21
-130.7499999999998
 31
0.0
  0
LINE
  5
8C
100
AcDbEntity
  8
L1
100
AcDbLine
 10
-53.98064451278776
 20
-129.25
 30
0.0
 11
-59.03721452946626
 21
-129.25
 31
0.0
  0
LINE
  5
8D
100
AcDbEntity
  8
L6
 48
0.25
100
AcDbLine
 10
-38.03721452946627
 20
-130.0
 30
0.0
 11
-61.03721452946627
 21
-130.0
 31
0.0
  0
LINE
  5
8E
100
AcDbEntity
  8
L6
 48
0.25
100
AcDbLine
 10
-49.03721452946626
 20
-136.9999999999998
 30
0.0
 11
-49.03721452946626
 21
-123.0
 31
0.0
  0
LINE
  5
8F
100
AcDbEntity
  8
L1
100
AcDbLine
 10
131.9627854705337
 20
-141.9999999999998
 30
0.0
 11
140.9627854705337
 21
-141.9999999999998
 31
0.0
  0
LINE
  5
183
100
AcDbEntity
  8
L1
100
AcDbLine
 10
142.9627854705337
 20
-0.0000000000000568
 30
0.0
 11
142.9627854705337
 21
-1.000000000000056
 31
0.0
1001
ACAD
1000
ASC_BOUNDS
1002
{
1070
    19
1002
}
  0
LINE
  5
184
100
AcDbEntity
  8
L1
100
AcDbLine
 10
145.9627854705337
 20
-0.0000000000000568
 30
0.0
 11
145.9627854705337
 21
-1.000000000000056
 31
0.0
1001
ACAD
1000
ASC_BOUNDS
1002
{
1070
    19
1002
}
  0
CIRCLE
  5
191
100
AcDbEntity
  8
L1
100
AcDbCircle
 10
130.9627854705337
 20
-0.0000000000000568
 30
0.0
 40
2.099999999999998
  0
CIRCLE
  5
192
100
AcDbEntity
  8
L1
100
AcDbCircle
 10
130.9627854705337
 20
-0.0000000000000568
 30
0.0
 40
2.399999999999997
  0
LINE
  5
195
100
AcDbEntity
  8
L1
100
AcDbLine
 10
133.9627854705337
 20
-4.000000000000284
 30
0.0
 11
142.9627854705337
 21
-4.000000000000284
 31
0.0
  0
LINE
  5
197
100
AcDbEntity
  8
L1
100
AcDbLine
 10
131.7127854705337
 20
-10.00000000000005
 30
0.0
 11
130.2127854705337
 21
-10.00000000000005
 31
0.0
  0
LINE
  5
198
100
AcDbEntity
  8
L1
100
AcDbLine
 10
131.7127854705337
 20
-4.943429983321323
 30
0.0
 11
131.7127854705337
 21
-10.00000000000005
 31
0.0
  0
LINE
  5
199
100
AcDbEntity
  8
L1
100
AcDbLine
 10
130.2127854705337
 20
-10.00000000000005
 30
0.0
 11
130.2127854705337
 21
-4.943429983321323
 31
0.0
  0
LINE
  5
19A
100
AcDbEntity
  8
L1
100
AcDbLine
 10
80.96278547053373
 20
-4.000000000000284
 30
0.0
 11
127.9627854705337
 21
-4.000000000000284
 31
0.0
  0
LINE
  5
19B
100
AcDbEntity
  8
L1
100
AcDbLine
 10
133.9627854705337
 20
-46.00000000000005
 30
0.0
 11
142.9627854705337
 21
-46.00000000000005
 31
0.0
  0
LINE
  5
19C
100
AcDbEntity
  8
L1
100
AcDbLine
 10
133.9627854705337
 20
-54.00000000000017
 30
0.0
 11
142.9627854705337
 21
-54.00000000000017
 31
0.0
  0
LINE
  5
19E
100
AcDbEntity
  8
L1
100
AcDbLine
 10
131.7127854705337
 20
-45.05657001667879
 30
0.0
 11
131.7127854705337
 21
-40.00000000000006
 31
0.0
  0
LINE
  5
19F
100
AcDbEntity
  8
L1
100
AcDbLine
 10
130.2127854705337
 20
-40.00000000000006
 30
0.0
 11
130.2127854705337
 21
-45.05657001667879
 31
0.0
  0
LINE
  5
1A0
100
AcDbEntity
  8
L1
100
AcDbLine
 10
131.7127854705337
 20
-40.00000000000006
 30
0.0
 11
130.2127854705337
 21
-40.00000000000006
 31
0.0
  0
LINE
  5
1A1
100
AcDbEntity
  8
L1
100
AcDbLine
 10
80.96278547053373
 20
-46.00000000000005
 30
0.0
 11
127.9627854705337
 21
-46.00000000000005
 31
0.0
  0
LINE
  5
1A2
100
AcDbEntity
  8
L1
100
AcDbLine
 10
131.7127854705337
 20
-54.94342998332121
 30
0.0
 11
131.7127854705337
 21
-60.00000000000006
 31
0.0
  0
LINE
  5
1A3
100
AcDbEntity
  8
L1
100
AcDbLine
 10
130.2127854705337
 20
-60.00000000000006
 30
0.0
 11
130.2127854705337
 21
-54.94342998332121
 31
0.0
  0
LINE
  5
1A4
100
AcDbEntity
  8
L1
100
AcDbLine
 10
131.7127854705337
 20
-60.00000000000006
 30
0.0
 11
130.2127854705337
 21
-60.00000000000006
 31
0.0
  0
LINE
  5
1A5
100
AcDbEntity
  8
L1
100
AcDbLine
 10
80.96278547053373
 20
-54.00000000000017
 30
0.0
 11
127.9627854705337
 21
-54.00000000000017
 31
0.0
  0
LINE
  5
1A6
100
AcDbEntity
  8
L6
 48
0.25
100
AcDbLine
 10
130.9627854705337
 20
-61.00000000000005
 30
0.0
 11
130.9627854705337
 21
-38.00000000000006
 31
0.0
  0
ARC
  5
1A7
100
AcDbEntity
  8
L1
100
AcDbCircle
 10
130.9627854705337
 20
-50.00000000000006
 30
0.0
 40
4.999999999999993
100
AcDbArc
 50
98.62692655867864
 51
261.3730734413213
  0
CIRCLE
  5
1A8
100
AcDbEntity
  8
L1
100
AcDbCircle
 10
130.9627854705337
 20
-50.00000000000006
 30
0.0
 40
2.099999999999998
  0
CIRCLE
  5
1A9
100
AcDbEntity
  8
L1
100
AcDbCircle
 10
130.9627854705337
 20
-50.00000000000006
 30
0.0
 40
2.399999999999997
  0
LINE
  5
1AA
100
AcDbEntity
  8
L6
 48
0.25
100
AcDbLine
 10
123.9627854705337
 20
-50.00000000000006
 30
0.0
 11
137.9627854705337
 21
-50.00000000000006
 31
0.0
  0
ARC
  5
1AB
100
AcDbEntity
  8
L1
100
AcDbCircle
 10
130.9627854705337
 20
-50.00000000000006
 30
0.0
 40
4.999999999999993
100
AcDbArc
 50
278.6269265586788
 51
81.37307344132134
  0
LINE
  5
1AC
100
AcDbEntity
  8
L1
100
AcDbLine
 10
80.96278547053373
 20
-4.000000000000284
 30
0.0
 11
80.96278547053373
 21
-46.00000000000005
 31
0.0
  0
LINE
  5
1AE
100
AcDbEntity
  8
L1
100
AcDbLine
 10
-79.03721452946604
 20
-4.000000000000284
 30
0.0
 11
-79.03721452946604
 21
-46.00000000000005
 31
0.0
  0
LINE
  5
1AF
100
AcDbEntity
  8
L6
 48
0.25
100
AcDbLine
 10
130.9627854705337
 20
-11.00000000000005
 30
0.0
 11
130.9627854705337
 21
11.99999999999994
 31
0.0
  0
ARC
  5
1B0
100
AcDbEntity
  8
L1
100
AcDbCircle
 10
130.9627854705337
 20
-0.0000000000000568
 30
0.0
 40
4.999999999999993
100
AcDbArc
 50
98.62692655867864
 51
261.3730734413213
  0
ARC
  5
1B1
100
AcDbEntity
  8
L1
100
AcDbCircle
 10
130.9627854705337
 20
-0.0000000000000568
 30
0.0
 40
4.999999999999993
100
AcDbArc
 50
278.6269265586788
 51
81.37307344132134
  0
LINE
  5
1B2
100
AcDbEntity
  8
L1
100
AcDbLine
 10
131.7127854705337
 20
-95.05657001667879
 30
0.0
 11
131.7127854705337
 21
-90.00000000000005
 31
0.0
  0
LINE
  5
1B3
100
AcDbEntity
  8
L1
100
AcDbLine
 10
130.2127854705337
 20
-90.00000000000005
 30
0.0
 11
130.2127854705337
 21
-95.05657001667879
 31
0.0
  0
LINE
  5
1B4
100
AcDbEntity
  8
L1
100
AcDbLine
 10
131.7127854705337
 20
-90.00000000000005
 30
0.0
 11
130.2127854705337
 21
-90.00000000000005
 31
0.0
  0
LINE
  5
1B7
100
AcDbEntity
  8
0
100
AcDbLine
 10
130.9627854705337
 20
-88.00000000000006
 30
0.0
 11
130.9627854705337
 21
-85.66102199727509
 31
0.0
  0
LINE
  5
1B8
100
AcDbEntity
  8
L6
 48
0.25
100
AcDbLine
 10
123.9627854705337
 20
-100.0
 30
0.0
 11
137.9627854705337
 21
-100.0
 31
0.0
  0
CIRCLE
  5
1B9
100
AcDbEntity
  8
L1
100
AcDbCircle
 10
130.9627854705337
 20
-100.0
 30
0.0
 40
2.099999999999998
  0
LINE
  5
1BB
100
AcDbEntity
  8
L1
100
AcDbLine
 10
140.9627854705337
 20
-130.0
 30
0.0
 11
140.9627854705337
 21
-127.5
 31
0.0
  0
LINE
  5
1BC
100
AcDbEntity
  8
L1
100
AcDbLine
 10
138.9627854705337
 20
-130.0
 30
0.0
 11
138.9627854705337
 21
-127.5
 31
0.0
  0
LINE
  5
1BD
100
AcDbEntity
  8
L1
100
AcDbLine
 10
136.9627854705337
 20
-130.0
 30
0.0
 11
141.9627854705337
 21
-130.0
 31
0.0
  0
ARC
  5
1BE
100
AcDbEntity
  8
L1
100
AcDbCircle
 10
141.9627854705337
 20
-131.0
 30
0.0
 40
0.9999999999999989
100
AcDbArc
 50
0.0
 51
90.0
  0
LINE
  5
1C2
100
AcDbEntity
  8
L1
100
AcDbLine
 10
136.9627854705337
 20
-127.5
 30
0.0
 11
141.9627854705337
 21
-127.5
 31
0.0
  0
ARC
  5
1C3
100
AcDbEntity
  8
L1
100
AcDbCircle
 10
141.9627854705337
 20
-126.5
 30
0.0
 40
0.9999999999999989
100
AcDbArc
 50
270.0
 51
0.0
  0
LINE
  5
1C5
100
AcDbEntity
  8
L1
100
AcDbLine
 10
131.7127854705337
 20
-110.0
 30
0.0
 11
130.2127854705337
 21
-110.0
 31
0.0
  0
LINE
  5
1C6
100
AcDbEntity
  8
L1
100
AcDbLine
 10
131.7127854705337
 20
-104.9434299833212
 30
0.0
 11
131.7127854705337
 21
-110.0
 31
0.0
  0
LINE
  5
1C7
100
AcDbEntity
  8
L1
100
AcDbLine
 10
130.2127854705337
 20
-110.0
 30
0.0
 11
130.2127854705337
 21
-104.9434299833212
 31
0.0
  0
LINE
  5
1C9
100
AcDbEntity
  8
L1
100
AcDbLine
 10
110.9627854705337
 20
-129.25
 30
0.0
 11
110.9627854705337
 21
-130.7499999999998
 31
0.0
  0
CIRCLE
  5
1CA
100
AcDbEntity
  8
L1
100
AcDbCircle
 10
100.9627854705337
 20
-130.0
 30
0.0
 40
2.399999999999997
  0
CIRCLE
  5
1CB
100
AcDbEntity
  8
L1
100
AcDbCircle
 10
100.9627854705337
 20
-130.0
 30
0.0
 40
2.099999999999998
  0
ARC
  5
1CC
100
AcDbEntity
  8
L1
100
AcDbCircle
 10
100.9627854705337
 20
-130.0
 30
0.0
 40
4.999999999999993
100
AcDbArc
 50
8.626926558678817
 51
171.3730734413213
  0
ARC
  5
1CD
100
AcDbEntity
  8
L1
100
AcDbCircle
 10
100.9627854705337
 20
-130.0
 30
0.0
 40
4.999999999999993
100
AcDbArc
 50
188.6269265586786
 51
351.3730734413213
  0
LINE
  5
1CE
100
AcDbEntity
  8
L1
100
AcDbLine
 10
96.01935548721224
 20
-129.25
 30
0.0
 11
90.96278547053373
 21
-129.25
 31
0.0
  0
LINE
  5
1CF
100
AcDbEntity
  8
L1
100
AcDbLine
 10
90.96278547053373
 20
-129.25
 30
0.0
 11
90.96278547053373
 21
-130.7499999999998
 31
0.0
  0
LINE
  5
1D0
100
AcDbEntity
  8
L1
100
AcDbLine
 10
90.96278547053373
 20
-130.7499999999998
 30
0.0
 11
96.01935548721224
 21
-130.7499999999998
 31
0.0
  0
LINE
  5
1D5
100
AcDbEntity
  8
L6
 48
0.25
100
AcDbLine
 10
111.9627854705337
 20
-130.0
 30
0.0
 11
88.96278547053373
 21
-130.0
 31
0.0
  0
LINE
  5
1D6
100
AcDbEntity
  8
L1
100
AcDbLine
 10
110.9627854705337
 20
-130.7499999999998
 30
0.0
 11
105.9062154538547
 21
-130.7499999999998
 31
0.0
  0
LINE
  5
1D7
100
AcDbEntity
  8
L1
100
AcDbLine
 10
105.9062154538547
 20
-129.25
 30
0.0
 11
110.9627854705337
 21
-129.25
 31
0.0
  0
LINE
  5
1D8
100
AcDbEntity
  8
L6
 48
0.25
100
AcDbLine
 10
130.9627854705337
 20
-111.0
 30
0.0
 11
130.9627854705337
 21
-88.00000000000006
 31
0.0
  0
ARC
  5
1D9
100
AcDbEntity
  8
L1
100
AcDbCircle
 10
130.9627854705337
 20
-100.0
 30
0.0
 40
4.999999999999993
100
AcDbArc
 50
278.6269265586788
 51
81.37307344132134
  0
CIRCLE
  5
1DA
100
AcDbEntity
  8
L1
100
AcDbCircle
 10
130.9627854705337
 20
-100.0
 30
0.0
 40
2.399999999999997
  0
ARC
  5
1DB
100
AcDbEntity
  8
L1
100
AcDbCircle
 10
130.9627854705337
 20
-100.0
 30
0.0
 40
4.999999999999993
100
AcDbArc
 50
98.62692655867864
 51
261.3730734413213
  0
LINE
  5
1DC
100
AcDbEntity
  8
L1
100
AcDbLine
 10
6.962785470533731
 20
-70.00000000000006
 30
0.0
 11
16.96278547053373
 21
-80.00000000000005
 31
0.0
  0
LINE
  5
1DD
100
AcDbEntity
  8
L1
100
AcDbLine
 10
-5.037214529466268
 20
-70.00000000000006
 30
0.0
 11
-15.03721452946626
 21
-80.00000000000005
 31
0.0
  0
LINE
  5
1DE
100
AcDbEntity
  8
L1
100
AcDbLine
 10
6.962785470533731
 20
-70.00000000000006
 30
0.0
 11
-5.037214529466268
 21
-70.00000000000006
 31
0.0
  0
LINE
  5
1E3
100
AcDbEntity
  8
L1
100
AcDbLine
 10
-15.03721452946626
 20
-80.00000000000005
 30
0.0
 11
-29.03721452946626
 21
-80.00000000000005
 31
0.0
  0
LINE
  5
1E5
100
AcDbEntity
  8
L1
100
AcDbLine
 10
10.96278547053373
 20
-129.25
 30
0.0
 11
10.96278547053373
 21
-130.7499999999998
 31
0.0
  0
LINE
  5
1E6
100
AcDbEntity
  8
L1
100
AcDbLine
 10
5.906215453854997
 20
-129.25
 30
0.0
 11
10.96278547053373
 21
-129.25
 31
0.0
  0
LINE
  5
1E7
100
AcDbEntity
  8
L1
100
AcDbLine
 10
10.96278547053373
 20
-130.7499999999998
 30
0.0
 11
5.906215453854997
 21
-130.7499999999998
 31
0.0
  0
CIRCLE
  5
1E8
100
AcDbEntity
  8
L1
100
AcDbCircle
 10
0.9627854705337313
 20
-130.0
 30
0.0
 40
2.099999999999998
  0
CIRCLE
  5
1E9
100
AcDbEntity
  8
L1
100
AcDbCircle
 10
0.9627854705337313
 20
-130.0
 30
0.0
 40
2.399999999999997
  0
LINE
  5
1EA
100
AcDbEntity
  8
L1
100
AcDbLine
 10
-3.980644512787762
 20
-129.25
 30
0.0
 11
-9.037214529466268
 21
-129.25
 31
0.0
  0
LINE
  5
1EB
100
AcDbEntity
  8
L1
100
AcDbLine
 10
-9.037214529466268
 20
-130.7499999999998
 30
0.0
 11
-3.980644512787762
 21
-130.7499999999998
 31
0.0
  0
LINE
  5
1EC
100
AcDbEntity
  8
L1
100
AcDbLine
 10
-9.037214529466268
 20
-129.25
 30
0.0
 11
-9.037214529466268
 21
-130.7499999999998
 31
0.0
  0
ARC
  5
1EE
100
AcDbEntity
  8
L1
100
AcDbCircle
 10
0.9627854705337313
 20
-130.0
 30
0.0
 40
4.999999999999993
100
AcDbArc
 50
8.626926558678817
 51
171.3730734413213
  0
LINE
  5
1EF
100
AcDbEntity
  8
L6
 48
0.25
100
AcDbLine
 10
11.96278547053373
 20
-130.0
 30
0.0
 11
-11.03721452946626
 21
-130.0
 31
0.0
  0
ARC
  5
1F0
100
AcDbEntity
  8
L1
100
AcDbCircle
 10
0.9627854705337313
 20
-130.0
 30
0.0
 40
4.999999999999993
100
AcDbArc
 50
188.6269265586786
 51
351.3730734413213
  0
LINE
  5
1F2
100
AcDbEntity
  8
L1
100
AcDbLine
 10
-89.03721452946603
 20
-129.25
 30
0.0
 11
-89.03721452946603
 21
-130.7499999999998
 31
0.0
  0
LINE
  5
1F3
100
AcDbEntity
  8
L1
100
AcDbLine
 10
-94.093784546145
 20
-129.25
 30
0.0
 11
-89.03721452946603
 21
-129.25
 31
0.0
  0
LINE
  5
1F4
100
AcDbEntity
  8
L1
100
AcDbLine
 10
-89.03721452946603
 20
-130.7499999999998
 30
0.0
 11
-94.093784546145
 21
-130.7499999999998
 31
0.0
  0
CIRCLE
  5
1F5
100
AcDbEntity
  8
L1
100
AcDbCircle
 10
-99.03721452946605
 20
-130.0
 30
0.0
 40
2.099999999999998
  0
CIRCLE
  5
1F6
100
AcDbEntity
  8
L1
100
AcDbCircle
 10
-99.03721452946605
 20
-130.0
 30
0.0
 40
2.399999999999997
  0
LINE
  5
1F7
100
AcDbEntity
  8
L1
100
AcDbLine
 10
-103.9806445127873
 20
-129.25
 30
0.0
 11
-109.037214529466
 21
-129.25
 31
0.0
  0
LINE
  5
1F8
100
AcDbEntity
  8
L1
100
AcDbLine
 10
-109.037214529466
 20
-130.7499999999998
 30
0.0
 11
-103.9806445127873
 21
-130.7499999999998
 31
0.0
  0
LINE
  5
1F9
100
AcDbEntity
  8
L1
100
AcDbLine
 10
-109.037214529466
 20
-129.25
 30
0.0
 11
-109.037214529466
 21
-130.7499999999998
 31
0.0
  0
ARC
  5
1FB
100
AcDbEntity
  8
L1
100
AcDbCircle
 10
-99.03721452946605
 20
-130.0
 30
0.0
 40
4.999999999999993
100
AcDbArc
 50
8.626926558678817
 51
171.3730734413213
  0
LINE
  5
1FC
100
AcDbEntity
  8
L6
 48
0.25
100
AcDbLine
 10
-88.03721452946627
 20
-130.0
 30
0.0
 11
-111.037214529466
 21
-130.0
 31
0.0
  0
ARC
  5
1FD
100
AcDbEntity
  8
L1
100
AcDbCircle
 10
-99.03721452946605
 20
-130.0
 30
0.0
 40
4.999999999999993
100
AcDbArc
 50
188.6269265586786
 51
351.3730734413213
  0
LINE
  5
1FE
100
AcDbEntity
  8
L1
100
AcDbLine
 10
16.96278547053327
 20
-80.00000000000005
 30
0.0
 11
34.96278547053373
 21
-80.00000000000005
 31
0.0
  0
LINE
  5
200
100
AcDbEntity
  8
L1
100
AcDbLine
 10
131.9627854705337
 20
-141.9999999999998
 30
0.0
 11
140.9627854705337
 21
-141.9999999999998
 31
0.0
  0
ARC
  5
201
100
AcDbEntity
  8
L1
100
AcDbCircle
 10
140.9627854705337
 20
-140.0
 30
0.0
 40
4.999999999999993
100
AcDbArc
 50
270.0
 51
0.0
  0
ARC
  5
202
100
AcDbEntity
  8
L1
100
AcDbCircle
 10
147.4627854705337
 20
-146.5
 30
0.0
 40
2.499999999999996
100
AcDbArc
 50
270.0
 51
0.0
  0
ARC
  5
207
100
AcDbEntity
  8
L1
100
AcDbCircle
 10
140.9627854705337
 20
-140.0
 30
0.0
 40
1.999999999999998
100
AcDbArc
 50
270.0
 51
0.0
  0
LINE
  5
208
100
AcDbEntity
  8
L1
100
AcDbLine
 10
128.4627854705337
 20
-136.0
 30
0.0
 11
128.4627854705337
 21
-141.0
 31
0.0
  0
LINE
  5
209
100
AcDbEntity
  8
L1
100
AcDbLine
 10
130.9627854705337
 20
-136.0
 30
0.0
 11
130.9627854705337
 21
-141.0
 31
0.0
  0
LINE
  5
20A
100
AcDbEntity
  8
L1
100
AcDbLine
 10
130.9627854705337
 20
-140.0
 30
0.0
 11
128.4627854705337
 21
-140.0
 31
0.0
  0
LINE
  5
20B
100
AcDbEntity
  8
L1
100
AcDbLine
 10
130.9627854705337
 20
-138.0
 30
0.0
 11
128.4627854705337
 21
-138.0
 31
0.0
  0
ARC
  5
20C
100
AcDbEntity
  8
L1
100
AcDbCircle
 10
127.4627854705337
 20
-141.0
 30
0.0
 40
0.9999999999999989
100
AcDbArc
 50
270.0
 51
0.0
  0
ARC
  5
20D
100
AcDbEntity
  8
L1
100
AcDbCircle
 10
131.9627854705337
 20
-141.0
 30
0.0
 40
0.9999999999999989
100
AcDbArc
 50
180.0
 51
270.0
  0
LINE
  5
212
100
AcDbEntity
  8
L6
 48
0.25
100
AcDbLine
 10
-99.03721452946605
 20
-136.9999999999998
 30
0.0
 11
-99.03721452946605
 21
-123.0
 31
0.0
  0
ARC
  5
213
100
AcDbEntity
  8
L1
100
AcDbCircle
 10
136.9627854705337
 20
-136.0
 30
0.0
 40
5.999999999999993
100
AcDbArc
 50
90.0
 51
180.0
  0
ARC
  5
214
100
AcDbEntity
  8
L1
100
AcDbCircle
 10
136.9627854705337
 20
-136.0
 30
0.0
 40
8.499999999999991
100
AcDbArc
 50
90.0
 51
180.0
  0
LINE
  5
215
100
AcDbEntity
  8
L6
 48
0.25
100
AcDbLine
 10
100.9627854705337
 20
-136.9999999999998
 30
0.0
 11
100.9627854705337
 21
-123.0
 31
0.0
  0
LINE
  5
217
100
AcDbEntity
  8
L1
100
AcDbLine
 10
142.9627854705337
 20
-140.0
 30
0.0
 11
142.9627854705337
 21
-131.0
 31
0.0
  0
LINE
  5
218
100
AcDbEntity
  8
L1
100
AcDbLine
 10
145.9627854705337
 20
-140.0
 30
0.0
 11
145.9627854705337
 21
139.9999999999999
 31
0.0
  0
LINE
  5
219
100
AcDbEntity
  8
L1
100
AcDbLine
 10
142.9627854705337
 20
-126.5
 30
0.0
 11
142.9627854705337
 21
126.4999999999999
 31
0.0
  0
LINE
  5
21A
100
AcDbEntity
  8
L1
100
AcDbLine
 10
149.9627854705337
 20
146.4999999999999
 30
0.0
 11
149.9627854705337
 21
-146.5
 31
0.0
  0
LINE
  5
21D
100
AcDbEntity
  8
L1
100
AcDbLine
 10
-79.03721452946604
 20
-54.00000000000017
 30
0.0
 11
-79.03721452946604
 21
-80.00000000000005
 31
0.0
  0
LINE
  5
21E
100
AcDbEntity
  8
L1
100
AcDbLine
 10
80.96278547053373
 20
-54.00000000000017
 30
0.0
 11
80.96278547053373
 21
-80.00000000000005
 31
0.0
  0
CIRCLE
  5
22E
100
AcDbEntity
  8
L1
100
AcDbCircle
 10
-129.037214529466
 20
-0.0000000000000568
 30
0.0
 40
2.099999999999998
  0
CIRCLE
  5
22F
100
AcDbEntity
  8
L1
100
AcDbCircle
 10
-129.037214529466
 20
-0.0000000000000568
 30
0.0
 40
2.399999999999997
  0
LINE
  5
230
100
AcDbEntity
  8
L1
100
AcDbLine
 10
-144.0372145294659
 20
-0.0000000000000568
 30
0.0
 11
-144.0372145294659
 21
-1.000000000000056
 31
0.0
1001
ACAD
1000
ASC_BOUNDS
1002
{
1070
    19
1002
}
  0
LINE
  5
236
100
AcDbEntity
  8
L1
100
AcDbLine
 10
-132.037214529466
 20
-4.000000000000284
 30
0.0
 11
-141.0372145294662
 21
-4.000000000000284
 31
0.0
  0
LINE
  5
237
100
AcDbEntity
  8
L1
100
AcDbLine
 10
-128.287214529466
 20
-10.00000000000005
 30
0.0
 11
-129.7872145294662
 21
-10.00000000000005
 31
0.0
  0
LINE
  5
238
100
AcDbEntity
  8
L1
100
AcDbLine
 10
-128.287214529466
 20
-4.943429983321323
 30
0.0
 11
-128.287214529466
 21
-10.00000000000005
 31
0.0
  0
LINE
  5
239
100
AcDbEntity
  8
L1
100
AcDbLine
 10
-129.7872145294662
 20
-10.00000000000005
 30
0.0
 11
-129.7872145294662
 21
-4.943429983321323
 31
0.0
  0
LINE
  5
23A
100
AcDbEntity
  8
L6
 48
0.25
100
AcDbLine
 10
-136.0372145294662
 20
-50.00000000000006
 30
0.0
 11
-122.037214529466
 21
-50.00000000000006
 31
0.0
  0
CIRCLE
  5
23B
100
AcDbEntity
  8
L1
100
AcDbCircle
 10
-129.037214529466
 20
-50.00000000000006
 30
0.0
 40
2.099999999999998
  0
CIRCLE
  5
23C
100
AcDbEntity
  8
L1
100
AcDbCircle
 10
-129.037214529466
 20
-50.00000000000006
 30
0.0
 40
2.399999999999997
  0
LINE
  5
23D
100
AcDbEntity
  8
L1
100
AcDbLine
 10
-132.037214529466
 20
-46.00000000000005
 30
0.0
 11
-141.0372145294662
 21
-46.00000000000005
 31
0.0
  0
LINE
  5
23E
100
AcDbEntity
  8
L1
100
AcDbLine
 10
-128.287214529466
 20
-45.05657001667879
 30
0.0
 11
-128.287214529466
 21
-40.00000000000006
 31
0.0
  0
LINE
  5
23F
100
AcDbEntity
  8
L1
100
AcDbLine
 10
-129.7872145294662
 20
-40.00000000000006
 30
0.0
 11
-129.7872145294662
 21
-45.05657001667879
 31
0.0
  0
LINE
  5
240
100
AcDbEntity
  8
L1
100
AcDbLine
 10
-128.287214529466
 20
-40.00000000000006
 30
0.0
 11
-129.7872145294662
 21
-40.00000000000006
 31
0.0
  0
LINE
  5
241
100
AcDbEntity
  8
L1
100
AcDbLine
 10
-132.037214529466
 20
-54.00000000000017
 30
0.0
 11
-141.0372145294662
 21
-54.00000000000017
 31
0.0
  0
LINE
  5
242
100
AcDbEntity
  8
L1
100
AcDbLine
 10
-128.287214529466
 20
-54.94342998332121
 30
0.0
 11
-128.287214529466
 21
-60.00000000000006
 31
0.0
  0
LINE
  5
243
100
AcDbEntity
  8
L1
100
AcDbLine
 10
-129.7872145294662
 20
-60.00000000000006
 30
0.0
 11
-129.7872145294662
 21
-54.94342998332121
 31
0.0
  0
LINE
  5
244
100
AcDbEntity
  8
L1
100
AcDbLine
 10
-128.287214529466
 20
-60.00000000000006
 30
0.0
 11
-129.7872145294662
 21
-60.00000000000006
 31
0.0
  0
LINE
  5
245
100
AcDbEntity
  8
L6
 48
0.25
100
AcDbLine
 10
-129.037214529466
 20
-61.00000000000005
 30
0.0
 11
-129.037214529466
 21
-38.00000000000006
 31
0.0
  0
ARC
  5
246
100
AcDbEntity
  8
L1
100
AcDbCircle
 10
-129.037214529466
 20
-50.00000000000006
 30
0.0
 40
4.999999999999993
100
AcDbArc
 50
98.62692655867864
 51
261.3730734413213
  0
ARC
  5
247
100
AcDbEntity
  8
L1
100
AcDbCircle
 10
-129.037214529466
 20
-50.00000000000006
 30
0.0
 40
4.999999999999993
100
AcDbArc
 50
278.6269265586788
 51
81.37307344132134
  0
LINE
  5
248
100
AcDbEntity
  8
L6
 48
0.25
100
AcDbLine
 10
-129.037214529466
 20
-11.00000000000005
 30
0.0
 11
-129.037214529466
 21
11.99999999999994
 31
0.0
  0
ARC
  5
249
100
AcDbEntity
  8
L1
100
AcDbCircle
 10
-129.037214529466
 20
-0.0000000000000568
 30
0.0
 40
4.999999999999993
100
AcDbArc
 50
98.62692655867864
 51
261.3730734413213
  0
ARC
  5
24A
100
AcDbEntity
  8
L1
100
AcDbCircle
 10
-129.037214529466
 20
-0.0000000000000568
 30
0.0
 40
4.999999999999993
100
AcDbArc
 50
278.6269265586788
 51
81.37307344132134
  0
LINE
  5
24B
100
AcDbEntity
  8
L1
100
AcDbLine
 10
-128.287214529466
 20
-95.05657001667879
 30
0.0
 11
-128.287214529466
 21
-90.00000000000005
 31
0.0
  0
LINE
  5
24C
100
AcDbEntity
  8
L1
100
AcDbLine
 10
-129.7872145294662
 20
-90.00000000000005
 30
0.0
 11
-129.7872145294662
 21
-95.05657001667879
 31
0.0
  0
LINE
  5
24D
100
AcDbEntity
  8
L6
 48
0.25
100
AcDbLine
 10
-136.0372145294662
 20
-100.0
 30
0.0
 11
-122.037214529466
 21
-100.0
 31
0.0
  0
CIRCLE
  5
24E
100
AcDbEntity
  8
L1
100
AcDbCircle
 10
-129.037214529466
 20
-100.0
 30
0.0
 40
2.099999999999998
  0
LINE
  5
24F
100
AcDbEntity
  8
L1
100
AcDbLine
 10
-128.287214529466
 20
-90.00000000000005
 30
0.0
 11
-129.7872145294662
 21
-90.00000000000005
 31
0.0
  0
LINE
  5
251
100
AcDbEntity
  8
L1
100
AcDbLine
 10
-128.287214529466
 20
-110.0
 30
0.0
 11
-129.7872145294662
 21
-110.0
 31
0.0
  0
LINE
  5
252
100
AcDbEntity
  8
L1
100
AcDbLine
 10
-128.287214529466
 20
-104.9434299833212
 30
0.0
 11
-128.287214529466
 21
-110.0
 31
0.0
  0
LINE
  5
253
100
AcDbEntity
  8
L1
100
AcDbLine
 10
-129.7872145294662
 20
-110.0
 30
0.0
 11
-129.7872145294662
 21
-104.9434299833212
 31
0.0
  0
LINE
  5
254
100
AcDbEntity
  8
L1
100
AcDbLine
 10
-139.037214529466
 20
-130.0
 30
0.0
 11
-139.037214529466
 21
-127.5
 31
0.0
  0
LINE
  5
255
100
AcDbEntity
  8
L1
100
AcDbLine
 10
-137.037214529466
 20
-130.0
 30
0.0
 11
-137.037214529466
 21
-127.5
 31
0.0
  0
LINE
  5
256
100
AcDbEntity
  8
L1
100
AcDbLine
 10
-135.037214529466
 20
-130.0
 30
0.0
 11
-140.037214529466
 21
-130.0
 31
0.0
  0
ARC
  5
257
100
AcDbEntity
  8
L1
100
AcDbCircle
 10
-140.037214529466
 20
-131.0
 30
0.0
 40
0.9999999999999989
100
AcDbArc
 50
90.0
 51
180.0
  0
LINE
  5
258
100
AcDbEntity
  8
L1
100
AcDbLine
 10
-135.037214529466
 20
-127.5
 30
0.0
 11
-140.037214529466
 21
-127.5
 31
0.0
  0
ARC
  5
259
100
AcDbEntity
  8
L1
100
AcDbCircle
 10
-140.037214529466
 20
-126.5
 30
0.0
 40
0.9999999999999989
100
AcDbArc
 50
180.0
 51
270.0
  0
LINE
  5
25A
100
AcDbEntity
  8
L6
 48
0.25
100
AcDbLine
 10
-129.037214529466
 20
-111.0
 30
0.0
 11
-129.037214529466
 21
-88.00000000000006
 31
0.0
  0
ARC
  5
25B
100
AcDbEntity
  8
L1
100
AcDbCircle
 10
-129.037214529466
 20
-100.0
 30
0.0
 40
4.999999999999993
100
AcDbArc
 50
98.62692655867864
 51
261.3730734413213
  0
CIRCLE
  5
25C
100
AcDbEntity
  8
L1
100
AcDbCircle
 10
-129.037214529466
 20
-100.0
 30
0.0
 40
2.399999999999997
  0
ARC
  5
25D
100
AcDbEntity
  8
L1
100
AcDbCircle
 10
-129.037214529466
 20
-100.0
 30
0.0
 40
4.999999999999993
100
AcDbArc
 50
278.6269265586788
 51
81.37307344132134
  0
LINE
  5
25E
100
AcDbEntity
  8
L1
100
AcDbLine
 10
-129.037214529466
 20
-136.0
 30
0.0
 11
-129.037214529466
 21
-141.0
 31
0.0
  0
LINE
  5
25F
100
AcDbEntity
  8
L1
100
AcDbLine
 10
-126.537214529466
 20
-136.0
 30
0.0
 11
-126.537214529466
 21
-141.0
 31
0.0
  0
LINE
  5
260
100
AcDbEntity
  8
L1
100
AcDbLine
 10
-130.037214529466
 20
-141.9999999999998
 30
0.0
 11
-139.037214529466
 21
-141.9999999999998
 31
0.0
  0
ARC
  5
261
100
AcDbEntity
  8
L1
100
AcDbCircle
 10
-139.037214529466
 20
-140.0
 30
0.0
 40
4.999999999999993
100
AcDbArc
 50
180.0
 51
270.0
  0
ARC
  5
262
100
AcDbEntity
  8
L1
100
AcDbCircle
 10
-139.037214529466
 20
-140.0
 30
0.0
 40
1.999999999999998
100
AcDbArc
 50
180.0
 51
270.0
  0
LINE
  5
26C
100
AcDbEntity
  8
L1
100
AcDbLine
 10
-129.037214529466
 20
-138.0
 30
0.0
 11
-126.537214529466
 21
-138.0
 31
0.0
  0
LINE
  5
26D
100
AcDbEntity
  8
L1
100
AcDbLine
 10
-129.037214529466
 20
-140.0
 30
0.0
 11
-126.537214529466
 21
-140.0
 31
0.0
  0
ARC
  5
26E
100
AcDbEntity
  8
L1
100
AcDbCircle
 10
-125.537214529466
 20
-141.0
 30
0.0
 40
0.9999999999999989
100
AcDbArc
 50
180.0
 51
270.0
  0
ARC
  5
26F
100
AcDbEntity
  8
L1
100
AcDbCircle
 10
-130.037214529466
 20
-141.0
 30
0.0
 40
0.9999999999999989
100
AcDbArc
 50
270.0
 51
0.0
  0
LINE
  5
273
100
AcDbEntity
  8
L6
 48
0.25
100
AcDbLine
 10
-144.0372145294659
 20
-136.0
 30
0.0
 11
-126.0372145294662
 21
-136.0
 31
0.0
  0
ARC
  5
274
100
AcDbEntity
  8
L1
100
AcDbCircle
 10
-145.5372145294659
 20
-146.5
 30
0.0
 40
2.499999999999996
100
AcDbArc
 50
180.0
 51
270.0
  0
LINE
  5
275
100
AcDbEntity
  8
L6
 48
0.25
100
AcDbLine
 10
-135.037214529466
 20
-145.0
 30
0.0
 11
-135.037214529466
 21
-126.9999999999998
 31
0.0
  0
LINE
  5
276
100
AcDbEntity
  8
L1
100
AcDbLine
 10
-141.0372145294662
 20
-140.0
 30
0.0
 11
-141.0372145294662
 21
-131.0
 31
0.0
  0
ARC
  5
277
100
AcDbEntity
  8
L1
100
AcDbCircle
 10
-135.037214529466
 20
-136.0
 30
0.0
 40
8.499999999999991
100
AcDbArc
 50
0.0
 51
90.0
  0
ARC
  5
278
100
AcDbEntity
  8
L1
100
AcDbCircle
 10
-135.037214529466
 20
-136.0
 30
0.0
 40
5.999999999999993
100
AcDbArc
 50
0.0
 51
90.0
  0
LINE
  5
279
100
AcDbEntity
  8
L1
100
AcDbLine
 10
-141.0372145294662
 20
-126.5
 30
0.0
 11
-141.0372145294664
 21
126.4999999999999
 31
0.0
  0
LINE
  5
27A
100
AcDbEntity
  8
L1
100
AcDbLine
 10
-144.0372145294659
 20
-140.0
 30
0.0
 11
-144.0372145294659
 21
139.9999999999999
 31
0.0
  0
LINE
  5
27B
100
AcDbEntity
  8
L1
100
AcDbLine
 10
-148.0372145294659
 20
-146.5
 30
0.0
 11
-148.0372145294659
 21
-0.0000000000000568
 31
0.0
  0
LINE
  5
27C
100
AcDbEntity
  8
L1
100
AcDbLine
 10
-148.0372145294659
 20
-146.5
 30
0.0
 11
-148.0372145294636
 21
146.4999999999999
 31
0.0
  0
LINE
  5
27D
100
AcDbEntity
  8
L1
100
AcDbLine
 10
0.9627854705337313
 20
-141.9999999999998
 30
0.0
 11
-125.537214529466
 21
-141.9999999999998
 31
0.0
  0
LINE
  5
27E
100
AcDbEntity
  8
L1
100
AcDbLine
 10
140.9627854705337
 20
-145.0
 30
0.0
 11
-139.037214529466
 21
-145.0
 31
0.0
  0
LINE
  5
27F
100
AcDbEntity
  8
L1
100
AcDbLine
 10
-145.5372145294659
 20
-148.9999999999992
 30
0.0
 11
147.4627854705337
 21
-149.0000000000026
 31
0.0
  0
LINE
  5
281
100
AcDbEntity
  8
L1
100
AcDbLine
 10
-79.03721452946604
 20
-54.00000000000017
 30
0.0
 11
-126.037214529466
 21
-54.00000000000017
 31
0.0
  0
LINE
  5
282
100
AcDbEntity
  8
L1
100
AcDbLine
 10
-79.03721452946604
 20
-46.00000000000005
 30
0.0
 11
-126.037214529466
 21
-46.00000000000005
 31
0.0
  0
LINE
  5
285
100
AcDbEntity
  8
L1
100
AcDbLine
 10
-79.03721452946604
 20
-4.000000000000284
 30
0.0
 11
-126.037214529466
 21
-4.000000000000284
 31
0.0
  0
LINE
  5
2DA
100
AcDbEntity
  8
L6
100
AcDbLine
 10
157.7591653508161
 20
0.0
 30
0.0
 11
-156.5571670682807
 21
0.0
 31
0.0
  0
LINE
  5
2E3
100
AcDbEntity
  8
L1
100
AcDbLine
 10
-585.9448157505807
 20
79.99999999999977
 30
0.0
 11
-559.9448157505812
 21
79.99999999999977
 31
0.0
  0
LINE
  5
2E4
100
AcDbEntity
  8
L1
100
AcDbLine
 10
-719.9448157505807
 20
79.99999999999977
 30
0.0
 11
-693.9448157505812
 21
79.99999999999977
 31
0.0
  0
LINE
  5
2E5
100
AcDbEntity
  8
L1
100
AcDbLine
 10
-685.9448157505807
 20
79.99999999999977
 30
0.0
 11
-685.9448157505807
 21
127.6288188597238
 31
0.0
  0
LINE
  5
2E6
100
AcDbEntity
  8
L1
100
AcDbLine
 10
-693.9448157505812
 20
79.99999999999977
 30
0.0
 11
-693.9448157505808
 21
127.6288188597238
 31
0.0
  0
LINE
  5
2E7
100
AcDbEntity
  8
L1
100
AcDbLine
 10
-693.9448157505808
 20
132.3711811402761
 30
0.0
 11
-693.9448157505808
 21
143.9999999999997
 31
0.0
  0
LINE
  5
2E8
100
AcDbEntity
  8
L1
100
AcDbLine
 10
-685.9448157505807
 20
132.3711811402761
 30
0.0
 11
-685.9448157505807
 21
143.9999999999997
 31
0.0
  0
LINE
  5
2E9
100
AcDbEntity
  8
L1
100
AcDbLine
 10
-685.9448157505807
 20
143.9999999999997
 30
0.0
 11
-689.9448157505807
 21
143.9999999999997
 31
0.0
  0
LINE
  5
2EA
100
AcDbEntity
  8
L1
100
AcDbLine
 10
-693.9448157505812
 20
143.9999999999997
 30
0.0
 11
-689.9448157505807
 21
143.9999999999997
 31
0.0
  0
LINE
  5
2EB
100
AcDbEntity
  8
L1
100
AcDbLine
 10
-585.9448157505807
 20
79.99999999999977
 30
0.0
 11
-585.9448157505812
 21
127.6288188597238
 31
0.0
  0
LINE
  5
2EC
100
AcDbEntity
  8
L1
100
AcDbLine
 10
-593.9448157505812
 20
79.99999999999977
 30
0.0
 11
-593.9448157505808
 21
127.6288188597238
 31
0.0
  0
LINE
  5
2ED
100
AcDbEntity
  8
L1
100
AcDbLine
 10
-585.9448157505812
 20
132.3711811402761
 30
0.0
 11
-585.9448157505812
 21
143.9999999999997
 31
0.0
  0
LINE
  5
2EE
100
AcDbEntity
  8
L1
100
AcDbLine
 10
-593.9448157505808
 20
132.3711811402761
 30
0.0
 11
-593.9448157505808
 21
143.9999999999997
 31
0.0
  0
LINE
  5
2EF
100
AcDbEntity
  8
L1
100
AcDbLine
 10
-585.9448157505807
 20
143.9999999999997
 30
0.0
 11
-589.9448157505812
 21
143.9999999999997
 31
0.0
  0
LINE
  5
2F0
100
AcDbEntity
  8
L1
100
AcDbLine
 10
-593.9448157505812
 20
143.9999999999997
 30
0.0
 11
-589.9448157505812
 21
143.9999999999997
 31
0.0
  0
ARC
  5
300
100
AcDbEntity
  8
L1
100
AcDbCircle
 10
-589.9448157505812
 20
129.9999999999997
 30
0.0
 40
4.649999999999995
100
AcDbArc
 50
270.0
 51
90.0
  0
ARC
  5
301
100
AcDbEntity
  8
L1
100
AcDbCircle
 10
-589.9448157505812
 20
129.9999999999997
 30
0.0
 40
3.499999999999995
100
AcDbArc
 50
270.0
 51
90.0
  0
ARC
  5
302
100
AcDbEntity
  8
L1
100
AcDbCircle
 10
-589.9448157505812
 20
129.9999999999997
 30
0.0
 40
3.499999999999995
100
AcDbArc
 50
90.0
 51
270.0
  0
LINE
  5
303
100
AcDbEntity
  8
L6
 48
0.25
100
AcDbLine
 10
-594.9448157505812
 20
129.9999999999997
 30
0.0
 11
-584.9448157505812
 21
129.9999999999997
 31
0.0
  0
LINE
  5
304
100
AcDbEntity
  8
L6
 48
0.25
100
AcDbLine
 10
-584.9448157505812
 20
129.9999999999997
 30
0.0
 11
-594.9448157505812
 21
129.9999999999997
 31
0.0
  0
ARC
  5
305
100
AcDbEntity
  8
L1
100
AcDbCircle
 10
-589.9448157505812
 20
129.9999999999997
 30
0.0
 40
4.649999999999995
100
AcDbArc
 50
90.0
 51
270.0
  0
LINE
  5
306
100
AcDbEntity
  8
L6
 48
0.25
100
AcDbLine
 10
-589.9448157505812
 20
136.9999999999997
 30
0.0
 11
-589.9448157505812
 21
122.9999999999999
 31
0.0
  0
LINE
  5
307
100
AcDbEntity
  8
L6
 48
0.25
100
AcDbLine
 10
-589.9448157505812
 20
124.9999999999997
 30
0.0
 11
-589.9448157505812
 21
134.9999999999997
 31
0.0
  0
CIRCLE
  5
308
100
AcDbEntity
  8
L1
100
AcDbCircle
 10
-689.9448157505807
 20
129.9999999999997
 30
0.0
 40
3.499999999999995
  0
CIRCLE
  5
309
100
AcDbEntity
  8
L1
100
AcDbCircle
 10
-689.9448157505807
 20
129.9999999999997
 30
0.0
 40
4.649999999999995
  0
LINE
  5
30A
100
AcDbEntity
  8
L6
 48
0.25
100
AcDbLine
 10
-694.9448157505807
 20
129.9999999999997
 30
0.0
 11
-684.9448157505808
 21
129.9999999999997
 31
0.0
  0
LINE
  5
30B
100
AcDbEntity
  8
L6
 48
0.25
100
AcDbLine
 10
-689.9448157505807
 20
124.9999999999997
 30
0.0
 11
-689.9448157505807
 21
134.9999999999997
 31
0.0
  0
LINE
  5
317
100
AcDbEntity
  8
L1
100
AcDbLine
 10
-494.9448157505812
 20
147.4999999999997
 30
0.0
 11
-507.4448157505812
 21
147.4999999999997
 31
0.0
  0
ARC
  5
318
100
AcDbEntity
  8
L1
100
AcDbCircle
 10
-493.4448157505812
 20
146.4999999999997
 30
0.0
 40
2.499999999999996
100
AcDbArc
 50
0.0
 51
90.0
  0
LINE
  5
319
100
AcDbEntity
  8
L1
100
AcDbLine
 10
-493.8841555788017
 20
147.2638462845341
 30
0.0
 11
-493.8841555788017
 21
147.06066017178
 31
0.0
  0
LINE
  5
31A
100
AcDbEntity
  8
L1
100
AcDbLine
 10
-492.6809694660469
 20
146.0606601717797
 30
0.0
 11
-492.8841555788012
 21
146.0606601717797
 31
0.0
  0
ARC
  5
31B
100
AcDbEntity
  8
L1
100
AcDbCircle
 10
-494.9448157505812
 20
144.9999999999997
 30
0.0
 40
2.499999999999996
100
AcDbArc
 50
64.89590974977128
 51
90.0
  0
CIRCLE
  5
31D
100
AcDbEntity
  8
L1
100
AcDbCircle
 10
-503.9448157505812
 20
135.9999999999997
 30
0.0
 40
5.449999999999993
  0
CIRCLE
  5
31E
100
AcDbEntity
  8
L1
100
AcDbCircle
 10
-503.9448157505812
 20
135.9999999999997
 30
0.0
 40
3.449999999999996
  0
LINE
  5
31F
100
AcDbEntity
  8
L1
100
AcDbLine
 10
-492.4448157505812
 20
144.9999999999997
 30
0.0
 11
-492.4448157505812
 21
132.4999999999997
 31
0.0
  0
LINE
  5
320
100
AcDbEntity
  8
L1
100
AcDbLine
 10
-492.4448157505812
 20
132.4999999999997
 30
0.0
 11
-494.5164751152865
 21
130.4283406352949
 31
0.0
  0
LINE
  5
322
100
AcDbEntity
  8
L1
100
AcDbLine
 10
-519.4448157505812
 20
141.9999999999997
 30
0.0
 11
-519.4448157505816
 21
129.5796897832169
 31
0.0
  0
LINE
  5
323
100
AcDbEntity
  8
L1
100
AcDbLine
 10
-516.9448157505812
 20
141.9999999999997
 30
0.0
 11
-516.9448157505817
 21
130.6152236891496
 31
0.0
  0
LINE
  5
324
100
AcDbEntity
  8
L1
100
AcDbLine
 10
-516.9448157505812
 20
141.9999999999997
 30
0.0
 11
-519.4448157505812
 21
141.9999999999997
 31
0.0
  0
LINE
  5
326
100
AcDbEntity
  8
L6
 48
0.25
100
AcDbLine
 10
-494.9448157505812
 20
135.9999999999997
 30
0.0
 11
-512.9448157505812
 21
135.9999999999997
 31
0.0
  0
LINE
  5
327
100
AcDbEntity
  8
L1
100
AcDbLine
 10
-507.4448157505812
 20
147.4999999999997
 30
0.0
 11
-509.5164751152865
 21
145.4283406352944
 31
0.0
  0
ARC
  5
328
100
AcDbEntity
  8
L1
100
AcDbCircle
 10
-492.8841555788012
 20
147.0606601717797
 30
0.0
 40
0.9999999999999989
100
AcDbArc
 50
179.9999999999972
 51
270.0000000000026
  0
ARC
  5
329
100
AcDbEntity
  8
L1
100
AcDbCircle
 10
-494.9448157505812
 20
144.9999999999997
 30
0.0
 40
2.499999999999996
100
AcDbArc
 50
0.0
 51
25.1040902502147
  0
LINE
  5
32A
100
AcDbEntity
  8
L1
100
AcDbLine
 10
-635.9448157505812
 20
132.3711811402761
 30
0.0
 11
-635.9448157505812
 21
143.9999999999997
 31
0.0
  0
LINE
  5
32B
100
AcDbEntity
  8
L6
 48
0.25
100
AcDbLine
 10
-534.9448157505812
 20
129.9999999999997
 30
0.0
 11
-544.9448157505812
 21
129.9999999999997
 31
0.0
  0
LINE
  5
32C
100
AcDbEntity
  8
L1
100
AcDbLine
 10
-643.9448157505808
 20
132.3711811402761
 30
0.0
 11
-643.9448157505808
 21
143.9999999999997
 31
0.0
  0
LINE
  5
32D
100
AcDbEntity
  8
L1
100
AcDbLine
 10
-643.9448157505812
 20
143.9999999999997
 30
0.0
 11
-639.9448157505812
 21
143.9999999999997
 31
0.0
  0
LINE
  5
32E
100
AcDbEntity
  8
L1
100
AcDbLine
 10
-784.9448157505812
 20
147.4999999999997
 30
0.0
 11
-772.4448157505812
 21
147.4999999999997
 31
0.0
  0
ARC
  5
32F
100
AcDbEntity
  8
L1
100
AcDbCircle
 10
-784.9448157505812
 20
144.9999999999997
 30
0.0
 40
2.499999999999996
100
AcDbArc
 50
90.00000000000035
 51
115.1040902502246
  0
ARC
  5
330
100
AcDbEntity
  8
L1
100
AcDbCircle
 10
-786.4448157505807
 20
146.4999999999997
 30
0.0
 40
2.499999999999996
100
AcDbArc
 50
90.00000000000046
 51
180.0
  0
LINE
  5
331
100
AcDbEntity
  8
L1
100
AcDbLine
 10
-787.2086620351151
 20
146.0606601717797
 30
0.0
 11
-787.0054759223608
 21
146.0606601717797
 31
0.0
  0
LINE
  5
332
100
AcDbEntity
  8
L1
100
AcDbLine
 10
-786.0054759223608
 20
147.2638462845341
 30
0.0
 11
-786.0054759223608
 21
147.06066017178
 31
0.0
  0
LINE
  5
333
100
AcDbEntity
  8
L1
100
AcDbLine
 10
-760.4448157505808
 20
141.9999999999997
 30
0.0
 11
-760.4448157505808
 21
129.5796897832169
 31
0.0
  0
LINE
  5
334
100
AcDbEntity
  8
L1
100
AcDbLine
 10
-762.9448157505808
 20
141.9999999999997
 30
0.0
 11
-762.9448157505808
 21
130.6152236891496
 31
0.0
  0
LINE
  5
335
100
AcDbEntity
  8
L1
100
AcDbLine
 10
-762.9448157505808
 20
141.9999999999997
 30
0.0
 11
-760.4448157505808
 21
141.9999999999997
 31
0.0
  0
LINE
  5
336
100
AcDbEntity
  8
L6
 48
0.25
100
AcDbLine
 10
-784.9448157505808
 20
135.9999999999997
 30
0.0
 11
-766.9448157505808
 21
135.9999999999997
 31
0.0
  0
LINE
  5
337
100
AcDbEntity
  8
L1
100
AcDbLine
 10
-787.4448157505812
 20
144.9999999999997
 30
0.0
 11
-787.4448157505808
 21
132.4999999999997
 31
0.0
  0
LINE
  5
338
100
AcDbEntity
  8
L1
100
AcDbLine
 10
-787.4448157505808
 20
132.4999999999997
 30
0.0
 11
-785.3731563858755
 21
130.4283406352949
 31
0.0
  0
CIRCLE
  5
33A
100
AcDbEntity
  8
L1
100
AcDbCircle
 10
-775.9448157505808
 20
135.9999999999997
 30
0.0
 40
3.449999999999996
  0
CIRCLE
  5
33B
100
AcDbEntity
  8
L1
100
AcDbCircle
 10
-775.9448157505808
 20
135.9999999999997
 30
0.0
 40
5.449999999999993
  0
ARC
  5
33C
100
AcDbEntity
  8
L1
100
AcDbCircle
 10
-784.9448157505812
 20
144.9999999999997
 30
0.0
 40
2.499999999999996
100
AcDbArc
 50
154.8959097497817
 51
180.0
  0
ARC
  5
33D
100
AcDbEntity
  8
L1
100
AcDbCircle
 10
-787.0054759223608
 20
147.0606601717797
 30
0.0
 40
0.9999999999999989
100
AcDbArc
 50
269.9999999999973
 51
0.0000000000027098
  0
LINE
  5
33E
100
AcDbEntity
  8
L1
100
AcDbLine
 10
-772.4448157505812
 20
147.4999999999997
 30
0.0
 11
-770.3731563858755
 21
145.4283406352949
 31
0.0
  0
LINE
  5
33F
100
AcDbEntity
  8
L1
100
AcDbLine
 10
-786.4448157505807
 20
148.9999999999993
 30
0.0
 11
-493.4448157505812
 21
149.000000000002
 31
0.0
  0
LINE
  5
340
100
AcDbEntity
  8
L6
 48
0.25
100
AcDbLine
 10
-744.9448157505807
 20
129.9999999999997
 30
0.0
 11
-734.9448157505808
 21
129.9999999999997
 31
0.0
  0
LINE
  5
341
100
AcDbEntity
  8
L1
100
AcDbLine
 10
-770.3731563858751
 20
145.428340635294
 30
0.0
 11
-509.5164751152834
 21
145.4283406352974
 31
0.0
  0
LINE
  5
346
100
AcDbEntity
  8
L6
 48
0.25
100
AcDbLine
 10
-644.9448157505813
 20
129.9999999999997
 30
0.0
 11
-634.9448157505812
 21
129.9999999999997
 31
0.0
  0
LINE
  5
347
100
AcDbEntity
  8
L6
 48
0.25
100
AcDbLine
 10
-634.9448157505812
 20
129.9999999999997
 30
0.0
 11
-644.9448157505813
 21
129.9999999999997
 31
0.0
  0
LINE
  5
348
100
AcDbEntity
  8
L1
100
AcDbLine
 10
-635.9448157505807
 20
143.9999999999997
 30
0.0
 11
-639.9448157505812
 21
143.9999999999997
 31
0.0
  0
LINE
  5
349
100
AcDbEntity
  8
L1
100
AcDbLine
 10
-497.9448157505812
 20
120.5
 30
0.0
 11
-510.3651259673638
 21
120.5
 31
0.0
  0
LINE
  5
34A
100
AcDbEntity
  8
L1
100
AcDbLine
 10
-497.9448157505812
 20
122.9999999999999
 30
0.0
 11
-509.3295920614314
 21
122.9999999999999
 31
0.0
  0
LINE
  5
34B
100
AcDbEntity
  8
L1
100
AcDbLine
 10
-497.9448157505812
 20
122.9999999999999
 30
0.0
 11
-497.9448157505812
 21
120.5
 31
0.0
  0
LINE
  5
34D
100
AcDbEntity
  8
L6
 48
0.25
100
AcDbLine
 10
-502.9448157505812
 20
99.99999999999978
 30
0.0
 11
-516.9448157505812
 21
99.99999999999978
 31
0.0
  0
CIRCLE
  5
34E
100
AcDbEntity
  8
L1
100
AcDbCircle
 10
-509.9448157505812
 20
99.99999999999978
 30
0.0
 40
3.499999999999995
  0
LINE
  5
34F
100
AcDbEntity
  8
L1
100
AcDbLine
 10
-635.9448157505812
 20
79.99999999999977
 30
0.0
 11
-593.9448157505812
 21
79.99999999999977
 31
0.0
  0
LINE
  5
350
100
AcDbEntity
  8
L1
100
AcDbLine
 10
-635.9448157505807
 20
79.99999999999977
 30
0.0
 11
-635.9448157505812
 21
127.6288188597238
 31
0.0
  0
LINE
  5
351
100
AcDbEntity
  8
L6
 48
0.25
100
AcDbLine
 10
-509.9448157505812
 20
94.99999999999976
 30
0.0
 11
-509.9448157505812
 21
104.9999999999997
 31
0.0
  0
CIRCLE
  5
352
100
AcDbEntity
  8
L1
100
AcDbCircle
 10
-509.9448157505812
 20
99.99999999999978
 30
0.0
 40
4.649999999999995
  0
LINE
  5
353
100
AcDbEntity
  8
L1
100
AcDbLine
 10
-781.9448157505807
 20
120.5
 30
0.0
 11
-769.5245055337982
 21
120.5
 31
0.0
  0
LINE
  5
354
100
AcDbEntity
  8
L1
100
AcDbLine
 10
-781.9448157505807
 20
122.9999999999999
 30
0.0
 11
-770.5600394397306
 21
122.9999999999999
 31
0.0
  0
LINE
  5
355
100
AcDbEntity
  8
L1
100
AcDbLine
 10
-781.9448157505807
 20
122.9999999999999
 30
0.0
 11
-781.9448157505807
 21
120.5
 31
0.0
  0
CIRCLE
  5
357
100
AcDbEntity
  8
L1
100
AcDbCircle
 10
-769.9448157505807
 20
99.99999999999978
 30
0.0
 40
3.499999999999995
  0
LINE
  5
358
100
AcDbEntity
  8
L6
 48
0.25
100
AcDbLine
 10
-776.9448157505808
 20
99.99999999999978
 30
0.0
 11
-762.9448157505808
 21
99.99999999999978
 31
0.0
  0
LINE
  5
359
100
AcDbEntity
  8
L1
100
AcDbLine
 10
-643.9448157505808
 20
79.99999999999977
 30
0.0
 11
-685.9448157505807
 21
79.99999999999977
 31
0.0
  0
LINE
  5
35A
100
AcDbEntity
  8
L1
100
AcDbLine
 10
-643.9448157505812
 20
79.99999999999977
 30
0.0
 11
-643.9448157505808
 21
127.6288188597238
 31
0.0
  0
LINE
  5
35B
100
AcDbEntity
  8
L6
 48
0.25
100
AcDbLine
 10
-769.9448157505807
 20
94.99999999999976
 30
0.0
 11
-769.9448157505807
 21
104.9999999999997
 31
0.0
  0
CIRCLE
  5
35C
100
AcDbEntity
  8
L1
100
AcDbCircle
 10
-769.9448157505807
 20
99.99999999999978
 30
0.0
 40
4.649999999999995
  0
ARC
  5
35D
100
AcDbEntity
  8
L1
100
AcDbCircle
 10
-639.9448157505812
 20
129.9999999999997
 30
0.0
 40
4.649999999999995
100
AcDbArc
 50
270.0
 51
90.0
  0
LINE
  5
35E
100
AcDbEntity
  8
L6
 48
0.25
100
AcDbLine
 10
-775.9448157505808
 20
144.9999999999997
 30
0.0
 11
-775.9448157505808
 21
126.9999999999997
 31
0.0
  0
LINE
  5
35F
100
AcDbEntity
  8
L6
100
AcDbLine
 10
0.9627854705339444
 20
-153.6188613029105
 30
0.0
 11
0.9627854705339586
 21
152.6741110138964
 31
0.0
  0
CIRCLE
  5
360
100
AcDbEntity
  8
L1
100
AcDbCircle
 10
-739.9448157505807
 20
129.9999999999997
 30
0.0
 40
4.649999999999995
  0
LINE
  5
361
100
AcDbEntity
  8
L6
 48
0.25
100
AcDbLine
 10
-639.9448157505812
 20
136.9999999999997
 30
0.0
 11
-639.9448157505812
 21
122.9999999999999
 31
0.0
  0
LINE
  5
362
100
AcDbEntity
  8
L6
 48
0.25
100
AcDbLine
 10
-739.9448157505807
 20
124.9999999999997
 30
0.0
 11
-739.9448157505807
 21
134.9999999999997
 31
0.0
  0
ARC
  5
363
100
AcDbEntity
  8
L1
100
AcDbCircle
 10
-639.9448157505812
 20
129.9999999999997
 30
0.0
 40
4.649999999999995
100
AcDbArc
 50
90.0
 51
270.0
  0
LINE
  5
364
100
AcDbEntity
  8
L6
 48
0.25
100
AcDbLine
 10
-639.9448157505812
 20
124.9999999999997
 30
0.0
 11
-639.9448157505812
 21
134.9999999999997
 31
0.0
  0
LINE
  5
365
100
AcDbEntity
  8
L1
100
AcDbLine
 10
-769.5245055337982
 20
120.5
 30
0.0
 11
-760.4448157505808
 21
129.5796897832169
 31
0.0
  0
LINE
  5
366
100
AcDbEntity
  8
L1
100
AcDbLine
 10
-770.5600394397306
 20
122.9999999999999
 30
0.0
 11
-762.9448157505808
 21
130.6152236891496
 31
0.0
  0
CIRCLE
  5
367
100
AcDbEntity
  8
L1
100
AcDbCircle
 10
-739.9448157505807
 20
129.9999999999997
 30
0.0
 40
3.499999999999995
  0
ARC
  5
368
100
AcDbEntity
  8
L1
100
AcDbCircle
 10
-639.9448157505812
 20
129.9999999999997
 30
0.0
 40
3.499999999999995
100
AcDbArc
 50
270.0
 51
90.0
  0
ARC
  5
369
100
AcDbEntity
  8
L1
100
AcDbCircle
 10
-639.9448157505812
 20
129.9999999999997
 30
0.0
 40
3.499999999999995
100
AcDbArc
 50
90.0
 51
270.0
  0
LINE
  5
36A
100
AcDbEntity
  8
L6
 48
0.25
100
AcDbLine
 10
-503.9448157505812
 20
144.9999999999997
 30
0.0
 11
-503.9448157505812
 21
126.9999999999997
 31
0.0
  0
CIRCLE
  5
36B
100
AcDbEntity
  8
L1
100
AcDbCircle
 10
-539.9448157505812
 20
129.9999999999997
 30
0.0
 40
4.649999999999995
  0
LINE
  5
36C
100
AcDbEntity
  8
L6
 48
0.25
100
AcDbLine
 10
-539.9448157505812
 20
124.9999999999997
 30
0.0
 11
-539.9448157505812
 21
134.9999999999997
 31
0.0
  0
LINE
  5
36D
100
AcDbEntity
  8
L1
100
AcDbLine
 10
-510.3651259673638
 20
120.5
 30
0.0
 11
-519.4448157505816
 21
129.5796897832169
 31
0.0
  0
CIRCLE
  5
36E
100
AcDbEntity
  8
L1
100
AcDbCircle
 10
-539.9448157505812
 20
129.9999999999997
 30
0.0
 40
3.499999999999995
  0
LINE
  5
36F
100
AcDbEntity
  8
L1
100
AcDbLine
 10
-509.3295920614314
 20
122.9999999999999
 30
0.0
 11
-516.9448157505817
 21
130.6152236891496
 31
0.0
  0
LINE
  5
370
100
AcDbEntity
  8
L1
100
AcDbLine
 10
-495.9448157505812
 20
54.0
 30
0.0
 11
-507.5736346103053
 21
54.0
 31
0.0
  0
LINE
  5
371
100
AcDbEntity
  8
L6
 48
0.25
100
AcDbLine
 10
-502.9448157505812
 20
50.0
 30
0.0
 11
-516.9448157505812
 21
50.0
 31
0.0
  0
LINE
  5
372
100
AcDbEntity
  8
L1
100
AcDbLine
 10
-507.5736346103053
 20
46.0
 30
0.0
 11
-495.9448157505812
 21
46.0
 31
0.0
  0
CIRCLE
  5
373
100
AcDbEntity
  8
L1
100
AcDbCircle
 10
-509.9448157505812
 20
50.0
 30
0.0
 40
4.649999999999995
  0
LINE
  5
374
100
AcDbEntity
  8
L1
100
AcDbLine
 10
-495.9448157505812
 20
46.0
 30
0.0
 11
-495.9448157505812
 21
54.0
 31
0.0
  0
LINE
  5
375
100
AcDbEntity
  8
L6
 48
0.25
100
AcDbLine
 10
-509.9448157505812
 20
45.0
 30
0.0
 11
-509.9448157505812
 21
55.0
 31
0.0
  0
CIRCLE
  5
376
100
AcDbEntity
  8
L1
100
AcDbCircle
 10
-509.9448157505812
 20
50.0
 30
0.0
 40
3.499999999999995
  0
LINE
  5
377
100
AcDbEntity
  8
L1
100
AcDbLine
 10
-559.9448157505812
 20
46.0
 30
0.0
 11
-512.3159968908571
 21
46.0
 31
0.0
  0
LINE
  5
378
100
AcDbEntity
  8
L1
100
AcDbLine
 10
-512.3159968908571
 20
54.0
 30
0.0
 11
-559.9448157505812
 21
54.0
 31
0.0
  0
LINE
  5
379
100
AcDbEntity
  8
L1
100
AcDbLine
 10
-495.9448157505812
 20
4.0
 30
0.0
 11
-507.5736346103053
 21
4.0
 31
0.0
  0
LINE
  5
37B
100
AcDbEntity
  8
L1
100
AcDbLine
 10
-512.3159968908571
 20
4.0
 30
0.0
 11
-559.9448157505812
 21
4.0
 31
0.0
  0
LINE
  5
37C
100
AcDbEntity
  8
L1
100
AcDbLine
 10
-559.9448157505812
 20
4.0
 30
0.0
 11
-559.9448157505812
 21
46.0
 31
0.0
  0
LINE
  5
37D
100
AcDbEntity
  8
L1
100
AcDbLine
 10
-783.9448157505808
 20
54.0
 30
0.0
 11
-772.3159968908567
 21
54.0
 31
0.0
  0
LINE
  5
37E
100
AcDbEntity
  8
L6
 48
0.25
100
AcDbLine
 10
-776.9448157505808
 20
50.0
 30
0.0
 11
-762.9448157505808
 21
50.0
 31
0.0
  0
LINE
  5
37F
100
AcDbEntity
  8
L1
100
AcDbLine
 10
-772.3159968908567
 20
46.0
 30
0.0
 11
-783.9448157505808
 21
46.0
 31
0.0
  0
LINE
  5
380
100
AcDbEntity
  8
L1
100
AcDbLine
 10
-783.9448157505808
 20
46.0
 30
0.0
 11
-783.9448157505808
 21
54.0
 31
0.0
  0
CIRCLE
  5
381
100
AcDbEntity
  8
L1
100
AcDbCircle
 10
-769.9448157505807
 20
50.0
 30
0.0
 40
3.499999999999995
  0
LINE
  5
382
100
AcDbEntity
  8
L6
 48
0.25
100
AcDbLine
 10
-769.9448157505807
 20
45.0
 30
0.0
 11
-769.9448157505807
 21
55.0
 31
0.0
  0
CIRCLE
  5
383
100
AcDbEntity
  8
L1
100
AcDbCircle
 10
-769.9448157505807
 20
50.0
 30
0.0
 40
4.649999999999995
  0
LINE
  5
384
100
AcDbEntity
  8
L1
100
AcDbLine
 10
-719.9448157505807
 20
46.0
 30
0.0
 11
-767.5736346103049
 21
46.0
 31
0.0
  0
LINE
  5
385
100
AcDbEntity
  8
L1
100
AcDbLine
 10
-767.5736346103049
 20
54.0
 30
0.0
 11
-719.9448157505807
 21
54.0
 31
0.0
  0
LINE
  5
386
100
AcDbEntity
  8
L1
100
AcDbLine
 10
-783.9448157505808
 20
4.0
 30
0.0
 11
-772.3159968908567
 21
4.0
 31
0.0
  0
LINE
  5
388
100
AcDbEntity
  8
L1
100
AcDbLine
 10
-767.5736346103049
 20
4.0
 30
0.0
 11
-719.9448157505807
 21
4.0
 31
0.0
  0
LINE
  5
389
100
AcDbEntity
  8
L1
100
AcDbLine
 10
-719.9448157505807
 20
4.0
 30
0.0
 11
-719.9448157505807
 21
46.0
 31
0.0
  0
CIRCLE
  5
3A3
100
AcDbEntity
  8
L1
100
AcDbCircle
 10
-769.9448157505807
 20
0.0
 30
0.0
 40
3.499999999999995
  0
LINE
  5
3A4
100
AcDbEntity
  8
L6
 48
0.25
100
AcDbLine
 10
-769.9448157505807
 20
-5.0
 30
0.0
 11
-769.9448157505807
 21
5.0
 31
0.0
  0
CIRCLE
  5
3A5
100
AcDbEntity
  8
L1
100
AcDbCircle
 10
-769.9448157505807
 20
0.0
 30
0.0
 40
4.649999999999995
  0
LINE
  5
3A6
100
AcDbEntity
  8
L1
100
AcDbLine
 10
-783.9448157505808
 20
-4.000000000000227
 30
0.0
 11
-783.9448157505808
 21
4.0
 31
0.0
  0
CIRCLE
  5
3A7
100
AcDbEntity
  8
L1
100
AcDbCircle
 10
-509.9448157505812
 20
0.0
 30
0.0
 40
4.649999999999995
  0
LINE
  5
3A8
100
AcDbEntity
  8
L1
100
AcDbLine
 10
-495.9448157505812
 20
-4.000000000000227
 30
0.0
 11
-495.9448157505812
 21
4.0
 31
0.0
  0
LINE
  5
3A9
100
AcDbEntity
  8
L6
 48
0.25
100
AcDbLine
 10
-509.9448157505812
 20
-5.0
 30
0.0
 11
-509.9448157505812
 21
5.0
 31
0.0
  0
CIRCLE
  5
3AA
100
AcDbEntity
  8
L1
100
AcDbCircle
 10
-509.9448157505812
 20
0.0
 30
0.0
 40
3.499999999999995
  0
LINE
  5
414
100
AcDbEntity
  8
L1
100
AcDbLine
 10
-785.3731563858755
 20
130.4283406352949
 30
0.0
 11
-785.3731563858755
 21
-130.4283406352948
 31
0.0
  0
LINE
  5
415
100
AcDbEntity
  8
L1
100
AcDbLine
 10
-788.9448157505808
 20
146.4999999999997
 30
0.0
 11
-788.944815750578
 21
-146.4999999999997
 31
0.0
  0
LINE
  5
418
100
AcDbEntity
  8
L1
100
AcDbLine
 10
-719.9448157505807
 20
54.0
 30
0.0
 11
-719.9448157505807
 21
79.99999999999977
 31
0.0
  0
LINE
  5
419
100
AcDbEntity
  8
L1
100
AcDbLine
 10
-559.9448157505812
 20
54.0
 30
0.0
 11
-559.9448157505812
 21
79.99999999999977
 31
0.0
  0
LINE
  5
41A
100
AcDbEntity
  8
L1
100
AcDbLine
 10
-494.5164751152865
 20
130.4283406352949
 30
0.0
 11
-494.5164751152847
 21
-130.4283406352967
 31
0.0
  0
LINE
  5
41B
100
AcDbEntity
  8
L1
100
AcDbLine
 10
-490.9448157505813
 20
-146.4999999999997
 30
0.0
 11
-490.9448157505813
 21
146.4999999999997
 31
0.0
  0
LINE
  5
41D
100
AcDbEntity
  8
L1
100
AcDbLine
 10
-143.5372145294655
 20
242.8172949971708
 30
0.0
 11
-143.5372145294655
 21
243.3172949971706
 31
0.0
  0
LINE
  5
422
100
AcDbEntity
  8
L2
 48
2.0
100
AcDbLine
 10
-137.0372145294658
 20
246.817294997171
 30
0.0
 11
138.9627854705337
 21
246.817294997171
 31
0.0
1001
ACAD
1000
ASC_BOUNDS
1002
{
1070
    19
1002
}
  0
LINE
  5
444
100
AcDbEntity
  8
L1
100
AcDbLine
 10
-49.03721452946559
 20
241.317294997171
 30
0.0
 11
-45.53721452946604
 21
241.317294997171
 31
0.0
  0
LINE
  5
445
100
AcDbEntity
  8
L1
100
AcDbLine
 10
-45.53721452946604
 20
241.317294997171
 30
0.0
 11
-44.67118912568159
 21
242.8172949971708
 31
0.0
  0
LINE
  5
447
100
AcDbEntity
  8
L1
100
AcDbLine
 10
-52.53721452946559
 20
241.317294997171
 30
0.0
 11
-53.40323993325006
 21
242.8172949971708
 31
0.0
  0
LINE
  5
449
100
AcDbEntity
  8
L1
100
AcDbLine
 10
-49.03721452946559
 20
241.317294997171
 30
0.0
 11
-52.53721452946559
 21
241.317294997171
 31
0.0
  0
LINE
  5
46B
100
AcDbEntity
  8
L1
100
AcDbLine
 10
-148.0372145294655
 20
373.3172949971708
 30
0.0
 11
-148.0372145294655
 21
366.117294997171
 31
0.0
1001
ACAD
1000
ASC_BOUNDS
1002
{
1070
    19
1002
}
  0
LINE
  5
46C
100
AcDbEntity
  8
L1
100
AcDbLine
 10
-148.0372145294655
 20
366.117294997171
 30
0.0
 11
-145.5360706168879
 21
365.9862155990452
 31
0.0
1001
ACAD
1000
ASC_BOUNDS
1002
{
1070
    19
1002
}
  0
LINE
  5
46E
100
AcDbEntity
  8
L1
100
AcDbLine
 10
-144.0372145294655
 20
373.3172949971708
 30
0.0
 11
-143.2333669521723
 21
376.3172949971708
 31
0.0
1001
ACAD
1000
ASC_BOUNDS
1002
{
1070
    19
1002
}
  0
LINE
  5
486
100
AcDbEntity
  8
L1
100
AcDbLine
 10
-143.2333669521723
 20
376.3172949971708
 30
0.0
 11
145.1589378932402
 21
376.3172949971709
 31
0.0
  0
LINE
  5
4C9
100
AcDbEntity
  8
L2
100
AcDbLine
 10
-9.037214529466041
 20
252.317294997171
 30
0.0
 11
10.96278547053396
 21
252.317294997171
 31
0.0
  0
LINE
  5
4CA
100
AcDbEntity
  8
L2
100
AcDbLine
 10
-9.037214529466041
 20
252.317294997171
 30
0.0
 11
-9.085212302315198
 21
246.8172949971708
 31
0.0
  0
LINE
  5
4CB
100
AcDbEntity
  8
L2
100
AcDbLine
 10
-4.037214529466041
 20
252.317294997171
 30
0.0
 11
-4.229888120310192
 21
246.7998452488198
 31
0.0
  0
LINE
  5
4D0
100
AcDbEntity
  8
L1
100
AcDbLine
 10
4.462785470533574
 20
241.317294997171
 30
0.0
 11
-2.537214529465586
 21
241.317294997171
 31
0.0
  0
LINE
  5
4D1
100
AcDbEntity
  8
L1
100
AcDbLine
 10
-2.537214529465586
 20
241.317294997171
 30
0.0
 11
-3.403239933250688
 21
242.817294997171
 31
0.0
  0
LINE
  5
4D3
100
AcDbEntity
  8
L1
100
AcDbLine
 10
-95.53721452946604
 20
241.317294997171
 30
0.0
 11
-94.67118912568151
 21
242.8172949971708
 31
0.0
  0
LINE
  5
4D4
100
AcDbEntity
  8
L1
100
AcDbLine
 10
-99.03721452946559
 20
241.317294997171
 30
0.0
 11
-95.53721452946604
 21
241.317294997171
 31
0.0
  0
LINE
  5
4E3
100
AcDbEntity
  8
L1
100
AcDbLine
 10
-121.9372145294656
 20
241.317294997171
 30
0.0
 11
-121.9372145294656
 21
242.8172949971708
 31
0.0
  0
LINE
  5
4E4
100
AcDbEntity
  8
L1
100
AcDbLine
 10
-119.4372145294656
 20
241.317294997171
 30
0.0
 11
-119.4372145294656
 21
243.317294997171
 31
0.0
  0
LINE
  5
4E5
100
AcDbEntity
  8
L1
100
AcDbLine
 10
-102.5372145294655
 20
241.317294997171
 30
0.0
 11
-103.4032399332498
 21
242.8172949971708
 31
0.0
  0
LINE
  5
4E6
100
AcDbEntity
  8
L1
100
AcDbLine
 10
-141.0372145294655
 20
241.317294997171
 30
0.0
 11
-132.5372145294655
 21
241.317294997171
 31
0.0
  0
LINE
  5
4E7
100
AcDbEntity
  8
L1
100
AcDbLine
 10
-141.0372145294655
 20
242.8172949971708
 30
0.0
 11
-141.0372145294655
 21
241.317294997171
 31
0.0
  0
LINE
  5
4E8
100
AcDbEntity
  8
L1
100
AcDbLine
 10
-132.5372145294655
 20
241.317294997171
 30
0.0
 11
-133.4032399332497
 21
242.8172949971708
 31
0.0
  0
LINE
  5
4E9
100
AcDbEntity
  8
L1
100
AcDbLine
 10
-132.5372145294655
 20
241.317294997171
 30
0.0
 11
-125.537214529466
 21
241.317294997171
 31
0.0
  0
LINE
  5
4EA
100
AcDbEntity
  8
L1
100
AcDbLine
 10
-125.537214529466
 20
241.317294997171
 30
0.0
 11
-124.6711891256815
 21
242.8172949971708
 31
0.0
  0
LINE
  5
4EB
100
AcDbEntity
  8
L1
100
AcDbLine
 10
-125.537214529466
 20
241.317294997171
 30
0.0
 11
-119.4372145294656
 21
241.317294997171
 31
0.0
  0
LINE
  5
4EE
100
AcDbEntity
  8
L1
100
AcDbLine
 10
-99.03721452946559
 20
241.317294997171
 30
0.0
 11
-102.5372145294655
 21
241.317294997171
 31
0.0
  0
LINE
  5
4F4
100
AcDbEntity
  8
L6
100
AcDbLine
 10
0.9627854705339586
 20
380.97933181801
 30
0.0
 11
0.9627854705339586
 21
231.0423805537066
 31
0.0
  0
LINE
  5
4F7
100
AcDbEntity
  8
L1
100
AcDbLine
 10
-146.5372145294655
 20
243.3172949971713
 30
0.0
 11
-146.5372145294651
 21
366.0386833282462
 31
0.0
  0
LINE
  5
582
100
AcDbEntity
  8
L1
100
AcDbLine
 10
-786.4448157505807
 20
-148.9999999999993
 30
0.0
 11
-493.4448157505812
 21
-149.000000000002
 31
0.0
  0
LINE
  5
583
100
AcDbEntity
  8
L1
100
AcDbLine
 10
-781.9448157505807
 20
-122.9999999999999
 30
0.0
 11
-770.5600394397306
 21
-122.9999999999999
 31
0.0
  0
LINE
  5
584
100
AcDbEntity
  8
L1
100
AcDbLine
 10
-781.9448157505807
 20
-120.5
 30
0.0
 11
-769.5245055337982
 21
-120.5
 31
0.0
  0
CIRCLE
  5
585
100
AcDbEntity
  8
L1
100
AcDbCircle
 10
-775.9448157505808
 20
-135.9999999999997
 30
0.0
 40
5.449999999999993
  0
CIRCLE
  5
586
100
AcDbEntity
  8
L1
100
AcDbCircle
 10
-775.9448157505808
 20
-135.9999999999997
 30
0.0
 40
3.449999999999996
  0
LINE
  5
587
100
AcDbEntity
  8
L6
 48
0.25
100
AcDbLine
 10
-784.9448157505808
 20
-135.9999999999997
 30
0.0
 11
-766.9448157505808
 21
-135.9999999999997
 31
0.0
  0
LINE
  5
588
100
AcDbEntity
  8
L1
100
AcDbLine
 10
-784.9448157505812
 20
-147.4999999999997
 30
0.0
 11
-772.4448157505812
 21
-147.4999999999997
 31
0.0
  0
LINE
  5
589
100
AcDbEntity
  8
L6
 48
0.25
100
AcDbLine
 10
-776.9448157505808
 20
-99.99999999999978
 30
0.0
 11
-762.9448157505808
 21
-99.99999999999978
 31
0.0
  0
LINE
  5
58A
100
AcDbEntity
  8
L1
100
AcDbLine
 10
-772.3159968908567
 20
-46.0
 30
0.0
 11
-783.9448157505808
 21
-46.0
 31
0.0
  0
LINE
  5
58B
100
AcDbEntity
  8
L6
 48
0.25
100
AcDbLine
 10
-776.9448157505808
 20
-50.0
 30
0.0
 11
-762.9448157505808
 21
-50.0
 31
0.0
  0
LINE
  5
58C
100
AcDbEntity
  8
L1
100
AcDbLine
 10
-783.9448157505808
 20
-54.0
 30
0.0
 11
-772.3159968908567
 21
-54.0
 31
0.0
  0
LINE
  5
58D
100
AcDbEntity
  8
L1
100
AcDbLine
 10
-783.9448157505808
 20
-4.0
 30
0.0
 11
-772.3159968908567
 21
-4.0
 31
0.0
  0
LINE
  5
58E
100
AcDbEntity
  8
L1
100
AcDbLine
 10
-783.9448157505808
 20
-46.0
 30
0.0
 11
-783.9448157505808
 21
-54.0
 31
0.0
  0
LINE
  5
58F
100
AcDbEntity
  8
L1
100
AcDbLine
 10
-787.4448157505812
 20
-144.9999999999997
 30
0.0
 11
-787.4448157505808
 21
-132.4999999999997
 31
0.0
  0
LINE
  5
590
100
AcDbEntity
  8
L6
 48
0.25
100
AcDbLine
 10
-775.9448157505808
 20
-144.9999999999997
 30
0.0
 11
-775.9448157505808
 21
-126.9999999999997
 31
0.0
  0
LINE
  5
591
100
AcDbEntity
  8
L1
100
AcDbLine
 10
-781.9448157505807
 20
-122.9999999999999
 30
0.0
 11
-781.9448157505807
 21
-120.5
 31
0.0
  0
LINE
  5
592
100
AcDbEntity
  8
L1
100
AcDbLine
 10
-787.4448157505808
 20
-132.4999999999997
 30
0.0
 11
-785.3731563858755
 21
-130.4283406352949
 31
0.0
  0
ARC
  5
593
100
AcDbEntity
  8
L1
100
AcDbCircle
 10
-786.4448157505807
 20
-146.4999999999997
 30
0.0
 40
2.499999999999996
100
AcDbArc
 50
180.0
 51
269.9999999999995
  0
LINE
  5
594
100
AcDbEntity
  8
L1
100
AcDbLine
 10
-786.0054759223608
 20
-147.2638462845341
 30
0.0
 11
-786.0054759223608
 21
-147.06066017178
 31
0.0
  0
ARC
  5
595
100
AcDbEntity
  8
L1
100
AcDbCircle
 10
-784.9448157505812
 20
-144.9999999999997
 30
0.0
 40
2.499999999999996
100
AcDbArc
 50
244.8959097497753
 51
269.9999999999996
  0
ARC
  5
596
100
AcDbEntity
  8
L1
100
AcDbCircle
 10
-784.9448157505812
 20
-144.9999999999997
 30
0.0
 40
2.499999999999996
100
AcDbArc
 50
180.0
 51
205.1040902502147
  0
LINE
  5
598
100
AcDbEntity
  8
L1
100
AcDbLine
 10
-787.2086620351151
 20
-146.0606601717797
 30
0.0
 11
-787.0054759223608
 21
-146.0606601717797
 31
0.0
  0
ARC
  5
599
100
AcDbEntity
  8
L1
100
AcDbCircle
 10
-787.0054759223608
 20
-147.0606601717797
 30
0.0
 40
0.9999999999999989
100
AcDbArc
 50
359.9999999999973
 51
90.0000000000027
  0
LINE
  5
59A
100
AcDbEntity
  8
L1
100
AcDbLine
 10
-770.3731563858751
 20
-145.428340635294
 30
0.0
 11
-509.5164751152834
 21
-145.4283406352974
 31
0.0
  0
LINE
  5
59B
100
AcDbEntity
  8
L1
100
AcDbLine
 10
-585.9448157505807
 20
-79.99999999999977
 30
0.0
 11
-559.9448157505812
 21
-79.99999999999977
 31
0.0
  0
LINE
  5
59C
100
AcDbEntity
  8
L1
100
AcDbLine
 10
-719.9448157505807
 20
-54.0
 30
0.0
 11
-719.9448157505807
 21
-79.99999999999977
 31
0.0
  0
LINE
  5
59D
100
AcDbEntity
  8
L1
100
AcDbLine
 10
-767.5736346103049
 20
-4.0
 30
0.0
 11
-719.9448157505807
 21
-4.0
 31
0.0
  0
LINE
  5
59E
100
AcDbEntity
  8
L1
100
AcDbLine
 10
-767.5736346103049
 20
-54.0
 30
0.0
 11
-719.9448157505807
 21
-54.0
 31
0.0
  0
LINE
  5
59F
100
AcDbEntity
  8
L1
100
AcDbLine
 10
-719.9448157505807
 20
-46.0
 30
0.0
 11
-767.5736346103049
 21
-46.0
 31
0.0
  0
LINE
  5
5A0
100
AcDbEntity
  8
L6
 48
0.25
100
AcDbLine
 10
-769.9448157505807
 20
-45.0
 30
0.0
 11
-769.9448157505807
 21
-55.0
 31
0.0
  0
CIRCLE
  5
5A1
100
AcDbEntity
  8
L1
100
AcDbCircle
 10
-769.9448157505807
 20
-50.0
 30
0.0
 40
3.499999999999995
  0
CIRCLE
  5
5A2
100
AcDbEntity
  8
L1
100
AcDbCircle
 10
-769.9448157505807
 20
-50.0
 30
0.0
 40
4.649999999999995
  0
LINE
  5
5A3
100
AcDbEntity
  8
L1
100
AcDbLine
 10
-719.9448157505807
 20
-4.0
 30
0.0
 11
-719.9448157505807
 21
-46.0
 31
0.0
  0
LINE
  5
5A4
100
AcDbEntity
  8
L1
100
AcDbLine
 10
-643.9448157505808
 20
-79.99999999999977
 30
0.0
 11
-685.9448157505807
 21
-79.99999999999977
 31
0.0
  0
LINE
  5
5A5
100
AcDbEntity
  8
L1
100
AcDbLine
 10
-685.9448157505807
 20
-132.3711811402761
 30
0.0
 11
-685.9448157505807
 21
-143.9999999999997
 31
0.0
  0
LINE
  5
5A6
100
AcDbEntity
  8
L1
100
AcDbLine
 10
-693.9448157505808
 20
-132.3711811402761
 30
0.0
 11
-693.9448157505808
 21
-143.9999999999997
 31
0.0
  0
LINE
  5
5A7
100
AcDbEntity
  8
L6
 48
0.25
100
AcDbLine
 10
-769.9448157505807
 20
-94.99999999999976
 30
0.0
 11
-769.9448157505807
 21
-104.9999999999997
 31
0.0
  0
CIRCLE
  5
5A8
100
AcDbEntity
  8
L1
100
AcDbCircle
 10
-769.9448157505807
 20
-99.99999999999978
 30
0.0
 40
3.499999999999995
  0
CIRCLE
  5
5A9
100
AcDbEntity
  8
L1
100
AcDbCircle
 10
-769.9448157505807
 20
-99.99999999999978
 30
0.0
 40
4.649999999999995
  0
LINE
  5
5AA
100
AcDbEntity
  8
L1
100
AcDbLine
 10
-770.5600394397306
 20
-122.9999999999999
 30
0.0
 11
-762.9448157505808
 21
-130.6152236891496
 31
0.0
  0
LINE
  5
5AB
100
AcDbEntity
  8
L1
100
AcDbLine
 10
-769.5245055337982
 20
-120.5
 30
0.0
 11
-760.4448157505808
 21
-129.5796897832169
 31
0.0
  0
LINE
  5
5AC
100
AcDbEntity
  8
L1
100
AcDbLine
 10
-760.4448157505808
 20
-141.9999999999997
 30
0.0
 11
-760.4448157505808
 21
-129.5796897832169
 31
0.0
  0
LINE
  5
5AD
100
AcDbEntity
  8
L1
100
AcDbLine
 10
-762.9448157505808
 20
-141.9999999999997
 30
0.0
 11
-762.9448157505808
 21
-130.6152236891496
 31
0.0
  0
LINE
  5
5AE
100
AcDbEntity
  8
L1
100
AcDbLine
 10
-762.9448157505808
 20
-141.9999999999997
 30
0.0
 11
-760.4448157505808
 21
-141.9999999999997
 31
0.0
  0
LINE
  5
5AF
100
AcDbEntity
  8
L6
 48
0.25
100
AcDbLine
 10
-739.9448157505807
 20
-124.9999999999997
 30
0.0
 11
-739.9448157505807
 21
-134.9999999999997
 31
0.0
  0
LINE
  5
5B0
100
AcDbEntity
  8
L6
 48
0.25
100
AcDbLine
 10
-744.9448157505807
 20
-129.9999999999997
 30
0.0
 11
-734.9448157505808
 21
-129.9999999999997
 31
0.0
  0
CIRCLE
  5
5B1
100
AcDbEntity
  8
L1
100
AcDbCircle
 10
-739.9448157505807
 20
-129.9999999999997
 30
0.0
 40
3.499999999999995
  0
CIRCLE
  5
5B2
100
AcDbEntity
  8
L1
100
AcDbCircle
 10
-739.9448157505807
 20
-129.9999999999997
 30
0.0
 40
4.649999999999995
  0
LINE
  5
5B3
100
AcDbEntity
  8
L1
100
AcDbLine
 10
-693.9448157505812
 20
-79.99999999999977
 30
0.0
 11
-693.9448157505808
 21
-127.6288188597238
 31
0.0
  0
LINE
  5
5B4
100
AcDbEntity
  8
L1
100
AcDbLine
 10
-685.9448157505807
 20
-79.99999999999977
 30
0.0
 11
-685.9448157505807
 21
-127.6288188597238
 31
0.0
  0
LINE
  5
5B5
100
AcDbEntity
  8
L1
100
AcDbLine
 10
-719.9448157505807
 20
-79.99999999999977
 30
0.0
 11
-693.9448157505812
 21
-79.99999999999977
 31
0.0
  0
LINE
  5
5B6
100
AcDbEntity
  8
L6
 48
0.25
100
AcDbLine
 10
-689.9448157505807
 20
-124.9999999999997
 30
0.0
 11
-689.9448157505807
 21
-134.9999999999997
 31
0.0
  0
LINE
  5
5B7
100
AcDbEntity
  8
L6
 48
0.25
100
AcDbLine
 10
-694.9448157505807
 20
-129.9999999999997
 30
0.0
 11
-684.9448157505808
 21
-129.9999999999997
 31
0.0
  0
CIRCLE
  5
5B8
100
AcDbEntity
  8
L1
100
AcDbCircle
 10
-689.9448157505807
 20
-129.9999999999997
 30
0.0
 40
4.649999999999995
  0
CIRCLE
  5
5B9
100
AcDbEntity
  8
L1
100
AcDbCircle
 10
-689.9448157505807
 20
-129.9999999999997
 30
0.0
 40
3.499999999999995
  0
LINE
  5
5BA
100
AcDbEntity
  8
L1
100
AcDbLine
 10
-772.4448157505812
 20
-147.4999999999997
 30
0.0
 11
-770.3731563858755
 21
-145.4283406352949
 31
0.0
  0
LINE
  5
5BB
100
AcDbEntity
  8
L1
100
AcDbLine
 10
-693.9448157505812
 20
-143.9999999999997
 30
0.0
 11
-689.9448157505807
 21
-143.9999999999997
 31
0.0
  0
LINE
  5
5BC
100
AcDbEntity
  8
L1
100
AcDbLine
 10
-685.9448157505807
 20
-143.9999999999997
 30
0.0
 11
-689.9448157505807
 21
-143.9999999999997
 31
0.0
  0
LINE
  5
5BD
100
AcDbEntity
  8
L1
100
AcDbLine
 10
-585.9448157505812
 20
-132.3711811402761
 30
0.0
 11
-585.9448157505812
 21
-143.9999999999997
 31
0.0
  0
LINE
  5
5BE
100
AcDbEntity
  8
L1
100
AcDbLine
 10
-593.9448157505808
 20
-132.3711811402761
 30
0.0
 11
-593.9448157505808
 21
-143.9999999999997
 31
0.0
  0
LINE
  5
5BF
100
AcDbEntity
  8
L1
100
AcDbLine
 10
-635.9448157505812
 20
-132.3711811402761
 30
0.0
 11
-635.9448157505812
 21
-143.9999999999997
 31
0.0
  0
LINE
  5
5C0
100
AcDbEntity
  8
L1
100
AcDbLine
 10
-643.9448157505808
 20
-132.3711811402761
 30
0.0
 11
-643.9448157505808
 21
-143.9999999999997
 31
0.0
  0
LINE
  5
5C2
100
AcDbEntity
  8
L1
100
AcDbLine
 10
-635.9448157505812
 20
-79.99999999999977
 30
0.0
 11
-593.9448157505812
 21
-79.99999999999977
 31
0.0
  0
LINE
  5
5C3
100
AcDbEntity
  8
L1
100
AcDbLine
 10
-643.9448157505812
 20
-79.99999999999977
 30
0.0
 11
-643.9448157505808
 21
-127.6288188597238
 31
0.0
  0
LINE
  5
5C4
100
AcDbEntity
  8
L1
100
AcDbLine
 10
-635.9448157505807
 20
-79.99999999999977
 30
0.0
 11
-635.9448157505812
 21
-127.6288188597238
 31
0.0
  0
LINE
  5
5C5
100
AcDbEntity
  8
L6
 48
0.25
100
AcDbLine
 10
-639.9448157505812
 20
-124.9999999999997
 30
0.0
 11
-639.9448157505812
 21
-134.9999999999997
 31
0.0
  0
LINE
  5
5C6
100
AcDbEntity
  8
L6
 48
0.25
100
AcDbLine
 10
-639.9448157505812
 20
-136.9999999999997
 30
0.0
 11
-639.9448157505812
 21
-122.9999999999999
 31
0.0
  0
LINE
  5
5C7
100
AcDbEntity
  8
L6
 48
0.25
100
AcDbLine
 10
-634.9448157505812
 20
-129.9999999999997
 30
0.0
 11
-644.9448157505813
 21
-129.9999999999997
 31
0.0
  0
LINE
  5
5C8
100
AcDbEntity
  8
L6
 48
0.25
100
AcDbLine
 10
-644.9448157505813
 20
-129.9999999999997
 30
0.0
 11
-634.9448157505812
 21
-129.9999999999997
 31
0.0
  0
ARC
  5
5C9
100
AcDbEntity
  8
L1
100
AcDbCircle
 10
-639.9448157505812
 20
-129.9999999999997
 30
0.0
 40
3.499999999999995
100
AcDbArc
 50
90.0
 51
270.0
  0
ARC
  5
5CA
100
AcDbEntity
  8
L1
100
AcDbCircle
 10
-639.9448157505812
 20
-129.9999999999997
 30
0.0
 40
4.649999999999995
100
AcDbArc
 50
90.0
 51
270.0
  0
ARC
  5
5CB
100
AcDbEntity
  8
L1
100
AcDbCircle
 10
-639.9448157505812
 20
-129.9999999999997
 30
0.0
 40
3.499999999999995
100
AcDbArc
 50
270.0
 51
90.0
  0
ARC
  5
5CC
100
AcDbEntity
  8
L1
100
AcDbCircle
 10
-639.9448157505812
 20
-129.9999999999997
 30
0.0
 40
4.649999999999995
100
AcDbArc
 50
270.0
 51
90.0
  0
LINE
  5
5CD
100
AcDbEntity
  8
L1
100
AcDbLine
 10
-593.9448157505812
 20
-79.99999999999977
 30
0.0
 11
-593.9448157505808
 21
-127.6288188597238
 31
0.0
  0
LINE
  5
5CE
100
AcDbEntity
  8
L1
100
AcDbLine
 10
-585.9448157505807
 20
-79.99999999999977
 30
0.0
 11
-585.9448157505812
 21
-127.6288188597238
 31
0.0
  0
LINE
  5
5CF
100
AcDbEntity
  8
L6
 48
0.25
100
AcDbLine
 10
-589.9448157505812
 20
-124.9999999999997
 30
0.0
 11
-589.9448157505812
 21
-134.9999999999997
 31
0.0
  0
LINE
  5
5D0
100
AcDbEntity
  8
L6
 48
0.25
100
AcDbLine
 10
-589.9448157505812
 20
-136.9999999999997
 30
0.0
 11
-589.9448157505812
 21
-122.9999999999999
 31
0.0
  0
LINE
  5
5D1
100
AcDbEntity
  8
L6
 48
0.25
100
AcDbLine
 10
-584.9448157505812
 20
-129.9999999999997
 30
0.0
 11
-594.9448157505812
 21
-129.9999999999997
 31
0.0
  0
LINE
  5
5D2
100
AcDbEntity
  8
L6
 48
0.25
100
AcDbLine
 10
-594.9448157505812
 20
-129.9999999999997
 30
0.0
 11
-584.9448157505812
 21
-129.9999999999997
 31
0.0
  0
ARC
  5
5D3
100
AcDbEntity
  8
L1
100
AcDbCircle
 10
-589.9448157505812
 20
-129.9999999999997
 30
0.0
 40
4.649999999999995
100
AcDbArc
 50
90.0
 51
270.0
  0
ARC
  5
5D4
100
AcDbEntity
  8
L1
100
AcDbCircle
 10
-589.9448157505812
 20
-129.9999999999997
 30
0.0
 40
3.499999999999995
100
AcDbArc
 50
90.0
 51
270.0
  0
ARC
  5
5D5
100
AcDbEntity
  8
L1
100
AcDbCircle
 10
-589.9448157505812
 20
-129.9999999999997
 30
0.0
 40
3.499999999999995
100
AcDbArc
 50
270.0
 51
90.0
  0
ARC
  5
5D6
100
AcDbEntity
  8
L1
100
AcDbCircle
 10
-589.9448157505812
 20
-129.9999999999997
 30
0.0
 40
4.649999999999995
100
AcDbArc
 50
270.0
 51
90.0
  0
LINE
  5
5D7
100
AcDbEntity
  8
L1
100
AcDbLine
 10
-643.9448157505812
 20
-143.9999999999997
 30
0.0
 11
-639.9448157505812
 21
-143.9999999999997
 31
0.0
  0
LINE
  5
5D8
100
AcDbEntity
  8
L1
100
AcDbLine
 10
-635.9448157505807
 20
-143.9999999999997
 30
0.0
 11
-639.9448157505812
 21
-143.9999999999997
 31
0.0
  0
LINE
  5
5D9
100
AcDbEntity
  8
L1
100
AcDbLine
 10
-593.9448157505812
 20
-143.9999999999997
 30
0.0
 11
-589.9448157505812
 21
-143.9999999999997
 31
0.0
  0
LINE
  5
5DA
100
AcDbEntity
  8
L1
100
AcDbLine
 10
-585.9448157505807
 20
-143.9999999999997
 30
0.0
 11
-589.9448157505812
 21
-143.9999999999997
 31
0.0
  0
LINE
  5
5DB
100
AcDbEntity
  8
L1
100
AcDbLine
 10
-559.9448157505812
 20
-54.0
 30
0.0
 11
-559.9448157505812
 21
-79.99999999999977
 31
0.0
  0
LINE
  5
5DC
100
AcDbEntity
  8
L1
100
AcDbLine
 10
-512.3159968908571
 20
-4.0
 30
0.0
 11
-559.9448157505812
 21
-4.0
 31
0.0
  0
LINE
  5
5DD
100
AcDbEntity
  8
L1
100
AcDbLine
 10
-512.3159968908571
 20
-54.0
 30
0.0
 11
-559.9448157505812
 21
-54.0
 31
0.0
  0
LINE
  5
5DE
100
AcDbEntity
  8
L1
100
AcDbLine
 10
-559.9448157505812
 20
-46.0
 30
0.0
 11
-512.3159968908571
 21
-46.0
 31
0.0
  0
LINE
  5
5DF
100
AcDbEntity
  8
L1
100
AcDbLine
 10
-559.9448157505812
 20
-4.0
 30
0.0
 11
-559.9448157505812
 21
-46.0
 31
0.0
  0
LINE
  5
5E0
100
AcDbEntity
  8
L1
100
AcDbLine
 10
-495.9448157505812
 20
-4.0
 30
0.0
 11
-507.5736346103053
 21
-4.0
 31
0.0
  0
CIRCLE
  5
5E1
100
AcDbEntity
  8
L1
100
AcDbCircle
 10
-509.9448157505812
 20
-50.0
 30
0.0
 40
3.499999999999995
  0
CIRCLE
  5
5E2
100
AcDbEntity
  8
L1
100
AcDbCircle
 10
-509.9448157505812
 20
-50.0
 30
0.0
 40
4.649999999999995
  0
LINE
  5
5E3
100
AcDbEntity
  8
L6
 48
0.25
100
AcDbLine
 10
-502.9448157505812
 20
-50.0
 30
0.0
 11
-516.9448157505812
 21
-50.0
 31
0.0
  0
LINE
  5
5E4
100
AcDbEntity
  8
L6
 48
0.25
100
AcDbLine
 10
-509.9448157505812
 20
-45.0
 30
0.0
 11
-509.9448157505812
 21
-55.0
 31
0.0
  0
LINE
  5
5E5
100
AcDbEntity
  8
L1
100
AcDbLine
 10
-495.9448157505812
 20
-46.0
 30
0.0
 11
-495.9448157505812
 21
-54.0
 31
0.0
  0
LINE
  5
5E6
100
AcDbEntity
  8
L1
100
AcDbLine
 10
-507.5736346103053
 20
-46.0
 30
0.0
 11
-495.9448157505812
 21
-46.0
 31
0.0
  0
LINE
  5
5E7
100
AcDbEntity
  8
L1
100
AcDbLine
 10
-495.9448157505812
 20
-54.0
 30
0.0
 11
-507.5736346103053
 21
-54.0
 31
0.0
  0
LINE
  5
5E8
100
AcDbEntity
  8
L1
100
AcDbLine
 10
-492.4448157505812
 20
-144.9999999999997
 30
0.0
 11
-492.4448157505812
 21
-132.4999999999997
 31
0.0
  0
LINE
  5
5E9
100
AcDbEntity
  8
L6
 48
0.25
100
AcDbLine
 10
-503.9448157505812
 20
-144.9999999999997
 30
0.0
 11
-503.9448157505812
 21
-126.9999999999997
 31
0.0
  0
LINE
  5
5EA
100
AcDbEntity
  8
L6
 48
0.25
100
AcDbLine
 10
-539.9448157505812
 20
-124.9999999999997
 30
0.0
 11
-539.9448157505812
 21
-134.9999999999997
 31
0.0
  0
LINE
  5
5EB
100
AcDbEntity
  8
L6
 48
0.25
100
AcDbLine
 10
-534.9448157505812
 20
-129.9999999999997
 30
0.0
 11
-544.9448157505812
 21
-129.9999999999997
 31
0.0
  0
CIRCLE
  5
5EC
100
AcDbEntity
  8
L1
100
AcDbCircle
 10
-539.9448157505812
 20
-129.9999999999997
 30
0.0
 40
3.499999999999995
  0
CIRCLE
  5
5ED
100
AcDbEntity
  8
L1
100
AcDbCircle
 10
-539.9448157505812
 20
-129.9999999999997
 30
0.0
 40
4.649999999999995
  0
CIRCLE
  5
5EE
100
AcDbEntity
  8
L1
100
AcDbCircle
 10
-509.9448157505812
 20
-99.99999999999978
 30
0.0
 40
4.649999999999995
  0
CIRCLE
  5
5EF
100
AcDbEntity
  8
L1
100
AcDbCircle
 10
-509.9448157505812
 20
-99.99999999999978
 30
0.0
 40
3.499999999999995
  0
LINE
  5
5F0
100
AcDbEntity
  8
L6
 48
0.25
100
AcDbLine
 10
-502.9448157505812
 20
-99.99999999999978
 30
0.0
 11
-516.9448157505812
 21
-99.99999999999978
 31
0.0
  0
LINE
  5
5F1
100
AcDbEntity
  8
L6
 48
0.25
100
AcDbLine
 10
-509.9448157505812
 20
-94.99999999999976
 30
0.0
 11
-509.9448157505812
 21
-104.9999999999997
 31
0.0
  0
LINE
  5
5F2
100
AcDbEntity
  8
L1
100
AcDbLine
 10
-497.9448157505812
 20
-122.9999999999999
 30
0.0
 11
-509.3295920614314
 21
-122.9999999999999
 31
0.0
  0
LINE
  5
5F3
100
AcDbEntity
  8
L1
100
AcDbLine
 10
-497.9448157505812
 20
-120.5
 30
0.0
 11
-510.3651259673638
 21
-120.5
 31
0.0
  0
LINE
  5
5F4
100
AcDbEntity
  8
L6
 48
0.25
100
AcDbLine
 10
-494.9448157505812
 20
-135.9999999999997
 30
0.0
 11
-512.9448157505812
 21
-135.9999999999997
 31
0.0
  0
CIRCLE
  5
5F5
100
AcDbEntity
  8
L1
100
AcDbCircle
 10
-503.9448157505812
 20
-135.9999999999997
 30
0.0
 40
5.449999999999993
  0
LINE
  5
5F6
100
AcDbEntity
  8
L1
100
AcDbLine
 10
-509.3295920614314
 20
-122.9999999999999
 30
0.0
 11
-516.9448157505817
 21
-130.6152236891496
 31
0.0
  0
LINE
  5
5F7
100
AcDbEntity
  8
L1
100
AcDbLine
 10
-510.3651259673638
 20
-120.5
 30
0.0
 11
-519.4448157505816
 21
-129.5796897832169
 31
0.0
  0
LINE
  5
5F8
100
AcDbEntity
  8
L1
100
AcDbLine
 10
-516.9448157505812
 20
-141.9999999999997
 30
0.0
 11
-516.9448157505817
 21
-130.6152236891496
 31
0.0
  0
LINE
  5
5F9
100
AcDbEntity
  8
L1
100
AcDbLine
 10
-519.4448157505812
 20
-141.9999999999997
 30
0.0
 11
-519.4448157505816
 21
-129.5796897832169
 31
0.0
  0
LINE
  5
5FA
100
AcDbEntity
  8
L1
100
AcDbLine
 10
-516.9448157505812
 20
-141.9999999999997
 30
0.0
 11
-519.4448157505812
 21
-141.9999999999997
 31
0.0
  0
LINE
  5
5FB
100
AcDbEntity
  8
L1
100
AcDbLine
 10
-497.9448157505812
 20
-122.9999999999999
 30
0.0
 11
-497.9448157505812
 21
-120.5
 31
0.0
  0
CIRCLE
  5
5FC
100
AcDbEntity
  8
L1
100
AcDbCircle
 10
-503.9448157505812
 20
-135.9999999999997
 30
0.0
 40
3.449999999999996
  0
LINE
  5
5FD
100
AcDbEntity
  8
L1
100
AcDbLine
 10
-492.4448157505812
 20
-132.4999999999997
 30
0.0
 11
-494.5164751152865
 21
-130.4283406352949
 31
0.0
  0
LINE
  5
5FE
100
AcDbEntity
  8
L1
100
AcDbLine
 10
-507.4448157505812
 20
-147.4999999999997
 30
0.0
 11
-509.5164751152865
 21
-145.4283406352944
 31
0.0
  0
LINE
  5
5FF
100
AcDbEntity
  8
L1
100
AcDbLine
 10
-494.9448157505812
 20
-147.4999999999997
 30
0.0
 11
-507.4448157505812
 21
-147.4999999999997
 31
0.0
  0
ARC
  5
601
100
AcDbEntity
  8
L1
100
AcDbCircle
 10
-494.9448157505812
 20
-144.9999999999997
 30
0.0
 40
2.499999999999996
100
AcDbArc
 50
270.0
 51
295.1040902502287
  0
LINE
  5
602
100
AcDbEntity
  8
L1
100
AcDbLine
 10
-493.8841555788017
 20
-147.2638462845341
 30
0.0
 11
-493.8841555788017
 21
-147.06066017178
 31
0.0
  0
ARC
  5
603
100
AcDbEntity
  8
L1
100
AcDbCircle
 10
-494.9448157505812
 20
-144.9999999999997
 30
0.0
 40
2.499999999999996
100
AcDbArc
 50
334.8959097497888
 51
0.0
  0
LINE
  5
605
100
AcDbEntity
  8
L1
100
AcDbLine
 10
-492.6809694660469
 20
-146.0606601717797
 30
0.0
 11
-492.8841555788012
 21
-146.0606601717797
 31
0.0
  0
ARC
  5
606
100
AcDbEntity
  8
L1
100
AcDbCircle
 10
-492.8841555788012
 20
-147.0606601717797
 30
0.0
 40
0.9999999999999989
100
AcDbArc
 50
89.99999999999729
 51
180.0000000000026
  0
ARC
  5
607
100
AcDbEntity
  8
L1
100
AcDbCircle
 10
-493.4448157505812
 20
-146.4999999999997
 30
0.0
 40
2.499999999999996
100
AcDbArc
 50
270.0
 51
0.0
  0
LINE
  5
60A
100
AcDbEntity
  8
L1
100
AcDbLine
 10
80.96278547053373
 20
54.00000000000005
 30
0.0
 11
80.96278547053373
 21
79.99999999999994
 31
0.0
  0
LINE
  5
60B
100
AcDbEntity
  8
L1
100
AcDbLine
 10
6.962785470533731
 20
69.99999999999994
 30
0.0
 11
16.96278547053373
 21
79.99999999999994
 31
0.0
  0
LINE
  5
60C
100
AcDbEntity
  8
L1
100
AcDbLine
 10
-5.037214529466268
 20
69.99999999999994
 30
0.0
 11
-15.03721452946626
 21
79.99999999999994
 31
0.0
  0
LINE
  5
60D
100
AcDbEntity
  8
L1
100
AcDbLine
 10
-79.03721452946604
 20
54.00000000000005
 30
0.0
 11
-79.03721452946604
 21
79.99999999999994
 31
0.0
  0
LINE
  5
60E
100
AcDbEntity
  8
L1
100
AcDbLine
 10
-145.5372145294659
 20
148.9999999999991
 30
0.0
 11
147.4627854705337
 21
149.0000000000025
 31
0.0
  0
LINE
  5
60F
100
AcDbEntity
  8
L1
100
AcDbLine
 10
140.9627854705337
 20
144.9999999999999
 30
0.0
 11
-139.037214529466
 21
144.9999999999999
 31
0.0
  0
LINE
  5
610
100
AcDbEntity
  8
L1
100
AcDbLine
 10
127.4627854705337
 20
141.9999999999992
 30
0.0
 11
-139.0372145294657
 21
142.0000000000001
 31
0.0
1001
ACAD
1000
ASC_BOUNDS
1002
{
1070
    19
1002
}
  0
LINE
  5
611
100
AcDbEntity
  8
L1
100
AcDbLine
 10
54.96278547053396
 20
79.99999999999971
 30
0.0
 11
80.96278547053373
 21
79.99999999999971
 31
0.0
  0
CIRCLE
  5
612
100
AcDbEntity
  8
L1
100
AcDbCircle
 10
-129.037214529466
 20
99.99999999999994
 30
0.0
 40
2.399999999999997
  0
LINE
  5
613
100
AcDbEntity
  8
L1
100
AcDbLine
 10
-128.287214529466
 20
109.9999999999999
 30
0.0
 11
-129.7872145294662
 21
109.9999999999999
 31
0.0
  0
LINE
  5
614
100
AcDbEntity
  8
L1
100
AcDbLine
 10
-128.287214529466
 20
89.99999999999994
 30
0.0
 11
-129.7872145294662
 21
89.99999999999994
 31
0.0
  0
CIRCLE
  5
615
100
AcDbEntity
  8
L1
100
AcDbCircle
 10
-129.037214529466
 20
99.99999999999994
 30
0.0
 40
2.099999999999998
  0
LINE
  5
616
100
AcDbEntity
  8
L6
 48
0.25
100
AcDbLine
 10
-136.0372145294662
 20
99.99999999999994
 30
0.0
 11
-122.037214529466
 21
99.99999999999994
 31
0.0
  0
ARC
  5
617
100
AcDbEntity
  8
L1
100
AcDbCircle
 10
-135.037214529466
 20
135.9999999999999
 30
0.0
 40
5.999999999999993
100
AcDbArc
 50
270.0
 51
0.0
  0
ARC
  5
618
100
AcDbEntity
  8
L1
100
AcDbCircle
 10
-135.037214529466
 20
135.9999999999999
 30
0.0
 40
8.499999999999991
100
AcDbArc
 50
270.0
 51
0.0
  0
ARC
  5
619
100
AcDbEntity
  8
L1
100
AcDbCircle
 10
-130.037214529466
 20
140.9999999999999
 30
0.0
 40
0.9999999999999989
100
AcDbArc
 50
0.0
 51
90.0
  0
LINE
  5
61A
100
AcDbEntity
  8
L6
 48
0.25
100
AcDbLine
 10
-144.0372145294659
 20
135.9999999999999
 30
0.0
 11
-126.0372145294662
 21
135.9999999999999
 31
0.0
  0
ARC
  5
61B
100
AcDbEntity
  8
L1
100
AcDbCircle
 10
-139.037214529466
 20
139.9999999999999
 30
0.0
 40
4.999999999999993
100
AcDbArc
 50
90.0
 51
180.0
  0
ARC
  5
61C
100
AcDbEntity
  8
L1
100
AcDbCircle
 10
-145.5372145294659
 20
146.4999999999999
 30
0.0
 40
2.499999999999996
100
AcDbArc
 50
90.0
 51
180.0
  0
LINE
  5
61D
100
AcDbEntity
  8
L1
100
AcDbLine
 10
-129.7872145294662
 20
109.9999999999999
 30
0.0
 11
-129.7872145294662
 21
104.943429983321
 31
0.0
  0
ARC
  5
61E
100
AcDbEntity
  8
L1
100
AcDbCircle
 10
-140.037214529466
 20
126.4999999999999
 30
0.0
 40
0.9999999999999989
100
AcDbArc
 50
90.0
 51
180.0
  0
LINE
  5
61F
100
AcDbEntity
  8
L6
 48
0.25
100
AcDbLine
 10
-135.037214529466
 20
144.9999999999999
 30
0.0
 11
-135.037214529466
 21
126.9999999999997
 31
0.0
  0
LINE
  5
621
100
AcDbEntity
  8
L1
100
AcDbLine
 10
-137.037214529466
 20
129.9999999999999
 30
0.0
 11
-137.037214529466
 21
127.4999999999999
 31
0.0
  0
LINE
  5
622
100
AcDbEntity
  8
L1
100
AcDbLine
 10
-141.0372145294662
 20
139.9999999999999
 30
0.0
 11
-141.0372145294662
 21
130.9999999999999
 31
0.0
  0
ARC
  5
625
100
AcDbEntity
  8
L1
100
AcDbCircle
 10
-140.037214529466
 20
130.9999999999999
 30
0.0
 40
0.9999999999999989
100
AcDbArc
 50
180.0
 51
270.0
  0
LINE
  5
626
100
AcDbEntity
  8
L1
100
AcDbLine
 10
-139.037214529466
 20
129.9999999999999
 30
0.0
 11
-139.037214529466
 21
127.4999999999999
 31
0.0
  0
ARC
  5
62A
100
AcDbEntity
  8
L1
100
AcDbCircle
 10
-139.037214529466
 20
139.9999999999999
 30
0.0
 40
1.999999999999998
100
AcDbArc
 50
90.0
 51
180.0
  0
LINE
  5
62D
100
AcDbEntity
  8
L1
100
AcDbLine
 10
-130.037214529466
 20
141.9999999999997
 30
0.0
 11
-139.037214529466
 21
141.9999999999997
 31
0.0
  0
LINE
  5
62E
100
AcDbEntity
  8
L1
100
AcDbLine
 10
-135.037214529466
 20
127.4999999999999
 30
0.0
 11
-140.037214529466
 21
127.4999999999999
 31
0.0
  0
LINE
  5
62F
100
AcDbEntity
  8
L1
100
AcDbLine
 10
-135.037214529466
 20
129.9999999999999
 30
0.0
 11
-140.037214529466
 21
129.9999999999999
 31
0.0
  0
LINE
  5
630
100
AcDbEntity
  8
L1
100
AcDbLine
 10
-129.7872145294662
 20
89.99999999999994
 30
0.0
 11
-129.7872145294662
 21
95.05657001667868
 31
0.0
  0
ARC
  5
631
100
AcDbEntity
  8
L1
100
AcDbCircle
 10
-129.037214529466
 20
99.99999999999994
 30
0.0
 40
4.999999999999993
100
AcDbArc
 50
98.62692655867867
 51
261.3730734413213
  0
LINE
  5
632
100
AcDbEntity
  8
L1
100
AcDbLine
 10
-33.03721452946627
 20
79.99999999999994
 30
0.0
 11
-19.03721452946626
 21
79.99999999999994
 31
0.0
  0
LINE
  5
633
100
AcDbEntity
  8
L1
100
AcDbLine
 10
0.9627854705337313
 20
141.9999999999997
 30
0.0
 11
-125.537214529466
 21
141.9999999999997
 31
0.0
  0
LINE
  5
634
100
AcDbEntity
  8
L1
100
AcDbLine
 10
-15.03721452946592
 20
79.99999999999994
 30
0.0
 11
-45.03721452946604
 21
79.99999999999994
 31
0.0
  0
LINE
  5
636
100
AcDbEntity
  8
L6
 48
0.25
100
AcDbLine
 10
-129.037214529466
 20
110.9999999999999
 30
0.0
 11
-129.037214529466
 21
87.99999999999995
 31
0.0
  0
LINE
  5
637
100
AcDbEntity
  8
L1
100
AcDbLine
 10
-128.287214529466
 20
104.943429983321
 30
0.0
 11
-128.287214529466
 21
109.9999999999999
 31
0.0
  0
LINE
  5
638
100
AcDbEntity
  8
L1
100
AcDbLine
 10
-109.037214529466
 20
130.7499999999997
 30
0.0
 11
-103.9806445127873
 21
130.7499999999997
 31
0.0
  0
LINE
  5
639
100
AcDbEntity
  8
L1
100
AcDbLine
 10
-103.9806445127873
 20
129.2499999999999
 30
0.0
 11
-109.037214529466
 21
129.2499999999999
 31
0.0
  0
LINE
  5
63A
100
AcDbEntity
  8
L6
 48
0.25
100
AcDbLine
 10
-88.03721452946627
 20
129.9999999999999
 30
0.0
 11
-111.037214529466
 21
129.9999999999999
 31
0.0
  0
LINE
  5
63C
100
AcDbEntity
  8
L1
100
AcDbLine
 10
-129.037214529466
 20
139.9999999999999
 30
0.0
 11
-126.537214529466
 21
139.9999999999999
 31
0.0
  0
LINE
  5
63D
100
AcDbEntity
  8
L1
100
AcDbLine
 10
-129.037214529466
 20
137.9999999999999
 30
0.0
 11
-126.537214529466
 21
137.9999999999999
 31
0.0
  0
LINE
  5
63E
100
AcDbEntity
  8
L1
100
AcDbLine
 10
-126.537214529466
 20
135.9999999999999
 30
0.0
 11
-126.537214529466
 21
140.9999999999999
 31
0.0
  0
LINE
  5
63F
100
AcDbEntity
  8
L1
100
AcDbLine
 10
-129.037214529466
 20
135.9999999999999
 30
0.0
 11
-129.037214529466
 21
140.9999999999999
 31
0.0
  0
ARC
  5
642
100
AcDbEntity
  8
L1
100
AcDbCircle
 10
-125.537214529466
 20
140.9999999999999
 30
0.0
 40
0.9999999999999989
100
AcDbArc
 50
90.0
 51
180.0
  0
LINE
  5
644
100
AcDbEntity
  8
L1
100
AcDbLine
 10
-109.037214529466
 20
129.2499999999999
 30
0.0
 11
-109.037214529466
 21
130.7499999999997
 31
0.0
  0
LINE
  5
645
100
AcDbEntity
  8
L6
 48
0.25
100
AcDbLine
 10
-99.03721452946605
 20
136.9999999999997
 30
0.0
 11
-99.03721452946605
 21
122.9999999999999
 31
0.0
  0
ARC
  5
646
100
AcDbEntity
  8
L1
100
AcDbCircle
 10
-99.03721452946605
 20
129.9999999999999
 30
0.0
 40
4.999999999999993
100
AcDbArc
 50
188.6269265586786
 51
351.3730734413211
  0
LINE
  5
647
100
AcDbEntity
  8
L1
100
AcDbLine
 10
-89.03721452946603
 20
130.7499999999997
 30
0.0
 11
-94.093784546145
 21
130.7499999999997
 31
0.0
  0
LINE
  5
648
100
AcDbEntity
  8
L1
100
AcDbLine
 10
-94.093784546145
 20
129.2499999999999
 30
0.0
 11
-89.03721452946603
 21
129.2499999999999
 31
0.0
  0
CIRCLE
  5
649
100
AcDbEntity
  8
L1
100
AcDbCircle
 10
-99.03721452946605
 20
129.9999999999999
 30
0.0
 40
2.399999999999997
  0
CIRCLE
  5
64A
100
AcDbEntity
  8
L1
100
AcDbCircle
 10
-99.03721452946605
 20
129.9999999999999
 30
0.0
 40
2.099999999999998
  0
ARC
  5
64B
100
AcDbEntity
  8
L1
100
AcDbCircle
 10
-99.03721452946605
 20
129.9999999999999
 30
0.0
 40
4.999999999999993
100
AcDbArc
 50
8.626926558678659
 51
171.3730734413213
  0
LINE
  5
64C
100
AcDbEntity
  8
L1
100
AcDbLine
 10
-89.03721452946603
 20
129.2499999999999
 30
0.0
 11
-89.03721452946603
 21
130.7499999999997
 31
0.0
  0
LINE
  5
64D
100
AcDbEntity
  8
L1
100
AcDbLine
 10
-128.287214529466
 20
95.05657001667868
 30
0.0
 11
-128.287214529466
 21
89.99999999999994
 31
0.0
  0
ARC
  5
64E
100
AcDbEntity
  8
L1
100
AcDbCircle
 10
-129.037214529466
 20
99.99999999999994
 30
0.0
 40
4.999999999999993
100
AcDbArc
 50
278.6269265586786
 51
81.37307344132118
  0
LINE
  5
650
100
AcDbEntity
  8
L1
100
AcDbLine
 10
-53.03721452946604
 20
79.99999999999994
 30
0.0
 11
-53.03721452946593
 21
126.9999999999999
 31
0.0
  0
LINE
  5
651
100
AcDbEntity
  8
L1
100
AcDbLine
 10
-45.03721452946604
 20
79.99999999999994
 30
0.0
 11
-45.03721452946592
 21
126.9999999999999
 31
0.0
  0
LINE
  5
652
100
AcDbEntity
  8
L1
100
AcDbLine
 10
-53.98064451278776
 20
129.2499999999999
 30
0.0
 11
-59.03721452946626
 21
129.2499999999999
 31
0.0
  0
LINE
  5
653
100
AcDbEntity
  8
L1
100
AcDbLine
 10
-59.03721452946626
 20
130.7499999999997
 30
0.0
 11
-53.98064451278776
 21
130.7499999999997
 31
0.0
  0
LINE
  5
654
100
AcDbEntity
  8
L6
 48
0.25
100
AcDbLine
 10
-38.03721452946627
 20
129.9999999999999
 30
0.0
 11
-61.03721452946627
 21
129.9999999999999
 31
0.0
  0
LINE
  5
655
100
AcDbEntity
  8
L1
100
AcDbLine
 10
-59.03721452946626
 20
129.2499999999999
 30
0.0
 11
-59.03721452946626
 21
130.7499999999997
 31
0.0
  0
LINE
  5
656
100
AcDbEntity
  8
L6
 48
0.25
100
AcDbLine
 10
-49.03721452946626
 20
136.9999999999997
 30
0.0
 11
-49.03721452946626
 21
122.9999999999999
 31
0.0
  0
ARC
  5
657
100
AcDbEntity
  8
L1
100
AcDbCircle
 10
-49.03721452946626
 20
129.9999999999999
 30
0.0
 40
4.999999999999993
100
AcDbArc
 50
188.6269265586786
 51
351.3730734413211
  0
ARC
  5
658
100
AcDbEntity
  8
L1
100
AcDbCircle
 10
-49.03721452946626
 20
129.9999999999999
 30
0.0
 40
4.999999999999993
100
AcDbArc
 50
8.626926558678659
 51
171.3730734413213
  0
CIRCLE
  5
659
100
AcDbEntity
  8
L1
100
AcDbCircle
 10
-49.03721452946626
 20
129.9999999999999
 30
0.0
 40
2.099999999999998
  0
CIRCLE
  5
65A
100
AcDbEntity
  8
L1
100
AcDbCircle
 10
-49.03721452946626
 20
129.9999999999999
 30
0.0
 40
2.399999999999997
  0
LINE
  5
65B
100
AcDbEntity
  8
L1
100
AcDbLine
 10
-45.03721452946592
 20
132.9999999999999
 30
0.0
 11
-45.03721452946592
 21
141.9999999999999
 31
0.0
  0
LINE
  5
65C
100
AcDbEntity
  8
L1
100
AcDbLine
 10
-53.03721452946593
 20
132.9999999999999
 30
0.0
 11
-53.03721452946593
 21
141.9999999999999
 31
0.0
  0
LINE
  5
65D
100
AcDbEntity
  8
L1
100
AcDbLine
 10
-39.03721452946626
 20
129.2499999999999
 30
0.0
 11
-39.03721452946626
 21
130.7499999999997
 31
0.0
  0
LINE
  5
65E
100
AcDbEntity
  8
L1
100
AcDbLine
 10
-44.093784546145
 20
129.2499999999999
 30
0.0
 11
-39.03721452946626
 21
129.2499999999999
 31
0.0
  0
LINE
  5
65F
100
AcDbEntity
  8
L1
100
AcDbLine
 10
-39.03721452946626
 20
130.7499999999997
 30
0.0
 11
-44.093784546145
 21
130.7499999999997
 31
0.0
  0
LINE
  5
660
100
AcDbEntity
  8
L1
100
AcDbLine
 10
-53.03721452946604
 20
79.99999999999994
 30
0.0
 11
-79.03721452946581
 21
79.99999999999994
 31
0.0
  0
LINE
  5
661
100
AcDbEntity
  8
L1
100
AcDbLine
 10
-65.03721452946604
 20
79.99999999999994
 30
0.0
 11
-79.03721452946604
 21
79.99999999999994
 31
0.0
  0
LINE
  5
663
100
AcDbEntity
  8
L1
100
AcDbLine
 10
-9.037214529466268
 20
130.7499999999997
 30
0.0
 11
-3.980644512787762
 21
130.7499999999997
 31
0.0
  0
LINE
  5
664
100
AcDbEntity
  8
L1
100
AcDbLine
 10
-3.980644512787762
 20
129.2499999999999
 30
0.0
 11
-9.037214529466268
 21
129.2499999999999
 31
0.0
  0
LINE
  5
665
100
AcDbEntity
  8
L6
 48
0.25
100
AcDbLine
 10
11.96278547053373
 20
129.9999999999999
 30
0.0
 11
-11.03721452946626
 21
129.9999999999999
 31
0.0
  0
LINE
  5
666
100
AcDbEntity
  8
L1
100
AcDbLine
 10
-9.037214529466268
 20
129.2499999999999
 30
0.0
 11
-9.037214529466268
 21
130.7499999999997
 31
0.0
  0
ARC
  5
667
100
AcDbEntity
  8
L1
100
AcDbCircle
 10
0.9627854705337313
 20
129.9999999999999
 30
0.0
 40
4.999999999999993
100
AcDbArc
 50
188.6269265586786
 51
351.3730734413211
  0
ARC
  5
668
100
AcDbEntity
  8
L1
100
AcDbCircle
 10
0.9627854705337313
 20
129.9999999999999
 30
0.0
 40
4.999999999999993
100
AcDbArc
 50
8.626926558678659
 51
171.3730734413213
  0
CIRCLE
  5
669
100
AcDbEntity
  8
L1
100
AcDbCircle
 10
0.9627854705337313
 20
129.9999999999999
 30
0.0
 40
2.399999999999997
  0
CIRCLE
  5
66A
100
AcDbEntity
  8
L1
100
AcDbCircle
 10
0.9627854705337313
 20
129.9999999999999
 30
0.0
 40
2.099999999999998
  0
LINE
  5
66B
100
AcDbEntity
  8
L1
100
AcDbLine
 10
10.96278547053373
 20
130.7499999999997
 30
0.0
 11
5.906215453854997
 21
130.7499999999997
 31
0.0
  0
LINE
  5
66C
100
AcDbEntity
  8
L1
100
AcDbLine
 10
5.906215453854997
 20
129.2499999999999
 30
0.0
 11
10.96278547053373
 21
129.2499999999999
 31
0.0
  0
LINE
  5
66D
100
AcDbEntity
  8
L1
100
AcDbLine
 10
10.96278547053373
 20
129.2499999999999
 30
0.0
 11
10.96278547053373
 21
130.7499999999997
 31
0.0
  0
LINE
  5
66E
100
AcDbEntity
  8
L1
100
AcDbLine
 10
-15.03721452946626
 20
79.99999999999994
 30
0.0
 11
-29.03721452946626
 21
79.99999999999994
 31
0.0
  0
LINE
  5
66F
100
AcDbEntity
  8
L1
100
AcDbLine
 10
54.96278547053396
 20
79.99999999999971
 30
0.0
 11
54.96278547053407
 21
126.9999999999997
 31
0.0
  0
LINE
  5
670
100
AcDbEntity
  8
L1
100
AcDbLine
 10
46.96278547053395
 20
79.99999999999971
 30
0.0
 11
46.96278547053407
 21
126.9999999999997
 31
0.0
  0
LINE
  5
671
100
AcDbEntity
  8
L6
 48
0.25
100
AcDbLine
 10
61.96278547053373
 20
129.9999999999999
 30
0.0
 11
38.96278547053373
 21
129.9999999999999
 31
0.0
  0
ARC
  5
672
100
AcDbEntity
  8
L1
100
AcDbCircle
 10
50.96278547053373
 20
129.9999999999999
 30
0.0
 40
4.999999999999993
100
AcDbArc
 50
188.6269265586786
 51
351.3730734413211
  0
CIRCLE
  5
673
100
AcDbEntity
  8
L1
100
AcDbCircle
 10
50.96278547053373
 20
129.9999999999999
 30
0.0
 40
2.399999999999997
  0
CIRCLE
  5
674
100
AcDbEntity
  8
L1
100
AcDbCircle
 10
50.96278547053373
 20
129.9999999999999
 30
0.0
 40
2.099999999999998
  0
ARC
  5
675
100
AcDbEntity
  8
L1
100
AcDbCircle
 10
50.96278547053373
 20
129.9999999999999
 30
0.0
 40
4.999999999999993
100
AcDbArc
 50
8.626926558678659
 51
171.3730734413213
  0
LINE
  5
676
100
AcDbEntity
  8
L1
100
AcDbLine
 10
40.96278547053373
 20
129.2499999999999
 30
0.0
 11
40.96278547053373
 21
130.7499999999997
 31
0.0
  0
LINE
  5
677
100
AcDbEntity
  8
L1
100
AcDbLine
 10
40.96278547053373
 20
130.7499999999997
 30
0.0
 11
46.01935548721224
 21
130.7499999999997
 31
0.0
  0
LINE
  5
678
100
AcDbEntity
  8
L1
100
AcDbLine
 10
46.01935548721224
 20
129.2499999999999
 30
0.0
 11
40.96278547053373
 21
129.2499999999999
 31
0.0
  0
LINE
  5
679
100
AcDbEntity
  8
L1
100
AcDbLine
 10
46.96278547053407
 20
132.9999999999997
 30
0.0
 11
46.96278547053407
 21
141.9999999999997
 31
0.0
  0
LINE
  5
67A
100
AcDbEntity
  8
L1
100
AcDbLine
 10
60.96278547053373
 20
129.2499999999999
 30
0.0
 11
60.96278547053373
 21
130.7499999999997
 31
0.0
  0
LINE
  5
67B
100
AcDbEntity
  8
L1
100
AcDbLine
 10
60.96278547053373
 20
130.7499999999997
 30
0.0
 11
55.90621545385477
 21
130.7499999999997
 31
0.0
  0
LINE
  5
67C
100
AcDbEntity
  8
L1
100
AcDbLine
 10
55.90621545385477
 20
129.2499999999999
 30
0.0
 11
60.96278547053373
 21
129.2499999999999
 31
0.0
  0
LINE
  5
67D
100
AcDbEntity
  8
L1
100
AcDbLine
 10
54.96278547053407
 20
132.9999999999997
 30
0.0
 11
54.96278547053407
 21
141.9999999999997
 31
0.0
  0
LINE
  5
67E
100
AcDbEntity
  8
L1
100
AcDbLine
 10
16.96278547053384
 20
79.99999999999971
 30
0.0
 11
46.96278547053395
 21
79.99999999999971
 31
0.0
  0
LINE
  5
67F
100
AcDbEntity
  8
L1
100
AcDbLine
 10
16.96278547053327
 20
79.99999999999994
 30
0.0
 11
34.96278547053373
 21
79.99999999999994
 31
0.0
  0
ARC
  5
680
100
AcDbEntity
  8
L1
100
AcDbCircle
 10
140.9627854705337
 20
139.9999999999999
 30
0.0
 40
4.999999999999993
100
AcDbArc
 50
0.0
 51
90.0
  0
ARC
  5
681
100
AcDbEntity
  8
L1
100
AcDbCircle
 10
147.4627854705337
 20
146.4999999999999
 30
0.0
 40
2.499999999999996
100
AcDbArc
 50
0.0
 51
90.0
  0
LINE
  5
684
100
AcDbEntity
  8
L6
 48
0.25
100
AcDbLine
 10
100.9627854705337
 20
136.9999999999997
 30
0.0
 11
100.9627854705337
 21
122.9999999999999
 31
0.0
  0
ARC
  5
685
100
AcDbEntity
  8
L1
100
AcDbCircle
 10
100.9627854705337
 20
129.9999999999999
 30
0.0
 40
4.999999999999993
100
AcDbArc
 50
188.6269265586786
 51
351.3730734413211
  0
ARC
  5
686
100
AcDbEntity
  8
L1
100
AcDbCircle
 10
100.9627854705337
 20
129.9999999999999
 30
0.0
 40
4.999999999999993
100
AcDbArc
 50
8.626926558678659
 51
171.3730734413213
  0
CIRCLE
  5
687
100
AcDbEntity
  8
L1
100
AcDbCircle
 10
100.9627854705337
 20
129.9999999999999
 30
0.0
 40
2.099999999999998
  0
CIRCLE
  5
688
100
AcDbEntity
  8
L1
100
AcDbCircle
 10
100.9627854705337
 20
129.9999999999999
 30
0.0
 40
2.399999999999997
  0
LINE
  5
689
100
AcDbEntity
  8
L6
 48
0.25
100
AcDbLine
 10
111.9627854705337
 20
129.9999999999999
 30
0.0
 11
88.96278547053373
 21
129.9999999999999
 31
0.0
  0
LINE
  5
68B
100
AcDbEntity
  8
L1
100
AcDbLine
 10
90.96278547053373
 20
129.2499999999999
 30
0.0
 11
90.96278547053373
 21
130.7499999999997
 31
0.0
  0
LINE
  5
68C
100
AcDbEntity
  8
L1
100
AcDbLine
 10
90.96278547053373
 20
130.7499999999997
 30
0.0
 11
96.01935548721224
 21
130.7499999999997
 31
0.0
  0
LINE
  5
68D
100
AcDbEntity
  8
L1
100
AcDbLine
 10
96.01935548721224
 20
129.2499999999999
 30
0.0
 11
90.96278547053373
 21
129.2499999999999
 31
0.0
  0
LINE
  5
68E
100
AcDbEntity
  8
L1
100
AcDbLine
 10
110.9627854705337
 20
129.2499999999999
 30
0.0
 11
110.9627854705337
 21
130.7499999999997
 31
0.0
  0
LINE
  5
68F
100
AcDbEntity
  8
L1
100
AcDbLine
 10
105.9062154538547
 20
129.2499999999999
 30
0.0
 11
110.9627854705337
 21
129.2499999999999
 31
0.0
  0
LINE
  5
690
100
AcDbEntity
  8
L1
100
AcDbLine
 10
110.9627854705337
 20
130.7499999999997
 30
0.0
 11
105.9062154538547
 21
130.7499999999997
 31
0.0
  0
LINE
  5
691
100
AcDbEntity
  8
L1
100
AcDbLine
 10
66.96278547053373
 20
79.99999999999994
 30
0.0
 11
80.96278547053373
 21
79.99999999999994
 31
0.0
  0
LINE
  5
692
100
AcDbEntity
  8
L6
 48
0.25
100
AcDbLine
 10
130.9627854705337
 20
110.9999999999999
 30
0.0
 11
130.9627854705337
 21
87.99999999999995
 31
0.0
  0
LINE
  5
693
100
AcDbEntity
  8
L1
100
AcDbLine
 10
130.2127854705337
 20
109.9999999999999
 30
0.0
 11
130.2127854705337
 21
104.943429983321
 31
0.0
  0
LINE
  5
694
100
AcDbEntity
  8
L1
100
AcDbLine
 10
131.7127854705337
 20
104.943429983321
 30
0.0
 11
131.7127854705337
 21
109.9999999999999
 31
0.0
  0
LINE
  5
695
100
AcDbEntity
  8
L1
100
AcDbLine
 10
131.9627854705337
 20
141.9999999999997
 30
0.0
 11
140.9627854705337
 21
141.9999999999997
 31
0.0
  0
LINE
  5
696
100
AcDbEntity
  8
L1
100
AcDbLine
 10
136.9627854705337
 20
127.4999999999999
 30
0.0
 11
141.9627854705337
 21
127.4999999999999
 31
0.0
  0
LINE
  5
697
100
AcDbEntity
  8
L1
100
AcDbLine
 10
136.9627854705337
 20
129.9999999999999
 30
0.0
 11
141.9627854705337
 21
129.9999999999999
 31
0.0
  0
LINE
  5
698
100
AcDbEntity
  8
L1
100
AcDbLine
 10
131.9627854705337
 20
141.9999999999997
 30
0.0
 11
140.9627854705337
 21
141.9999999999997
 31
0.0
  0
ARC
  5
699
100
AcDbEntity
  8
L1
100
AcDbCircle
 10
136.9627854705337
 20
135.9999999999999
 30
0.0
 40
8.499999999999991
100
AcDbArc
 50
180.0
 51
270.0
  0
ARC
  5
69A
100
AcDbEntity
  8
L1
100
AcDbCircle
 10
136.9627854705337
 20
135.9999999999999
 30
0.0
 40
5.999999999999993
100
AcDbArc
 50
180.0
 51
270.0
  0
LINE
  5
69B
100
AcDbEntity
  8
L1
100
AcDbLine
 10
130.9627854705337
 20
135.9999999999999
 30
0.0
 11
130.9627854705337
 21
140.9999999999999
 31
0.0
  0
LINE
  5
69E
100
AcDbEntity
  8
L1
100
AcDbLine
 10
128.4627854705337
 20
135.9999999999999
 30
0.0
 11
128.4627854705337
 21
140.9999999999999
 31
0.0
  0
LINE
  5
69F
100
AcDbEntity
  8
L1
100
AcDbLine
 10
130.9627854705337
 20
137.9999999999999
 30
0.0
 11
128.4627854705337
 21
137.9999999999999
 31
0.0
  0
LINE
  5
6A0
100
AcDbEntity
  8
L1
100
AcDbLine
 10
130.9627854705337
 20
139.9999999999999
 30
0.0
 11
128.4627854705337
 21
139.9999999999999
 31
0.0
  0
ARC
  5
6A1
100
AcDbEntity
  8
L1
100
AcDbCircle
 10
131.9627854705337
 20
140.9999999999999
 30
0.0
 40
0.9999999999999989
100
AcDbArc
 50
90.0
 51
180.0
  0
ARC
  5
6A2
100
AcDbEntity
  8
L1
100
AcDbCircle
 10
127.4627854705337
 20
140.9999999999999
 30
0.0
 40
0.9999999999999989
100
AcDbArc
 50
0.0
 51
90.0
  0
LINE
  5
6A3
100
AcDbEntity
  8
L1
100
AcDbLine
 10
131.7127854705337
 20
109.9999999999999
 30
0.0
 11
130.2127854705337
 21
109.9999999999999
 31
0.0
  0
ARC
  5
6A4
100
AcDbEntity
  8
L1
100
AcDbCircle
 10
141.9627854705337
 20
126.4999999999999
 30
0.0
 40
0.9999999999999989
100
AcDbArc
 50
0.0
 51
90.0
  0
LINE
  5
6A5
100
AcDbEntity
  8
L1
100
AcDbLine
 10
142.9627854705337
 20
139.9999999999999
 30
0.0
 11
142.9627854705337
 21
130.9999999999999
 31
0.0
  0
ARC
  5
6A6
100
AcDbEntity
  8
L1
100
AcDbCircle
 10
141.9627854705337
 20
130.9999999999999
 30
0.0
 40
0.9999999999999989
100
AcDbArc
 50
270.0
 51
0.0
  0
LINE
  5
6A7
100
AcDbEntity
  8
L1
100
AcDbLine
 10
140.9627854705337
 20
129.9999999999999
 30
0.0
 11
140.9627854705337
 21
127.4999999999999
 31
0.0
  0
ARC
  5
6A8
100
AcDbEntity
  8
L1
100
AcDbCircle
 10
140.9627854705337
 20
139.9999999999999
 30
0.0
 40
1.999999999999998
100
AcDbArc
 50
0.0
 51
90.0
  0
LINE
  5
6A9
100
AcDbEntity
  8
L1
100
AcDbLine
 10
138.9627854705337
 20
129.9999999999999
 30
0.0
 11
138.9627854705337
 21
127.4999999999999
 31
0.0
  0
LINE
  5
6AA
100
AcDbEntity
  8
L6
 48
0.25
100
AcDbLine
 10
123.9627854705337
 20
99.99999999999994
 30
0.0
 11
137.9627854705337
 21
99.99999999999994
 31
0.0
  0
LINE
  5
6AB
100
AcDbEntity
  8
L1
100
AcDbLine
 10
130.2127854705337
 20
89.99999999999994
 30
0.0
 11
130.2127854705337
 21
95.05657001667868
 31
0.0
  0
LINE
  5
6AC
100
AcDbEntity
  8
L1
100
AcDbLine
 10
131.7127854705337
 20
95.05657001667868
 30
0.0
 11
131.7127854705337
 21
89.99999999999994
 31
0.0
  0
ARC
  5
6AD
100
AcDbEntity
  8
L1
100
AcDbCircle
 10
130.9627854705337
 20
99.99999999999994
 30
0.0
 40
4.999999999999993
100
AcDbArc
 50
278.6269265586786
 51
81.37307344132118
  0
ARC
  5
6AE
100
AcDbEntity
  8
L1
100
AcDbCircle
 10
130.9627854705337
 20
99.99999999999994
 30
0.0
 40
4.999999999999993
100
AcDbArc
 50
98.62692655867867
 51
261.3730734413213
  0
CIRCLE
  5
6AF
100
AcDbEntity
  8
L1
100
AcDbCircle
 10
130.9627854705337
 20
99.99999999999994
 30
0.0
 40
2.399999999999997
  0
CIRCLE
  5
6B0
100
AcDbEntity
  8
L1
100
AcDbCircle
 10
130.9627854705337
 20
99.99999999999994
 30
0.0
 40
2.099999999999998
  0
LINE
  5
6B1
100
AcDbEntity
  8
0
100
AcDbLine
 10
130.9627854705337
 20
87.99999999999995
 30
0.0
 11
130.9627854705337
 21
85.66102199727499
 31
0.0
  0
LINE
  5
6B4
100
AcDbEntity
  8
L1
100
AcDbLine
 10
131.7127854705337
 20
89.99999999999994
 30
0.0
 11
130.2127854705337
 21
89.99999999999994
 31
0.0
  0
LINE
  5
6B5
100
AcDbEntity
  8
L1
100
AcDbLine
 10
-128.287214529466
 20
9.999999999999943
 30
0.0
 11
-129.7872145294662
 21
9.999999999999943
 31
0.0
  0
LINE
  5
6B6
100
AcDbEntity
  8
L1
100
AcDbLine
 10
-128.287214529466
 20
39.99999999999994
 30
0.0
 11
-129.7872145294662
 21
39.99999999999994
 31
0.0
  0
CIRCLE
  5
6B7
100
AcDbEntity
  8
L1
100
AcDbCircle
 10
-129.037214529466
 20
49.99999999999994
 30
0.0
 40
2.399999999999997
  0
CIRCLE
  5
6B8
100
AcDbEntity
  8
L1
100
AcDbCircle
 10
-129.037214529466
 20
49.99999999999994
 30
0.0
 40
2.099999999999998
  0
LINE
  5
6B9
100
AcDbEntity
  8
L6
 48
0.25
100
AcDbLine
 10
-136.0372145294662
 20
49.99999999999994
 30
0.0
 11
-122.037214529466
 21
49.99999999999994
 31
0.0
  0
LINE
  5
6BA
100
AcDbEntity
  8
L1
100
AcDbLine
 10
-128.287214529466
 20
59.99999999999994
 30
0.0
 11
-129.7872145294662
 21
59.99999999999994
 31
0.0
  0
LINE
  5
6BB
100
AcDbEntity
  8
L1
100
AcDbLine
 10
-129.7872145294662
 20
59.99999999999994
 30
0.0
 11
-129.7872145294662
 21
54.94342998332109
 31
0.0
  0
LINE
  5
6BC
100
AcDbEntity
  8
L1
100
AcDbLine
 10
-129.7872145294662
 20
39.99999999999994
 30
0.0
 11
-129.7872145294662
 21
45.05657001667867
 31
0.0
  0
LINE
  5
6BD
100
AcDbEntity
  8
L1
100
AcDbLine
 10
-132.037214529466
 20
45.99999999999994
 30
0.0
 11
-141.0372145294662
 21
45.99999999999994
 31
0.0
  0
LINE
  5
6BE
100
AcDbEntity
  8
L1
100
AcDbLine
 10
-132.037214529466
 20
54.00000000000005
 30
0.0
 11
-141.0372145294662
 21
54.00000000000005
 31
0.0
  0
ARC
  5
6BF
100
AcDbEntity
  8
L1
100
AcDbCircle
 10
-129.037214529466
 20
49.99999999999994
 30
0.0
 40
4.999999999999993
100
AcDbArc
 50
98.62692655867867
 51
261.3730734413213
  0
LINE
  5
6C0
100
AcDbEntity
  8
L1
100
AcDbLine
 10
-129.7872145294662
 20
9.999999999999943
 30
0.0
 11
-129.7872145294662
 21
4.943429983321209
 31
0.0
  0
LINE
  5
6C1
100
AcDbEntity
  8
L1
100
AcDbLine
 10
-132.037214529466
 20
4.00000000000017
 30
0.0
 11
-141.0372145294662
 21
4.00000000000017
 31
0.0
  0
LINE
  5
6C2
100
AcDbEntity
  8
L1
100
AcDbLine
 10
-79.03721452946604
 20
4.00000000000017
 30
0.0
 11
-126.037214529466
 21
4.00000000000017
 31
0.0
  0
LINE
  5
6C3
100
AcDbEntity
  8
L1
100
AcDbLine
 10
-79.03721452946604
 20
45.99999999999994
 30
0.0
 11
-126.037214529466
 21
45.99999999999994
 31
0.0
  0
LINE
  5
6C4
100
AcDbEntity
  8
L1
100
AcDbLine
 10
-79.03721452946604
 20
54.00000000000005
 30
0.0
 11
-126.037214529466
 21
54.00000000000005
 31
0.0
  0
LINE
  5
6C5
100
AcDbEntity
  8
L1
100
AcDbLine
 10
-128.287214529466
 20
54.94342998332109
 30
0.0
 11
-128.287214529466
 21
59.99999999999994
 31
0.0
  0
LINE
  5
6C6
100
AcDbEntity
  8
L6
 48
0.25
100
AcDbLine
 10
-129.037214529466
 20
60.99999999999994
 30
0.0
 11
-129.037214529466
 21
37.99999999999994
 31
0.0
  0
LINE
  5
6C7
100
AcDbEntity
  8
L1
100
AcDbLine
 10
-128.287214529466
 20
45.05657001667867
 30
0.0
 11
-128.287214529466
 21
39.99999999999994
 31
0.0
  0
ARC
  5
6C8
100
AcDbEntity
  8
L1
100
AcDbCircle
 10
-129.037214529466
 20
49.99999999999994
 30
0.0
 40
4.999999999999993
100
AcDbArc
 50
278.6269265586786
 51
81.37307344132118
  0
LINE
  5
6C9
100
AcDbEntity
  8
L1
100
AcDbLine
 10
-128.287214529466
 20
4.943429983321209
 30
0.0
 11
-128.287214529466
 21
9.999999999999943
 31
0.0
  0
LINE
  5
6CA
100
AcDbEntity
  8
L1
100
AcDbLine
 10
-79.03721452946604
 20
4.00000000000017
 30
0.0
 11
-79.03721452946604
 21
45.99999999999994
 31
0.0
  0
LINE
  5
6CB
100
AcDbEntity
  8
L1
100
AcDbLine
 10
6.962785470533731
 20
69.99999999999994
 30
0.0
 11
-5.037214529466268
 21
69.99999999999994
 31
0.0
  0
LINE
  5
6CC
100
AcDbEntity
  8
L1
100
AcDbLine
 10
80.96278547053373
 20
4.00000000000017
 30
0.0
 11
127.9627854705337
 21
4.00000000000017
 31
0.0
  0
LINE
  5
6CD
100
AcDbEntity
  8
L1
100
AcDbLine
 10
80.96278547053373
 20
54.00000000000005
 30
0.0
 11
127.9627854705337
 21
54.00000000000005
 31
0.0
  0
LINE
  5
6CE
100
AcDbEntity
  8
L1
100
AcDbLine
 10
80.96278547053373
 20
45.99999999999994
 30
0.0
 11
127.9627854705337
 21
45.99999999999994
 31
0.0
  0
LINE
  5
6CF
100
AcDbEntity
  8
L1
100
AcDbLine
 10
80.96278547053373
 20
4.00000000000017
 30
0.0
 11
80.96278547053373
 21
45.99999999999994
 31
0.0
  0
LINE
  5
6D0
100
AcDbEntity
  8
L6
 48
0.25
100
AcDbLine
 10
123.9627854705337
 20
49.99999999999994
 30
0.0
 11
137.9627854705337
 21
49.99999999999994
 31
0.0
  0
LINE
  5
6D1
100
AcDbEntity
  8
L1
100
AcDbLine
 10
133.9627854705337
 20
54.00000000000005
 30
0.0
 11
142.9627854705337
 21
54.00000000000005
 31
0.0
  0
LINE
  5
6D2
100
AcDbEntity
  8
L1
100
AcDbLine
 10
133.9627854705337
 20
45.99999999999994
 30
0.0
 11
142.9627854705337
 21
45.99999999999994
 31
0.0
  0
LINE
  5
6D3
100
AcDbEntity
  8
L1
100
AcDbLine
 10
130.2127854705337
 20
59.99999999999994
 30
0.0
 11
130.2127854705337
 21
54.94342998332109
 31
0.0
  0
LINE
  5
6D4
100
AcDbEntity
  8
L1
100
AcDbLine
 10
131.7127854705337
 20
54.94342998332109
 30
0.0
 11
131.7127854705337
 21
59.99999999999994
 31
0.0
  0
LINE
  5
6D5
100
AcDbEntity
  8
L6
 48
0.25
100
AcDbLine
 10
130.9627854705337
 20
60.99999999999994
 30
0.0
 11
130.9627854705337
 21
37.99999999999994
 31
0.0
  0
LINE
  5
6D6
100
AcDbEntity
  8
L1
100
AcDbLine
 10
131.7127854705337
 20
59.99999999999994
 30
0.0
 11
130.2127854705337
 21
59.99999999999994
 31
0.0
  0
LINE
  5
6D7
100
AcDbEntity
  8
L1
100
AcDbLine
 10
131.7127854705337
 20
39.99999999999994
 30
0.0
 11
130.2127854705337
 21
39.99999999999994
 31
0.0
  0
LINE
  5
6D8
100
AcDbEntity
  8
L1
100
AcDbLine
 10
130.2127854705337
 20
39.99999999999994
 30
0.0
 11
130.2127854705337
 21
45.05657001667867
 31
0.0
  0
LINE
  5
6D9
100
AcDbEntity
  8
L1
100
AcDbLine
 10
131.7127854705337
 20
45.05657001667867
 30
0.0
 11
131.7127854705337
 21
39.99999999999994
 31
0.0
  0
CIRCLE
  5
6DA
100
AcDbEntity
  8
L1
100
AcDbCircle
 10
130.9627854705337
 20
49.99999999999994
 30
0.0
 40
2.399999999999997
  0
CIRCLE
  5
6DB
100
AcDbEntity
  8
L1
100
AcDbCircle
 10
130.9627854705337
 20
49.99999999999994
 30
0.0
 40
2.099999999999998
  0
ARC
  5
6DC
100
AcDbEntity
  8
L1
100
AcDbCircle
 10
130.9627854705337
 20
49.99999999999994
 30
0.0
 40
4.999999999999993
100
AcDbArc
 50
278.6269265586786
 51
81.37307344132118
  0
ARC
  5
6DD
100
AcDbEntity
  8
L1
100
AcDbCircle
 10
130.9627854705337
 20
49.99999999999994
 30
0.0
 40
4.999999999999993
100
AcDbArc
 50
98.62692655867867
 51
261.3730734413213
  0
LINE
  5
6DE
100
AcDbEntity
  8
L1
100
AcDbLine
 10
133.9627854705337
 20
4.00000000000017
 30
0.0
 11
142.9627854705337
 21
4.00000000000017
 31
0.0
  0
LINE
  5
6DF
100
AcDbEntity
  8
L1
100
AcDbLine
 10
130.2127854705337
 20
9.999999999999943
 30
0.0
 11
130.2127854705337
 21
4.943429983321209
 31
0.0
  0
LINE
  5
6E0
100
AcDbEntity
  8
L1
100
AcDbLine
 10
131.7127854705337
 20
4.943429983321209
 30
0.0
 11
131.7127854705337
 21
9.999999999999943
 31
0.0
  0
LINE
  5
6E1
100
AcDbEntity
  8
L1
100
AcDbLine
 10
131.7127854705337
 20
9.999999999999943
 30
0.0
 11
130.2127854705337
 21
9.999999999999943
 31
0.0
  0
LINE
  5
6E7
100
AcDbEntity
  8
L6
100
AcDbLine
 10
-477.5534998078557
 20
0.0000000000001137
 30
0.0
 11
-804.2617026343744
 21
0.0000000000001137
 31
0.0
  0
LINE
  5
6E8
100
AcDbEntity
  8
L6
100
AcDbLine
 10
-639.9448157505811
 20
-157.5248072634226
 30
0.0
 11
-639.9448157505811
 21
155.3390478961191
 31
0.0
  0
LINE
  5
6EB
100
AcDbEntity
  8
L1
100
AcDbLine
 10
-143.5372145294655
 20
243.3172949971708
 30
0.0
 11
-146.5372145294655
 21
243.3172949971713
 31
0.0
  0
LINE
  5
6F1
100
AcDbEntity
  8
L1
100
AcDbLine
 10
142.9627854705335
 20
241.317294997171
 30
0.0
 11
134.4627854705334
 21
241.317294997171
 31
0.0
  0
LINE
  5
6F3
100
AcDbEntity
  8
L1
100
AcDbLine
 10
148.4627854705335
 20
243.3172949971713
 30
0.0
 11
148.462785470533
 21
366.0386833282462
 31
0.0
  0
LINE
  5
6F6
100
AcDbEntity
  8
L1
100
AcDbLine
 10
145.4627854705334
 20
243.3172949971708
 30
0.0
 11
148.4627854705335
 21
243.3172949971713
 31
0.0
  0
LINE
  5
6F8
100
AcDbEntity
  8
L1
100
AcDbLine
 10
145.4627854705334
 20
242.8172949971708
 30
0.0
 11
145.4627854705334
 21
243.3172949971706
 31
0.0
  0
LINE
  5
6FC
100
AcDbEntity
  8
L1
100
AcDbLine
 10
149.9627854705335
 20
373.3172949971708
 30
0.0
 11
149.9627854705335
 21
366.117294997171
 31
0.0
1001
ACAD
1000
ASC_BOUNDS
1002
{
1070
    19
1002
}
  0
LINE
  5
6FD
100
AcDbEntity
  8
L1
100
AcDbLine
 10
149.9627854705335
 20
366.117294997171
 30
0.0
 11
147.4616415579558
 21
365.9862155990452
 31
0.0
1001
ACAD
1000
ASC_BOUNDS
1002
{
1070
    19
1002
}
  0
LINE
  5
704
100
AcDbEntity
  8
L1
100
AcDbLine
 10
145.9627854705335
 20
373.3172949971708
 30
0.0
 11
145.1589378932402
 21
376.3172949971708
 31
0.0
1001
ACAD
1000
ASC_BOUNDS
1002
{
1070
    19
1002
}
  0
LINE
  5
707
100
AcDbEntity
  8
L2
 48
2.0
100
AcDbLine
 10
142.9627854705337
 20
376.3172949971709
 30
0.0
 11
142.9627854705337
 21
250.817294997171
 31
0.0
  0
LINE
  5
70A
100
AcDbEntity
  8
L1
100
AcDbLine
 10
127.4627854705339
 20
241.317294997171
 30
0.0
 11
121.3627854705336
 21
241.317294997171
 31
0.0
  0
LINE
  5
70C
100
AcDbEntity
  8
L1
100
AcDbLine
 10
134.4627854705334
 20
241.317294997171
 30
0.0
 11
127.4627854705339
 21
241.317294997171
 31
0.0
  0
LINE
  5
710
100
AcDbEntity
  8
L1
100
AcDbLine
 10
100.9627854705335
 20
241.317294997171
 30
0.0
 11
104.4627854705335
 21
241.317294997171
 31
0.0
  0
LINE
  5
713
100
AcDbEntity
  8
L1
100
AcDbLine
 10
100.9627854705335
 20
241.317294997171
 30
0.0
 11
97.46278547053396
 21
241.317294997171
 31
0.0
  0
LINE
  5
722
100
AcDbEntity
  8
L1
100
AcDbLine
 10
50.9627854705335
 20
241.317294997171
 30
0.0
 11
54.4627854705335
 21
241.317294997171
 31
0.0
  0
LINE
  5
725
100
AcDbEntity
  8
L1
100
AcDbLine
 10
50.9627854705335
 20
241.317294997171
 30
0.0
 11
47.46278547053395
 21
241.317294997171
 31
0.0
  0
LINE
  5
72F
100
AcDbEntity
  8
L2
100
AcDbLine
 10
10.96278547053396
 20
252.317294997171
 30
0.0
 11
11.01078324338311
 21
246.8172949971708
 31
0.0
  0
LINE
  5
730
100
AcDbEntity
  8
L2
100
AcDbLine
 10
5.962785470533958
 20
252.317294997171
 30
0.0
 11
6.15545906137811
 21
246.7998452488198
 31
0.0
  0
LINE
  5
7EB
100
AcDbEntity
  8
L1
100
AcDbLine
 10
-388.5324608459469
 20
-146.0433158789617
 30
0.0
 11
-388.5324608459466
 21
0.0
 31
0.0
  0
LINE
  5
7EC
100
AcDbEntity
  8
L1
100
AcDbLine
 10
-265.7324608459467
 20
-147.4999999999993
 30
0.0
 11
-265.7324608459467
 21
147.4999999999992
 31
0.0
  0
LINE
  5
7ED
100
AcDbEntity
  8
L1
100
AcDbLine
 10
-398.7324608459467
 20
-144.1961524227065
 30
0.0
 11
-398.7324608459467
 21
144.1961524227065
 31
0.0
  0
LINE
  5
7EE
100
AcDbEntity
  8
L1
100
AcDbLine
 10
-395.7324608459467
 20
-148.999999999999
 30
0.0
 11
-395.7324608459467
 21
148.9999999999989
 31
0.0
  0
LINE
  5
7EF
100
AcDbEntity
  8
L1
100
AcDbLine
 10
-388.5324608459469
 20
-132.4999999999999
 30
0.0
 11
-265.7324608459467
 21
-132.4999999999999
 31
0.0
  0
LINE
  5
7F0
100
AcDbEntity
  8
L1
100
AcDbLine
 10
-265.7324608459467
 20
-147.4999999999993
 30
0.0
 11
-388.4538491770223
 21
-147.4999999999993
 31
0.0
  0
LINE
  5
7F2
100
AcDbEntity
  8
L1
100
AcDbLine
 10
-263.7324608459472
 20
-141.9999999999997
 30
0.0
 11
-263.7324608459472
 21
-120.3999999999998
 31
0.0
  0
LINE
  5
7F3
100
AcDbEntity
  8
L1
100
AcDbLine
 10
-265.7324608459467
 20
-141.9999999999997
 30
0.0
 11
-263.7324608459472
 21
-141.9999999999997
 31
0.0
  0
LINE
  5
7F4
100
AcDbEntity
  8
L1
100
AcDbLine
 10
-263.7324608459472
 20
-131.3999999999998
 30
0.0
 11
-265.7324608459467
 21
-131.3999999999998
 31
0.0
  0
LINE
  5
7F5
100
AcDbEntity
  8
L1
100
AcDbLine
 10
-263.7324608459472
 20
-122.8999999999998
 30
0.0
 11
-265.7324608459467
 21
-122.8999999999998
 31
0.0
  0
LINE
  5
7F6
100
AcDbEntity
  8
L1
100
AcDbLine
 10
-263.7324608459472
 20
-120.3999999999998
 30
0.0
 11
-265.7324608459467
 21
-120.3999999999998
 31
0.0
  0
LINE
  5
7F7
100
AcDbEntity
  8
L1
100
AcDbLine
 10
-263.7324608459472
 20
-100.0
 30
0.0
 11
-263.7324608459472
 21
-96.5
 31
0.0
  0
LINE
  5
7F8
100
AcDbEntity
  8
L1
100
AcDbLine
 10
-263.7324608459472
 20
-100.0
 30
0.0
 11
-263.7324608459472
 21
-103.4999999999999
 31
0.0
  0
LINE
  5
7F9
100
AcDbEntity
  8
L1
100
AcDbLine
 10
-263.7324608459472
 20
-96.5
 30
0.0
 11
-265.7324608459467
 21
-95.3452994616207
 31
0.0
  0
LINE
  5
7FA
100
AcDbEntity
  8
L1
100
AcDbLine
 10
-263.7324608459472
 20
-103.4999999999999
 30
0.0
 11
-265.7324608459467
 21
-104.6547005383791
 31
0.0
  0
LINE
  5
7FB
100
AcDbEntity
  8
L1
100
AcDbLine
 10
-395.7324608459467
 20
-145.0
 30
0.0
 11
-398.7324608459467
 21
-144.1961524227065
 31
0.0
  0
LINE
  5
7FC
100
AcDbEntity
  8
L1
100
AcDbLine
 10
-388.5324608459465
 20
-148.999999999999
 30
0.0
 11
-395.7324608459467
 21
-148.999999999999
 31
0.0
  0
LINE
  5
7FD
100
AcDbEntity
  8
L1
100
AcDbLine
 10
-388.5324608459465
 20
-148.999999999999
 30
0.0
 11
-388.4538491770223
 21
-147.4999999999993
 31
0.0
  0
ARC
  5
7FE
100
AcDbEntity
  8
L1
100
AcDbCircle
 10
-396.8922925715661
 20
-147.2249272595736
 30
0.0
 40
8.442925555484178
100
AcDbArc
 50
358.1329579964241
 51
8.045117114237852
  0
LINE
  5
800
100
AcDbEntity
  8
L6
100
AcDbLine
 10
-412.7324608459467
 20
0.0
 30
0.0
 11
-254.6653940031406
 21
0.0
 31
0.0
1001
ACAD
1000
ASC_BOUNDS
1002
{
1070
    19
1002
}
  0
LINE
  5
802
100
AcDbEntity
  8
L1
100
AcDbLine
 10
-265.7324608459467
 20
147.4999999999993
 30
0.0
 11
-388.4538491770223
 21
147.4999999999993
 31
0.0
  0
LINE
  5
803
100
AcDbEntity
  8
L1
100
AcDbLine
 10
-388.5324608459469
 20
132.4999999999999
 30
0.0
 11
-265.7324608459467
 21
132.4999999999999
 31
0.0
  0
LINE
  5
804
100
AcDbEntity
  8
L1
100
AcDbLine
 10
-263.7324608459472
 20
0.0
 30
0.0
 11
-263.7324608459472
 21
-3.5
 31
0.0
  0
LINE
  5
805
100
AcDbEntity
  8
L1
100
AcDbLine
 10
-263.7324608459472
 20
-53.5
 30
0.0
 11
-265.7324608459467
 21
-54.65470053837918
 31
0.0
  0
LINE
  5
806
100
AcDbEntity
  8
L1
100
AcDbLine
 10
-263.7324608459472
 20
-50.0
 30
0.0
 11
-263.7324608459472
 21
-53.5
 31
0.0
  0
LINE
  5
807
100
AcDbEntity
  8
L1
100
AcDbLine
 10
-263.7324608459472
 20
-50.0
 30
0.0
 11
-263.7324608459472
 21
-46.50000000000011
 31
0.0
  0
LINE
  5
808
100
AcDbEntity
  8
L1
100
AcDbLine
 10
-263.7324608459472
 20
-46.50000000000011
 30
0.0
 11
-265.7324608459467
 21
-45.34529946162069
 31
0.0
  0
LINE
  5
809
100
AcDbEntity
  8
L1
100
AcDbLine
 10
-263.7324608459472
 20
-3.5
 30
0.0
 11
-265.7324608459467
 21
-4.654700538379302
 31
0.0
  0
LINE
  5
80A
100
AcDbEntity
  8
L1
100
AcDbLine
 10
-263.7324608459472
 20
0.0
 30
0.0
 11
-263.7324608459472
 21
3.499999999999772
 31
0.0
  0
LINE
  5
80B
100
AcDbEntity
  8
L1
100
AcDbLine
 10
-263.7324608459472
 20
3.499999999999772
 30
0.0
 11
-265.7324608459467
 21
4.654700538379302
 31
0.0
  0
LINE
  5
80C
100
AcDbEntity
  8
L1
100
AcDbLine
 10
-263.7324608459472
 20
53.5
 30
0.0
 11
-265.7324608459467
 21
54.65470053837918
 31
0.0
  0
LINE
  5
80D
100
AcDbEntity
  8
L1
100
AcDbLine
 10
-263.7324608459472
 20
50.0
 30
0.0
 11
-263.7324608459472
 21
46.50000000000011
 31
0.0
  0
LINE
  5
80E
100
AcDbEntity
  8
L1
100
AcDbLine
 10
-263.7324608459472
 20
50.0
 30
0.0
 11
-263.7324608459472
 21
53.5
 31
0.0
  0
LINE
  5
80F
100
AcDbEntity
  8
L1
100
AcDbLine
 10
-263.7324608459472
 20
46.50000000000011
 30
0.0
 11
-265.7324608459467
 21
45.34529946162069
 31
0.0
  0
LINE
  5
810
100
AcDbEntity
  8
L1
100
AcDbLine
 10
-263.7324608459472
 20
100.0
 30
0.0
 11
-263.7324608459472
 21
103.4999999999999
 31
0.0
  0
LINE
  5
811
100
AcDbEntity
  8
L1
100
AcDbLine
 10
-263.7324608459472
 20
100.0
 30
0.0
 11
-263.7324608459472
 21
96.5
 31
0.0
  0
LINE
  5
812
100
AcDbEntity
  8
L1
100
AcDbLine
 10
-263.7324608459472
 20
96.5
 30
0.0
 11
-265.7324608459467
 21
95.3452994616207
 31
0.0
  0
LINE
  5
813
100
AcDbEntity
  8
L1
100
AcDbLine
 10
-263.7324608459472
 20
103.4999999999999
 30
0.0
 11
-265.7324608459467
 21
104.6547005383791
 31
0.0
  0
LINE
  5
814
100
AcDbEntity
  8
L1
100
AcDbLine
 10
-263.7324608459472
 20
141.9999999999997
 30
0.0
 11
-263.7324608459472
 21
120.3999999999998
 31
0.0
  0
LINE
  5
815
100
AcDbEntity
  8
L1
100
AcDbLine
 10
-263.7324608459472
 20
120.3999999999998
 30
0.0
 11
-265.7324608459467
 21
120.3999999999998
 31
0.0
  0
LINE
  5
816
100
AcDbEntity
  8
L1
100
AcDbLine
 10
-263.7324608459472
 20
122.8999999999998
 30
0.0
 11
-265.7324608459467
 21
122.8999999999998
 31
0.0
  0
LINE
  5
817
100
AcDbEntity
  8
L1
100
AcDbLine
 10
-263.7324608459472
 20
131.3999999999998
 30
0.0
 11
-265.7324608459467
 21
131.3999999999998
 31
0.0
  0
LINE
  5
818
100
AcDbEntity
  8
L1
100
AcDbLine
 10
-265.7324608459467
 20
141.9999999999997
 30
0.0
 11
-263.7324608459472
 21
141.9999999999997
 31
0.0
  0
LINE
  5
819
100
AcDbEntity
  8
L1
100
AcDbLine
 10
-388.5324608459473
 20
146.043315878943
 30
0.0
 11
-388.5324608459465
 21
0.0
 31
0.0
  0
LINE
  5
81A
100
AcDbEntity
  8
L1
100
AcDbLine
 10
-395.7324608459467
 20
145.0
 30
0.0
 11
-398.7324608459467
 21
144.1961524227065
 31
0.0
  0
LINE
  5
81B
100
AcDbEntity
  8
L1
100
AcDbLine
 10
-388.5324608459465
 20
148.999999999999
 30
0.0
 11
-395.7324608459467
 21
148.999999999999
 31
0.0
  0
LINE
  5
81C
100
AcDbEntity
  8
L1
100
AcDbLine
 10
-388.5324608459465
 20
148.999999999999
 30
0.0
 11
-388.4538491770223
 21
147.4999999999993
 31
0.0
  0
ARC
  5
81D
100
AcDbEntity
  8
L1
100
AcDbCircle
 10
-396.8922925715661
 20
147.2249272595736
 30
0.0
 40
8.442925555484178
100
AcDbArc
 50
351.9548828857621
 51
1.867042003575853
  0
LINE
  5
BCD
100
AcDbEntity
  8
L1
100
AcDbLine
 10
-148.0372145294655
 20
373.3172949971708
 30
0.0
 11
149.9627854705335
 21
373.3172949971707
 31
0.0
  0
LINE
  5
BCE
100
AcDbEntity
  8
L1
100
AcDbLine
 10
-145.5360706168879
 20
365.9862155990452
 30
0.0
 11
147.4616415579576
 21
365.986215599045
 31
0.0
  0
LINE
  5
BD6
100
AcDbEntity
  8
L1
100
AcDbLine
 10
-131.0372145294657
 20
243.186215599045
 30
0.0
 11
-131.0372145294657
 21
365.986215599045
 31
0.0
  0
LINE
  5
BD7
100
AcDbEntity
  8
L1
100
AcDbLine
 10
133.962785470534
 20
243.3172949971705
 30
0.0
 11
133.962785470534
 21
365.986215599045
 31
0.0
  0
LINE
  5
BDA
100
AcDbEntity
  8
L1
100
AcDbLine
 10
-143.5372145294655
 20
243.3172949971708
 30
0.0
 11
145.4627854705334
 21
243.3172949971705
 31
0.0
1001
ACAD
1000
ASC_BOUNDS
1002
{
1070
    19
1002
}
  0
INSERT
  5
BEB
100
AcDbEntity
  8
L1
100
AcDbBlockReference
  2
A$CF
 10
4.41538858083004
 20
241.2991703730144
 30
0.0
  0
LINE
  5
BEC
100
AcDbEntity
  8
L1
100
AcDbLine
 10
55.32881087431804
 20
242.8172949971706
 30
0.0
 11
96.59676006674949
 21
242.8172949971706
 31
0.0
1001
ACAD
1000
ASC_BOUNDS
1002
{
1070
    19
1002
}
  0
LINE
  5
BED
100
AcDbEntity
  8
L1
100
AcDbLine
 10
105.3288108743179
 20
242.8172949971705
 30
0.0
 11
121.3627854705336
 21
242.8172949971705
 31
0.0
1001
ACAD
1000
ASC_BOUNDS
1002
{
1070
    19
1002
}
  0
LINE
  5
BEE
100
AcDbEntity
  8
L1
100
AcDbLine
 10
142.9627854705335
 20
242.8172949971705
 30
0.0
 11
145.4627854705334
 21
242.8172949971705
 31
0.0
1001
ACAD
1000
ASC_BOUNDS
1002
{
1070
    19
1002
}
  0
LINE
  5
BEF
100
AcDbEntity
  8
L1
100
AcDbLine
 10
5.328810874318065
 20
242.8172949971707
 30
0.0
 11
46.59676006674948
 21
242.8172949971706
 31
0.0
1001
ACAD
1000
ASC_BOUNDS
1002
{
1070
    19
1002
}
  0
INSERT
  5
BF0
100
AcDbEntity
  8
L1
100
AcDbBlockReference
  2
A$CF
 10
-2.489817639762122
 20
241.2991703730144
 30
0.0
 41
-1.0
  0
LINE
  5
BF1
100
AcDbEntity
  8
L1
100
AcDbLine
 10
-3.403239933250148
 20
242.8172949971707
 30
0.0
 11
-44.67118912568156
 21
242.8172949971706
 31
0.0
1001
ACAD
1000
ASC_BOUNDS
1002
{
1070
    19
1002
}
  0
LINE
  5
BF2
100
AcDbEntity
  8
L1
100
AcDbLine
 10
-53.40323993325013
 20
242.8172949971706
 30
0.0
 11
-94.67118912568158
 21
242.8172949971706
 31
0.0
1001
ACAD
1000
ASC_BOUNDS
1002
{
1070
    19
1002
}
  0
LINE
  5
BF3
100
AcDbEntity
  8
L1
100
AcDbLine
 10
-103.40323993325
 20
242.8172949971705
 30
0.0
 11
-119.4372145294656
 21
242.8172949971705
 31
0.0
1001
ACAD
1000
ASC_BOUNDS
1002
{
1070
    19
1002
}
  0
LINE
  5
BF4
100
AcDbEntity
  8
L1
100
AcDbLine
 10
-141.0372145294655
 20
242.8172949971705
 30
0.0
 11
-143.5372145294655
 21
242.8172949971705
 31
0.0
1001
ACAD
1000
ASC_BOUNDS
1002
{
1070
    19
1002
}
  0
LINE
  5
C59
100
AcDbEntity
  8
L2
 48
2.0
100
AcDbLine
 10
-398.7324608459467
 20
141.9999999999997
 30
0.0
 11
-273.2324608459477
 21
141.9999999999996
 31
0.0
  0
LINE
  5
C5B
100
AcDbEntity
  8
L1
100
AcDbLine
 10
-265.2324608459471
 20
144.4999999999992
 30
0.0
 11
-265.2324608459471
 21
141.9999999999997
 31
0.0
  0
LINE
  5
C5C
100
AcDbEntity
  8
L1
100
AcDbLine
 10
-265.2324608459471
 20
144.4999999999992
 30
0.0
 11
-265.7324608459467
 21
144.4999999999992
 31
0.0
  0
LINE
  5
C5D
100
AcDbEntity
  8
L1
100
AcDbLine
 10
-265.2324608459471
 20
-144.4999999999997
 30
0.0
 11
-265.7324608459467
 21
-144.4999999999997
 31
0.0
  0
LINE
  5
C5F
100
AcDbEntity
  8
L2
 48
2.0
100
AcDbLine
 10
-269.2324608459477
 20
137.9999999999997
 30
0.0
 11
-269.2324608459476
 21
-137.9999999999997
 31
0.0
1001
ACAD
1000
ASC_BOUNDS
1002
{
1070
    19
1002
}
  0
LINE
  5
C66
100
AcDbEntity
  8
L6
 48
0.25
100
AcDbLine
 10
136.9627854705339
 20
144.9999999999999
 30
0.0
 11
136.9627854705339
 21
126.9999999999997
 31
0.0
  0
LINE
  5
C67
100
AcDbEntity
  8
L6
 48
0.25
100
AcDbLine
 10
145.9627854705338
 20
135.9999999999999
 30
0.0
 11
127.9627854705341
 21
135.9999999999999
 31
0.0
  0
LINE
  5
C68
100
AcDbEntity
  8
L6
 48
0.25
100
AcDbLine
 10
145.9627854705338
 20
-136.0
 30
0.0
 11
127.9627854705341
 21
-136.0
 31
0.0
  0
LINE
  5
C69
100
AcDbEntity
  8
L6
 48
0.25
100
AcDbLine
 10
136.9627854705339
 20
-145.0
 30
0.0
 11
136.9627854705339
 21
-126.9999999999998
 31
0.0
  0
LINE
  5
C6A
100
AcDbEntity
  8
L6
 48
0.25
100
AcDbLine
 10
50.96278547053373
 20
136.9999999999997
 30
0.0
 11
50.96278547053373
 21
122.9999999999999
 31
0.0
  0
LINE
  5
C6B
100
AcDbEntity
  8
L6
 48
0.25
100
AcDbLine
 10
50.96278547053373
 20
-136.9999999999998
 30
0.0
 11
50.96278547053373
 21
-123.0
 31
0.0
  0
LINE
  5
C75
100
AcDbEntity
  8
A1
100
AcDbLine
 10
-145.0978747012461
 20
366.117294997171
 30
0.0
 11
-145.0978747012461
 21
243.317294997171
 31
0.0
  0
LINE
  5
C76
100
AcDbEntity
  8
A1
100
AcDbLine
 10
147.023445642314
 20
366.117294997171
 30
0.0
 11
147.023445642314
 21
243.317294997171
 31
0.0
  0
LINE
  5
C7E
100
AcDbEntity
  8
A1
100
AcDbLine
 10
-388.5324608459469
 20
146.06066017178
 30
0.0
 11
-265.7324608459469
 21
146.06066017178
 31
0.0
  0
LINE
  5
C7F
100
AcDbEntity
  8
A1
100
AcDbLine
 10
-388.5324608459469
 20
-146.06066017178
 30
0.0
 11
-265.7324608459469
 21
-146.06066017178
 31
0.0
  0
LINE
  5
CE7
100
AcDbEntity
  8
L2
 48
2.0
100
AcDbLine
 10
-141.0372145294657
 20
376.3172949971709
 30
0.0
 11
-141.0372145294658
 21
250.817294997171
 31
0.0
  0
ARC
  5
CE8
100
AcDbEntity
  8
L2
 48
2.0
100
AcDbCircle
 10
-137.0372145294658
 20
250.817294997171
 30
0.0
 40
4.0
100
AcDbArc
 50
180.0
 51
270.0
  0
ARC
  5
CE9
100
AcDbEntity
  8
L2
 48
2.0
100
AcDbCircle
 10
138.9627854705337
 20
250.817294997171
 30
0.0
 40
4.0
100
AcDbArc
 50
270.0
 51
0.0
1001
ACAD
1000
ASC_BOUNDS
1002
{
1070
    19
1002
}
  0
LINE
  5
CEE
100
AcDbEntity
  8
L2
100
AcDbLine
 10
-274.7324608459477
 20
-10.00000000000022
 30
0.0
 11
-274.7324608459477
 21
9.999999999999772
 31
0.0
  0
LINE
  5
CF2
100
AcDbEntity
  8
L2
100
AcDbLine
 10
-274.7324608459477
 20
-5.000000000000227
 30
0.0
 11
-269.2150110975964
 21
-5.192673590844378
 31
0.0
  0
LINE
  5
CF3
100
AcDbEntity
  8
L2
100
AcDbLine
 10
-274.7324608459477
 20
-10.00000000000022
 30
0.0
 11
-269.2324608459475
 21
-10.04799777284938
 31
0.0
  0
LINE
  5
CF6
100
AcDbEntity
  8
L2
100
AcDbLine
 10
-274.7324608459477
 20
4.999999999999772
 30
0.0
 11
-269.2150110975964
 21
5.192673590843924
 31
0.0
  0
LINE
  5
CF7
100
AcDbEntity
  8
L2
100
AcDbLine
 10
-274.7324608459477
 20
9.999999999999772
 30
0.0
 11
-269.2324608459475
 21
10.04799777284893
 31
0.0
  0
LINE
  5
CF8
100
AcDbEntity
  8
L1
100
AcDbLine
 10
-265.2324608459471
 20
141.9999999999992
 30
0.0
 11
-265.2324608459471
 21
144.4999999999992
 31
0.0
1001
ACAD
1000
ASC_BOUNDS
1002
{
1070
    19
1002
}
  0
LINE
  5
CF9
100
AcDbEntity
  8
L1
100
AcDbLine
 10
-265.2324608459471
 20
104.3660254037837
 30
0.0
 11
-265.2324608459471
 21
120.3999999999993
 31
0.0
1001
ACAD
1000
ASC_BOUNDS
1002
{
1070
    19
1002
}
  0
LINE
  5
CFA
100
AcDbEntity
  8
L1
100
AcDbLine
 10
-265.2324608459472
 20
54.36602540378382
 30
0.0
 11
-265.2324608459472
 21
95.63397459621524
 31
0.0
1001
ACAD
1000
ASC_BOUNDS
1002
{
1070
    19
1002
}
  0
LINE
  5
CFD
100
AcDbEntity
  8
L1
100
AcDbLine
 10
-265.2324608459473
 20
4.366025403783851
 30
0.0
 11
-265.2324608459472
 21
45.63397459621526
 31
0.0
1001
ACAD
1000
ASC_BOUNDS
1002
{
1070
    19
1002
}
  0
LINE
  5
CFE
100
AcDbEntity
  8
L1
100
AcDbLine
 10
-265.2324608459473
 20
-4.366025403784362
 30
0.0
 11
-265.2324608459472
 21
-45.63397459621576
 31
0.0
1001
ACAD
1000
ASC_BOUNDS
1002
{
1070
    19
1002
}
  0
LINE
  5
D01
100
AcDbEntity
  8
L1
100
AcDbLine
 10
-265.2324608459472
 20
-54.36602540378433
 30
0.0
 11
-265.2324608459472
 21
-95.63397459621576
 31
0.0
1001
ACAD
1000
ASC_BOUNDS
1002
{
1070
    19
1002
}
  0
LINE
  5
D04
100
AcDbEntity
  8
L1
100
AcDbLine
 10
-265.2324608459472
 20
-141.9999999999997
 30
0.0
 11
-265.2324608459471
 21
-144.4999999999997
 31
0.0
1001
ACAD
1000
ASC_BOUNDS
1002
{
1070
    19
1002
}
  0
LINE
  5
D05
100
AcDbEntity
  8
L1
100
AcDbLine
 10
-265.2324608459472
 20
-104.3660254037842
 30
0.0
 11
-265.2324608459472
 21
-120.3999999999998
 31
0.0
1001
ACAD
1000
ASC_BOUNDS
1002
{
1070
    19
1002
}
  0
LINE
  5
D07
100
AcDbEntity
  8
L2
 48
2.0
100
AcDbLine
 10
-398.7324608459467
 20
-141.9999999999997
 30
0.0
 11
-273.2324608459476
 21
-141.9999999999996
 31
0.0
  0
ARC
  5
D08
100
AcDbEntity
  8
L2
 48
2.0
100
AcDbCircle
 10
-273.2324608459476
 20
-137.9999999999997
 30
0.0
 40
4.0
100
AcDbArc
 50
270.0
 51
0.0
  0
ARC
  5
D09
100
AcDbEntity
  8
L2
 48
2.0
100
AcDbCircle
 10
-273.2324608459477
 20
137.9999999999997
 30
0.0
 40
4.0
100
AcDbArc
 50
0.0
 51
90.0
  0
LINE
  5
D0A
100
AcDbEntity
  8
L6
100
AcDbLine
 10
0.9627854705339586
 20
-380.97933181801
 30
0.0
 11
0.9627854705339586
 21
-231.0423805537066
 31
0.0
  0
LINE
  5
D0B
100
AcDbEntity
  8
L2
 48
2.0
100
AcDbLine
 10
-137.0372145294658
 20
-246.817294997171
 30
0.0
 11
138.9627854705337
 21
-246.817294997171
 31
0.0
1001
ACAD
1000
ASC_BOUNDS
1002
{
1070
    19
1002
}
  0
LINE
  5
D0C
100
AcDbEntity
  8
L1
100
AcDbLine
 10
-143.5372145294655
 20
-243.3172949971708
 30
0.0
 11
145.4627854705334
 21
-243.3172949971705
 31
0.0
1001
ACAD
1000
ASC_BOUNDS
1002
{
1070
    19
1002
}
  0
LINE
  5
D0D
100
AcDbEntity
  8
L1
100
AcDbLine
 10
-145.5360706168879
 20
-365.9862155990452
 30
0.0
 11
147.4616415579576
 21
-365.986215599045
 31
0.0
  0
LINE
  5
D0E
100
AcDbEntity
  8
L1
100
AcDbLine
 10
-148.0372145294655
 20
-373.3172949971708
 30
0.0
 11
149.9627854705335
 21
-373.3172949971707
 31
0.0
  0
LINE
  5
D0F
100
AcDbEntity
  8
L1
100
AcDbLine
 10
4.462785470533574
 20
-241.317294997171
 30
0.0
 11
-2.537214529465586
 21
-241.317294997171
 31
0.0
  0
LINE
  5
D10
100
AcDbEntity
  8
L2
100
AcDbLine
 10
-9.037214529466041
 20
-252.317294997171
 30
0.0
 11
10.96278547053396
 21
-252.317294997171
 31
0.0
  0
LINE
  5
D11
100
AcDbEntity
  8
L1
100
AcDbLine
 10
-143.2333669521723
 20
-376.3172949971708
 30
0.0
 11
145.1589378932402
 21
-376.3172949971709
 31
0.0
  0
LINE
  5
D12
100
AcDbEntity
  8
L2
 48
2.0
100
AcDbLine
 10
-141.0372145294657
 20
-376.3172949971709
 30
0.0
 11
-141.0372145294658
 21
-250.817294997171
 31
0.0
  0
LINE
  5
D13
100
AcDbEntity
  8
A1
100
AcDbLine
 10
-145.0978747012461
 20
-366.117294997171
 30
0.0
 11
-145.0978747012461
 21
-243.317294997171
 31
0.0
  0
LINE
  5
D14
100
AcDbEntity
  8
L1
100
AcDbLine
 10
-131.0372145294657
 20
-243.186215599045
 30
0.0
 11
-131.0372145294657
 21
-365.986215599045
 31
0.0
  0
LINE
  5
D15
100
AcDbEntity
  8
L1
100
AcDbLine
 10
-146.5372145294655
 20
-243.3172949971713
 30
0.0
 11
-146.5372145294651
 21
-366.0386833282462
 31
0.0
  0
INSERT
  5
D16
100
AcDbEntity
  8
L1
100
AcDbBlockReference
  2
A$CF
 10
-2.489817639762122
 20
-241.2991703730144
 30
0.0
 50
180.0
  0
LINE
  5
D18
100
AcDbEntity
  8
L1
100
AcDbLine
 10
-99.03721452946559
 20
-241.317294997171
 30
0.0
 11
-95.53721452946604
 21
-241.317294997171
 31
0.0
  0
LINE
  5
D19
100
AcDbEntity
  8
L1
100
AcDbLine
 10
-143.5372145294655
 20
-243.3172949971708
 30
0.0
 11
-146.5372145294655
 21
-243.3172949971713
 31
0.0
  0
LINE
  5
D1A
100
AcDbEntity
  8
L1
100
AcDbLine
 10
-125.537214529466
 20
-241.317294997171
 30
0.0
 11
-119.4372145294656
 21
-241.317294997171
 31
0.0
  0
LINE
  5
D1B
100
AcDbEntity
  8
L1
100
AcDbLine
 10
-132.5372145294655
 20
-241.317294997171
 30
0.0
 11
-125.537214529466
 21
-241.317294997171
 31
0.0
  0
ARC
  5
D1C
100
AcDbEntity
  8
L2
 48
2.0
100
AcDbCircle
 10
-137.0372145294658
 20
-250.817294997171
 30
0.0
 40
4.0
100
AcDbArc
 50
90.0
 51
180.0
  0
LINE
  5
D1D
100
AcDbEntity
  8
L1
100
AcDbLine
 10
-141.0372145294655
 20
-242.8172949971705
 30
0.0
 11
-143.5372145294655
 21
-242.8172949971705
 31
0.0
1001
ACAD
1000
ASC_BOUNDS
1002
{
1070
    19
1002
}
  0
LINE
  5
D1E
100
AcDbEntity
  8
L1
100
AcDbLine
 10
-132.5372145294655
 20
-241.317294997171
 30
0.0
 11
-133.4032399332497
 21
-242.8172949971708
 31
0.0
  0
LINE
  5
D1F
100
AcDbEntity
  8
L1
100
AcDbLine
 10
-141.0372145294655
 20
-242.8172949971708
 30
0.0
 11
-141.0372145294655
 21
-241.317294997171
 31
0.0
  0
LINE
  5
D20
100
AcDbEntity
  8
L1
100
AcDbLine
 10
-141.0372145294655
 20
-241.317294997171
 30
0.0
 11
-132.5372145294655
 21
-241.317294997171
 31
0.0
  0
LINE
  5
D21
100
AcDbEntity
  8
L1
100
AcDbLine
 10
-143.5372145294655
 20
-242.8172949971708
 30
0.0
 11
-143.5372145294655
 21
-243.3172949971706
 31
0.0
  0
LINE
  5
D22
100
AcDbEntity
  8
L1
100
AcDbLine
 10
-125.537214529466
 20
-241.317294997171
 30
0.0
 11
-124.6711891256815
 21
-242.8172949971708
 31
0.0
  0
LINE
  5
D23
100
AcDbEntity
  8
L1
100
AcDbLine
 10
-121.9372145294656
 20
-241.317294997171
 30
0.0
 11
-121.9372145294656
 21
-242.8172949971708
 31
0.0
  0
LINE
  5
D24
100
AcDbEntity
  8
L1
100
AcDbLine
 10
-103.40323993325
 20
-242.8172949971705
 30
0.0
 11
-119.4372145294656
 21
-242.8172949971705
 31
0.0
1001
ACAD
1000
ASC_BOUNDS
1002
{
1070
    19
1002
}
  0
LINE
  5
D25
100
AcDbEntity
  8
L1
100
AcDbLine
 10
-119.4372145294656
 20
-241.317294997171
 30
0.0
 11
-119.4372145294656
 21
-243.317294997171
 31
0.0
  0
LINE
  5
D26
100
AcDbEntity
  8
L1
100
AcDbLine
 10
-99.03721452946559
 20
-241.317294997171
 30
0.0
 11
-102.5372145294655
 21
-241.317294997171
 31
0.0
  0
LINE
  5
D27
100
AcDbEntity
  8
L1
100
AcDbLine
 10
-102.5372145294655
 20
-241.317294997171
 30
0.0
 11
-103.4032399332498
 21
-242.8172949971708
 31
0.0
  0
LINE
  5
D28
100
AcDbEntity
  8
L1
100
AcDbLine
 10
-49.03721452946559
 20
-241.317294997171
 30
0.0
 11
-45.53721452946604
 21
-241.317294997171
 31
0.0
  0
LINE
  5
D29
100
AcDbEntity
  8
L1
100
AcDbLine
 10
-53.40323993325013
 20
-242.8172949971706
 30
0.0
 11
-94.67118912568158
 21
-242.8172949971706
 31
0.0
1001
ACAD
1000
ASC_BOUNDS
1002
{
1070
    19
1002
}
  0
LINE
  5
D2A
100
AcDbEntity
  8
L1
100
AcDbLine
 10
-95.53721452946604
 20
-241.317294997171
 30
0.0
 11
-94.67118912568151
 21
-242.8172949971708
 31
0.0
  0
LINE
  5
D2C
100
AcDbEntity
  8
L1
100
AcDbLine
 10
-49.03721452946559
 20
-241.317294997171
 30
0.0
 11
-52.53721452946559
 21
-241.317294997171
 31
0.0
  0
LINE
  5
D2D
100
AcDbEntity
  8
L1
100
AcDbLine
 10
-52.53721452946559
 20
-241.317294997171
 30
0.0
 11
-53.40323993325006
 21
-242.8172949971708
 31
0.0
  0
LINE
  5
D2E
100
AcDbEntity
  8
L1
100
AcDbLine
 10
-3.403239933250148
 20
-242.8172949971707
 30
0.0
 11
-44.67118912568156
 21
-242.8172949971706
 31
0.0
1001
ACAD
1000
ASC_BOUNDS
1002
{
1070
    19
1002
}
  0
LINE
  5
D2F
100
AcDbEntity
  8
L1
100
AcDbLine
 10
-45.53721452946604
 20
-241.317294997171
 30
0.0
 11
-44.67118912568159
 21
-242.8172949971708
 31
0.0
  0
LINE
  5
D30
100
AcDbEntity
  8
L1
100
AcDbLine
 10
-2.537214529465586
 20
-241.317294997171
 30
0.0
 11
-3.403239933250688
 21
-242.817294997171
 31
0.0
  0
LINE
  5
D31
100
AcDbEntity
  8
L2
100
AcDbLine
 10
-4.037214529466041
 20
-252.317294997171
 30
0.0
 11
-4.229888120310192
 21
-246.7998452488198
 31
0.0
  0
LINE
  5
D32
100
AcDbEntity
  8
L2
100
AcDbLine
 10
-9.037214529466041
 20
-252.317294997171
 30
0.0
 11
-9.085212302315198
 21
-246.8172949971708
 31
0.0
  0
LINE
  5
D33
100
AcDbEntity
  8
L1
100
AcDbLine
 10
-148.0372145294655
 20
-373.3172949971708
 30
0.0
 11
-148.0372145294655
 21
-366.117294997171
 31
0.0
1001
ACAD
1000
ASC_BOUNDS
1002
{
1070
    19
1002
}
  0
LINE
  5
D34
100
AcDbEntity
  8
L1
100
AcDbLine
 10
-148.0372145294655
 20
-366.117294997171
 30
0.0
 11
-145.5360706168879
 21
-365.9862155990452
 31
0.0
1001
ACAD
1000
ASC_BOUNDS
1002
{
1070
    19
1002
}
  0
LINE
  5
D35
100
AcDbEntity
  8
L1
100
AcDbLine
 10
-144.0372145294655
 20
-373.3172949971708
 30
0.0
 11
-143.2333669521723
 21
-376.3172949971708
 31
0.0
1001
ACAD
1000
ASC_BOUNDS
1002
{
1070
    19
1002
}
  0
LINE
  5
D36
100
AcDbEntity
  8
L2
 48
2.0
100
AcDbLine
 10
142.9627854705337
 20
-376.3172949971709
 30
0.0
 11
142.9627854705337
 21
-250.817294997171
 31
0.0
  0
LINE
  5
D37
100
AcDbEntity
  8
A1
100
AcDbLine
 10
147.023445642314
 20
-366.117294997171
 30
0.0
 11
147.023445642314
 21
-243.317294997171
 31
0.0
  0
LINE
  5
D38
100
AcDbEntity
  8
L1
100
AcDbLine
 10
133.962785470534
 20
-243.186215599045
 30
0.0
 11
133.962785470534
 21
-365.986215599045
 31
0.0
  0
LINE
  5
D39
100
AcDbEntity
  8
L1
100
AcDbLine
 10
148.4627854705335
 20
-243.3172949971713
 30
0.0
 11
148.462785470533
 21
-366.0386833282462
 31
0.0
  0
LINE
  5
D3A
100
AcDbEntity
  8
L1
100
AcDbLine
 10
55.32881087431804
 20
-242.8172949971706
 30
0.0
 11
96.59676006674949
 21
-242.8172949971706
 31
0.0
1001
ACAD
1000
ASC_BOUNDS
1002
{
1070
    19
1002
}
  0
INSERT
  5
D3B
100
AcDbEntity
  8
L1
100
AcDbBlockReference
  2
A$CF
 10
4.41538858083004
 20
-241.2991703730144
 30
0.0
 41
-1.0
 50
180.0
  0
LINE
  5
D3D
100
AcDbEntity
  8
L1
100
AcDbLine
 10
5.328810874318065
 20
-242.8172949971707
 30
0.0
 11
46.59676006674948
 21
-242.8172949971706
 31
0.0
1001
ACAD
1000
ASC_BOUNDS
1002
{
1070
    19
1002
}
  0
LINE
  5
D3E
100
AcDbEntity
  8
L2
100
AcDbLine
 10
5.962785470533958
 20
-252.317294997171
 30
0.0
 11
6.15545906137811
 21
-246.7998452488198
 31
0.0
  0
LINE
  5
D3F
100
AcDbEntity
  8
L2
100
AcDbLine
 10
10.96278547053396
 20
-252.317294997171
 30
0.0
 11
11.01078324338311
 21
-246.8172949971708
 31
0.0
  0
LINE
  5
D40
100
AcDbEntity
  8
L1
100
AcDbLine
 10
50.9627854705335
 20
-241.317294997171
 30
0.0
 11
47.46278547053395
 21
-241.317294997171
 31
0.0
  0
LINE
  5
D41
100
AcDbEntity
  8
L1
100
AcDbLine
 10
50.9627854705335
 20
-241.317294997171
 30
0.0
 11
54.4627854705335
 21
-241.317294997171
 31
0.0
  0
ARC
  5
D43
100
AcDbEntity
  8
L2
 48
2.0
100
AcDbCircle
 10
138.9627854705337
 20
-250.817294997171
 30
0.0
 40
4.0
100
AcDbArc
 50
0.0
 51
90.0
1001
ACAD
1000
ASC_BOUNDS
1002
{
1070
    19
1002
}
  0
LINE
  5
D44
100
AcDbEntity
  8
L1
100
AcDbLine
 10
142.9627854705335
 20
-241.317294997171
 30
0.0
 11
134.4627854705334
 21
-241.317294997171
 31
0.0
  0
LINE
  5
D45
100
AcDbEntity
  8
L1
100
AcDbLine
 10
105.3288108743179
 20
-242.8172949971705
 30
0.0
 11
121.3627854705336
 21
-242.8172949971705
 31
0.0
1001
ACAD
1000
ASC_BOUNDS
1002
{
1070
    19
1002
}
  0
LINE
  5
D46
100
AcDbEntity
  8
L1
100
AcDbLine
 10
100.9627854705335
 20
-241.317294997171
 30
0.0
 11
97.46278547053396
 21
-241.317294997171
 31
0.0
  0
LINE
  5
D47
100
AcDbEntity
  8
L1
100
AcDbLine
 10
100.9627854705335
 20
-241.317294997171
 30
0.0
 11
104.4627854705335
 21
-241.317294997171
 31
0.0
  0
LINE
  5
D48
100
AcDbEntity
  8
L1
100
AcDbLine
 10
134.4627854705334
 20
-241.317294997171
 30
0.0
 11
127.4627854705339
 21
-241.317294997171
 31
0.0
  0
LINE
  5
D49
100
AcDbEntity
  8
L1
100
AcDbLine
 10
127.4627854705339
 20
-241.317294997171
 30
0.0
 11
121.3627854705336
 21
-241.317294997171
 31
0.0
  0
LINE
  5
D4A
100
AcDbEntity
  8
L1
100
AcDbLine
 10
142.9627854705335
 20
-242.8172949971705
 30
0.0
 11
145.4627854705334
 21
-242.8172949971705
 31
0.0
1001
ACAD
1000
ASC_BOUNDS
1002
{
1070
    19
1002
}
  0
LINE
  5
D4B
100
AcDbEntity
  8
L1
100
AcDbLine
 10
145.4627854705334
 20
-242.8172949971708
 30
0.0
 11
145.4627854705334
 21
-243.3172949971706
 31
0.0
  0
LINE
  5
D4C
100
AcDbEntity
  8
L1
100
AcDbLine
 10
145.4627854705334
 20
-243.3172949971708
 30
0.0
 11
148.4627854705335
 21
-243.3172949971713
 31
0.0
  0
LINE
  5
D4D
100
AcDbEntity
  8
L1
100
AcDbLine
 10
149.9627854705335
 20
-373.3172949971708
 30
0.0
 11
149.9627854705335
 21
-366.117294997171
 31
0.0
1001
ACAD
1000
ASC_BOUNDS
1002
{
1070
    19
1002
}
  0
LINE
  5
D4E
100
AcDbEntity
  8
L1
100
AcDbLine
 10
149.9627854705335
 20
-366.117294997171
 30
0.0
 11
147.4616415579558
 21
-365.9862155990452
 31
0.0
1001
ACAD
1000
ASC_BOUNDS
1002
{
1070
    19
1002
}
  0
LINE
  5
D4F
100
AcDbEntity
  8
L1
100
AcDbLine
 10
145.9627854705335
 20
-373.3172949971708
 30
0.0
 11
145.1589378932402
 21
-376.3172949971708
 31
0.0
1001
ACAD
1000
ASC_BOUNDS
1002
{
1070
    19
1002
}
  0
LINE
  5
D50
100
AcDbEntity
  8
L2
 48
2.0
100
AcDbLine
 10
271.1580317870156
 20
137.9999999999997
 30
0.0
 11
271.1580317870156
 21
-137.9999999999997
 31
0.0
1001
ACAD
1000
ASC_BOUNDS
1002
{
1070
    19
1002
}
  0
LINE
  5
D51
100
AcDbEntity
  8
L2
100
AcDbLine
 10
276.6580317870156
 20
-10.00000000000022
 30
0.0
 11
276.6580317870156
 21
9.999999999999772
 31
0.0
  0
LINE
  5
D52
100
AcDbEntity
  8
L1
100
AcDbLine
 10
390.4580317870152
 20
146.043315878943
 30
0.0
 11
390.4580317870144
 21
0.0
 31
0.0
  0
LINE
  5
D53
100
AcDbEntity
  8
L1
100
AcDbLine
 10
265.6580317870151
 20
0.0
 30
0.0
 11
265.6580317870151
 21
3.499999999999772
 31
0.0
  0
LINE
  5
D54
100
AcDbEntity
  8
L1
100
AcDbLine
 10
397.6580317870146
 20
-148.999999999999
 30
0.0
 11
397.6580317870146
 21
148.9999999999989
 31
0.0
  0
LINE
  5
D55
100
AcDbEntity
  8
L1
100
AcDbLine
 10
400.6580317870146
 20
-144.1961524227065
 30
0.0
 11
400.6580317870146
 21
144.1961524227065
 31
0.0
  0
LINE
  5
D56
100
AcDbEntity
  8
L1
100
AcDbLine
 10
267.6580317870147
 20
-147.4999999999993
 30
0.0
 11
267.6580317870147
 21
147.4999999999992
 31
0.0
  0
LINE
  5
D57
100
AcDbEntity
  8
L2
 48
2.0
100
AcDbLine
 10
400.6580317870146
 20
-141.9999999999997
 30
0.0
 11
275.1580317870156
 21
-141.9999999999996
 31
0.0
  0
LINE
  5
D58
100
AcDbEntity
  8
A1
100
AcDbLine
 10
390.4580317870149
 20
-146.06066017178
 30
0.0
 11
267.6580317870149
 21
-146.06066017178
 31
0.0
  0
LINE
  5
D59
100
AcDbEntity
  8
L6
100
AcDbLine
 10
414.6580317870147
 20
0.0
 30
0.0
 11
256.5909649442084
 21
0.0
 31
0.0
1001
ACAD
1000
ASC_BOUNDS
1002
{
1070
    19
1002
}
  0
LINE
  5
D5A
100
AcDbEntity
  8
L1
100
AcDbLine
 10
267.6580317870147
 20
-147.4999999999993
 30
0.0
 11
390.3794201180902
 21
-147.4999999999993
 31
0.0
  0
LINE
  5
D5B
100
AcDbEntity
  8
L1
100
AcDbLine
 10
390.4580317870149
 20
-132.4999999999999
 30
0.0
 11
267.6580317870147
 21
-132.4999999999999
 31
0.0
  0
LINE
  5
D5C
100
AcDbEntity
  8
L1
100
AcDbLine
 10
390.4580317870149
 20
-146.0433158789617
 30
0.0
 11
390.4580317870145
 21
0.0
 31
0.0
  0
LINE
  5
D5D
100
AcDbEntity
  8
L1
100
AcDbLine
 10
390.4580317870144
 20
-148.999999999999
 30
0.0
 11
390.3794201180902
 21
-147.4999999999993
 31
0.0
  0
LINE
  5
D5E
100
AcDbEntity
  8
L1
100
AcDbLine
 10
390.4580317870144
 20
-148.999999999999
 30
0.0
 11
397.6580317870146
 21
-148.999999999999
 31
0.0
  0
LINE
  5
D5F
100
AcDbEntity
  8
L1
100
AcDbLine
 10
397.6580317870146
 20
-145.0
 30
0.0
 11
400.6580317870146
 21
-144.1961524227065
 31
0.0
  0
ARC
  5
D60
100
AcDbEntity
  8
L1
100
AcDbCircle
 10
398.817863512634
 20
-147.2249272595736
 30
0.0
 40
8.442925555484178
100
AcDbArc
 50
171.9548828857621
 51
181.8670420035758
  0
LINE
  5
D61
100
AcDbEntity
  8
L1
100
AcDbLine
 10
267.1580317870151
 20
-104.3660254037842
 30
0.0
 11
267.1580317870151
 21
-120.3999999999998
 31
0.0
1001
ACAD
1000
ASC_BOUNDS
1002
{
1070
    19
1002
}
  0
LINE
  5
D62
100
AcDbEntity
  8
L1
100
AcDbLine
 10
265.6580317870151
 20
-120.3999999999998
 30
0.0
 11
267.6580317870147
 21
-120.3999999999998
 31
0.0
  0
LINE
  5
D63
100
AcDbEntity
  8
L1
100
AcDbLine
 10
265.6580317870151
 20
-122.8999999999998
 30
0.0
 11
267.6580317870147
 21
-122.8999999999998
 31
0.0
  0
LINE
  5
D64
100
AcDbEntity
  8
L1
100
AcDbLine
 10
265.6580317870151
 20
-131.3999999999998
 30
0.0
 11
267.6580317870147
 21
-131.3999999999998
 31
0.0
  0
LINE
  5
D65
100
AcDbEntity
  8
L1
100
AcDbLine
 10
267.6580317870147
 20
-141.9999999999997
 30
0.0
 11
265.6580317870151
 21
-141.9999999999997
 31
0.0
  0
ARC
  5
D66
100
AcDbEntity
  8
L2
 48
2.0
100
AcDbCircle
 10
275.1580317870156
 20
-137.9999999999997
 30
0.0
 40
4.0
100
AcDbArc
 50
180.0
 51
270.0
  0
LINE
  5
D67
100
AcDbEntity
  8
L1
100
AcDbLine
 10
267.1580317870151
 20
-141.9999999999997
 30
0.0
 11
267.1580317870151
 21
-144.4999999999997
 31
0.0
1001
ACAD
1000
ASC_BOUNDS
1002
{
1070
    19
1002
}
  0
LINE
  5
D68
100
AcDbEntity
  8
L1
100
AcDbLine
 10
267.1580317870151
 20
-144.4999999999997
 30
0.0
 11
267.6580317870147
 21
-144.4999999999997
 31
0.0
  0
LINE
  5
D69
100
AcDbEntity
  8
L1
100
AcDbLine
 10
265.6580317870151
 20
-141.9999999999997
 30
0.0
 11
265.6580317870151
 21
-120.3999999999998
 31
0.0
  0
LINE
  5
D6A
100
AcDbEntity
  8
L1
100
AcDbLine
 10
267.1580317870152
 20
-54.36602540378433
 30
0.0
 11
267.1580317870151
 21
-95.63397459621576
 31
0.0
1001
ACAD
1000
ASC_BOUNDS
1002
{
1070
    19
1002
}
  0
LINE
  5
D6B
100
AcDbEntity
  8
L1
100
AcDbLine
 10
265.6580317870151
 20
-103.4999999999999
 30
0.0
 11
267.6580317870147
 21
-104.6547005383791
 31
0.0
  0
LINE
  5
D6C
100
AcDbEntity
  8
L1
100
AcDbLine
 10
265.6580317870151
 20
-96.5
 30
0.0
 11
267.6580317870147
 21
-95.3452994616207
 31
0.0
  0
LINE
  5
D6D
100
AcDbEntity
  8
L1
100
AcDbLine
 10
265.6580317870151
 20
-100.0
 30
0.0
 11
265.6580317870151
 21
-103.4999999999999
 31
0.0
  0
LINE
  5
D6E
100
AcDbEntity
  8
L1
100
AcDbLine
 10
265.6580317870151
 20
-100.0
 30
0.0
 11
265.6580317870151
 21
-96.5
 31
0.0
  0
LINE
  5
D6F
100
AcDbEntity
  8
L1
100
AcDbLine
 10
267.1580317870152
 20
-4.366025403784362
 30
0.0
 11
267.1580317870152
 21
-45.63397459621576
 31
0.0
1001
ACAD
1000
ASC_BOUNDS
1002
{
1070
    19
1002
}
  0
LINE
  5
D70
100
AcDbEntity
  8
L1
100
AcDbLine
 10
265.6580317870151
 20
-46.50000000000011
 30
0.0
 11
267.6580317870147
 21
-45.34529946162069
 31
0.0
  0
LINE
  5
D71
100
AcDbEntity
  8
L1
100
AcDbLine
 10
265.6580317870151
 20
-53.5
 30
0.0
 11
267.6580317870147
 21
-54.65470053837918
 31
0.0
  0
LINE
  5
D72
100
AcDbEntity
  8
L1
100
AcDbLine
 10
265.6580317870151
 20
-50.0
 30
0.0
 11
265.6580317870151
 21
-46.50000000000011
 31
0.0
  0
LINE
  5
D73
100
AcDbEntity
  8
L1
100
AcDbLine
 10
265.6580317870151
 20
-50.0
 30
0.0
 11
265.6580317870151
 21
-53.5
 31
0.0
  0
LINE
  5
D74
100
AcDbEntity
  8
L1
100
AcDbLine
 10
265.6580317870151
 20
-3.5
 30
0.0
 11
267.6580317870147
 21
-4.654700538379302
 31
0.0
  0
LINE
  5
D75
100
AcDbEntity
  8
L2
100
AcDbLine
 10
276.6580317870156
 20
-5.000000000000227
 30
0.0
 11
271.1405820386644
 21
-5.192673590844378
 31
0.0
  0
LINE
  5
D76
100
AcDbEntity
  8
L2
100
AcDbLine
 10
276.6580317870156
 20
-10.00000000000022
 30
0.0
 11
271.1580317870154
 21
-10.04799777284938
 31
0.0
  0
LINE
  5
D77
100
AcDbEntity
  8
L1
100
AcDbLine
 10
265.6580317870151
 20
0.0
 30
0.0
 11
265.6580317870151
 21
-3.5
 31
0.0
  0
LINE
  5
D78
100
AcDbEntity
  8
L2
 48
2.0
100
AcDbLine
 10
400.6580317870146
 20
141.9999999999997
 30
0.0
 11
275.1580317870156
 21
141.9999999999996
 31
0.0
  0
LINE
  5
D79
100
AcDbEntity
  8
A1
100
AcDbLine
 10
390.4580317870149
 20
146.06066017178
 30
0.0
 11
267.6580317870149
 21
146.06066017178
 31
0.0
  0
LINE
  5
D7A
100
AcDbEntity
  8
L1
100
AcDbLine
 10
390.4580317870149
 20
132.4999999999999
 30
0.0
 11
267.6580317870147
 21
132.4999999999999
 31
0.0
  0
LINE
  5
D7B
100
AcDbEntity
  8
L1
100
AcDbLine
 10
267.6580317870147
 20
147.4999999999993
 30
0.0
 11
390.3794201180902
 21
147.4999999999993
 31
0.0
  0
LINE
  5
D7C
100
AcDbEntity
  8
L1
100
AcDbLine
 10
390.4580317870144
 20
148.999999999999
 30
0.0
 11
397.6580317870146
 21
148.999999999999
 31
0.0
  0
LINE
  5
D7D
100
AcDbEntity
  8
L1
100
AcDbLine
 10
397.6580317870146
 20
145.0
 30
0.0
 11
400.6580317870146
 21
144.1961524227065
 31
0.0
  0
ARC
  5
D7E
100
AcDbEntity
  8
L1
100
AcDbCircle
 10
398.817863512634
 20
147.2249272595736
 30
0.0
 40
8.442925555484178
100
AcDbArc
 50
178.1329579964241
 51
188.0451171142378
  0
LINE
  5
D7F
100
AcDbEntity
  8
L1
100
AcDbLine
 10
390.4580317870144
 20
148.999999999999
 30
0.0
 11
390.3794201180902
 21
147.4999999999993
 31
0.0
  0
LINE
  5
D80
100
AcDbEntity
  8
L1
100
AcDbLine
 10
267.1580317870151
 20
104.3660254037837
 30
0.0
 11
267.1580317870151
 21
120.3999999999993
 31
0.0
1001
ACAD
1000
ASC_BOUNDS
1002
{
1070
    19
1002
}
  0
LINE
  5
D81
100
AcDbEntity
  8
L1
100
AcDbLine
 10
267.1580317870152
 20
54.36602540378382
 30
0.0
 11
267.1580317870151
 21
95.63397459621524
 31
0.0
1001
ACAD
1000
ASC_BOUNDS
1002
{
1070
    19
1002
}
  0
LINE
  5
D82
100
AcDbEntity
  8
L1
100
AcDbLine
 10
267.1580317870152
 20
4.366025403783851
 30
0.0
 11
267.1580317870152
 21
45.63397459621526
 31
0.0
1001
ACAD
1000
ASC_BOUNDS
1002
{
1070
    19
1002
}
  0
LINE
  5
D83
100
AcDbEntity
  8
L1
100
AcDbLine
 10
265.6580317870151
 20
3.499999999999772
 30
0.0
 11
267.6580317870147
 21
4.654700538379302
 31
0.0
  0
LINE
  5
D84
100
AcDbEntity
  8
L2
100
AcDbLine
 10
276.6580317870156
 20
4.999999999999772
 30
0.0
 11
271.1405820386644
 21
5.192673590843924
 31
0.0
  0
LINE
  5
D85
100
AcDbEntity
  8
L2
100
AcDbLine
 10
276.6580317870156
 20
9.999999999999772
 30
0.0
 11
271.1580317870154
 21
10.04799777284893
 31
0.0
  0
LINE
  5
D86
100
AcDbEntity
  8
L1
100
AcDbLine
 10
265.6580317870151
 20
46.50000000000011
 30
0.0
 11
267.6580317870147
 21
45.34529946162069
 31
0.0
  0
LINE
  5
D87
100
AcDbEntity
  8
L1
100
AcDbLine
 10
265.6580317870151
 20
53.5
 30
0.0
 11
267.6580317870147
 21
54.65470053837918
 31
0.0
  0
LINE
  5
D88
100
AcDbEntity
  8
L1
100
AcDbLine
 10
265.6580317870151
 20
50.0
 30
0.0
 11
265.6580317870151
 21
53.5
 31
0.0
  0
LINE
  5
D89
100
AcDbEntity
  8
L1
100
AcDbLine
 10
265.6580317870151
 20
50.0
 30
0.0
 11
265.6580317870151
 21
46.50000000000011
 31
0.0
  0
LINE
  5
D8A
100
AcDbEntity
  8
L1
100
AcDbLine
 10
265.6580317870151
 20
103.4999999999999
 30
0.0
 11
267.6580317870147
 21
104.6547005383791
 31
0.0
  0
LINE
  5
D8B
100
AcDbEntity
  8
L1
100
AcDbLine
 10
265.6580317870151
 20
96.5
 30
0.0
 11
267.6580317870147
 21
95.3452994616207
 31
0.0
  0
LINE
  5
D8C
100
AcDbEntity
  8
L1
100
AcDbLine
 10
265.6580317870151
 20
100.0
 30
0.0
 11
265.6580317870151
 21
96.5
 31
0.0
  0
LINE
  5
D8D
100
AcDbEntity
  8
L1
100
AcDbLine
 10
265.6580317870151
 20
100.0
 30
0.0
 11
265.6580317870151
 21
103.4999999999999
 31
0.0
  0
LINE
  5
D8E
100
AcDbEntity
  8
L1
100
AcDbLine
 10
267.6580317870147
 20
141.9999999999997
 30
0.0
 11
265.6580317870151
 21
141.9999999999997
 31
0.0
  0
LINE
  5
D8F
100
AcDbEntity
  8
L1
100
AcDbLine
 10
265.6580317870151
 20
131.3999999999998
 30
0.0
 11
267.6580317870147
 21
131.3999999999998
 31
0.0
  0
LINE
  5
D90
100
AcDbEntity
  8
L1
100
AcDbLine
 10
265.6580317870151
 20
122.8999999999998
 30
0.0
 11
267.6580317870147
 21
122.8999999999998
 31
0.0
  0
LINE
  5
D91
100
AcDbEntity
  8
L1
100
AcDbLine
 10
265.6580317870151
 20
120.3999999999998
 30
0.0
 11
267.6580317870147
 21
120.3999999999998
 31
0.0
  0
ARC
  5
D92
100
AcDbEntity
  8
L2
 48
2.0
100
AcDbCircle
 10
275.1580317870156
 20
137.9999999999997
 30
0.0
 40
4.0
100
AcDbArc
 50
90.0
 51
180.0
  0
LINE
  5
D93
100
AcDbEntity
  8
L1
100
AcDbLine
 10
267.158031787015
 20
141.9999999999992
 30
0.0
 11
267.158031787015
 21
144.4999999999992
 31
0.0
1001
ACAD
1000
ASC_BOUNDS
1002
{
1070
    19
1002
}
  0
LINE
  5
D94
100
AcDbEntity
  8
L1
100
AcDbLine
 10
267.1580317870151
 20
144.4999999999992
 30
0.0
 11
267.6580317870147
 21
144.4999999999992
 31
0.0
  0
LINE
  5
D95
100
AcDbEntity
  8
L1
100
AcDbLine
 10
267.1580317870151
 20
144.4999999999992
 30
0.0
 11
267.1580317870151
 21
141.9999999999997
 31
0.0
  0
LINE
  5
D96
100
AcDbEntity
  8
L1
100
AcDbLine
 10
265.6580317870151
 20
141.9999999999997
 30
0.0
 11
265.6580317870151
 21
120.3999999999998
 31
0.0
  0
ENDSEC
  0
SECTION
  2
OBJECTS
  0
DICTIONARY
  5
1B
100
AcDbDictionary
  3
ACAD_GROUP
350
19
  3
ACAD_MLINESTYLE
350
1A
  0
DICTIONARY
  5
19
102
{ACAD_REACTORS
330
1B
102
}
100
AcDbDictionary
  0
DICTIONARY
  5
1A
102
{ACAD_REACTORS
330
1B
102
}
100
AcDbDictionary
  3
STANDARD
350
1E
  0
MLINESTYLE
  5
1E
102
{ACAD_REACTORS
330
1A
102
}
100
AcDbMlineStyle
  2
STANDARD
 70
     0
  3

 62
     0
 51
90.0
 52
90.0
 71
     2
 49
0.5
 62
   256
  6
BYLAYER
 49
-0.5
 62
   256
  6
BYLAYER
  0
ENDSEC
  0
EOF
