  0
SECTION
  2
HEADER
  9
$ACADVER
  1
AC1012
  9
$DWGCODEPAGE
  3
ansi_1252
  9
$INSBASE
 10
0.0
 20
0.0
 30
0.0
  9
$EXTMIN
 10
-565.0850958243649
 20
-291.1144674393431
 30
0.0
  9
$EXTMAX
 10
265.7476365775417
 20
289.7112553545685
 30
0.0
  9
$LIMMIN
 10
0.0
 20
0.0
  9
$LIMMAX
 10
210.0
 20
297.0
  9
$ORTHOMODE
 70
     1
  9
$REGENMODE
 70
     1
  9
$FILLMODE
 70
     1
  9
$QTEXTMODE
 70
     0
  9
$MIRRTEXT
 70
     1
  9
$DRAGMODE
 70
     2
  9
$LTSCALE
 40
15.0
  9
$OSMODE
 70
    39
  9
$ATTMODE
 70
     1
  9
$TEXTSIZE
 40
3.5
  9
$TRACEWID
 40
0.05
  9
$TEXTSTYLE
  7
STANDARD
  9
$CLAYER
  8
L1
  9
$CELTYPE
  6
BYLAYER
  9
$CECOLOR
 62
   256
  9
$CELTSCALE
 40
1.0
  9
$DELOBJ
 70
     1
  9
$DISPSILH
 70
     1
  9
$DIMSCALE
 40
1.0
  9
$DIMASZ
 40
3.5
  9
$DIMEXO
 40
0.0
  9
$DIMDLI
 40
10.0
  9
$DIMRND
 40
0.0
  9
$DIMDLE
 40
0.0
  9
$DIMEXE
 40
1.0
  9
$DIMTP
 40
0.0
  9
$DIMTM
 40
0.0
  9
$DIMTXT
 40
3.5
  9
$DIMCEN
 40
2.5
  9
$DIMTSZ
 40
0.0
  9
$DIMTOL
 70
     0
  9
$DIMLIM
 70
     0
  9
$DIMTIH
 70
     0
  9
$DIMTOH
 70
     0
  9
$DIMSE1
 70
     0
  9
$DIMSE2
 70
     0
  9
$DIMTAD
 70
     1
  9
$DIMZIN
 70
     8
  9
$DIMBLK
  1

  9
$DIMASO
 70
     1
  9
$DIMSHO
 70
     1
  9
$DIMPOST
  1

  9
$DIMAPOST
  1

  9
$DIMALT
 70
     0
  9
$DIMALTD
 70
     2
  9
$DIMALTF
 40
25.4
  9
$DIMLFAC
 40
1.0
  9
$DIMTOFL
 70
     1
  9
$DIMTVP
 40
0.0
  9
$DIMTIX
 70
     0
  9
$DIMSOXD
 70
     0
  9
$DIMSAH
 70
     0
  9
$DIMBLK1
  1

  9
$DIMBLK2
  1

  9
$DIMSTYLE
  2
ACADUS
  9
$DIMCLRD
 70
   256
  9
$DIMCLRE
 70
   256
  9
$DIMCLRT
 70
     3
  9
$DIMTFAC
 40
1.0
  9
$DIMGAP
 40
2.0
  9
$DIMJUST
 70
     0
  9
$DIMSD1
 70
     0
  9
$DIMSD2
 70
     0
  9
$DIMTOLJ
 70
     1
  9
$DIMTZIN
 70
     0
  9
$DIMALTZ
 70
     0
  9
$DIMALTTZ
 70
     0
  9
$DIMFIT
 70
     3
  9
$DIMUPT
 70
     0
  9
$DIMUNIT
 70
     2
  9
$DIMDEC
 70
     1
  9
$DIMTDEC
 70
     1
  9
$DIMALTU
 70
     2
  9
$DIMALTTD
 70
     2
  9
$DIMTXSTY
  7
STANDARD
  9
$DIMAUNIT
 70
     0
  9
$LUNITS
 70
     2
  9
$LUPREC
 70
     1
  9
$SKETCHINC
 40
1.0
  9
$FILLETRAD
 40
0.0
  9
$AUNITS
 70
     0
  9
$AUPREC
 70
     1
  9
$MENU
  1
CAESAR
  9
$ELEVATION
 40
0.0
  9
$PELEVATION
 40
0.0
  9
$THICKNESS
 40
0.0
  9
$LIMCHECK
 70
     0
  9
$BLIPMODE
 70
     0
  9
$CHAMFERA
 40
2.5
  9
$CHAMFERB
 40
2.5
  9
$CHAMFERC
 40
0.0
  9
$CHAMFERD
 40
0.0
  9
$SKPOLY
 70
     0
  9
$TDCREATE
 40
2449183.482379861
  9
$TDUPDATE
 40
2450779.575814769
  9
$TDINDWG
 40
1.9447852083
  9
$TDUSRTIMER
 40
1.9447852083
  9
$USRTIMER
 70
     1
  9
$ANGBASE
 50
0.0
  9
$ANGDIR
 70
     0
  9
$PDMODE
 70
     0
  9
$PDSIZE
 40
0.0
  9
$PLINEWID
 40
0.0
  9
$COORDS
 70
     2
  9
$SPLFRAME
 70
     0
  9
$SPLINETYPE
 70
     6
  9
$SPLINESEGS
 70
     8
  9
$ATTDIA
 70
     0
  9
$ATTREQ
 70
     0
  9
$HANDLING
 70
     1
  9
$HANDSEED
  5
CEC
  9
$SURFTAB1
 70
     6
  9
$SURFTAB2
 70
     6
  9
$SURFTYPE
 70
     6
  9
$SURFU
 70
     6
  9
$SURFV
 70
     6
  9
$UCSNAME
  2

  9
$UCSORG
 10
0.0
 20
0.0
 30
0.0
  9
$UCSXDIR
 10
1.0
 20
0.0
 30
0.0
  9
$UCSYDIR
 10
0.0
 20
1.0
 30
0.0
  9
$PUCSNAME
  2

  9
$PUCSORG
 10
0.0
 20
0.0
 30
0.0
  9
$PUCSXDIR
 10
1.0
 20
0.0
 30
0.0
  9
$PUCSYDIR
 10
0.0
 20
1.0
 30
0.0
  9
$USERI1
 70
     0
  9
$USERI2
 70
     0
  9
$USERI3
 70
     0
  9
$USERI4
 70
     0
  9
$USERI5
 70
     0
  9
$USERR1
 40
1.0
  9
$USERR2
 40
0.0
  9
$USERR3
 40
3.5
  9
$USERR4
 40
0.0
  9
$USERR5
 40
0.0
  9
$WORLDVIEW
 70
     1
  9
$SHADEDGE
 70
     3
  9
$SHADEDIF
 70
    70
  9
$TILEMODE
 70
     1
  9
$MAXACTVP
 70
    16
  9
$PINSBASE
 10
0.0
 20
0.0
 30
0.0
  9
$PLIMCHECK
 70
     0
  9
$PEXTMIN
 10
1.000000000000000E+20
 20
1.000000000000000E+20
 30
1.000000000000000E+20
  9
$PEXTMAX
 10
-1.000000000000000E+20
 20
-1.000000000000000E+20
 30
-1.000000000000000E+20
  9
$PLIMMIN
 10
0.0
 20
0.0
  9
$PLIMMAX
 10
420.0
 20
297.0
  9
$UNITMODE
 70
     0
  9
$VISRETAIN
 70
     0
  9
$PLINEGEN
 70
     0
  9
$PSLTSCALE
 70
     0
  9
$TREEDEPTH
 70
  3020
  9
$PICKSTYLE
 70
     1
  9
$CMLSTYLE
  2
STANDARD
  9
$CMLJUST
 70
     0
  9
$CMLSCALE
 40
1.0
  9
$SAVEIMAGES
 70
     0
  0
ENDSEC
  0
SECTION
  2
CLASSES
  0
CLASS
  1
ACMESCOPE
  2
AcMeScope
  3
ACME_MODULE_NAME
 90
        0
280
     0
281
     0
  0
CLASS
  1
ACMECOMMANDHISTORY
  2
AcMeCommandHistory
  3
ACME_MODULE_NAME
 90
        0
280
     0
281
     0
  0
CLASS
  1
AcRfInsAdjusterMgr
  2
AcRfInsAdjusterMgr
  3
ACME_MODULE_NAME
 90
        0
280
     0
281
     0
  0
CLASS
  1
ACGREFMASTER
  2
AcGrefMaster
  3
"AcadRfServer"
 90
        0
280
     0
281
     0
  0
CLASS
  1
AmiMaster
  2
AmiMaster
  3
"AmiServices"
 90
        0
280
     0
281
     0
  0
CLASS
  1
ACASGREFMASTER
  2
AcAsGrefMaster
  3
"AutoSurfResolver"
 90
        0
280
     0
281
     0
  0
CLASS
  1
ADAPPL
  2
AcAdAppl
  3
DesignerServices
 90
        0
280
     0
281
     0
  0
CLASS
  1
DEPMGR
  2
AcAdDepMgr
  3
DesignerServices
 90
        0
280
     0
281
     0
  0
CLASS
  1
PARAMMGR
  2
AcAdParamMgr
  3
DesignerServices
 90
        0
280
     0
281
     0
  0
CLASS
  1
PARAMSCOPE
  2
AcAdParamScope
  3
DesignerServices
 90
        0
280
     0
281
     0
  0
CLASS
  1
"IM_SYSVAR_MAN"
  2
AcImSysVarManager
  3
"ADAM"
 90
        0
280
     0
281
     0
  0
CLASS
  1
SYSTEM_VAR_INT
  2
AcImIntSysVar
  3
"ADAM"
 90
        0
280
     0
281
     0
  0
CLASS
  1
SYSTEM_VAR_REAL
  2
AcImRealSysVar
  3
"ADAM"
 90
        0
280
     0
281
     0
  0
CLASS
  1
SYSTEM_VAR_STR
  2
AcImStrSysVar
  3
"ADAM"
 90
        0
280
     0
281
     0
  0
CLASS
  1
NAMEDAPPL
  2
AcAdNamedAppl
  3
DesignerServices
 90
        0
280
     0
281
     0
  0
CLASS
  1
ADPART
  2
AcAdPart
  3
DesignerServices
 90
        0
280
     0
281
     1
  0
CLASS
  1
ADBASE
  2
AcAdBase
  3
DesignerServices
 90
        0
280
     0
281
     0
  0
CLASS
  1
BODYID
  2
AcAdBodyId
  3
DesignerServices
 90
        0
280
     0
281
     0
  0
CLASS
  1
WORKPLANEDISPLAYMGR
  2
AcAdDisplayMgr
  3
DesignerServices
 90
        0
280
     0
281
     0
  0
CLASS
  1
ADHNTMPLT
  2
AdHoleNoteTemplateMgr
  3
DesignerServices
 90
        0
280
     0
281
     0
  0
CLASS
  1
AM_HNTEMPLATE_MGR_NAME
  2
AdHoleNoteTemplateMgrName
  3
DesignerServices
 90
        0
280
     0
281
     0
  0
CLASS
  1
AcAdGrefModule
  2
AcAdGrefModule
  3
AD_GREF_SERVICES_NSTR
 90
        0
280
     0
281
     0
  0
CLASS
  1
AM_DRAWING_MGR
  2
AcDmDwgMgr
  3
AcMechDwgViewMgmt
 90
        0
280
     0
281
     0
  0
CLASS
  1
AM_DWG_DOCUMENT
  2
AcDmDwgDocument
  3
AcMechDwgViewMgmt
 90
        0
280
     0
281
     0
  0
CLASS
  1
AM_DWG_SHEET
  2
AcDmSheet
  3
AcMechDwgViewMgmt
 90
        0
280
     0
281
     0
  0
CLASS
  1
AM_VIEWDIMPARMAP
  2
AcDmViewDimParMap
  3
AcMechDwgViewMgmt
 90
        0
280
     0
281
     0
  0
CLASS
  1
AM_DWGMGR_NAME
  2
AcDmDwgMgrName
  3
AcMechDwgViewMgmt
 90
        0
280
     0
281
     0
  0
CLASS
  1
ACAMPROJECT
  2
AcAmProject
  3
DesignerAssemblies
 90
        0
280
     0
281
     0
  0
CLASS
  1
ACAMGRCOMPSET
  2
AcAmGrCompSet
  3
DesignerAssemblies
 90
        0
280
     0
281
     0
  0
CLASS
  1
ACAMGRCOMPDEFSET
  2
AcAmGrCompDefSet
  3
DesignerAssemblies
 90
        0
280
     0
281
     0
  0
CLASS
  1
ACAMGRCOMPDEF
  2
AcAmGrCompDef
  3
DesignerAssemblies
 90
        0
280
     0
281
     0
  0
CLASS
  1
ACAMCOMPDEF
  2
AcAmCompDef
  3
DesignerAssemblies
 90
        0
280
     0
281
     0
  0
CLASS
  1
ACAMCOMPDEFMGR
  2
AcAmCompDefMgr
  3
DesignerAssemblies
 90
        0
280
     0
281
     0
  0
CLASS
  1
AMCONTEXTMGR
  2
AcAmContextMgr
  3
DesignerAssemblies
 90
        0
280
     0
281
     0
  0
CLASS
  1
ACAMCONTEXTMODELER
  2
AcAmContextModeler
  3
DesignerAssemblies
 90
        0
280
     0
281
     0
  0
CLASS
  1
ACAMDRAWINGMAN
  2
AcAmDrawingMan
  3
DesignerAssemblies
 90
        0
280
     0
281
     0
  0
CLASS
  1
ACDMVIEWGEOM
  2
AcDmViewGeometry
  3
AcMechDwgViewMgmt
 90
        0
280
     0
281
     1
  0
CLASS
  1
ASSYSVARS
  2
AcAsSysVars
  3
"AutoSurf"
 90
        0
280
     0
281
     0
  0
CLASS
  1
ASSTATICVARS
  2
AcAsStaticVars
  3
"AutoSurf"
 90
        0
280
     0
281
     0
  0
CLASS
  1
ASAPP
  2
AcAsAppObject
  3
"AutoSurf"
 90
        0
280
     0
281
     0
  0
ENDSEC
  0
SECTION
  2
TABLES
  0
TABLE
  2
VPORT
  5
13
100
AcDbSymbolTable
 70
     3
  0
VPORT
  5
CEB
100
AcDbSymbolTableRecord
100
AcDbViewportTableRecord
  2
*ACTIVE
 70
     0
 10
0.0
 20
0.0
 11
1.0
 21
1.0
 12
-141.639617150866
 22
-0.3074286777013526
 13
0.0
 23
0.0
 14
1.0
 24
1.0
 15
10.0
 25
10.0
 16
0.0
 26
0.0
 36
1.0
 17
0.0
 27
0.0
 37
0.0
 40
594.9019255155749
 41
1.672965116279069
 42
50.0
 43
0.0
 44
0.0
 50
0.0
 51
0.0
 71
     0
 72
   500
 73
     1
 74
     0
 75
     0
 76
     0
 77
     0
 78
     0
  0
ENDTAB
  0
TABLE
  2
LTYPE
  5
F
100
AcDbSymbolTable
 70
     3
  0
LTYPE
  5
10
100
AcDbSymbolTableRecord
100
AcDbLinetypeTableRecord
  2
BYBLOCK
 70
     0
  3

 72
    65
 73
     0
 40
0.0
  0
LTYPE
  5
6
100
AcDbSymbolTableRecord
100
AcDbLinetypeTableRecord
  2
BYLAYER
 70
     0
  3

 72
    65
 73
     0
 40
0.0
  0
LTYPE
  5
5
100
AcDbSymbolTableRecord
100
AcDbLinetypeTableRecord
  2
CONTINUOUS
 70
    64
  3
Solid line
 72
    65
 73
     0
 40
0.0
  0
LTYPE
  5
21
100
AcDbSymbolTableRecord
100
AcDbLinetypeTableRecord
  2
CENTER
 70
    64
  3
____ _ ____ _ ____ _ ____ _ ____ _ ____ _ ____ 
 72
    65
 73
     4
 40
2.0
 49
1.25
 74
     0
 49
-0.25
 74
     0
 49
0.25
 74
     0
 49
-0.25
 74
     0
  0
LTYPE
  5
23A
100
AcDbSymbolTableRecord
100
AcDbLinetypeTableRecord
  2
HIDDEN
 70
    64
  3
__ __ __ __ __ __ __ __ __ __ __ __ __ __ __ __
 72
    65
 73
     2
 40
0.375
 49
0.25
 74
     0
 49
-0.125
 74
     0
  0
ENDTAB
  0
TABLE
  2
LAYER
  5
B
100
AcDbSymbolTable
 70
     5
  0
LAYER
  5
C
100
AcDbSymbolTableRecord
100
AcDbLayerTableRecord
  2
0
 70
    64
 62
     7
  6
CONTINUOUS
  0
LAYER
  5
1C
100
AcDbSymbolTableRecord
100
AcDbLayerTableRecord
  2
L1
 70
    64
 62
     7
  6
CONTINUOUS
  0
LAYER
  5
5B
100
AcDbSymbolTableRecord
100
AcDbLayerTableRecord
  2
L2
 70
    64
 62
     1
  6
HIDDEN
  0
LAYER
  5
20
100
AcDbSymbolTableRecord
100
AcDbLayerTableRecord
  2
L6
 70
    64
 62
     1
  6
CENTER
  0
LAYER
  5
4
100
AcDbSymbolTableRecord
100
AcDbLayerTableRecord
  2
L23
 70
    64
 62
     1
  6
CONTINUOUS
  0
ENDTAB
  0
TABLE
  2
STYLE
  5
D
100
AcDbSymbolTable
 70
     1
  0
STYLE
  5
E
100
AcDbSymbolTableRecord
100
AcDbTextStyleTableRecord
  2
STANDARD
 70
    64
 40
0.0
 41
1.0
 50
0.0
 71
     0
 42
3.5
  3
SIMPLEX.SHX
  4

  0
ENDTAB
  0
TABLE
  2
VIEW
  5
11
100
AcDbSymbolTable
 70
     0
  0
ENDTAB
  0
TABLE
  2
UCS
  5
12
100
AcDbSymbolTable
 70
     0
  0
ENDTAB
  0
TABLE
  2
APPID
  5
15
100
AcDbSymbolTable
 70
     1
  0
APPID
  5
16
100
AcDbSymbolTableRecord
100
AcDbRegAppTableRecord
  2
ACAD
 70
    64
  0
ENDTAB
  0
TABLE
  2
DIMSTYLE
  5
17
100
AcDbSymbolTable
 70
     1
  0
DIMSTYLE
105
1E
100
AcDbSymbolTableRecord
100
AcDbDimStyleTableRecord
  2
ACADUS
 70
     0
  3

  4

  5

  6

  7

 40
1.0
 41
3.5
 42
0.0
 43
10.0
 44
1.0
 45
0.0
 46
0.0
 47
0.0
 48
0.0
140
3.5
141
2.5
142
0.0
143
25.4
144
1.0
145
0.0
146
1.0
147
2.0
 71
     0
 72
     0
 73
     0
 74
     0
 75
     0
 76
     0
 77
     1
 78
     8
170
     0
171
     2
172
     1
173
     0
174
     0
175
     0
176
   256
177
   256
178
     3
270
     2
271
     1
272
     1
273
     2
274
     2
340
E
275
     0
280
     0
281
     0
282
     0
283
     1
284
     0
285
     0
286
     0
287
     3
288
     0
  0
ENDTAB
  0
TABLE
  2
BLOCK_RECORD
  5
1
100
AcDbSymbolTable
 70
     3
  0
BLOCK_RECORD
  5
2
100
AcDbSymbolTableRecord
100
AcDbBlockTableRecord
  2
*MODEL_SPACE
  0
BLOCK_RECORD
  5
8
100
AcDbSymbolTableRecord
100
AcDbBlockTableRecord
  2
*PAPER_SPACE
  0
ENDTAB
  0
ENDSEC
  0
SECTION
  2
BLOCKS
  0
BLOCK
  5
3
100
AcDbEntity
  8
L23
100
AcDbBlockBegin
  2
*MODEL_SPACE
 70
     0
 10
0.0
 20
0.0
 30
0.0
  3
*MODEL_SPACE
  1

  0
ENDBLK
  5
7
100
AcDbEntity
  8
L23
100
AcDbBlockEnd
  0
BLOCK
  5
9
100
AcDbEntity
 67
     1
  8
L23
100
AcDbBlockBegin
  2
*PAPER_SPACE
 70
     0
 10
0.0
 20
0.0
 30
0.0
  3
*PAPER_SPACE
  1

  0
ENDBLK
  5
A
100
AcDbEntity
 67
     1
  8
L23
100
AcDbBlockEnd
  0
ENDSEC
  0
SECTION
  2
ENTITIES
  0
LINE
  5
2A
100
AcDbEntity
  8
L6
100
AcDbLine
 10
51.0
 20
17.19286275254836
 30
0.0
 11
51.0
 21
-17.19286275254836
 31
0.0
  0
LINE
  5
2B
100
AcDbEntity
  8
L1
100
AcDbLine
 10
56.05568986390562
 20
10.05000000000006
 30
0.0
 11
45.94431013609415
 21
10.05000000000001
 31
0.0
  0
ARC
  5
2C
100
AcDbEntity
  8
L1
100
AcDbCircle
 10
51.0
 20
0.0
 30
0.0
 40
11.25
100
AcDbArc
 50
116.7048522475774
 51
153.2951477524221
  0
ARC
  5
2D
100
AcDbEntity
  8
L1
100
AcDbCircle
 10
51.0
 20
0.0
 30
0.0
 40
11.25
100
AcDbArc
 50
26.70485224757499
 51
63.29514775242373
  0
ARC
  5
2E
100
AcDbEntity
  8
L1
100
AcDbCircle
 10
51.0
 20
0.0
 30
0.0
 40
11.25
100
AcDbArc
 50
206.7048522475793
 51
243.2951477524225
  0
ARC
  5
2F
100
AcDbEntity
  8
L1
100
AcDbCircle
 10
51.0
 20
0.0
 30
0.0
 40
11.25
100
AcDbArc
 50
296.7048522475774
 51
333.295147752425
  0
LINE
  5
30
100
AcDbEntity
  8
L1
100
AcDbLine
 10
56.05568986390585
 20
-10.05000000000001
 30
0.0
 11
45.94431013609415
 21
-10.05000000000001
 31
0.0
  0
LINE
  5
31
100
AcDbEntity
  8
L1
100
AcDbLine
 10
40.95000000000027
 20
-5.055689863906138
 30
0.0
 11
40.95000000000005
 21
5.055689863906081
 31
0.0
  0
LINE
  5
32
100
AcDbEntity
  8
L1
100
AcDbLine
 10
61.05000000000018
 20
-5.055689863905286
 30
0.0
 11
61.05000000000018
 21
5.055689863905399
 31
0.0
  0
ARC
  5
93
100
AcDbEntity
  8
L1
100
AcDbCircle
 10
-112.0
 20
87.00000000000001
 30
0.0
 40
2.0
100
AcDbArc
 50
180.0
 51
270.0
  0
LINE
  5
94
100
AcDbEntity
  8
L1
100
AcDbLine
 10
-112.0
 20
85.0
 30
0.0
 11
-92.99470240500204
 21
85.0
 31
0.0
  0
LINE
  5
96
100
AcDbEntity
  8
L1
100
AcDbLine
 10
-114.0
 20
92.00000000000001
 30
0.0
 11
-102.696680324068
 21
92.00000000000001
 31
0.0
  0
ARC
  5
98
100
AcDbEntity
  8
L1
100
AcDbCircle
 10
-112.0
 20
111.0
 30
0.0
 40
2.0
100
AcDbArc
 50
90.0
 51
180.0
  0
LINE
  5
99
100
AcDbEntity
  8
L1
100
AcDbLine
 10
-114.0
 20
111.0
 30
0.0
 11
-114.0
 21
106.0
 31
0.0
  0
LINE
  5
9A
100
AcDbEntity
  8
L1
100
AcDbLine
 10
-112.0
 20
113.0
 30
0.0
 11
-92.99470240500204
 21
113.0
 31
0.0
  0
LINE
  5
9C
100
AcDbEntity
  8
L1
100
AcDbLine
 10
-114.0
 20
106.0
 30
0.0
 11
-102.6966803240684
 21
106.0
 31
0.0
  0
LINE
  5
9D
100
AcDbEntity
  8
L1
100
AcDbLine
 10
-93.31874648565531
 20
110.0
 30
0.0
 11
-93.31874648565531
 21
88.0
 31
0.0
  0
LINE
  5
9F
100
AcDbEntity
  8
L1
100
AcDbLine
 10
-114.0
 20
92.00000000000001
 30
0.0
 11
-114.0
 21
87.00000000000001
 31
0.0
  0
LINE
  5
B1
100
AcDbEntity
  8
L1
100
AcDbLine
 10
-98.99999999999977
 20
85.0
 30
0.0
 11
-99.00000000000034
 21
-85.0
 31
0.0
  0
LINE
  5
B3
100
AcDbEntity
  8
L1
100
AcDbLine
 10
-93.31874648565554
 20
85.0
 30
0.0
 11
-93.318746485656
 21
-85.0
 31
0.0
  0
ARC
  5
B5
100
AcDbEntity
  8
L1
100
AcDbCircle
 10
-96.5
 20
146.5
 30
0.0
 40
2.5
100
AcDbArc
 50
90.0
 51
180.0
  0
ARC
  5
B7
100
AcDbEntity
  8
L1
100
AcDbCircle
 10
-90.81874648565531
 20
140.8187464856554
 30
0.0
 40
2.5
100
AcDbArc
 50
90.0
 51
179.9999999999999
  0
ARC
  5
B9
100
AcDbEntity
  8
L1
100
AcDbCircle
 10
-88.83739887481828
 20
138.8373988748181
 30
0.0
 40
2.5
100
AcDbArc
 50
90.0
 51
180.0
  0
ARC
  5
BA
100
AcDbEntity
  8
L1
100
AcDbCircle
 10
90.81874648565554
 20
140.8187464856554
 30
0.0
 40
2.5
100
AcDbArc
 50
0.0
 51
90.0
  0
ARC
  5
BB
100
AcDbEntity
  8
L1
100
AcDbCircle
 10
96.5
 20
146.5
 30
0.0
 40
2.5
100
AcDbArc
 50
0.0
 51
90.0
  0
ARC
  5
BE
100
AcDbEntity
  8
L1
100
AcDbCircle
 10
88.83739887481807
 20
138.8373988748181
 30
0.0
 40
2.5
100
AcDbArc
 50
0.0
 51
90.0
  0
LINE
  5
C0
100
AcDbEntity
  8
L1
100
AcDbLine
 10
-96.5
 20
149.0
 30
0.0
 11
96.5
 21
149.0
 31
0.0
  0
LINE
  5
C2
100
AcDbEntity
  8
L1
100
AcDbLine
 10
90.81874648565554
 20
143.3187464856554
 30
0.0
 11
-90.81874648565531
 21
143.3187464856554
 31
0.0
  0
LINE
  5
C3
100
AcDbEntity
  8
L1
100
AcDbLine
 10
-88.83739887481828
 20
141.3373988748181
 30
0.0
 11
88.83739887481807
 21
141.3373988748181
 31
0.0
  0
LINE
  5
C5
100
AcDbEntity
  8
L1
100
AcDbLine
 10
99.0
 20
146.5
 30
0.0
 11
99.0
 21
-146.5
 31
0.0
  0
LINE
  5
C6
100
AcDbEntity
  8
L1
100
AcDbLine
 10
-99.0
 20
146.5
 30
0.0
 11
-99.0
 21
113.0
 31
0.0
  0
LINE
  5
C9
100
AcDbEntity
  8
L1
100
AcDbLine
 10
93.31874648565554
 20
140.8187464856554
 30
0.0
 11
93.31874648565554
 21
-140.8187464856554
 31
0.0
  0
LINE
  5
CA
100
AcDbEntity
  8
L1
100
AcDbLine
 10
91.33739887481807
 20
-138.8373988748181
 30
0.0
 11
91.33739887481807
 21
138.8373988748181
 31
0.0
  0
LINE
  5
CB
100
AcDbEntity
  8
L1
100
AcDbLine
 10
-93.31874648565531
 20
140.8187464856554
 30
0.0
 11
-93.31874648565554
 21
113.0
 31
0.0
  0
LINE
  5
CC
100
AcDbEntity
  8
L1
100
AcDbLine
 10
-91.33739887481784
 20
-138.8373988748181
 30
0.0
 11
-91.33739887481828
 21
138.8373988748181
 31
0.0
  0
ARC
  5
CE
100
AcDbEntity
  8
L1
100
AcDbCircle
 10
-88.83739887481828
 20
-138.8373988748181
 30
0.0
 40
2.5
100
AcDbArc
 50
180.0
 51
270.0
  0
ARC
  5
CF
100
AcDbEntity
  8
L1
100
AcDbCircle
 10
-90.81874648565531
 20
-140.8187464856554
 30
0.0
 40
2.5
100
AcDbArc
 50
180.0000000000001
 51
270.0
  0
ARC
  5
D0
100
AcDbEntity
  8
L1
100
AcDbCircle
 10
88.83739887481807
 20
-138.8373988748181
 30
0.0
 40
2.5
100
AcDbArc
 50
270.0
 51
0.0
  0
ARC
  5
D1
100
AcDbEntity
  8
L1
100
AcDbCircle
 10
90.81874648565554
 20
-140.8187464856554
 30
0.0
 40
2.5
100
AcDbArc
 50
270.0
 51
0.0
  0
LINE
  5
E1
100
AcDbEntity
  8
L6
100
AcDbLine
 10
-118.8121430956744
 20
0.0
 30
0.0
 11
106.5725632620328
 21
0.0
 31
0.0
  0
LINE
  5
E3
100
AcDbEntity
  8
L6
100
AcDbLine
 10
0.0
 20
153.5396594781316
 30
0.0
 11
0.0
 21
-153.881044707437
 31
0.0
  0
LINE
  5
E4
100
AcDbEntity
  8
L1
100
AcDbLine
 10
-99.0
 20
-146.5
 30
0.0
 11
-99.0
 21
-113.0
 31
0.0
  0
ARC
  5
E5
100
AcDbEntity
  8
L1
100
AcDbCircle
 10
-96.5
 20
-146.5
 30
0.0
 40
2.5
100
AcDbArc
 50
180.0
 51
270.0
  0
LINE
  5
E6
100
AcDbEntity
  8
L1
100
AcDbLine
 10
-96.5
 20
-149.0
 30
0.0
 11
96.5
 21
-149.0
 31
0.0
  0
ARC
  5
E7
100
AcDbEntity
  8
L1
100
AcDbCircle
 10
96.5
 20
-146.5
 30
0.0
 40
2.5
100
AcDbArc
 50
270.0
 51
0.0
  0
LINE
  5
EA
100
AcDbEntity
  8
L2
100
AcDbLine
 10
203.0000000000002
 20
-132.560316922033
 30
0.0
 11
203.0000000000002
 21
-125.8396830779668
 31
0.0
  0
LINE
  5
EB
100
AcDbEntity
  8
L1
100
AcDbLine
 10
-199.0000000000002
 20
-125.6999999999999
 30
0.0
 11
-198.9999999999997
 21
125.7
 31
0.0
  0
LINE
  5
EC
100
AcDbEntity
  8
L1
100
AcDbLine
 10
199.0000000000002
 20
-132.7000000000001
 30
0.0
 11
203.0000000000002
 21
-132.560316922033
 31
0.0
  0
LINE
  5
ED
100
AcDbEntity
  8
L1
100
AcDbLine
 10
199.0000000000002
 20
-125.6999999999999
 30
0.0
 11
203.0000000000002
 21
-125.8396830779668
 31
0.0
  0
LINE
  5
F2
100
AcDbEntity
  8
L1
100
AcDbLine
 10
-374.7999999999999
 20
-139.4694536363758
 30
0.0
 11
-374.7999999999999
 21
-140.9694536363758
 31
0.0
  0
LINE
  5
F3
100
AcDbEntity
  8
L1
100
AcDbLine
 10
-381.7999999999999
 20
-139.4694536363758
 30
0.0
 11
-381.7999999999999
 21
-140.9694536363758
 31
0.0
  0
LINE
  5
F4
100
AcDbEntity
  8
L1
100
AcDbLine
 10
-366.5000000000002
 20
-132.6694536363759
 30
0.0
 11
-368.0
 21
-132.6694536363759
 31
0.0
  0
LINE
  5
F5
100
AcDbEntity
  8
L1
100
AcDbLine
 10
-366.5000000000002
 20
-125.6694536363759
 30
0.0
 11
-368.0
 21
-125.6694536363758
 31
0.0
  0
LINE
  5
F6
100
AcDbEntity
  8
L1
100
AcDbLine
 10
-548.4999999999997
 20
-132.6694536363759
 30
0.0
 11
-546.9999999999999
 21
-132.6694536363759
 31
0.0
  0
LINE
  5
F7
100
AcDbEntity
  8
L1
100
AcDbLine
 10
-548.4999999999997
 20
-125.6694536363759
 30
0.0
 11
-546.9999999999999
 21
-125.6694536363758
 31
0.0
  0
LINE
  5
F8
100
AcDbEntity
  8
L1
100
AcDbLine
 10
-533.2
 20
-139.4694536363758
 30
0.0
 11
-533.2
 21
-140.9694536363758
 31
0.0
  0
LINE
  5
F9
100
AcDbEntity
  8
L1
100
AcDbLine
 10
-540.2
 20
-139.4694536363758
 30
0.0
 11
-540.2
 21
-140.9694536363758
 31
0.0
  0
LINE
  5
FA
100
AcDbEntity
  8
L1
100
AcDbLine
 10
-366.5000000000002
 20
132.7305463636241
 30
0.0
 11
-368.0
 21
132.7305463636241
 31
0.0
  0
LINE
  5
FB
100
AcDbEntity
  8
L1
100
AcDbLine
 10
-366.5000000000002
 20
125.7305463636241
 30
0.0
 11
-368.0
 21
125.730546363624
 31
0.0
  0
LINE
  5
FC
100
AcDbEntity
  8
L1
100
AcDbLine
 10
-381.7999999999999
 20
139.5305463636241
 30
0.0
 11
-381.7999999999999
 21
141.0305463636241
 31
0.0
  0
LINE
  5
FD
100
AcDbEntity
  8
L1
100
AcDbLine
 10
-374.7999999999999
 20
139.5305463636241
 30
0.0
 11
-374.7999999999999
 21
141.0305463636241
 31
0.0
  0
LINE
  5
FE
100
AcDbEntity
  8
L1
100
AcDbLine
 10
-548.4999999999997
 20
125.7305463636241
 30
0.0
 11
-546.9999999999999
 21
125.730546363624
 31
0.0
  0
LINE
  5
FF
100
AcDbEntity
  8
L1
100
AcDbLine
 10
-533.2
 20
139.5305463636241
 30
0.0
 11
-533.2
 21
141.0305463636241
 31
0.0
  0
LINE
  5
100
100
AcDbEntity
  8
L1
100
AcDbLine
 10
-540.2
 20
139.5305463636241
 30
0.0
 11
-540.2
 21
141.0305463636241
 31
0.0
  0
LINE
  5
101
100
AcDbEntity
  8
L1
100
AcDbLine
 10
-548.4999999999997
 20
132.7305463636241
 30
0.0
 11
-546.9999999999999
 21
132.7305463636241
 31
0.0
  0
ARC
  5
102
100
AcDbEntity
  8
L1
100
AcDbCircle
 10
-508.4999999999999
 20
0.0305463636241257
 30
0.0
 40
11.25
100
AcDbArc
 50
206.7048522475749
 51
243.2951477524225
  0
ARC
  5
103
100
AcDbEntity
  8
L1
100
AcDbCircle
 10
-508.4999999999999
 20
0.0305463636241257
 30
0.0
 40
11.25
100
AcDbArc
 50
296.7048522475774
 51
333.2951477524206
  0
ARC
  5
104
100
AcDbEntity
  8
L1
100
AcDbCircle
 10
-508.4999999999999
 20
0.0305463636241257
 30
0.0
 40
11.25
100
AcDbArc
 50
26.70485224757785
 51
63.29514775242254
  0
ARC
  5
105
100
AcDbEntity
  8
L1
100
AcDbCircle
 10
-508.4999999999999
 20
0.0305463636241257
 30
0.0
 40
11.25
100
AcDbArc
 50
116.7048522475762
 51
153.2951477524249
  0
LINE
  5
106
100
AcDbEntity
  8
L1
100
AcDbLine
 10
-513.5556898639056
 20
10.08054636362419
 30
0.0
 11
-503.4443101360941
 21
10.08054636362413
 31
0.0
  0
LINE
  5
107
100
AcDbEntity
  8
L1
100
AcDbLine
 10
-498.4500000000003
 20
-5.025143500282013
 30
0.0
 11
-498.45
 21
5.086236227530207
 31
0.0
  0
LINE
  5
108
100
AcDbEntity
  8
L1
100
AcDbLine
 10
-513.5556898639058
 20
-10.01945363637588
 30
0.0
 11
-503.4443101360941
 21
-10.01945363637588
 31
0.0
  0
LINE
  5
109
100
AcDbEntity
  8
L1
100
AcDbLine
 10
-518.5500000000001
 20
-5.02514350028116
 30
0.0
 11
-518.5500000000001
 21
5.086236227529525
 31
0.0
  0
ARC
  5
113
100
AcDbEntity
  8
L2
100
AcDbCircle
 10
248.5000000000002
 20
-136.7708123658596
 30
0.0
 40
1.0
100
AcDbArc
 50
272.0000000000002
 51
0.0000000000001908
1001
ACAD
1000
ASC_BOUNDS
1002
{
1070
    19
1002
}
  0
LINE
  5
134
100
AcDbEntity
  8
L1
100
AcDbLine
 10
202.5000000000002
 20
-149.0
 30
0.0
 11
202.5000000000002
 21
-141.0000000000002
 31
0.0
  0
LINE
  5
135
100
AcDbEntity
  8
L1
100
AcDbLine
 10
199.0000000000002
 20
-140.9694559627325
 30
0.0
 11
199.0000000000002
 21
-132.7000000000001
 31
0.0
  0
ARC
  5
13E
100
AcDbEntity
  8
L1
100
AcDbCircle
 10
-345.5
 20
87.03054636362413
 30
0.0
 40
2.0
100
AcDbArc
 50
270.0
 51
0.0
  0
LINE
  5
13F
100
AcDbEntity
  8
L1
100
AcDbLine
 10
-345.5
 20
85.03054636362412
 30
0.0
 11
-358.5000000000002
 21
85.03054636362419
 31
0.0
  0
LINE
  5
143
100
AcDbEntity
  8
L1
100
AcDbLine
 10
-343.5
 20
92.03054636362413
 30
0.0
 11
-354.8033196759317
 21
92.03054636362423
 31
0.0
  0
LINE
  5
146
100
AcDbEntity
  8
L1
100
AcDbLine
 10
-343.5
 20
111.0305463636241
 30
0.0
 11
-343.5
 21
106.0305463636241
 31
0.0
  0
ARC
  5
147
100
AcDbEntity
  8
L1
100
AcDbCircle
 10
-345.5
 20
111.0305463636241
 30
0.0
 40
2.0
100
AcDbArc
 50
0.0
 51
90.0
  0
LINE
  5
14C
100
AcDbEntity
  8
L1
100
AcDbLine
 10
-343.5
 20
106.0305463636241
 30
0.0
 11
-354.8033196759317
 21
106.0305463636241
 31
0.0
  0
LINE
  5
14D
100
AcDbEntity
  8
L1
100
AcDbLine
 10
-354.8033196759317
 20
106.0305463636241
 30
0.0
 11
-354.8033196759317
 21
92.03054636362423
 31
0.0
  0
LINE
  5
155
100
AcDbEntity
  8
L1
100
AcDbLine
 10
-345.5
 20
113.0305463636241
 30
0.0
 11
-358.5000000000002
 21
113.0305463636241
 31
0.0
  0
LINE
  5
15A
100
AcDbEntity
  8
L1
100
AcDbLine
 10
-343.5
 20
92.03054636362413
 30
0.0
 11
-343.5
 21
87.03054636362413
 31
0.0
  0
LINE
  5
15E
100
AcDbEntity
  8
L1
100
AcDbLine
 10
-354.8033196759317
 20
-105.9694536363758
 30
0.0
 11
-354.8033196759317
 21
-91.96945363637599
 31
0.0
  0
LINE
  5
174
100
AcDbEntity
  8
L1
100
AcDbLine
 10
-358.4999999999999
 20
85.03054636362424
 30
0.0
 11
-358.4999999999999
 21
-146.4694536363758
 31
0.0
  0
ARC
  5
17B
100
AcDbEntity
  8
L1
100
AcDbCircle
 10
-345.5
 20
-86.96945363637587
 30
0.0
 40
2.0
100
AcDbArc
 50
0.0
 51
90.0
  0
LINE
  5
17C
100
AcDbEntity
  8
L1
100
AcDbLine
 10
-345.5
 20
-84.96945363637587
 30
0.0
 11
-358.5000000000002
 21
-84.96945363637593
 31
0.0
  0
LINE
  5
17D
100
AcDbEntity
  8
L1
100
AcDbLine
 10
-343.5
 20
-91.96945363637587
 30
0.0
 11
-354.8033196759317
 21
-91.96945363637599
 31
0.0
  0
ARC
  5
17E
100
AcDbEntity
  8
L1
100
AcDbCircle
 10
-345.5
 20
-110.9694536363758
 30
0.0
 40
2.0
100
AcDbArc
 50
270.0
 51
0.0
  0
LINE
  5
17F
100
AcDbEntity
  8
L1
100
AcDbLine
 10
-343.5
 20
-110.9694536363758
 30
0.0
 11
-343.5
 21
-105.9694536363758
 31
0.0
  0
LINE
  5
180
100
AcDbEntity
  8
L1
100
AcDbLine
 10
-345.5
 20
-112.9694536363758
 30
0.0
 11
-358.5000000000002
 21
-112.9694536363759
 31
0.0
  0
LINE
  5
181
100
AcDbEntity
  8
L1
100
AcDbLine
 10
-343.5
 20
-105.9694536363758
 30
0.0
 11
-354.8033196759317
 21
-105.9694536363758
 31
0.0
  0
LINE
  5
185
100
AcDbEntity
  8
L1
100
AcDbLine
 10
-343.5
 20
-91.96945363637587
 30
0.0
 11
-343.5
 21
-86.96945363637587
 31
0.0
  0
LINE
  5
196
100
AcDbEntity
  8
L6
100
AcDbLine
 10
265.7476365775417
 20
0.0000000000000568
 30
0.0
 11
189.2251196780114
 21
0.0000000000000568
 31
0.0
  0
LINE
  5
197
100
AcDbEntity
  8
L1
100
AcDbLine
 10
252.5000000000002
 20
-138.7065589842107
 30
0.0
 11
250.0034261631137
 21
-141.3373988748181
 31
0.0
1001
ACAD
1000
ASC_BOUNDS
1002
{
1070
    19
1002
}
  0
ARC
  5
198
100
AcDbEntity
  8
L1
100
AcDbCircle
 10
212.2493975310633
 20
-144.3173760204099
 30
0.0
 40
1.0
100
AcDbArc
 50
92.99999999999972
 51
165.0000000000018
1001
ACAD
1000
ASC_BOUNDS
1002
{
1070
    19
1002
}
  0
ARC
  5
199
100
AcDbEntity
  8
L2
100
AcDbCircle
 10
208.71468947584
 20
-142.0542728518022
 30
0.0
 40
1.0
100
AcDbArc
 50
344.999999999997
 51
89.49999999999926
1001
ACAD
1000
ASC_BOUNDS
1002
{
1070
    19
1002
}
  0
LINE
  5
19A
100
AcDbEntity
  8
L2
100
AcDbLine
 10
202.5000000000002
 20
-141.0000000000002
 30
0.0
 11
208.7234160113384
 21
-141.0543109287381
 31
0.0
1001
ACAD
1000
ASC_BOUNDS
1002
{
1070
    19
1002
}
  0
LINE
  5
19B
100
AcDbEntity
  8
L2
100
AcDbLine
 10
202.5000000000004
 20
-146.997255308004
 30
0.0
 11
208.5098921433568
 21
-146.6822902070401
 31
0.0
1001
ACAD
1000
ASC_BOUNDS
1002
{
1070
    19
1002
}
  0
LINE
  5
19C
100
AcDbEntity
  8
L1
100
AcDbLine
 10
202.5000000000002
 20
-148.9999999999999
 30
0.0
 11
209.3401108825637
 21
-148.6415249785951
 31
0.0
1001
ACAD
1000
ASC_BOUNDS
1002
{
1070
    19
1002
}
  0
ARC
  5
19D
100
AcDbEntity
  8
L1
100
AcDbCircle
 10
209.2877749263207
 20
-147.6428954438404
 30
0.0
 40
1.0
100
AcDbArc
 50
272.9999999999998
 51
345.0000000000022
1001
ACAD
1000
ASC_BOUNDS
1002
{
1070
    19
1002
}
  0
LINE
  5
19E
100
AcDbEntity
  8
L2
100
AcDbLine
 10
208.5098921433568
 20
-146.6822902070403
 30
0.0
 11
209.6806153021291
 21
-142.3130918969047
 31
0.0
1001
ACAD
1000
ASC_BOUNDS
1002
{
1070
    19
1002
}
  0
LINE
  5
1A0
100
AcDbEntity
  8
L1
100
AcDbLine
 10
210.2537007526097
 20
-147.9017144889428
 30
0.0
 11
211.283471704774
 21
-144.0585569753074
 31
0.0
1001
ACAD
1000
ASC_BOUNDS
1002
{
1070
    19
1002
}
  0
LINE
  5
1A1
100
AcDbEntity
  8
L1
100
AcDbLine
 10
250.0034261631137
 20
-141.3373988748181
 30
0.0
 11
212.1970615748202
 21
-143.3187464856553
 31
0.0
1001
ACAD
1000
ASC_BOUNDS
1002
{
1070
    19
1002
}
  0
LINE
  5
1A2
100
AcDbEntity
  8
L2
100
AcDbLine
 10
199.0000000000002
 20
-139.5000000000001
 30
0.0
 11
248.5348994967027
 21
-137.7702031928787
 31
0.0
1001
ACAD
1000
ASC_BOUNDS
1002
{
1070
    19
1002
}
  0
LINE
  5
1A3
100
AcDbEntity
  8
L1
100
AcDbLine
 10
252.4999999999999
 20
138.7065589842111
 30
0.0
 11
252.5000000000002
 21
-138.7065589842107
 31
0.0
1001
ACAD
1000
ASC_BOUNDS
1002
{
1070
    19
1002
}
  0
LINE
  5
1A4
100
AcDbEntity
  8
L2
100
AcDbLine
 10
249.4999999999997
 20
136.7708123658596
 30
0.0
 11
249.5000000000002
 21
-136.7708123658596
 31
0.0
1001
ACAD
1000
ASC_BOUNDS
1002
{
1070
    19
1002
}
  0
ARC
  5
1A7
100
AcDbEntity
  8
L1
100
AcDbCircle
 10
-360.9999999999999
 20
-146.4694536363758
 30
0.0
 40
0.5
100
AcDbArc
 50
270.0
 51
0.0
  0
ARC
  5
1A8
100
AcDbEntity
  8
L1
100
AcDbCircle
 10
-360.9999999999999
 20
-146.4694536363758
 30
0.0
 40
2.5
100
AcDbArc
 50
270.0
 51
0.0
  0
ARC
  5
1A9
100
AcDbEntity
  8
L1
100
AcDbCircle
 10
-368.9999999999999
 20
-138.4694536363758
 30
0.0
 40
1.0
100
AcDbArc
 50
270.0
 51
0.0
  0
ARC
  5
1AA
100
AcDbEntity
  8
L1
 62
     2
100
AcDbCircle
 10
-368.9999999999999
 20
-138.4694536363758
 30
0.0
 40
8.5
100
AcDbArc
 50
270.0
 51
0.0
  0
ARC
  5
1AB
100
AcDbEntity
  8
L1
100
AcDbCircle
 10
-368.9999999999999
 20
-138.4694536363758
 30
0.0
 40
2.5
100
AcDbArc
 50
270.0
 51
0.0
  0
LINE
  5
1AC
100
AcDbEntity
  8
L1
100
AcDbLine
 10
-368.9999999999999
 20
-139.4694536363758
 30
0.0
 11
-545.9999999999999
 21
-139.4694536363758
 31
0.0
  0
LINE
  5
1AD
100
AcDbEntity
  8
L1
100
AcDbLine
 10
-360.9999999999999
 20
-146.9694536363758
 30
0.0
 11
-554.0
 21
-146.9694536363758
 31
0.0
  0
LINE
  5
1AE
100
AcDbEntity
  8
L1
100
AcDbLine
 10
-368.9999999999999
 20
-140.9694536363758
 30
0.0
 11
-545.9999999999999
 21
-140.9694536363758
 31
0.0
  0
LINE
  5
1AF
100
AcDbEntity
  8
L1
100
AcDbLine
 10
-360.9999999999999
 20
-148.9694536363758
 30
0.0
 11
-554.0
 21
-148.9694536363758
 31
0.0
  0
LINE
  5
1B4
100
AcDbEntity
  8
L1
100
AcDbLine
 10
-358.4999999999999
 20
-146.4694536363758
 30
0.0
 11
-358.4999999999999
 21
-112.9694536363759
 31
0.0
  0
ARC
  5
1B5
100
AcDbEntity
  8
L1
100
AcDbCircle
 10
-554.0
 20
-146.4694536363758
 30
0.0
 40
0.5
100
AcDbArc
 50
180.0
 51
270.0
  0
ARC
  5
1B6
100
AcDbEntity
  8
L1
100
AcDbCircle
 10
-554.0
 20
-146.4694536363758
 30
0.0
 40
2.5
100
AcDbArc
 50
180.0
 51
270.0
  0
ARC
  5
1B7
100
AcDbEntity
  8
L1
100
AcDbCircle
 10
-545.9999999999999
 20
-138.4694536363758
 30
0.0
 40
2.5
100
AcDbArc
 50
180.0
 51
270.0
  0
ARC
  5
1B8
100
AcDbEntity
  8
L1
 62
     2
100
AcDbCircle
 10
-545.9999999999999
 20
-138.4694536363758
 30
0.0
 40
8.5
100
AcDbArc
 50
180.0
 51
270.0
  0
ARC
  5
1B9
100
AcDbEntity
  8
L1
100
AcDbCircle
 10
-545.9999999999999
 20
-138.4694536363758
 30
0.0
 40
1.0
100
AcDbArc
 50
180.0
 51
270.0
  0
ARC
  5
1C2
100
AcDbEntity
  8
L1
100
AcDbCircle
 10
-360.9999999999999
 20
146.5305463636241
 30
0.0
 40
0.5
100
AcDbArc
 50
0.0
 51
90.0
  0
ARC
  5
1C3
100
AcDbEntity
  8
L1
100
AcDbCircle
 10
-360.9999999999999
 20
146.5305463636241
 30
0.0
 40
2.5
100
AcDbArc
 50
0.0
 51
90.0
  0
ARC
  5
1C4
100
AcDbEntity
  8
L1
100
AcDbCircle
 10
-368.9999999999999
 20
138.5305463636241
 30
0.0
 40
2.5
100
AcDbArc
 50
0.0
 51
90.0
  0
ARC
  5
1C5
100
AcDbEntity
  8
L1
 62
     2
100
AcDbCircle
 10
-368.9999999999999
 20
138.5305463636241
 30
0.0
 40
8.5
100
AcDbArc
 50
0.0
 51
90.0
  0
ARC
  5
1C6
100
AcDbEntity
  8
L1
100
AcDbCircle
 10
-368.9999999999999
 20
138.5305463636241
 30
0.0
 40
1.0
100
AcDbArc
 50
0.0
 51
90.0
  0
LINE
  5
1C7
100
AcDbEntity
  8
L1
100
AcDbLine
 10
-358.4999999999999
 20
146.5305463636241
 30
0.0
 11
-358.4999999999997
 21
113.0305463636241
 31
0.0
  0
LINE
  5
1C8
100
AcDbEntity
  8
L1
100
AcDbLine
 10
-366.5
 20
-138.4694536363758
 30
0.0
 11
-366.5
 21
138.5305463636241
 31
0.0
  0
LINE
  5
1C9
100
AcDbEntity
  8
L1
100
AcDbLine
 10
-360.4999999999999
 20
146.5305463636241
 30
0.0
 11
-360.4999999999999
 21
-146.4694536363758
 31
0.0
  0
LINE
  5
1CA
100
AcDbEntity
  8
L1
100
AcDbLine
 10
-367.9999999999998
 20
-138.4694536363758
 30
0.0
 11
-368.0
 21
138.5305463636241
 31
0.0
  0
LINE
  5
1CC
100
AcDbEntity
  8
L1
100
AcDbLine
 10
-360.9999999999999
 20
149.0305463636241
 30
0.0
 11
-554.0
 21
149.0305463636241
 31
0.0
  0
LINE
  5
1CD
100
AcDbEntity
  8
L1
100
AcDbLine
 10
-368.9999999999999
 20
141.0305463636241
 30
0.0
 11
-545.9999999999999
 21
141.0305463636241
 31
0.0
  0
LINE
  5
1CE
100
AcDbEntity
  8
L1
100
AcDbLine
 10
-360.9999999999999
 20
147.0305463636241
 30
0.0
 11
-554.0
 21
147.0305463636241
 31
0.0
  0
LINE
  5
1CF
100
AcDbEntity
  8
L1
100
AcDbLine
 10
-368.9999999999999
 20
139.5305463636241
 30
0.0
 11
-545.9999999999999
 21
139.5305463636241
 31
0.0
  0
ARC
  5
1D9
100
AcDbEntity
  8
L1
100
AcDbCircle
 10
-545.9999999999999
 20
138.5305463636241
 30
0.0
 40
1.0
100
AcDbArc
 50
90.0
 51
180.0
  0
LINE
  5
1DA
100
AcDbEntity
  8
L1
100
AcDbLine
 10
-546.9999999999999
 20
-138.4694536363758
 30
0.0
 11
-546.9999999999999
 21
138.5305463636241
 31
0.0
  0
ARC
  5
1DC
100
AcDbEntity
  8
L1
 62
     2
100
AcDbCircle
 10
-545.9999999999999
 20
138.5305463636241
 30
0.0
 40
8.5
100
AcDbArc
 50
90.0
 51
180.0
  0
LINE
  5
1DF
100
AcDbEntity
  8
L1
100
AcDbLine
 10
-548.5
 20
-138.4694536363758
 30
0.0
 11
-548.5
 21
138.5305463636241
 31
0.0
  0
ARC
  5
1E0
100
AcDbEntity
  8
L1
100
AcDbCircle
 10
-545.9999999999999
 20
138.5305463636241
 30
0.0
 40
2.5
100
AcDbArc
 50
90.0
 51
180.0
  0
ARC
  5
1E3
100
AcDbEntity
  8
L1
100
AcDbCircle
 10
-554.0
 20
146.5305463636241
 30
0.0
 40
0.5
100
AcDbArc
 50
90.0
 51
180.0
  0
LINE
  5
1E4
100
AcDbEntity
  8
L1
100
AcDbLine
 10
-554.4999999999999
 20
146.5305463636241
 30
0.0
 11
-554.4999999999999
 21
-146.4694536363758
 31
0.0
  0
LINE
  5
1E5
100
AcDbEntity
  8
L1
100
AcDbLine
 10
-556.5
 20
146.5305463636241
 30
0.0
 11
-556.5
 21
-146.4694536363758
 31
0.0
  0
ARC
  5
1E6
100
AcDbEntity
  8
L1
100
AcDbCircle
 10
-554.0
 20
146.5305463636241
 30
0.0
 40
2.5
100
AcDbArc
 50
90.0
 51
180.0
  0
LINE
  5
1E8
100
AcDbEntity
  8
L1
100
AcDbLine
 10
-75.66945596273263
 20
230.0615492733987
 30
0.0
 11
75.66945596273285
 21
230.0615492733985
 31
0.0
  0
LINE
  5
1E9
100
AcDbEntity
  8
L2
 48
0.5
100
AcDbLine
 10
-82.52977288476563
 20
234.0615492733987
 30
0.0
 11
-75.80913904069939
 21
234.0615492733987
 31
0.0
  0
LINE
  5
1EA
100
AcDbEntity
  8
L1
100
AcDbLine
 10
-75.80913904069939
 20
234.0615492733987
 30
0.0
 11
-75.66945596273263
 21
230.0615492733987
 31
0.0
  0
LINE
  5
1EB
100
AcDbEntity
  8
L1
100
AcDbLine
 10
-82.52977288476563
 20
234.0615492733987
 30
0.0
 11
-82.66945596273263
 21
230.0615492733987
 31
0.0
  0
LINE
  5
1ED
100
AcDbEntity
  8
L1
100
AcDbLine
 10
82.66945596273263
 20
233.5615492733988
 30
0.0
 11
82.66945596273263
 21
230.0615492733987
 31
0.0
  0
LINE
  5
1EE
100
AcDbEntity
  8
L1
100
AcDbLine
 10
75.66945596273263
 20
233.5615492733988
 30
0.0
 11
75.66945596273263
 21
230.0615492733987
 31
0.0
  0
ARC
  5
1F5
100
AcDbEntity
  8
L2
100
AcDbCircle
 10
-86.77081236585946
 20
279.5615492733991
 30
0.0
 40
1.0
100
AcDbArc
 50
89.9999999999998
 51
177.9999999999995
1001
ACAD
1000
ASC_BOUNDS
1002
{
1070
    19
1002
}
  0
ARC
  5
1F6
100
AcDbEntity
  8
L1
100
AcDbCircle
 10
-107.4999999999999
 20
233.5615492733988
 30
0.0
 40
6.5
100
AcDbArc
 50
120.0000000000002
 51
309.6015903535682
  0
LINE
  5
1FA
100
AcDbEntity
  8
L1
100
AcDbLine
 10
-103.3566050523154
 20
228.5533282012511
 30
0.0
 11
-103.0350904167211
 21
228.5645557397289
 31
0.0
  0
ARC
  5
1FB
100
AcDbEntity
  8
L1
100
AcDbCircle
 10
-103.0455602657319
 20
228.8643729878346
 30
0.0
 40
0.3
100
AcDbArc
 50
272.0000000000089
 51
314.9999999999995
  0
ARC
  5
1FC
100
AcDbEntity
  8
L1
100
AcDbCircle
 10
-102.8028237144358
 20
229.1071095391306
 30
0.0
 40
0.3
100
AcDbArc
 50
314.9999999999999
 51
357.9999999999906
  0
LINE
  5
1FD
100
AcDbEntity
  8
L1
100
AcDbLine
 10
-102.4917789278523
 20
229.4181543257142
 30
0.0
 11
-102.5030064663301
 21
229.0966396901199
 31
0.0
  0
LINE
  5
1FE
100
AcDbEntity
  8
L1
100
AcDbLine
 10
-106.7500000000005
 20
237.4615492733987
 30
0.0
 11
-106.7500000000002
 21
236.5694555219548
 31
0.0
  0
ARC
  5
1FF
100
AcDbEntity
  8
L1
100
AcDbCircle
 10
-107.0500000000005
 20
237.4615492733987
 30
0.0
 40
0.3
100
AcDbArc
 50
359.9999999999945
 51
90.00000000000122
  0
LINE
  5
200
100
AcDbEntity
  8
L1
100
AcDbLine
 10
-107.0500000000005
 20
237.7615492733988
 30
0.0
 11
-107.9499999999999
 21
237.7615492733986
 31
0.0
  0
LINE
  5
201
100
AcDbEntity
  8
L1
100
AcDbLine
 10
-108.2499999999998
 20
237.4615492733987
 30
0.0
 11
-108.25
 21
236.5694555219547
 31
0.0
  0
ARC
  5
202
100
AcDbEntity
  8
L1
100
AcDbCircle
 10
-107.9499999999999
 20
237.4615492733987
 30
0.0
 40
0.3
100
AcDbArc
 50
90.00000000000296
 51
180.0
  0
LINE
  5
203
100
AcDbEntity
  8
L1
100
AcDbLine
 10
-102.833428231376
 20
228.6522409534786
 30
0.0
 11
-102.5906916800798
 21
228.8949775047746
 31
0.0
  0
LINE
  5
204
100
AcDbEntity
  8
L1
100
AcDbLine
 10
-102.6966803240683
 20
242.3541484010188
 30
0.0
 11
-103.041543160754
 21
243.6411940291729
 31
0.0
1001
ACAD
1000
ASC_BOUNDS
1002
{
1070
    19
1002
}
  0
LINE
  5
205
100
AcDbEntity
  8
L1
100
AcDbLine
 10
-90.96945596273258
 20
230.0615492733987
 30
0.0
 11
-82.66945596273263
 21
230.0615492733987
 31
0.0
  0
LINE
  5
207
100
AcDbEntity
  8
L2
100
AcDbLine
 10
-96.99725530800424
 20
233.5615492733988
 30
0.0
 11
-96.68229020704007
 21
239.5714414167554
 31
0.0
1001
ACAD
1000
ASC_BOUNDS
1002
{
1070
    19
1002
}
  0
LINE
  5
208
100
AcDbEntity
  8
L2
100
AcDbLine
 10
-102.6966803240683
 20
242.3541484010188
 30
0.0
 11
-93.93504225464402
 21
244.7018222460954
 31
0.0
1001
ACAD
1000
ASC_BOUNDS
1002
{
1070
    19
1002
}
  0
LINE
  5
209
100
AcDbEntity
  8
L2
100
AcDbLine
 10
-98.50000000000001
 20
233.5615492733988
 30
0.0
 11
-98.74077153883218
 21
240.4563440427215
 31
0.0
1001
ACAD
1000
ASC_BOUNDS
1002
{
1070
    19
1002
}
  0
ARC
  5
20A
100
AcDbEntity
  8
L2
100
AcDbCircle
 10
-99.24046695234165
 20
240.4388942943702
 30
0.0
 40
0.5
100
AcDbArc
 50
1.999999999998145
 51
105.0000000000028
1001
ACAD
1000
ASC_BOUNDS
1002
{
1070
    19
1002
}
  0
LINE
  5
20B
100
AcDbEntity
  8
L2
100
AcDbLine
 10
-102.1157539245014
 20
240.1861015623773
 30
0.0
 11
-99.36987647489287
 21
240.9218572075147
 31
0.0
1001
ACAD
1000
ASC_BOUNDS
1002
{
1070
    19
1002
}
  0
LINE
  5
20C
100
AcDbEntity
  8
L1
100
AcDbLine
 10
-102.1157539245014
 20
240.1861015623773
 30
0.0
 11
-102.4917789278523
 21
229.4181543257142
 31
0.0
  0
LINE
  5
20D
100
AcDbEntity
  8
L1
100
AcDbLine
 10
-102.1157539245014
 20
240.1861015623773
 30
0.0
 11
-102.6966803240683
 21
242.3541484010188
 31
0.0
1001
ACAD
1000
ASC_BOUNDS
1002
{
1070
    19
1002
}
  0
ARC
  5
20E
100
AcDbEntity
  8
L2
100
AcDbCircle
 10
-94.19386129974657
 20
245.6677480723844
 30
0.0
 40
1.0
100
AcDbArc
 50
285.0000000000035
 51
356.9999999999992
1001
ACAD
1000
ASC_BOUNDS
1002
{
1070
    19
1002
}
  0
LINE
  5
211
100
AcDbEntity
  8
L1
100
AcDbLine
 10
-101.0
 20
233.5615492733988
 30
0.0
 11
-91.00000000000022
 21
233.5615492733988
 31
0.0
  0
LINE
  5
212
100
AcDbEntity
  8
L2
100
AcDbLine
 10
-92.99470240500204
 20
249.4417402440117
 30
0.0
 11
-93.19523176499206
 21
245.6154121161414
 31
0.0
1001
ACAD
1000
ASC_BOUNDS
1002
{
1070
    19
1002
}
  0
LINE
  5
213
100
AcDbEntity
  8
L1
100
AcDbLine
 10
-110.7500000000002
 20
239.1907143979977
 30
0.0
 11
-92.99470240500204
 21
249.4417402440117
 31
0.0
  0
ARC
  5
214
100
AcDbEntity
  8
L1
100
AcDbCircle
 10
-107.4999999999999
 20
233.5615492733988
 30
0.0
 40
3.1
100
AcDbArc
 50
104.000802386183
 51
75.99919761382131
  0
LINE
  5
218
100
AcDbEntity
  8
L6
 48
0.4
100
AcDbLine
 10
-107.4999999999999
 20
242.5615492733987
 30
0.0
 11
-107.4999999999999
 21
224.5615492733987
 31
0.0
  0
LINE
  5
219
100
AcDbEntity
  8
L6
 48
0.4
100
AcDbLine
 10
-98.50000000000001
 20
233.5615492733988
 30
0.0
 11
-116.5
 21
233.5615492733988
 31
0.0
  0
ARC
  5
21A
100
AcDbEntity
  8
L1
100
AcDbCircle
 10
-107.4999999999999
 20
233.5615492733988
 30
0.0
 40
6.5
100
AcDbArc
 50
320.3984096464315
 51
0.0
  0
LINE
  5
21B
100
AcDbEntity
  8
L1
100
AcDbLine
 10
90.96945596273258
 20
230.0615492733987
 30
0.0
 11
82.66945596273263
 21
230.0615492733987
 31
0.0
  0
LINE
  5
21C
100
AcDbEntity
  8
L1
100
AcDbLine
 10
90.96945596273258
 20
230.0615492733987
 30
0.0
 11
91.00000000000022
 21
233.5615492733988
 31
0.0
  0
LINE
  5
21E
100
AcDbEntity
  8
L1
100
AcDbLine
 10
88.70655898421068
 20
283.5615492733987
 30
0.0
 11
91.33739887481828
 21
281.0649754365123
 31
0.0
  0
LINE
  5
21F
100
AcDbEntity
  8
L1
100
AcDbLine
 10
91.33739887481828
 20
281.0649754365123
 30
0.0
 11
93.31874648565531
 21
243.2586108482188
 31
0.0
  0
ARC
  5
220
100
AcDbEntity
  8
L1
100
AcDbCircle
 10
94.31737602041016
 20
243.3109468044619
 30
0.0
 40
1.0
100
AcDbArc
 50
182.9999999999997
 51
255.0000000000018
  0
LINE
  5
221
100
AcDbEntity
  8
L1
100
AcDbLine
 10
99.0
 20
233.5615492733988
 30
0.0
 11
91.00000000000022
 21
233.5615492733988
 31
0.0
  0
LINE
  5
222
100
AcDbEntity
  8
L1
100
AcDbLine
 10
97.90171448894284
 20
241.3152500260083
 30
0.0
 11
94.05855697530752
 21
242.3450209781727
 31
0.0
  0
LINE
  5
223
100
AcDbEntity
  8
L1
100
AcDbLine
 10
99.0
 20
233.5615492733988
 30
0.0
 11
98.64152497859528
 21
240.4016601559622
 31
0.0
  0
ARC
  5
224
100
AcDbEntity
  8
L1
100
AcDbCircle
 10
97.64289544384041
 20
240.3493241997192
 30
0.0
 40
1.0
100
AcDbArc
 50
2.999999999999813
 51
75.00000000000227
  0
LINE
  5
228
100
AcDbEntity
  8
L1
100
AcDbLine
 10
-88.70655898421068
 20
283.5615492733987
 30
0.0
 11
-91.33739887481828
 21
281.0649754365123
 31
0.0
1001
ACAD
1000
ASC_BOUNDS
1002
{
1070
    19
1002
}
  0
LINE
  5
22D
100
AcDbEntity
  8
L2
100
AcDbLine
 10
-96.68229020704053
 20
239.5714414167554
 30
0.0
 11
-92.31309189690477
 21
240.7421645755277
 31
0.0
1001
ACAD
1000
ASC_BOUNDS
1002
{
1070
    19
1002
}
  0
ARC
  5
22E
100
AcDbEntity
  8
L2
100
AcDbCircle
 10
-92.05427285180235
 20
239.7762387492385
 30
0.0
 40
1.0
100
AcDbArc
 50
0.5000000000007323
 51
105.0000000000028
1001
ACAD
1000
ASC_BOUNDS
1002
{
1070
    19
1002
}
  0
LINE
  5
22F
100
AcDbEntity
  8
L2
100
AcDbLine
 10
-91.00000000000022
 20
233.5615492733988
 30
0.0
 11
-91.05431092873823
 21
239.784965284737
 31
0.0
1001
ACAD
1000
ASC_BOUNDS
1002
{
1070
    19
1002
}
  0
LINE
  5
230
100
AcDbEntity
  8
L2
100
AcDbLine
 10
-89.50000000000022
 20
230.0615492733987
 30
0.0
 11
-87.77020319287862
 21
279.5964487701015
 31
0.0
1001
ACAD
1000
ASC_BOUNDS
1002
{
1070
    19
1002
}
  0
LINE
  5
231
100
AcDbEntity
  8
L1
100
AcDbLine
 10
-91.33739887481828
 20
281.0649754365123
 30
0.0
 11
-93.31874648565511
 21
243.258610848219
 31
0.0
1001
ACAD
1000
ASC_BOUNDS
1002
{
1070
    19
1002
}
  0
LINE
  5
233
100
AcDbEntity
  8
L2
100
AcDbLine
 10
88.35966528406629
 20
280.5615492733982
 30
0.0
 11
-86.77081236585946
 21
280.5615492733991
 31
0.0
1001
ACAD
1000
ASC_BOUNDS
1002
{
1070
    19
1002
}
  0
LINE
  5
234
100
AcDbEntity
  8
L1
100
AcDbLine
 10
88.70655898421114
 20
283.5615492733985
 30
0.0
 11
-88.70655898421068
 21
283.5615492733987
 31
0.0
1001
ACAD
1000
ASC_BOUNDS
1002
{
1070
    19
1002
}
  0
LINE
  5
235
100
AcDbEntity
  8
L6
100
AcDbLine
 10
0.0
 20
289.7112553545685
 30
0.0
 11
0.0
 21
222.0061049953617
 31
0.0
  0
LINE
  5
238
100
AcDbEntity
  8
L1
100
AcDbLine
 10
-93.31874648565621
 20
-112.9999999999999
 30
0.0
 11
-93.31874648565621
 21
-140.8187464856554
 31
0.0
  0
LINE
  5
23B
100
AcDbEntity
  8
L1
100
AcDbLine
 10
-90.81874648565531
 20
-143.3187464856554
 30
0.0
 11
90.81874648565554
 21
-143.3187464856554
 31
0.0
  0
LINE
  5
23C
100
AcDbEntity
  8
L1
100
AcDbLine
 10
-88.83739887481828
 20
-141.3373988748181
 30
0.0
 11
88.83739887481807
 21
-141.3373988748181
 31
0.0
  0
LINE
  5
23D
100
AcDbEntity
  8
L1
100
AcDbLine
 10
82.66945596273263
 20
233.5615492733988
 30
0.0
 11
75.66945596273263
 21
233.5615492733988
 31
0.0
  0
LINE
  5
240
100
AcDbEntity
  8
L2
100
AcDbLine
 10
91.00000000000022
 20
233.5615492733988
 30
0.0
 11
88.35966528406629
 21
280.5615492733982
 31
0.0
  0
LINE
  5
280
100
AcDbEntity
  8
L1
100
AcDbLine
 10
-91.00000000000022
 20
233.5615492733988
 30
0.0
 11
-90.96945596273258
 21
230.0615492733987
 31
0.0
  0
LINE
  5
282
100
AcDbEntity
  8
L1
100
AcDbLine
 10
88.70655898421114
 20
-283.5615492733986
 30
0.0
 11
-88.70655898421068
 21
-283.5615492733989
 31
0.0
1001
ACAD
1000
ASC_BOUNDS
1002
{
1070
    19
1002
}
  0
LINE
  5
283
100
AcDbEntity
  8
L1
100
AcDbLine
 10
-75.66945596273263
 20
-230.0615492733988
 30
0.0
 11
75.66945596273285
 21
-230.0615492733986
 31
0.0
  0
LINE
  5
284
100
AcDbEntity
  8
L6
 48
0.4
100
AcDbLine
 10
-107.4999999999999
 20
-242.5615492733988
 30
0.0
 11
-107.4999999999999
 21
-224.5615492733989
 31
0.0
  0
LINE
  5
286
100
AcDbEntity
  8
L1
100
AcDbLine
 10
-91.33739887481828
 20
-281.0649754365124
 30
0.0
 11
-93.31874648565486
 21
-243.258610848219
 31
0.0
1001
ACAD
1000
ASC_BOUNDS
1002
{
1070
    19
1002
}
  0
LINE
  5
287
100
AcDbEntity
  8
L1
100
AcDbLine
 10
-88.70655898421068
 20
-283.5615492733989
 30
0.0
 11
-91.33739887481828
 21
-281.0649754365124
 31
0.0
1001
ACAD
1000
ASC_BOUNDS
1002
{
1070
    19
1002
}
  0
LINE
  5
28A
100
AcDbEntity
  8
L1
100
AcDbLine
 10
-110.7500000000002
 20
-239.1907143979977
 30
0.0
 11
-92.99470240500204
 21
-249.4417402440118
 31
0.0
  0
LINE
  5
28B
100
AcDbEntity
  8
L1
100
AcDbLine
 10
-89.50000000000022
 20
-230.0615492733988
 30
0.0
 11
-82.66945596273263
 21
-230.0615492733988
 31
0.0
  0
LINE
  5
28F
100
AcDbEntity
  8
L1
100
AcDbLine
 10
-108.2499999999998
 20
-237.4615492733988
 30
0.0
 11
-108.25
 21
-236.5694555219549
 31
0.0
  0
LINE
  5
290
100
AcDbEntity
  8
L1
100
AcDbLine
 10
-106.7500000000005
 20
-237.4615492733988
 30
0.0
 11
-106.7500000000002
 21
-236.5694555219549
 31
0.0
  0
ARC
  5
292
100
AcDbEntity
  8
L1
100
AcDbCircle
 10
-107.4999999999999
 20
-233.5615492733988
 30
0.0
 40
6.5
100
AcDbArc
 50
50.39840964643173
 51
239.9999999999997
  0
ARC
  5
297
100
AcDbEntity
  8
L1
100
AcDbCircle
 10
-107.9499999999999
 20
-237.4615492733988
 30
0.0
 40
0.3
100
AcDbArc
 50
180.0
 51
269.999999999997
  0
LINE
  5
298
100
AcDbEntity
  8
L1
100
AcDbLine
 10
-107.0500000000005
 20
-237.7615492733989
 30
0.0
 11
-107.9499999999999
 21
-237.7615492733989
 31
0.0
  0
ARC
  5
299
100
AcDbEntity
  8
L1
100
AcDbCircle
 10
-107.0500000000005
 20
-237.4615492733988
 30
0.0
 40
0.3
100
AcDbArc
 50
269.9999999999987
 51
0.0000000000054451
  0
LINE
  5
29E
100
AcDbEntity
  8
L6
 48
0.4
100
AcDbLine
 10
-98.50000000000001
 20
-233.5615492733988
 30
0.0
 11
-116.5
 21
-233.5615492733988
 31
0.0
  0
ARC
  5
2A0
100
AcDbEntity
  8
L1
100
AcDbCircle
 10
-107.4999999999999
 20
-233.5615492733988
 30
0.0
 40
6.5
100
AcDbArc
 50
0.0
 51
39.60159035356843
  0
LINE
  5
2A1
100
AcDbEntity
  8
L1
100
AcDbLine
 10
-102.833428231376
 20
-228.6522409534786
 30
0.0
 11
-102.5906916800798
 21
-228.8949775047748
 31
0.0
  0
LINE
  5
2A2
100
AcDbEntity
  8
L1
100
AcDbLine
 10
-102.4917789278523
 20
-229.4181543257143
 30
0.0
 11
-102.5030064663301
 21
-229.09663969012
 31
0.0
  0
ARC
  5
2A3
100
AcDbEntity
  8
L1
100
AcDbCircle
 10
-102.8028237144358
 20
-229.1071095391307
 30
0.0
 40
0.3
100
AcDbArc
 50
2.00000000000934
 51
45.0
  0
ARC
  5
2A4
100
AcDbEntity
  8
L1
100
AcDbCircle
 10
-103.0455602657319
 20
-228.8643729878347
 30
0.0
 40
0.3
100
AcDbArc
 50
45.0000000000004
 51
87.99999999999107
  0
LINE
  5
2A5
100
AcDbEntity
  8
L1
100
AcDbLine
 10
-103.3566050523154
 20
-228.5533282012512
 30
0.0
 11
-103.0350904167211
 21
-228.564555739729
 31
0.0
  0
ARC
  5
2A6
100
AcDbEntity
  8
L1
100
AcDbCircle
 10
-107.4999999999999
 20
-233.5615492733988
 30
0.0
 40
3.1
100
AcDbArc
 50
284.0008023861786
 51
255.9991976138169
  0
LINE
  5
2A7
100
AcDbEntity
  8
L1
100
AcDbLine
 10
-91.00000000000022
 20
-233.5615492733988
 30
0.0
 11
-90.96945596273258
 21
-230.0615492733988
 31
0.0
  0
LINE
  5
2A8
100
AcDbEntity
  8
L1
100
AcDbLine
 10
-90.96945596273258
 20
-230.0615492733988
 30
0.0
 11
-89.50000000000022
 21
-230.0615492733988
 31
0.0
1001
ACAD
1000
ASC_BOUNDS
1002
{
1070
    19
1002
}
  0
LINE
  5
2A9
100
AcDbEntity
  8
L1
100
AcDbLine
 10
-101.0
 20
-233.5615492733988
 30
0.0
 11
99.0
 21
-233.5615492733988
 31
0.0
  0
LINE
  5
2AB
100
AcDbEntity
  8
L1
100
AcDbLine
 10
-82.54723326951125
 20
-233.5615492733988
 30
0.0
 11
-82.66945596273263
 21
-230.0615492733988
 31
0.0
  0
LINE
  5
2AC
100
AcDbEntity
  8
L1
100
AcDbLine
 10
-75.79167865595355
 20
-233.5615492733988
 30
0.0
 11
-75.66945596273263
 21
-230.0615492733988
 31
0.0
  0
LINE
  5
2AE
100
AcDbEntity
  8
L6
100
AcDbLine
 10
0.0
 20
-291.1144674393431
 30
0.0
 11
0.0
 21
-222.6309334676857
 31
0.0
  0
LINE
  5
2B0
100
AcDbEntity
  8
L1
100
AcDbLine
 10
91.33739887481828
 20
-281.0649754365124
 30
0.0
 11
93.31874648565531
 21
-243.2586108482189
 31
0.0
  0
LINE
  5
2B1
100
AcDbEntity
  8
L1
100
AcDbLine
 10
88.70655898421068
 20
-283.5615492733989
 30
0.0
 11
91.33739887481828
 21
-281.0649754365124
 31
0.0
  0
LINE
  5
2B2
100
AcDbEntity
  8
L1
100
AcDbLine
 10
99.0
 20
-233.5615492733988
 30
0.0
 11
98.64152497859528
 21
-240.4016601559622
 31
0.0
  0
ARC
  5
2B3
100
AcDbEntity
  8
L1
100
AcDbCircle
 10
97.64289544384041
 20
-240.3493241997193
 30
0.0
 40
1.0
100
AcDbArc
 50
284.9999999999977
 51
357.0000000000001
  0
LINE
  5
2B4
100
AcDbEntity
  8
L1
100
AcDbLine
 10
97.90171448894284
 20
-241.3152500260084
 30
0.0
 11
94.05855697530752
 21
-242.3450209781729
 31
0.0
  0
ARC
  5
2B5
100
AcDbEntity
  8
L1
100
AcDbCircle
 10
94.31737602041016
 20
-243.3109468044619
 30
0.0
 40
1.0
100
AcDbArc
 50
104.9999999999981
 51
177.0000000000002
  0
LINE
  5
2B6
100
AcDbEntity
  8
L1
100
AcDbLine
 10
90.96945596273258
 20
-230.0615492733988
 30
0.0
 11
82.66945596273263
 21
-230.0615492733988
 31
0.0
  0
LINE
  5
2B7
100
AcDbEntity
  8
L1
100
AcDbLine
 10
82.66945596273263
 20
-233.5615492733988
 30
0.0
 11
75.66945596273263
 21
-233.5615492733988
 31
0.0
  0
LINE
  5
2B8
100
AcDbEntity
  8
L1
100
AcDbLine
 10
75.66945596273263
 20
-233.5615492733988
 30
0.0
 11
75.66945596273263
 21
-230.0615492733988
 31
0.0
  0
LINE
  5
2B9
100
AcDbEntity
  8
L1
100
AcDbLine
 10
82.66945596273263
 20
-233.5615492733988
 30
0.0
 11
82.66945596273263
 21
-230.0615492733988
 31
0.0
  0
LINE
  5
2BB
100
AcDbEntity
  8
L1
100
AcDbLine
 10
90.96945596273258
 20
-230.0615492733988
 30
0.0
 11
91.00000000000022
 21
-233.5615492733988
 31
0.0
  0
LINE
  5
2BC
100
AcDbEntity
  8
L1
100
AcDbLine
 10
-91.33739887481828
 20
-281.0649754365124
 30
0.0
 11
91.33739887481828
 21
-281.0649754365124
 31
0.0
  0
LINE
  5
2EA
100
AcDbEntity
  8
L1
100
AcDbLine
 10
-250.0034261631137
 20
141.3679452384425
 30
0.0
 11
-212.1970615748202
 21
143.3492928492797
 31
0.0
  0
LINE
  5
2F0
100
AcDbEntity
  8
L6
100
AcDbLine
 10
-259.8883534488982
 20
0.030546363624353
 30
0.0
 11
-189.2251196780114
 21
0.030546363624353
 31
0.0
  0
LINE
  5
2F1
100
AcDbEntity
  8
L1
100
AcDbLine
 10
202.5000000000002
 20
85.03054636362435
 30
0.0
 11
202.5000000000007
 21
-84.96945363637559
 31
0.0
  0
LINE
  5
2F2
100
AcDbEntity
  8
L1
100
AcDbLine
 10
199.0000000000002
 20
85.03054636362435
 30
0.0
 11
198.9999999999998
 21
-85.0305463636244
 31
0.0
  0
LINE
  5
2F3
100
AcDbEntity
  8
L1
100
AcDbLine
 10
209.3401108825637
 20
85.03054636362435
 30
0.0
 11
209.3401108825636
 21
-85.08884821594705
 31
0.0
  0
ARC
  5
2F5
100
AcDbEntity
  8
L1
100
AcDbCircle
 10
-212.2493975310633
 20
144.3479223840343
 30
0.0
 40
1.0
100
AcDbArc
 50
272.9999999999997
 51
345.0000000000018
  0
LINE
  5
2F6
100
AcDbEntity
  8
L1
100
AcDbLine
 10
202.5000000000002
 20
149.0305463636243
 30
0.0
 11
202.5000000000002
 21
113.0305463636243
 31
0.0
  0
LINE
  5
2F7
100
AcDbEntity
  8
L1
100
AcDbLine
 10
209.3401108825637
 20
148.6720713422194
 30
0.0
 11
209.3401108825635
 21
113.0305463636243
 31
0.0
  0
LINE
  5
301
100
AcDbEntity
  8
L1
100
AcDbLine
 10
199.0000000000002
 20
125.7305463636243
 30
0.0
 11
199.0000000000002
 21
113.0305463636243
 31
0.0
  0
LINE
  5
309
100
AcDbEntity
  8
L1
100
AcDbLine
 10
-199.0000000000002
 20
125.7305463636243
 30
0.0
 11
-202.5000000000002
 21
125.7305463636242
 31
0.0
  0
LINE
  5
30A
100
AcDbEntity
  8
L1
100
AcDbLine
 10
-199.0000000000002
 20
141.0000023263569
 30
0.0
 11
-202.5000000000002
 21
141.0305463636245
 31
0.0
  0
LINE
  5
30B
100
AcDbEntity
  8
L1
100
AcDbLine
 10
-199.0000000000002
 20
132.7305463636245
 30
0.0
 11
-202.5000000000002
 21
132.7305463636244
 31
0.0
  0
LINE
  5
30C
100
AcDbEntity
  8
L1
100
AcDbLine
 10
-199.0000000000002
 20
141.0000023263569
 30
0.0
 11
-199.0000000000002
 21
132.7305463636245
 31
0.0
  0
LINE
  5
30E
100
AcDbEntity
  8
L1
100
AcDbLine
 10
-210.2537007526097
 20
147.9322608525673
 30
0.0
 11
-211.2834717047742
 21
144.0891033389318
 31
0.0
  0
ARC
  5
30F
100
AcDbEntity
  8
L1
100
AcDbCircle
 10
-209.2877749263207
 20
147.6734418074648
 30
0.0
 40
1.0
100
AcDbArc
 50
92.99999999999981
 51
165.0000000000022
  0
LINE
  5
312
100
AcDbEntity
  8
L1
100
AcDbLine
 10
-252.4999999999997
 20
-138.6760126205869
 30
0.0
 11
-252.5000000000002
 21
138.7371053478351
 31
0.0
  0
LINE
  5
313
100
AcDbEntity
  8
L1
100
AcDbLine
 10
-250.0034261631137
 20
141.3679452384425
 30
0.0
 11
-250.0034261631136
 21
-141.3068525111938
 31
0.0
  0
LINE
  5
314
100
AcDbEntity
  8
L1
100
AcDbLine
 10
-252.5000000000002
 20
138.7371053478351
 30
0.0
 11
-250.0034261631137
 21
141.3679452384425
 31
0.0
  0
LINE
  5
315
100
AcDbEntity
  8
L2
100
AcDbLine
 10
199.0000000000002
 20
139.5000000000002
 30
0.0
 11
248.5348994967027
 21
137.7702031928788
 31
0.0
1001
ACAD
1000
ASC_BOUNDS
1002
{
1070
    19
1002
}
  0
LINE
  5
316
100
AcDbEntity
  8
L1
100
AcDbLine
 10
250.0034261631137
 20
141.3373988748182
 30
0.0
 11
212.1970615748202
 21
143.3187464856555
 31
0.0
1001
ACAD
1000
ASC_BOUNDS
1002
{
1070
    19
1002
}
  0
LINE
  5
318
100
AcDbEntity
  8
L2
100
AcDbLine
 10
208.5098921433568
 20
146.6822902070405
 30
0.0
 11
209.6806153021291
 21
142.3130918969047
 31
0.0
1001
ACAD
1000
ASC_BOUNDS
1002
{
1070
    19
1002
}
  0
ARC
  5
31B
100
AcDbEntity
  8
L1
100
AcDbCircle
 10
212.2493975310633
 20
144.3173760204101
 30
0.0
 40
1.0
100
AcDbArc
 50
194.9999999999981
 51
267.0000000000003
1001
ACAD
1000
ASC_BOUNDS
1002
{
1070
    19
1002
}
  0
LINE
  5
31D
100
AcDbEntity
  8
L1
100
AcDbLine
 10
202.5000000000002
 20
149.0
 30
0.0
 11
202.5000000000002
 21
141.0000000000004
 31
0.0
1001
ACAD
1000
ASC_BOUNDS
1002
{
1070
    19
1002
}
  0
ARC
  5
31E
100
AcDbEntity
  8
L1
100
AcDbCircle
 10
209.2877749263207
 20
147.6428954438406
 30
0.0
 40
1.0
100
AcDbArc
 50
14.99999999999774
 51
87.00000000000018
1001
ACAD
1000
ASC_BOUNDS
1002
{
1070
    19
1002
}
  0
LINE
  5
31F
100
AcDbEntity
  8
L1
100
AcDbLine
 10
202.5000000000002
 20
149.0305463636243
 30
0.0
 11
209.3401108825637
 21
148.6415249785952
 31
0.0
1001
ACAD
1000
ASC_BOUNDS
1002
{
1070
    19
1002
}
  0
LINE
  5
320
100
AcDbEntity
  8
L2
100
AcDbLine
 10
202.4999999999999
 20
146.9972553080042
 30
0.0
 11
208.5098921433568
 21
146.6822902070402
 31
0.0
1001
ACAD
1000
ASC_BOUNDS
1002
{
1070
    19
1002
}
  0
LINE
  5
321
100
AcDbEntity
  8
L1
100
AcDbLine
 10
210.2537007526097
 20
147.901714488943
 30
0.0
 11
211.283471704774
 21
144.0585569753075
 31
0.0
1001
ACAD
1000
ASC_BOUNDS
1002
{
1070
    19
1002
}
  0
LINE
  5
322
100
AcDbEntity
  8
L2
100
AcDbLine
 10
203.0000000000002
 20
132.560316922033
 30
0.0
 11
203.0000000000002
 21
125.839683077967
 31
0.0
  0
LINE
  5
324
100
AcDbEntity
  8
L2
100
AcDbLine
 10
202.4999999999999
 20
141.0000000000002
 30
0.0
 11
208.7234160113384
 21
141.0543109287382
 31
0.0
1001
ACAD
1000
ASC_BOUNDS
1002
{
1070
    19
1002
}
  0
LINE
  5
325
100
AcDbEntity
  8
L1
100
AcDbLine
 10
199.0000000000002
 20
132.7000000000002
 30
0.0
 11
203.0000000000002
 21
132.560316922033
 31
0.0
  0
LINE
  5
327
100
AcDbEntity
  8
L1
100
AcDbLine
 10
199.0000000000002
 20
140.9694559627325
 30
0.0
 11
199.0000000000002
 21
132.7000000000002
 31
0.0
  0
ARC
  5
328
100
AcDbEntity
  8
L2
100
AcDbCircle
 10
208.71468947584
 20
142.0542728518023
 30
0.0
 40
1.0
100
AcDbArc
 50
270.5000000000007
 51
15.00000000000288
1001
ACAD
1000
ASC_BOUNDS
1002
{
1070
    19
1002
}
  0
LINE
  5
329
100
AcDbEntity
  8
L1
100
AcDbLine
 10
199.0000000000002
 20
125.7
 30
0.0
 11
203.0000000000002
 21
125.839683077967
 31
0.0
  0
ARC
  5
32A
100
AcDbEntity
  8
L2
100
AcDbCircle
 10
248.5000000000002
 20
136.7708123658596
 30
0.0
 40
1.0
100
AcDbArc
 50
359.9999999999997
 51
87.99999999999977
1001
ACAD
1000
ASC_BOUNDS
1002
{
1070
    19
1002
}
  0
LINE
  5
32B
100
AcDbEntity
  8
L1
100
AcDbLine
 10
252.5000000000002
 20
138.7065589842109
 30
0.0
 11
250.0034261631137
 21
141.3373988748182
 31
0.0
1001
ACAD
1000
ASC_BOUNDS
1002
{
1070
    19
1002
}
  0
LINE
  5
32C
100
AcDbEntity
  8
L1
100
AcDbLine
 10
202.5000000000002
 20
141.0000000000002
 30
0.0
 11
199.0000000000002
 21
140.9694559627325
 31
0.0
  0
LINE
  5
32D
100
AcDbEntity
  8
L1
100
AcDbLine
 10
202.5000000000002
 20
-141.0000000000002
 30
0.0
 11
199.0000000000002
 21
-140.9694559627325
 31
0.0
  0
LINE
  5
32E
100
AcDbEntity
  8
L1
100
AcDbLine
 10
98.42004140529731
 20
-240.9786445907692
 30
0.0
 11
-98.42004140529741
 21
-240.9786445907692
 31
0.0
  0
LINE
  5
32F
100
AcDbEntity
  8
L1
100
AcDbLine
 10
-99.0
 20
-233.5615492733988
 30
0.0
 11
-98.64152497859528
 21
-240.4016601559622
 31
0.0
  0
ARC
  5
330
100
AcDbEntity
  8
L1
100
AcDbCircle
 10
-97.64289544384041
 20
-240.3493241997193
 30
0.0
 40
1.0
100
AcDbArc
 50
182.9999999999998
 51
255.0000000000022
  0
LINE
  5
331
100
AcDbEntity
  8
L1
100
AcDbLine
 10
-97.90171448894284
 20
-241.3152500260084
 30
0.0
 11
-94.05855697530752
 21
-242.3450209781729
 31
0.0
  0
ARC
  5
332
100
AcDbEntity
  8
L1
100
AcDbCircle
 10
-94.31737602041016
 20
-243.3109468044619
 30
0.0
 40
1.0
100
AcDbArc
 50
2.999999999999711
 51
75.00000000000186
  0
LINE
  5
334
100
AcDbEntity
  8
L1
100
AcDbLine
 10
209.3401108825637
 20
-148.6109786149707
 30
0.0
 11
209.3401108825635
 21
-112.9694536363756
 31
0.0
  0
LINE
  5
335
100
AcDbEntity
  8
L1
100
AcDbLine
 10
202.5000000000002
 20
-148.9694536363756
 30
0.0
 11
202.5000000000002
 21
-112.9694536363756
 31
0.0
  0
ARC
  5
336
100
AcDbEntity
  8
L1
100
AcDbCircle
 10
-212.2493975310633
 20
-144.2868296567857
 30
0.0
 40
1.0
100
AcDbArc
 50
14.99999999999814
 51
87.00000000000029
  0
LINE
  5
341
100
AcDbEntity
  8
L1
100
AcDbLine
 10
199.0000000000002
 20
-125.6694536363756
 30
0.0
 11
199.0000000000002
 21
-112.9694536363756
 31
0.0
  0
LINE
  5
349
100
AcDbEntity
  8
L1
100
AcDbLine
 10
-250.0034261631137
 20
-141.3068525111938
 30
0.0
 11
-212.1970615748202
 21
-143.288200122031
 31
0.0
  0
LINE
  5
34A
100
AcDbEntity
  8
L1
100
AcDbLine
 10
-252.5000000000002
 20
-138.6760126205864
 30
0.0
 11
-250.0034261631137
 21
-141.3068525111938
 31
0.0
  0
LINE
  5
34B
100
AcDbEntity
  8
L1
100
AcDbLine
 10
-199.0000000000002
 20
-125.6694536363756
 30
0.0
 11
-202.5000000000002
 21
-125.6694536363755
 31
0.0
  0
LINE
  5
34C
100
AcDbEntity
  8
L1
100
AcDbLine
 10
-199.0000000000002
 20
-140.9389095991082
 30
0.0
 11
-199.0000000000002
 21
-132.6694536363758
 31
0.0
  0
LINE
  5
34D
100
AcDbEntity
  8
L1
100
AcDbLine
 10
-199.0000000000002
 20
-132.6694536363758
 30
0.0
 11
-202.5000000000002
 21
-132.6694536363757
 31
0.0
  0
LINE
  5
34E
100
AcDbEntity
  8
L1
100
AcDbLine
 10
-199.0000000000002
 20
-140.9389095991082
 30
0.0
 11
-202.5000000000002
 21
-140.9694536363758
 31
0.0
  0
ARC
  5
34F
100
AcDbEntity
  8
L1
100
AcDbCircle
 10
-209.2877749263207
 20
-147.6123490802161
 30
0.0
 40
1.0
100
AcDbArc
 50
194.9999999999977
 51
267.0000000000001
  0
LINE
  5
350
100
AcDbEntity
  8
L1
100
AcDbLine
 10
-210.2537007526097
 20
-147.8711681253185
 30
0.0
 11
-211.2834717047742
 21
-144.0280106116831
 31
0.0
  0
LINE
  5
351
100
AcDbEntity
  8
L1
100
AcDbLine
 10
-202.5000000000002
 20
-148.9694536363756
 30
0.0
 11
-209.3401108825637
 21
-148.6109786149708
 31
0.0
  0
LINE
  5
353
100
AcDbEntity
  8
L6
100
AcDbLine
 10
-457.5
 20
154.6629757152165
 30
0.0
 11
-457.5
 21
-153.1256450379828
 31
0.0
  0
LINE
  5
354
100
AcDbEntity
  8
L6
100
AcDbLine
 10
-565.0850958243649
 20
0.0305463636241257
 30
0.0
 11
-341.1847169464663
 21
0.0305463636241257
 31
0.0
  0
LINE
  5
355
100
AcDbEntity
  8
L6
100
AcDbLine
 10
-508.5000000000002
 20
17.22340911617249
 30
0.0
 11
-508.5000000000002
 21
-17.16231638892423
 31
0.0
  0
LINE
  5
C39
100
AcDbEntity
  8
L1
100
AcDbLine
 10
209.1245522889789
 20
88.46792308903559
 30
0.0
 11
209.1245522889787
 21
109.5931696382132
 31
0.0
  0
LINE
  5
C3A
100
AcDbEntity
  8
L1
100
AcDbLine
 10
199.0000000000002
 20
106.0305463636244
 30
0.0
 11
199.0000000000002
 21
92.03054636362429
 31
0.0
  0
LINE
  5
C3B
100
AcDbEntity
  8
L1
100
AcDbLine
 10
202.5000000000002
 20
92.03054636362436
 30
0.0
 11
209.1245522889787
 21
91.91491437329977
 31
0.0
  0
LINE
  5
C3C
100
AcDbEntity
  8
L1
100
AcDbLine
 10
202.4999999999999
 20
85.03054636362435
 30
0.0
 11
218.3801909706132
 21
85.30773612808895
 31
0.0
  0
LINE
  5
C3D
100
AcDbEntity
  8
L1
100
AcDbLine
 10
209.1245522889789
 20
88.46792308903564
 30
0.0
 11
211.2925991276201
 21
88.43007969069976
 31
0.0
  0
LINE
  5
C3E
100
AcDbEntity
  8
L1
100
AcDbLine
 10
196.0000000000002
 20
91.91708844159103
 30
0.0
 11
202.5000000000002
 21
92.03054636362436
 31
0.0
  0
LINE
  5
C3F
100
AcDbEntity
  8
L1
100
AcDbLine
 10
198.0006853717964
 20
85.10908219259215
 30
0.0
 11
202.4999999999999
 21
85.03054636362435
 31
0.0
  0
ARC
  5
C40
100
AcDbEntity
  8
L1
100
AcDbCircle
 10
198.0006853717964
 20
87.10908219259215
 30
0.0
 40
2.0
100
AcDbArc
 50
180.0
 51
270.0
  0
LINE
  5
C41
100
AcDbEntity
  8
L1
100
AcDbLine
 10
196.0000000000002
 20
91.91708844159103
 30
0.0
 11
196.0000000000002
 21
87.03054636362436
 31
0.0
  0
LINE
  5
C42
100
AcDbEntity
  8
L1
100
AcDbLine
 10
202.5000000000002
 20
106.0305463636243
 30
0.0
 11
209.1245522889787
 21
106.1461783539488
 31
0.0
  0
LINE
  5
C43
100
AcDbEntity
  8
L1
100
AcDbLine
 10
202.4999999999999
 20
113.0305463636243
 30
0.0
 11
218.3801909706135
 21
112.7533565991599
 31
0.0
  0
LINE
  5
C44
100
AcDbEntity
  8
L1
100
AcDbLine
 10
209.1245522889787
 20
109.5931696382129
 30
0.0
 11
211.2925991276201
 21
109.631013036549
 31
0.0
  0
LINE
  5
C45
100
AcDbEntity
  8
L1
100
AcDbLine
 10
198.0006853717964
 20
112.9520105346565
 30
0.0
 11
202.4999999999999
 21
113.0305463636243
 31
0.0
  0
LINE
  5
C46
100
AcDbEntity
  8
L1
100
AcDbLine
 10
196.0000000000002
 20
106.1440042856577
 30
0.0
 11
202.5000000000002
 21
106.0305463636243
 31
0.0
  0
ARC
  5
C47
100
AcDbEntity
  8
L1
100
AcDbCircle
 10
198.0006853717964
 20
110.9520105346565
 30
0.0
 40
2.0
100
AcDbArc
 50
90.0
 51
180.0
  0
LINE
  5
C48
100
AcDbEntity
  8
L1
100
AcDbLine
 10
196.0000000000002
 20
111.0305463636243
 30
0.0
 11
196.0000000000002
 21
106.1440042856577
 31
0.0
  0
LINE
  5
C49
100
AcDbEntity
  8
L1
100
AcDbLine
 10
196.0000000000002
 20
-91.85599571434233
 30
0.0
 11
196.0000000000002
 21
-86.96945363637565
 31
0.0
  0
LINE
  5
C4A
100
AcDbEntity
  8
L1
100
AcDbLine
 10
209.1245522889789
 20
-88.40683036178688
 30
0.0
 11
209.1245522889787
 21
-109.5320769109645
 31
0.0
  0
LINE
  5
C4B
100
AcDbEntity
  8
L1
100
AcDbLine
 10
202.4999999999999
 20
-112.9694536363756
 30
0.0
 11
218.3801909706135
 21
-112.6922638719112
 31
0.0
  0
LINE
  5
C4C
100
AcDbEntity
  8
L1
100
AcDbLine
 10
202.5000000000002
 20
-105.9694536363756
 30
0.0
 11
209.1245522889787
 21
-106.0850856267001
 31
0.0
  0
LINE
  5
C4D
100
AcDbEntity
  8
L1
100
AcDbLine
 10
202.5000000000002
 20
-91.96945363637565
 30
0.0
 11
209.1245522889787
 21
-91.85382164605107
 31
0.0
  0
LINE
  5
C4E
100
AcDbEntity
  8
L1
100
AcDbLine
 10
209.1245522889787
 20
-109.5320769109642
 30
0.0
 11
211.2925991276201
 21
-109.5699203093003
 31
0.0
  0
LINE
  5
C4F
100
AcDbEntity
  8
L1
100
AcDbLine
 10
199.0000000000002
 20
-105.9694536363757
 30
0.0
 11
199.0000000000002
 21
-91.96945363637558
 31
0.0
  0
LINE
  5
C50
100
AcDbEntity
  8
L1
100
AcDbLine
 10
198.0006853717964
 20
-112.8909178074078
 30
0.0
 11
202.4999999999999
 21
-112.9694536363756
 31
0.0
  0
LINE
  5
C51
100
AcDbEntity
  8
L1
100
AcDbLine
 10
196.0000000000002
 20
-106.082911558409
 30
0.0
 11
202.5000000000002
 21
-105.9694536363756
 31
0.0
  0
ARC
  5
C52
100
AcDbEntity
  8
L1
100
AcDbCircle
 10
198.0006853717964
 20
-110.8909178074078
 30
0.0
 40
2.0
100
AcDbArc
 50
180.0
 51
270.0
  0
LINE
  5
C53
100
AcDbEntity
  8
L1
100
AcDbLine
 10
196.0000000000002
 20
-110.9694536363756
 30
0.0
 11
196.0000000000002
 21
-106.082911558409
 31
0.0
  0
LINE
  5
C54
100
AcDbEntity
  8
L1
100
AcDbLine
 10
196.0000000000002
 20
-91.85599571434233
 30
0.0
 11
202.5000000000002
 21
-91.96945363637565
 31
0.0
  0
LINE
  5
C55
100
AcDbEntity
  8
L1
100
AcDbLine
 10
202.4999999999999
 20
-84.96945363637564
 30
0.0
 11
218.3801909706132
 21
-85.24664340084024
 31
0.0
  0
LINE
  5
C56
100
AcDbEntity
  8
L1
100
AcDbLine
 10
209.1245522889789
 20
-88.40683036178694
 30
0.0
 11
211.2925991276201
 21
-88.36898696345105
 31
0.0
  0
LINE
  5
C57
100
AcDbEntity
  8
L1
100
AcDbLine
 10
198.0006853717964
 20
-85.04798946534345
 30
0.0
 11
202.4999999999999
 21
-84.96945363637564
 31
0.0
  0
ARC
  5
C58
100
AcDbEntity
  8
L1
100
AcDbCircle
 10
198.0006853717964
 20
-87.04798946534344
 30
0.0
 40
2.0
100
AcDbArc
 50
90.0
 51
180.0
  0
LINE
  5
C71
100
AcDbEntity
  8
L1
100
AcDbLine
 10
-196.0000000000002
 20
91.91708844159103
 30
0.0
 11
-196.0000000000002
 21
87.03054636362436
 31
0.0
  0
LINE
  5
C72
100
AcDbEntity
  8
L1
100
AcDbLine
 10
-198.0006853717964
 20
85.10908219259215
 30
0.0
 11
-199.0000000000001
 21
85.09163909087318
 31
0.0
  0
ARC
  5
C73
100
AcDbEntity
  8
L1
100
AcDbCircle
 10
-198.0006853717964
 20
87.10908219259215
 30
0.0
 40
2.0
100
AcDbArc
 50
270.0
 51
0.0
  0
LINE
  5
C74
100
AcDbEntity
  8
L1
100
AcDbLine
 10
-196.0000000000002
 20
91.91708844159103
 30
0.0
 11
-199.0000000000001
 21
91.96945363637565
 31
0.0
  0
LINE
  5
C75
100
AcDbEntity
  8
L1
100
AcDbLine
 10
-198.0006853717964
 20
112.9520105346565
 30
0.0
 11
-199.0000000000001
 21
112.9694536363755
 31
0.0
  0
LINE
  5
C76
100
AcDbEntity
  8
L1
100
AcDbLine
 10
-196.0000000000002
 20
106.1440042856577
 30
0.0
 11
-199.0000000000001
 21
106.0916390908731
 31
0.0
  0
ARC
  5
C77
100
AcDbEntity
  8
L1
100
AcDbCircle
 10
-198.0006853717964
 20
110.9520105346565
 30
0.0
 40
2.0
100
AcDbArc
 50
0.0
 51
90.0
  0
LINE
  5
C78
100
AcDbEntity
  8
L1
100
AcDbLine
 10
-196.0000000000002
 20
111.0305463636243
 30
0.0
 11
-196.0000000000002
 21
106.1440042856577
 31
0.0
  0
LINE
  5
C79
100
AcDbEntity
  8
L1
100
AcDbLine
 10
-196.0000000000002
 20
-110.9694536363756
 30
0.0
 11
-196.0000000000002
 21
-106.082911558409
 31
0.0
  0
LINE
  5
C7A
100
AcDbEntity
  8
L1
100
AcDbLine
 10
-198.0006853717964
 20
-112.8909178074078
 30
0.0
 11
-199.0000000000001
 21
-112.9083609091268
 31
0.0
  0
ARC
  5
C7B
100
AcDbEntity
  8
L1
100
AcDbCircle
 10
-198.0006853717964
 20
-110.8909178074078
 30
0.0
 40
2.0
100
AcDbArc
 50
270.0
 51
0.0
  0
LINE
  5
C7C
100
AcDbEntity
  8
L1
100
AcDbLine
 10
-196.0000000000002
 20
-106.082911558409
 30
0.0
 11
-199.0000000000001
 21
-106.0305463636244
 31
0.0
  0
ARC
  5
C7D
100
AcDbEntity
  8
L1
100
AcDbCircle
 10
-198.0006853717964
 20
-87.04798946534344
 30
0.0
 40
2.0
100
AcDbArc
 50
0.0
 51
90.0
  0
LINE
  5
C7E
100
AcDbEntity
  8
L1
100
AcDbLine
 10
-196.0000000000002
 20
-91.85599571434233
 30
0.0
 11
-196.0000000000002
 21
-86.96945363637565
 31
0.0
  0
LINE
  5
C7F
100
AcDbEntity
  8
L1
100
AcDbLine
 10
-196.0000000000002
 20
-91.85599571434233
 30
0.0
 11
-199.0000000000001
 21
-91.90836090912695
 31
0.0
  0
LINE
  5
C80
100
AcDbEntity
  8
L1
100
AcDbLine
 10
-198.0006853717964
 20
-85.04798946534345
 30
0.0
 11
-199.0000000000001
 21
-85.03054636362447
 31
0.0
  0
LINE
  5
C81
100
AcDbEntity
  8
L1
100
AcDbLine
 10
-209.3401108825637
 20
-148.6109786149707
 30
0.0
 11
-209.3401108825628
 21
0.030546363624353
 31
0.0
  0
LINE
  5
C82
100
AcDbEntity
  8
L1
100
AcDbLine
 10
-209.3401108825633
 20
148.6720713422195
 30
0.0
 11
-209.3401108825628
 21
0.030546363624353
 31
0.0
  0
LINE
  5
C83
100
AcDbEntity
  8
L1
100
AcDbLine
 10
-202.5000000000002
 20
149.0305463636243
 30
0.0
 11
-209.3401108825637
 21
148.6720713422195
 31
0.0
  0
LINE
  5
C84
100
AcDbEntity
  8
L1
100
AcDbLine
 10
-202.4999999999991
 20
-148.9694536363757
 30
0.0
 11
-209.3401108825637
 21
-148.6109786149708
 31
0.0
  0
LINE
  5
C85
100
AcDbEntity
  8
L1
100
AcDbLine
 10
-202.5000000000002
 20
149.0305463636243
 30
0.0
 11
-202.4999999999991
 21
-148.9694536363757
 31
0.0
  0
LINE
  5
C90
100
AcDbEntity
  8
L2
 48
2.0
100
AcDbLine
 10
-89.50000000000022
 20
-230.0615492733989
 30
0.0
 11
-87.77020319287862
 21
-279.5964487701017
 31
0.0
1001
ACAD
1000
ASC_BOUNDS
1002
{
1070
    19
1002
}
  0
LINE
  5
C91
100
AcDbEntity
  8
L2
 48
2.0
100
AcDbLine
 10
0.0
 20
-280.5615492733987
 30
0.0
 11
-86.77081236585946
 21
-280.5615492733992
 31
0.0
1001
ACAD
1000
ASC_BOUNDS
1002
{
1070
    19
1002
}
  0
ARC
  5
C92
100
AcDbEntity
  8
L2
 48
2.0
100
AcDbCircle
 10
-86.77081236585946
 20
-279.5615492733992
 30
0.0
 40
1.0
100
AcDbArc
 50
182.0000000000004
 51
270.0000000000002
1001
ACAD
1000
ASC_BOUNDS
1002
{
1070
    19
1002
}
  0
LINE
  5
C95
100
AcDbEntity
  8
L2
 48
0.5
100
AcDbLine
 10
-82.52977288476563
 20
-234.0615492733988
 30
0.0
 11
-75.80913904069939
 21
-234.0615492733988
 31
0.0
  0
LINE
  5
C96
100
AcDbEntity
  8
L2
100
AcDbLine
 10
-82.52977288476563
 20
-234.0615492733988
 30
0.0
 11
-82.54723326951125
 21
-233.5615492733988
 31
0.0
  0
LINE
  5
C97
100
AcDbEntity
  8
L2
100
AcDbLine
 10
-75.80913904069939
 20
-234.0615492733988
 30
0.0
 11
-75.79167865595377
 21
-233.5615492733988
 31
0.0
  0
LINE
  5
C98
100
AcDbEntity
  8
L2
100
AcDbLine
 10
82.651995577987
 20
-234.0615492733988
 30
0.0
 11
82.66945596273263
 21
-233.5615492733988
 31
0.0
  0
LINE
  5
C99
100
AcDbEntity
  8
L2
100
AcDbLine
 10
75.68691634747825
 20
-234.0615492733988
 30
0.0
 11
75.66945596273263
 21
-233.5615492733988
 31
0.0
  0
LINE
  5
C9A
100
AcDbEntity
  8
L2
 48
0.5
100
AcDbLine
 10
75.68691634747825
 20
-234.0615492733988
 30
0.0
 11
82.651995577987
 21
-234.0615492733988
 31
0.0
  0
LINE
  5
C9B
100
AcDbEntity
  8
L2
 48
2.0
100
AcDbLine
 10
0.0
 20
-280.5615492733987
 30
0.0
 11
86.77081236585946
 21
-280.5615492733992
 31
0.0
1001
ACAD
1000
ASC_BOUNDS
1002
{
1070
    19
1002
}
  0
LINE
  5
C9C
100
AcDbEntity
  8
L2
 48
2.0
100
AcDbLine
 10
89.50000000000022
 20
-230.0615492733989
 30
0.0
 11
87.77020319287862
 21
-279.5964487701017
 31
0.0
1001
ACAD
1000
ASC_BOUNDS
1002
{
1070
    19
1002
}
  0
ARC
  5
C9D
100
AcDbEntity
  8
L2
 48
2.0
100
AcDbCircle
 10
86.77081236585946
 20
-279.5615492733992
 30
0.0
 40
1.0
100
AcDbArc
 50
269.9999999999997
 51
357.9999999999996
1001
ACAD
1000
ASC_BOUNDS
1002
{
1070
    19
1002
}
  0
LINE
  5
C9E
100
AcDbEntity
  8
L2
100
AcDbLine
 10
-199.0000000000002
 20
139.5000000000002
 30
0.0
 11
-248.5348994967027
 21
137.7702031928788
 31
0.0
1001
ACAD
1000
ASC_BOUNDS
1002
{
1070
    19
1002
}
  0
LINE
  5
C9F
100
AcDbEntity
  8
L2
100
AcDbLine
 10
-249.4999999999997
 20
136.7708123658596
 30
0.0
 11
-249.5000000000002
 21
-136.7708123658596
 31
0.0
1001
ACAD
1000
ASC_BOUNDS
1002
{
1070
    19
1002
}
  0
ARC
  5
CA0
100
AcDbEntity
  8
L2
100
AcDbCircle
 10
-248.5000000000002
 20
136.7708123658596
 30
0.0
 40
1.0
100
AcDbArc
 50
92.00000000000022
 51
180.0000000000002
1001
ACAD
1000
ASC_BOUNDS
1002
{
1070
    19
1002
}
  0
LINE
  5
CA1
100
AcDbEntity
  8
L2
100
AcDbLine
 10
-199.0000000000002
 20
-139.5000000000001
 30
0.0
 11
-248.5348994967027
 21
-137.7702031928787
 31
0.0
1001
ACAD
1000
ASC_BOUNDS
1002
{
1070
    19
1002
}
  0
ARC
  5
CA2
100
AcDbEntity
  8
L2
100
AcDbCircle
 10
-248.5000000000002
 20
-136.7708123658596
 30
0.0
 40
1.0
100
AcDbArc
 50
179.9999999999998
 51
267.9999999999997
1001
ACAD
1000
ASC_BOUNDS
1002
{
1070
    19
1002
}
  0
LINE
  5
CB8
100
AcDbEntity
  8
L1
100
AcDbLine
 10
-101.0
 20
233.5615492733988
 30
0.0
 11
99.0
 21
233.5615492733988
 31
0.0
  0
LINE
  5
CB9
100
AcDbEntity
  8
L1
100
AcDbLine
 10
98.42004140529731
 20
240.9786445907692
 30
0.0
 11
-98.42004140529741
 21
240.9786445907692
 31
0.0
  0
LINE
  5
CBA
100
AcDbEntity
  8
L1
100
AcDbLine
 10
-99.0
 20
233.5615492733988
 30
0.0
 11
-98.64152497859528
 21
240.4016601559622
 31
0.0
  0
LINE
  5
CBB
100
AcDbEntity
  8
L1
100
AcDbLine
 10
-97.90171448894284
 20
241.3152500260084
 30
0.0
 11
-94.05855697530752
 21
242.3450209781729
 31
0.0
  0
ARC
  5
CBC
100
AcDbEntity
  8
L1
100
AcDbCircle
 10
-94.31737602041016
 20
243.3109468044619
 30
0.0
 40
1.0
100
AcDbArc
 50
284.9999999999981
 51
357.0000000000002
  0
ARC
  5
CBD
100
AcDbEntity
  8
L1
100
AcDbCircle
 10
-97.64289544384041
 20
240.3493241997193
 30
0.0
 40
1.0
100
AcDbArc
 50
104.9999999999977
 51
177.0000000000001
  0
LINE
  5
CBE
100
AcDbEntity
  8
L2
 48
0.5
100
AcDbLine
 10
75.66945596273263
 20
234.0615492733987
 30
0.0
 11
82.66945596273265
 21
234.0615492733987
 31
0.0
  0
LINE
  5
CC1
100
AcDbEntity
  8
L2
100
AcDbLine
 10
75.66945596273263
 20
233.5615492733988
 30
0.0
 11
75.66945596273263
 21
234.0615492733987
 31
0.0
  0
LINE
  5
CC2
100
AcDbEntity
  8
L2
100
AcDbLine
 10
82.66945596273263
 20
233.5615492733988
 30
0.0
 11
82.66945596273263
 21
234.0615492733987
 31
0.0
  0
LINE
  5
CCF
100
AcDbEntity
  8
L1
100
AcDbLine
 10
-92.99470240500204
 20
113.0
 30
0.0
 11
-92.99470240500204
 21
110.0
 31
0.0
  0
LINE
  5
CD0
100
AcDbEntity
  8
L1
100
AcDbLine
 10
-92.99470240500204
 20
88.00000000000006
 30
0.0
 11
-92.99470240500204
 21
85.00000000000005
 31
0.0
  0
LINE
  5
CD1
100
AcDbEntity
  8
L1
100
AcDbLine
 10
-92.99470240500204
 20
110.0
 30
0.0
 11
-93.31874648565531
 21
110.0
 31
0.0
  0
LINE
  5
CD2
100
AcDbEntity
  8
L1
100
AcDbLine
 10
-92.99470240500204
 20
88.00000000000006
 30
0.0
 11
-93.31874648565531
 21
88.0
 31
0.0
  0
LINE
  5
CD3
100
AcDbEntity
  8
L1
100
AcDbLine
 10
-102.6966803240684
 20
106.0
 30
0.0
 11
-102.696680324068
 21
92.00000000000001
 31
0.0
  0
LINE
  5
CDC
100
AcDbEntity
  8
L1
100
AcDbLine
 10
-102.6966803240684
 20
-106.0
 30
0.0
 11
-102.696680324068
 21
-92.00000000000001
 31
0.0
  0
LINE
  5
CDD
100
AcDbEntity
  8
L1
100
AcDbLine
 10
-93.31874648565531
 20
-110.0
 30
0.0
 11
-93.31874648565531
 21
-88.0
 31
0.0
  0
LINE
  5
CDE
100
AcDbEntity
  8
L1
100
AcDbLine
 10
-114.0
 20
-92.00000000000001
 30
0.0
 11
-102.696680324068
 21
-92.00000000000001
 31
0.0
  0
LINE
  5
CDF
100
AcDbEntity
  8
L1
100
AcDbLine
 10
-112.0
 20
-85.0
 30
0.0
 11
-92.99470240500204
 21
-85.0
 31
0.0
  0
LINE
  5
CE0
100
AcDbEntity
  8
L1
100
AcDbLine
 10
-114.0
 20
-92.00000000000001
 30
0.0
 11
-114.0
 21
-87.00000000000001
 31
0.0
  0
ARC
  5
CE1
100
AcDbEntity
  8
L1
100
AcDbCircle
 10
-112.0
 20
-87.00000000000001
 30
0.0
 40
2.0
100
AcDbArc
 50
90.0
 51
180.0
  0
LINE
  5
CE2
100
AcDbEntity
  8
L1
100
AcDbLine
 10
-92.99470240500204
 20
-88.00000000000006
 30
0.0
 11
-93.31874648565531
 21
-88.0
 31
0.0
  0
LINE
  5
CE3
100
AcDbEntity
  8
L1
100
AcDbLine
 10
-92.99470240500204
 20
-88.00000000000006
 30
0.0
 11
-92.99470240500204
 21
-85.00000000000005
 31
0.0
  0
LINE
  5
CE4
100
AcDbEntity
  8
L1
100
AcDbLine
 10
-114.0
 20
-106.0
 30
0.0
 11
-102.6966803240684
 21
-106.0
 31
0.0
  0
LINE
  5
CE5
100
AcDbEntity
  8
L1
100
AcDbLine
 10
-112.0
 20
-113.0
 30
0.0
 11
-92.99470240500204
 21
-113.0
 31
0.0
  0
LINE
  5
CE6
100
AcDbEntity
  8
L1
100
AcDbLine
 10
-114.0
 20
-111.0
 30
0.0
 11
-114.0
 21
-106.0
 31
0.0
  0
ARC
  5
CE7
100
AcDbEntity
  8
L1
100
AcDbCircle
 10
-112.0
 20
-111.0
 30
0.0
 40
2.0
100
AcDbArc
 50
180.0
 51
270.0
  0
LINE
  5
CE8
100
AcDbEntity
  8
L1
100
AcDbLine
 10
-92.99470240500204
 20
-110.0
 30
0.0
 11
-93.31874648565531
 21
-110.0
 31
0.0
  0
LINE
  5
CE9
100
AcDbEntity
  8
L1
100
AcDbLine
 10
-92.99470240500204
 20
-113.0
 30
0.0
 11
-92.99470240500204
 21
-110.0
 31
0.0
  0
ENDSEC
  0
SECTION
  2
OBJECTS
  0
DICTIONARY
  5
1B
100
AcDbDictionary
  3
ACAD_GROUP
350
19
  3
ACAD_MLINESTYLE
350
1A
  0
DICTIONARY
  5
19
102
{ACAD_REACTORS
330
1B
102
}
100
AcDbDictionary
  0
DICTIONARY
  5
1A
102
{ACAD_REACTORS
330
1B
102
}
100
AcDbDictionary
  3
STANDARD
350
1D
  0
MLINESTYLE
  5
1D
102
{ACAD_REACTORS
330
1A
102
}
100
AcDbMlineStyle
  2
STANDARD
 70
     0
  3

 62
     0
 51
90.0
 52
90.0
 71
     2
 49
0.5
 62
   256
  6
BYLAYER
 49
-0.5
 62
   256
  6
BYLAYER
  0
ENDSEC
  0
EOF
