  0
SECTION
  2
HEADER
  9
$ACADVER
  1
AC1012
  9
$DWGCODEPAGE
  3
ansi_1252
  9
$INSBASE
 10
0.0
 20
0.0
 30
0.0
  9
$EXTMIN
 10
-629.5252934387981
 20
-357.2247345984355
 30
0.0
  9
$EXTMAX
 10
343.4705711398946
 20
357.2247345984355
 30
0.0
  9
$LIMMIN
 10
0.0
 20
0.0
  9
$LIMMAX
 10
420.0
 20
297.0
  9
$ORTHOMODE
 70
     1
  9
$REGENMODE
 70
     1
  9
$FILLMODE
 70
     1
  9
$QTEXTMODE
 70
     0
  9
$MIRRTEXT
 70
     1
  9
$DRAGMODE
 70
     2
  9
$LTSCALE
 40
15.0
  9
$OSMODE
 70
    39
  9
$ATTMODE
 70
     1
  9
$TEXTSIZE
 40
3.5
  9
$TRACEWID
 40
0.05
  9
$TEXTSTYLE
  7
STANDARD
  9
$CLAYER
  8
L1
  9
$CELTYPE
  6
BYLAYER
  9
$CECOLOR
 62
   256
  9
$CELTSCALE
 40
1.0
  9
$DELOBJ
 70
     1
  9
$DISPSILH
 70
     1
  9
$DIMSCALE
 40
1.0
  9
$DIMASZ
 40
3.5
  9
$DIMEXO
 40
0.0625
  9
$DIMDLI
 40
0.38
  9
$DIMRND
 40
0.0
  9
$DIMDLE
 40
0.0
  9
$DIMEXE
 40
0.18
  9
$DIMTP
 40
0.0
  9
$DIMTM
 40
0.0
  9
$DIMTXT
 40
3.5
  9
$DIMCEN
 40
0.09
  9
$DIMTSZ
 40
0.0
  9
$DIMTOL
 70
     0
  9
$DIMLIM
 70
     0
  9
$DIMTIH
 70
     1
  9
$DIMTOH
 70
     1
  9
$DIMSE1
 70
     0
  9
$DIMSE2
 70
     0
  9
$DIMTAD
 70
     0
  9
$DIMZIN
 70
     0
  9
$DIMBLK
  1

  9
$DIMASO
 70
     1
  9
$DIMSHO
 70
     1
  9
$DIMPOST
  1

  9
$DIMAPOST
  1

  9
$DIMALT
 70
     0
  9
$DIMALTD
 70
     2
  9
$DIMALTF
 40
25.4
  9
$DIMLFAC
 40
1.0
  9
$DIMTOFL
 70
     0
  9
$DIMTVP
 40
0.0
  9
$DIMTIX
 70
     0
  9
$DIMSOXD
 70
     0
  9
$DIMSAH
 70
     0
  9
$DIMBLK1
  1

  9
$DIMBLK2
  1

  9
$DIMSTYLE
  2
ACADUS
  9
$DIMCLRD
 70
     0
  9
$DIMCLRE
 70
     0
  9
$DIMCLRT
 70
     0
  9
$DIMTFAC
 40
1.0
  9
$DIMGAP
 40
1.0
  9
$DIMJUST
 70
     0
  9
$DIMSD1
 70
     0
  9
$DIMSD2
 70
     0
  9
$DIMTOLJ
 70
     1
  9
$DIMTZIN
 70
     0
  9
$DIMALTZ
 70
     0
  9
$DIMALTTZ
 70
     0
  9
$DIMFIT
 70
     5
  9
$DIMUPT
 70
     0
  9
$DIMUNIT
 70
     2
  9
$DIMDEC
 70
     1
  9
$DIMTDEC
 70
     1
  9
$DIMALTU
 70
     2
  9
$DIMALTTD
 70
     2
  9
$DIMTXSTY
  7
STANDARD
  9
$DIMAUNIT
 70
     0
  9
$LUNITS
 70
     2
  9
$LUPREC
 70
     1
  9
$SKETCHINC
 40
1.0
  9
$FILLETRAD
 40
4.0
  9
$AUNITS
 70
     0
  9
$AUPREC
 70
     1
  9
$MENU
  1
CAESAR
  9
$ELEVATION
 40
0.0
  9
$PELEVATION
 40
0.0
  9
$THICKNESS
 40
0.0
  9
$LIMCHECK
 70
     0
  9
$BLIPMODE
 70
     0
  9
$CHAMFERA
 40
5.0
  9
$CHAMFERB
 40
5.0
  9
$CHAMFERC
 40
0.0
  9
$CHAMFERD
 40
0.0
  9
$SKPOLY
 70
     0
  9
$TDCREATE
 40
2449188.659868055
  9
$TDUPDATE
 40
2450779.604740497
  9
$TDINDWG
 40
4.5036626273
  9
$TDUSRTIMER
 40
4.5036626273
  9
$USRTIMER
 70
     1
  9
$ANGBASE
 50
0.0
  9
$ANGDIR
 70
     0
  9
$PDMODE
 70
     0
  9
$PDSIZE
 40
0.0
  9
$PLINEWID
 40
0.0
  9
$COORDS
 70
     2
  9
$SPLFRAME
 70
     0
  9
$SPLINETYPE
 70
     6
  9
$SPLINESEGS
 70
     8
  9
$ATTDIA
 70
     0
  9
$ATTREQ
 70
     1
  9
$HANDLING
 70
     1
  9
$HANDSEED
  5
119F
  9
$SURFTAB1
 70
     6
  9
$SURFTAB2
 70
     6
  9
$SURFTYPE
 70
     6
  9
$SURFU
 70
     6
  9
$SURFV
 70
     6
  9
$UCSNAME
  2

  9
$UCSORG
 10
0.0
 20
0.0
 30
0.0
  9
$UCSXDIR
 10
1.0
 20
0.0
 30
0.0
  9
$UCSYDIR
 10
0.0
 20
1.0
 30
0.0
  9
$PUCSNAME
  2

  9
$PUCSORG
 10
0.0
 20
0.0
 30
0.0
  9
$PUCSXDIR
 10
1.0
 20
0.0
 30
0.0
  9
$PUCSYDIR
 10
0.0
 20
1.0
 30
0.0
  9
$USERI1
 70
     0
  9
$USERI2
 70
     0
  9
$USERI3
 70
     0
  9
$USERI4
 70
     0
  9
$USERI5
 70
     0
  9
$USERR1
 40
1.0
  9
$USERR2
 40
0.0
  9
$USERR3
 40
3.5
  9
$USERR4
 40
0.0
  9
$USERR5
 40
0.0
  9
$WORLDVIEW
 70
     1
  9
$SHADEDGE
 70
     3
  9
$SHADEDIF
 70
    70
  9
$TILEMODE
 70
     1
  9
$MAXACTVP
 70
    16
  9
$PINSBASE
 10
0.0
 20
0.0
 30
0.0
  9
$PLIMCHECK
 70
     0
  9
$PEXTMIN
 10
1.000000000000000E+20
 20
1.000000000000000E+20
 30
1.000000000000000E+20
  9
$PEXTMAX
 10
-1.000000000000000E+20
 20
-1.000000000000000E+20
 30
-1.000000000000000E+20
  9
$PLIMMIN
 10
0.0
 20
0.0
  9
$PLIMMAX
 10
420.0
 20
297.0
  9
$UNITMODE
 70
     0
  9
$VISRETAIN
 70
     0
  9
$PLINEGEN
 70
     0
  9
$PSLTSCALE
 70
     0
  9
$TREEDEPTH
 70
  3020
  9
$PICKSTYLE
 70
     1
  9
$CMLSTYLE
  2
STANDARD
  9
$CMLJUST
 70
     0
  9
$CMLSCALE
 40
1.0
  9
$SAVEIMAGES
 70
     0
  0
ENDSEC
  0
SECTION
  2
CLASSES
  0
CLASS
  1
ADPART
  2
AcAdPart
  3
"DesignerServices"
 90
        0
280
     0
281
     1
  0
CLASS
  1
ACMESCOPE
  2
AcMeScope
  3
ACME_MODULE_NAME
 90
        0
280
     0
281
     0
  0
CLASS
  1
ACMECOMMANDHISTORY
  2
AcMeCommandHistory
  3
ACME_MODULE_NAME
 90
        0
280
     0
281
     0
  0
CLASS
  1
AcRfInsAdjusterMgr
  2
AcRfInsAdjusterMgr
  3
ACME_MODULE_NAME
 90
        0
280
     0
281
     0
  0
CLASS
  1
ACGREFMASTER
  2
AcGrefMaster
  3
"AcadRfServer"
 90
        0
280
     0
281
     0
  0
CLASS
  1
AmiMaster
  2
AmiMaster
  3
"AmiServices"
 90
        0
280
     0
281
     0
  0
CLASS
  1
ACASGREFMASTER
  2
AcAsGrefMaster
  3
"AutoSurfResolver"
 90
        0
280
     0
281
     0
  0
CLASS
  1
ADAPPL
  2
AcAdAppl
  3
DesignerServices
 90
        0
280
     0
281
     0
  0
CLASS
  1
DEPMGR
  2
AcAdDepMgr
  3
DesignerServices
 90
        0
280
     0
281
     0
  0
CLASS
  1
PARAMMGR
  2
AcAdParamMgr
  3
DesignerServices
 90
        0
280
     0
281
     0
  0
CLASS
  1
PARAMSCOPE
  2
AcAdParamScope
  3
DesignerServices
 90
        0
280
     0
281
     0
  0
CLASS
  1
"IM_SYSVAR_MAN"
  2
AcImSysVarManager
  3
"ADAM"
 90
        0
280
     0
281
     0
  0
CLASS
  1
SYSTEM_VAR_INT
  2
AcImIntSysVar
  3
"ADAM"
 90
        0
280
     0
281
     0
  0
CLASS
  1
SYSTEM_VAR_REAL
  2
AcImRealSysVar
  3
"ADAM"
 90
        0
280
     0
281
     0
  0
CLASS
  1
SYSTEM_VAR_STR
  2
AcImStrSysVar
  3
"ADAM"
 90
        0
280
     0
281
     0
  0
CLASS
  1
NAMEDAPPL
  2
AcAdNamedAppl
  3
DesignerServices
 90
        0
280
     0
281
     0
  0
CLASS
  1
ADBASE
  2
AcAdBase
  3
DesignerServices
 90
        0
280
     0
281
     0
  0
CLASS
  1
BODYID
  2
AcAdBodyId
  3
DesignerServices
 90
        0
280
     0
281
     0
  0
CLASS
  1
WORKPLANEDISPLAYMGR
  2
AcAdDisplayMgr
  3
DesignerServices
 90
        0
280
     0
281
     0
  0
CLASS
  1
ADHNTMPLT
  2
AdHoleNoteTemplateMgr
  3
DesignerServices
 90
        0
280
     0
281
     0
  0
CLASS
  1
AM_HNTEMPLATE_MGR_NAME
  2
AdHoleNoteTemplateMgrName
  3
DesignerServices
 90
        0
280
     0
281
     0
  0
CLASS
  1
AcAdGrefModule
  2
AcAdGrefModule
  3
AD_GREF_SERVICES_NSTR
 90
        0
280
     0
281
     0
  0
CLASS
  1
AM_DRAWING_MGR
  2
AcDmDwgMgr
  3
AcMechDwgViewMgmt
 90
        0
280
     0
281
     0
  0
CLASS
  1
AM_DWG_DOCUMENT
  2
AcDmDwgDocument
  3
AcMechDwgViewMgmt
 90
        0
280
     0
281
     0
  0
CLASS
  1
AM_DWG_SHEET
  2
AcDmSheet
  3
AcMechDwgViewMgmt
 90
        0
280
     0
281
     0
  0
CLASS
  1
AM_VIEWDIMPARMAP
  2
AcDmViewDimParMap
  3
AcMechDwgViewMgmt
 90
        0
280
     0
281
     0
  0
CLASS
  1
AM_DWGMGR_NAME
  2
AcDmDwgMgrName
  3
AcMechDwgViewMgmt
 90
        0
280
     0
281
     0
  0
CLASS
  1
ACAMPROJECT
  2
AcAmProject
  3
DesignerAssemblies
 90
        0
280
     0
281
     0
  0
CLASS
  1
ACAMGRCOMPSET
  2
AcAmGrCompSet
  3
DesignerAssemblies
 90
        0
280
     0
281
     0
  0
CLASS
  1
ACAMGRCOMPDEFSET
  2
AcAmGrCompDefSet
  3
DesignerAssemblies
 90
        0
280
     0
281
     0
  0
CLASS
  1
ACAMGRCOMPDEF
  2
AcAmGrCompDef
  3
DesignerAssemblies
 90
        0
280
     0
281
     0
  0
CLASS
  1
ACAMCOMPDEF
  2
AcAmCompDef
  3
DesignerAssemblies
 90
        0
280
     0
281
     0
  0
CLASS
  1
ACAMCOMPDEFMGR
  2
AcAmCompDefMgr
  3
DesignerAssemblies
 90
        0
280
     0
281
     0
  0
CLASS
  1
AMCONTEXTMGR
  2
AcAmContextMgr
  3
DesignerAssemblies
 90
        0
280
     0
281
     0
  0
CLASS
  1
ACAMCONTEXTMODELER
  2
AcAmContextModeler
  3
DesignerAssemblies
 90
        0
280
     0
281
     0
  0
CLASS
  1
ACAMDRAWINGMAN
  2
AcAmDrawingMan
  3
DesignerAssemblies
 90
        0
280
     0
281
     0
  0
CLASS
  1
ACDMVIEWGEOM
  2
AcDmViewGeometry
  3
AcMechDwgViewMgmt
 90
        0
280
     0
281
     1
  0
CLASS
  1
ASSYSVARS
  2
AcAsSysVars
  3
"AutoSurf"
 90
        0
280
     0
281
     0
  0
CLASS
  1
ASSTATICVARS
  2
AcAsStaticVars
  3
"AutoSurf"
 90
        0
280
     0
281
     0
  0
CLASS
  1
ASAPP
  2
AcAsAppObject
  3
"AutoSurf"
 90
        0
280
     0
281
     0
  0
ENDSEC
  0
SECTION
  2
TABLES
  0
TABLE
  2
VPORT
  5
13
100
AcDbSymbolTable
 70
     5
  0
VPORT
  5
119E
100
AcDbSymbolTableRecord
100
AcDbViewportTableRecord
  2
*ACTIVE
 70
     0
 10
0.0
 20
0.0
 11
1.0
 21
1.0
 12
-138.8597698070792
 22
-1.604897000363166
 13
0.0
 23
0.0
 14
1.0
 24
1.0
 15
10.0
 25
10.0
 16
0.0
 26
0.0
 36
1.0
 17
0.0
 27
0.0
 37
0.0
 40
749.999999310977
 41
1.672965116279069
 42
50.0
 43
0.0
 44
0.0
 50
0.0
 51
0.0
 71
     0
 72
   500
 73
     1
 74
     0
 75
     0
 76
     0
 77
     0
 78
     0
  0
ENDTAB
  0
TABLE
  2
LTYPE
  5
F
100
AcDbSymbolTable
 70
     4
  0
LTYPE
  5
10
100
AcDbSymbolTableRecord
100
AcDbLinetypeTableRecord
  2
BYBLOCK
 70
     0
  3

 72
    65
 73
     0
 40
0.0
  0
LTYPE
  5
6
100
AcDbSymbolTableRecord
100
AcDbLinetypeTableRecord
  2
BYLAYER
 70
     0
  3

 72
    65
 73
     0
 40
0.0
  0
LTYPE
  5
5
100
AcDbSymbolTableRecord
100
AcDbLinetypeTableRecord
  2
CONTINUOUS
 70
    64
  3
Solid line
 72
    65
 73
     0
 40
0.0
  0
LTYPE
  5
21
100
AcDbSymbolTableRecord
100
AcDbLinetypeTableRecord
  2
CENTER
 70
    64
  3
____ _ ____ _ ____ _ ____ _ ____ _ ____ _ ____ 
 72
    65
 73
     4
 40
2.0
 49
1.25
 74
     0
 49
-0.25
 74
     0
 49
0.25
 74
     0
 49
-0.25
 74
     0
  0
LTYPE
  5
27
100
AcDbSymbolTableRecord
100
AcDbLinetypeTableRecord
  2
DASHED
 70
    64
  3
__ __ __ __ __ __ __ __ __ __ __ __ __ __ __ __
 72
    65
 73
     2
 40
0.75
 49
0.5
 74
     0
 49
-0.25
 74
     0
  0
LTYPE
  5
58D
100
AcDbSymbolTableRecord
100
AcDbLinetypeTableRecord
  2
HIDDEN
 70
    64
  3
__ __ __ __ __ __ __ __ __ __ __ __ __ __ __ __
 72
    65
 73
     2
 40
0.375
 49
0.25
 74
     0
 49
-0.125
 74
     0
  0
ENDTAB
  0
TABLE
  2
LAYER
  5
B
100
AcDbSymbolTable
 70
     7
  0
LAYER
  5
C
100
AcDbSymbolTableRecord
100
AcDbLayerTableRecord
  2
0
 70
    64
 62
     7
  6
CONTINUOUS
  0
LAYER
  5
1C
100
AcDbSymbolTableRecord
100
AcDbLayerTableRecord
  2
L1
 70
    64
 62
     7
  6
CONTINUOUS
  0
LAYER
  5
37
100
AcDbSymbolTableRecord
100
AcDbLayerTableRecord
  2
L2
 70
    64
 62
     1
  6
HIDDEN
  0
LAYER
  5
26
100
AcDbSymbolTableRecord
100
AcDbLayerTableRecord
  2
L3
 70
    64
 62
     7
  6
DASHED
  0
LAYER
  5
20
100
AcDbSymbolTableRecord
100
AcDbLayerTableRecord
  2
L6
 70
    64
 62
     1
  6
CENTER
  0
LAYER
  5
4
100
AcDbSymbolTableRecord
100
AcDbLayerTableRecord
  2
L23
 70
    64
 62
     1
  6
CONTINUOUS
  0
ENDTAB
  0
TABLE
  2
STYLE
  5
D
100
AcDbSymbolTable
 70
     1
  0
STYLE
  5
E
100
AcDbSymbolTableRecord
100
AcDbTextStyleTableRecord
  2
STANDARD
 70
    64
 40
0.0
 41
1.0
 50
0.0
 71
     0
 42
3.5
  3
simplex.shx
  4

  0
ENDTAB
  0
TABLE
  2
VIEW
  5
11
100
AcDbSymbolTable
 70
     0
  0
ENDTAB
  0
TABLE
  2
UCS
  5
12
100
AcDbSymbolTable
 70
     0
  0
ENDTAB
  0
TABLE
  2
APPID
  5
15
100
AcDbSymbolTable
 70
     1
  0
APPID
  5
16
100
AcDbSymbolTableRecord
100
AcDbRegAppTableRecord
  2
ACAD
 70
    64
  0
ENDTAB
  0
TABLE
  2
DIMSTYLE
  5
17
100
AcDbSymbolTable
 70
     1
  0
DIMSTYLE
105
1E
100
AcDbSymbolTableRecord
100
AcDbDimStyleTableRecord
  2
ACADUS
 70
     0
  3

  4

  5

  6

  7

 40
1.0
 41
0.18
 42
0.0625
 43
0.38
 44
0.18
 45
0.0
 46
0.0
 47
0.0
 48
0.0
140
3.5
141
0.09
142
0.0
143
25.4
144
1.0
145
0.0
146
1.0
147
1.0
 71
     0
 72
     0
 73
     1
 74
     1
 75
     0
 76
     0
 77
     0
 78
     0
170
     0
171
     2
172
     0
173
     0
174
     0
175
     0
176
     0
177
     0
178
     0
270
     2
271
     1
272
     1
273
     2
274
     2
340
E
275
     0
280
     0
281
     0
282
     0
283
     1
284
     0
285
     0
286
     0
287
     5
288
     0
  0
ENDTAB
  0
TABLE
  2
BLOCK_RECORD
  5
1
100
AcDbSymbolTable
 70
     6
  0
BLOCK_RECORD
  5
2
100
AcDbSymbolTableRecord
100
AcDbBlockTableRecord
  2
*MODEL_SPACE
  0
BLOCK_RECORD
  5
8
100
AcDbSymbolTableRecord
100
AcDbBlockTableRecord
  2
*PAPER_SPACE
  0
ENDTAB
  0
ENDSEC
  0
SECTION
  2
BLOCKS
  0
BLOCK
  5
3
100
AcDbEntity
  8
L23
100
AcDbBlockBegin
  2
*MODEL_SPACE
 70
     0
 10
0.0
 20
0.0
 30
0.0
  3
*MODEL_SPACE
  1

  0
ENDBLK
  5
7
100
AcDbEntity
  8
L23
100
AcDbBlockEnd
  0
BLOCK
  5
9
100
AcDbEntity
 67
     1
  8
L23
100
AcDbBlockBegin
  2
*PAPER_SPACE
 70
     0
 10
0.0
 20
0.0
 30
0.0
  3
*PAPER_SPACE
  1

  0
ENDBLK
  5
A
100
AcDbEntity
 67
     1
  8
L23
100
AcDbBlockEnd
  0
ENDSEC
  0
SECTION
  2
ENTITIES
  0
LINE
  5
23
100
AcDbEntity
  8
L6
100
AcDbLine
 10
0.1387555722305933
 20
-153.3835393338154
 30
0.0
 11
0.1387555722305933
 21
154.0128350301038
 31
0.0
  0
LINE
  5
2E
100
AcDbEntity
  8
L6
 48
0.3
100
AcDbLine
 10
-60.86124442776941
 20
-112.5
 30
0.0
 11
-66.8612444277694
 21
-112.5
 31
0.0
  0
CIRCLE
  5
2F
100
AcDbEntity
  8
L3
100
AcDbCircle
 10
-63.86124442776941
 20
-112.5
 30
0.0
 40
6.0
  0
CIRCLE
  5
30
100
AcDbEntity
  8
L3
100
AcDbCircle
 10
-63.86124442776941
 20
-112.5
 30
0.0
 40
2.6
  0
LINE
  5
31
100
AcDbEntity
  8
L6
 48
0.3
100
AcDbLine
 10
-63.86124442776941
 20
-115.5
 30
0.0
 11
-63.86124442776941
 21
-109.4999999999999
 31
0.0
  0
LINE
  5
32
100
AcDbEntity
  8
L6
 48
0.3
100
AcDbLine
 10
64.13875557223059
 20
-115.5
 30
0.0
 11
64.13875557223059
 21
-109.4999999999999
 31
0.0
  0
LINE
  5
33
100
AcDbEntity
  8
L6
 48
0.3
100
AcDbLine
 10
61.13875557223059
 20
-112.5
 30
0.0
 11
67.13875557223059
 21
-112.5
 31
0.0
  0
CIRCLE
  5
34
100
AcDbEntity
  8
L3
100
AcDbCircle
 10
64.13875557223059
 20
-112.5
 30
0.0
 40
2.6
  0
CIRCLE
  5
35
100
AcDbEntity
  8
L3
100
AcDbCircle
 10
64.13875557223059
 20
-112.5
 30
0.0
 40
6.0
  0
ARC
  5
55
100
AcDbEntity
  8
L1
100
AcDbCircle
 10
-96.36124442776941
 20
-146.5
 30
0.0
 40
2.5
100
AcDbArc
 50
180.0
 51
270.0
  0
ARC
  5
56
100
AcDbEntity
  8
L1
100
AcDbCircle
 10
96.63875557223059
 20
-146.5
 30
0.0
 40
2.5
100
AcDbArc
 50
270.0
 51
0.0
  0
LINE
  5
57
100
AcDbEntity
  8
L1
100
AcDbLine
 10
99.13875557223059
 20
146.5
 30
0.0
 11
99.13875557223059
 21
-146.5
 31
0.0
  0
LINE
  5
59
100
AcDbEntity
  8
L1
100
AcDbLine
 10
-96.36124442776946
 20
-149.0
 30
0.0
 11
96.63875557223059
 21
-149.000000000002
 31
0.0
  0
LINE
  5
5A
100
AcDbEntity
  8
L1
100
AcDbLine
 10
-98.86124442776946
 20
-146.5
 30
0.0
 11
-98.86124442776669
 21
146.5
 31
0.0
  0
LINE
  5
7D
100
AcDbEntity
  8
L1
100
AcDbLine
 10
-82.86124442776936
 20
-4.000000000000056
 30
0.0
 11
-91.86124442776941
 21
-4.000000000000056
 31
0.0
  0
LINE
  5
7E
100
AcDbEntity
  8
L1
100
AcDbLine
 10
-29.8612444277694
 20
-4.000000000000056
 30
0.0
 11
-76.86124442776935
 21
-4.000000000000056
 31
0.0
  0
LINE
  5
81
100
AcDbEntity
  8
L1
100
AcDbLine
 10
30.13875557223059
 20
-4.000000000000056
 30
0.0
 11
77.13875557223059
 21
-4.000000000000056
 31
0.0
  0
LINE
  5
82
100
AcDbEntity
  8
L1
100
AcDbLine
 10
83.1387555722306
 20
-4.000000000000056
 30
0.0
 11
92.1387555722306
 21
-4.000000000000056
 31
0.0
  0
ARC
  5
95
100
AcDbEntity
  8
L1
100
AcDbCircle
 10
-90.8612444277694
 20
-131.0
 30
0.0
 40
1.0
100
AcDbArc
 50
90.0
 51
180.0
  0
ARC
  5
96
100
AcDbEntity
  8
L1
100
AcDbCircle
 10
-90.8612444277694
 20
-126.5
 30
0.0
 40
1.0
100
AcDbArc
 50
180.0
 51
270.0
  0
ARC
  5
97
100
AcDbEntity
  8
L1
100
AcDbCircle
 10
-80.8612444277694
 20
-140.9999999999999
 30
0.0
 40
1.0
100
AcDbArc
 50
270.0
 51
0.0
  0
ARC
  5
98
100
AcDbEntity
  8
L1
100
AcDbCircle
 10
-76.36124442776941
 20
-140.9999999999999
 30
0.0
 40
1.0
100
AcDbArc
 50
180.0
 51
270.0
  0
ARC
  5
99
100
AcDbEntity
  8
L1
100
AcDbCircle
 10
91.13875557223058
 20
-126.5
 30
0.0
 40
1.0
100
AcDbArc
 50
270.0
 51
0.0
  0
ARC
  5
9A
100
AcDbEntity
  8
L1
100
AcDbCircle
 10
91.13875557223058
 20
-131.0
 30
0.0
 40
1.0
100
AcDbArc
 50
0.0
 51
90.0
  0
ARC
  5
9B
100
AcDbEntity
  8
L1
100
AcDbCircle
 10
81.13875557223058
 20
-140.9999999999999
 30
0.0
 40
1.0
100
AcDbArc
 50
180.0
 51
270.0
  0
ARC
  5
9C
100
AcDbEntity
  8
L1
100
AcDbCircle
 10
76.63875557223059
 20
-140.9999999999999
 30
0.0
 40
1.0
100
AcDbArc
 50
270.0
 51
0.0
  0
LINE
  5
D7
100
AcDbEntity
  8
L1
100
AcDbLine
 10
-82.86124442776936
 20
-46.0
 30
0.0
 11
-91.86124442776941
 21
-46.0
 31
0.0
  0
LINE
  5
D8
100
AcDbEntity
  8
L1
100
AcDbLine
 10
-82.86124442776936
 20
-54.0
 30
0.0
 11
-91.86124442776941
 21
-54.0
 31
0.0
  0
LINE
  5
D9
100
AcDbEntity
  8
L1
100
AcDbLine
 10
6.138755572230593
 20
-70.0
 30
0.0
 11
-5.861244427769406
 21
-70.0
 31
0.0
  0
LINE
  5
DA
100
AcDbEntity
  8
L1
100
AcDbLine
 10
-5.861244427769406
 20
-70.0
 30
0.0
 11
-15.8612444277694
 21
-80.0
 31
0.0
  0
LINE
  5
DB
100
AcDbEntity
  8
L1
100
AcDbLine
 10
-29.8612444277694
 20
-4.000000000000056
 30
0.0
 11
-29.8612444277694
 21
-46.0
 31
0.0
  0
LINE
  5
DC
100
AcDbEntity
  8
L1
100
AcDbLine
 10
-29.8612444277694
 20
-54.0
 30
0.0
 11
-29.8612444277694
 21
-80.0
 31
0.0
  0
LINE
  5
DD
100
AcDbEntity
  8
L1
100
AcDbLine
 10
-15.8612444277694
 20
-80.0
 30
0.0
 11
-29.8612444277694
 21
-80.0
 31
0.0
  0
LINE
  5
DE
100
AcDbEntity
  8
L1
100
AcDbLine
 10
-29.8612444277694
 20
-46.0
 30
0.0
 11
-76.86124442776935
 21
-46.0
 31
0.0
  0
LINE
  5
DF
100
AcDbEntity
  8
L1
100
AcDbLine
 10
-29.8612444277694
 20
-54.0
 30
0.0
 11
-76.86124442776935
 21
-54.0
 31
0.0
  0
LINE
  5
E0
100
AcDbEntity
  8
L6
100
AcDbLine
 10
111.0275701411971
 20
0.0
 30
0.0
 11
-111.0275701411971
 21
0.0
 31
0.0
  0
LINE
  5
E1
100
AcDbEntity
  8
L1
100
AcDbLine
 10
83.1387555722306
 20
-54.0
 30
0.0
 11
92.1387555722306
 21
-54.0
 31
0.0
  0
LINE
  5
E2
100
AcDbEntity
  8
L1
100
AcDbLine
 10
83.1387555722306
 20
-46.0
 30
0.0
 11
92.1387555722306
 21
-46.0
 31
0.0
  0
LINE
  5
114
100
AcDbEntity
  8
L1
100
AcDbLine
 10
-80.61124442776941
 20
-10.0
 30
0.0
 11
-80.61124442776941
 21
-4.943429983321266
 31
0.0
  0
LINE
  5
115
100
AcDbEntity
  8
L1
100
AcDbLine
 10
-79.11124442776941
 20
-4.943429983321266
 30
0.0
 11
-79.11124442776941
 21
-10.0
 31
0.0
  0
LINE
  5
116
100
AcDbEntity
  8
L1
100
AcDbLine
 10
-79.11124442776941
 20
-10.0
 30
0.0
 11
-80.61124442776941
 21
-10.0
 31
0.0
  0
ARC
  5
117
100
AcDbEntity
  8
L1
100
AcDbCircle
 10
-79.8612444277694
 20
0.0
 30
0.0
 40
5.0
100
AcDbArc
 50
278.6269265586788
 51
81.37307344132134
  0
CIRCLE
  5
118
100
AcDbEntity
  8
L1
100
AcDbCircle
 10
-79.8612444277694
 20
0.0
 30
0.0
 40
2.399999999999999
  0
CIRCLE
  5
119
100
AcDbEntity
  8
L1
100
AcDbCircle
 10
-79.8612444277694
 20
0.0
 30
0.0
 40
2.1
  0
ARC
  5
11A
100
AcDbEntity
  8
L1
100
AcDbCircle
 10
-79.8612444277694
 20
0.0
 30
0.0
 40
5.0
100
AcDbArc
 50
98.62692655867864
 51
261.3730734413213
  0
LINE
  5
11B
100
AcDbEntity
  8
L6
 48
0.3
100
AcDbLine
 10
-79.8612444277694
 20
-11.0
 30
0.0
 11
-79.8612444277694
 21
12.0
 31
0.0
  0
LINE
  5
11F
100
AcDbEntity
  8
L1
100
AcDbLine
 10
79.3887555722306
 20
-10.0
 30
0.0
 11
79.3887555722306
 21
-4.943429983321266
 31
0.0
  0
LINE
  5
120
100
AcDbEntity
  8
L1
100
AcDbLine
 10
80.8887555722306
 20
-4.943429983321266
 30
0.0
 11
80.8887555722306
 21
-10.0
 31
0.0
  0
LINE
  5
121
100
AcDbEntity
  8
L1
100
AcDbLine
 10
80.8887555722306
 20
-10.0
 30
0.0
 11
79.3887555722306
 21
-10.0
 31
0.0
  0
ARC
  5
122
100
AcDbEntity
  8
L1
100
AcDbCircle
 10
80.13875557223059
 20
0.0
 30
0.0
 40
5.0
100
AcDbArc
 50
278.6269265586788
 51
81.37307344132134
  0
CIRCLE
  5
123
100
AcDbEntity
  8
L1
100
AcDbCircle
 10
80.13875557223059
 20
0.0
 30
0.0
 40
2.399999999999999
  0
CIRCLE
  5
124
100
AcDbEntity
  8
L1
100
AcDbCircle
 10
80.13875557223059
 20
0.0
 30
0.0
 40
2.1
  0
ARC
  5
125
100
AcDbEntity
  8
L1
100
AcDbCircle
 10
80.13875557223059
 20
0.0
 30
0.0
 40
5.0
100
AcDbArc
 50
98.62692655867864
 51
261.3730734413213
  0
LINE
  5
126
100
AcDbEntity
  8
L6
 48
0.3
100
AcDbLine
 10
80.13875557223059
 20
-11.0
 30
0.0
 11
80.13875557223059
 21
12.0
 31
0.0
  0
LINE
  5
129
100
AcDbEntity
  8
L1
100
AcDbLine
 10
-79.11124442776941
 20
-40.0
 30
0.0
 11
-80.61124442776941
 21
-40.0
 31
0.0
  0
LINE
  5
12A
100
AcDbEntity
  8
L1
100
AcDbLine
 10
-80.61124442776941
 20
-60.0
 30
0.0
 11
-80.61124442776941
 21
-54.94342998332126
 31
0.0
  0
LINE
  5
12B
100
AcDbEntity
  8
L1
100
AcDbLine
 10
-79.11124442776941
 20
-54.94342998332126
 30
0.0
 11
-79.11124442776941
 21
-60.0
 31
0.0
  0
LINE
  5
12C
100
AcDbEntity
  8
L1
100
AcDbLine
 10
-79.11124442776941
 20
-60.0
 30
0.0
 11
-80.61124442776941
 21
-60.0
 31
0.0
  0
ARC
  5
12D
100
AcDbEntity
  8
L1
100
AcDbCircle
 10
-79.8612444277694
 20
-50.0
 30
0.0
 40
5.0
100
AcDbArc
 50
278.6269265586788
 51
81.37307344132134
  0
LINE
  5
12E
100
AcDbEntity
  8
L6
 48
0.3
100
AcDbLine
 10
-86.86124442776941
 20
-50.0
 30
0.0
 11
-72.86124442776941
 21
-50.0
 31
0.0
  0
CIRCLE
  5
12F
100
AcDbEntity
  8
L1
100
AcDbCircle
 10
-79.8612444277694
 20
-50.0
 30
0.0
 40
2.399999999999999
  0
CIRCLE
  5
130
100
AcDbEntity
  8
L1
100
AcDbCircle
 10
-79.8612444277694
 20
-50.0
 30
0.0
 40
2.1
  0
ARC
  5
131
100
AcDbEntity
  8
L1
100
AcDbCircle
 10
-79.8612444277694
 20
-50.0
 30
0.0
 40
5.0
100
AcDbArc
 50
98.62692655867864
 51
261.3730734413213
  0
LINE
  5
132
100
AcDbEntity
  8
L6
 48
0.3
100
AcDbLine
 10
-79.8612444277694
 20
-61.0
 30
0.0
 11
-79.8612444277694
 21
-38.0
 31
0.0
  0
LINE
  5
133
100
AcDbEntity
  8
L1
100
AcDbLine
 10
-80.61124442776941
 20
-40.0
 30
0.0
 11
-80.61124442776941
 21
-45.0565700166787
 31
0.0
  0
LINE
  5
134
100
AcDbEntity
  8
L1
100
AcDbLine
 10
-79.11124442776941
 20
-45.0565700166787
 30
0.0
 11
-79.11124442776941
 21
-40.0
 31
0.0
  0
LINE
  5
135
100
AcDbEntity
  8
L1
100
AcDbLine
 10
80.8887555722306
 20
-40.0
 30
0.0
 11
79.3887555722306
 21
-40.0
 31
0.0
  0
LINE
  5
136
100
AcDbEntity
  8
L1
100
AcDbLine
 10
79.3887555722306
 20
-60.0
 30
0.0
 11
79.3887555722306
 21
-54.94342998332126
 31
0.0
  0
LINE
  5
137
100
AcDbEntity
  8
L1
100
AcDbLine
 10
80.8887555722306
 20
-54.94342998332126
 30
0.0
 11
80.8887555722306
 21
-60.0
 31
0.0
  0
LINE
  5
138
100
AcDbEntity
  8
L1
100
AcDbLine
 10
80.8887555722306
 20
-60.0
 30
0.0
 11
79.3887555722306
 21
-60.0
 31
0.0
  0
ARC
  5
139
100
AcDbEntity
  8
L1
100
AcDbCircle
 10
80.13875557223059
 20
-50.0
 30
0.0
 40
5.0
100
AcDbArc
 50
278.6269265586788
 51
81.37307344132134
  0
LINE
  5
13A
100
AcDbEntity
  8
L6
 48
0.3
100
AcDbLine
 10
73.1387555722306
 20
-50.0
 30
0.0
 11
87.1387555722306
 21
-50.0
 31
0.0
  0
CIRCLE
  5
13B
100
AcDbEntity
  8
L1
100
AcDbCircle
 10
80.13875557223059
 20
-50.0
 30
0.0
 40
2.399999999999999
  0
CIRCLE
  5
13C
100
AcDbEntity
  8
L1
100
AcDbCircle
 10
80.13875557223059
 20
-50.0
 30
0.0
 40
2.1
  0
ARC
  5
13D
100
AcDbEntity
  8
L1
100
AcDbCircle
 10
80.13875557223059
 20
-50.0
 30
0.0
 40
5.0
100
AcDbArc
 50
98.62692655867864
 51
261.3730734413213
  0
LINE
  5
13E
100
AcDbEntity
  8
L6
 48
0.3
100
AcDbLine
 10
80.13875557223059
 20
-61.0
 30
0.0
 11
80.13875557223059
 21
-38.0
 31
0.0
  0
LINE
  5
13F
100
AcDbEntity
  8
L1
100
AcDbLine
 10
79.3887555722306
 20
-40.0
 30
0.0
 11
79.3887555722306
 21
-45.0565700166787
 31
0.0
  0
LINE
  5
140
100
AcDbEntity
  8
L1
100
AcDbLine
 10
80.8887555722306
 20
-45.0565700166787
 30
0.0
 11
80.8887555722306
 21
-40.0
 31
0.0
  0
LINE
  5
141
100
AcDbEntity
  8
L1
100
AcDbLine
 10
-79.11124442776941
 20
-90.0
 30
0.0
 11
-80.61124442776941
 21
-90.0
 31
0.0
  0
LINE
  5
142
100
AcDbEntity
  8
L1
100
AcDbLine
 10
-80.61124442776941
 20
-110.0
 30
0.0
 11
-80.61124442776941
 21
-104.9434299833212
 31
0.0
  0
LINE
  5
143
100
AcDbEntity
  8
L1
100
AcDbLine
 10
-79.11124442776941
 20
-104.9434299833212
 30
0.0
 11
-79.11124442776941
 21
-110.0
 31
0.0
  0
LINE
  5
144
100
AcDbEntity
  8
L1
100
AcDbLine
 10
-79.11124442776941
 20
-110.0
 30
0.0
 11
-80.61124442776941
 21
-110.0
 31
0.0
  0
ARC
  5
145
100
AcDbEntity
  8
L1
100
AcDbCircle
 10
-79.8612444277694
 20
-100.0
 30
0.0
 40
5.0
100
AcDbArc
 50
278.6269265586788
 51
81.37307344132134
  0
LINE
  5
146
100
AcDbEntity
  8
L6
 48
0.3
100
AcDbLine
 10
-86.86124442776941
 20
-100.0
 30
0.0
 11
-72.86124442776941
 21
-100.0
 31
0.0
  0
CIRCLE
  5
147
100
AcDbEntity
  8
L1
100
AcDbCircle
 10
-79.8612444277694
 20
-100.0
 30
0.0
 40
2.399999999999999
  0
CIRCLE
  5
148
100
AcDbEntity
  8
L1
100
AcDbCircle
 10
-79.8612444277694
 20
-100.0
 30
0.0
 40
2.1
  0
ARC
  5
149
100
AcDbEntity
  8
L1
100
AcDbCircle
 10
-79.8612444277694
 20
-100.0
 30
0.0
 40
5.0
100
AcDbArc
 50
98.62692655867864
 51
261.3730734413213
  0
LINE
  5
14A
100
AcDbEntity
  8
L6
 48
0.3
100
AcDbLine
 10
-79.8612444277694
 20
-111.0
 30
0.0
 11
-79.8612444277694
 21
-88.0
 31
0.0
  0
LINE
  5
14B
100
AcDbEntity
  8
L1
100
AcDbLine
 10
-80.61124442776941
 20
-90.0
 30
0.0
 11
-80.61124442776941
 21
-95.05657001667874
 31
0.0
  0
LINE
  5
14C
100
AcDbEntity
  8
L1
100
AcDbLine
 10
-79.11124442776941
 20
-95.05657001667874
 30
0.0
 11
-79.11124442776941
 21
-90.0
 31
0.0
  0
LINE
  5
14D
100
AcDbEntity
  8
L1
100
AcDbLine
 10
80.8887555722306
 20
-90.0
 30
0.0
 11
79.3887555722306
 21
-90.0
 31
0.0
  0
CIRCLE
  5
14E
100
AcDbEntity
  8
L1
100
AcDbCircle
 10
80.13875557223059
 20
-100.0
 30
0.0
 40
2.399999999999999
  0
CIRCLE
  5
14F
100
AcDbEntity
  8
L1
100
AcDbCircle
 10
80.13875557223059
 20
-100.0
 30
0.0
 40
2.1
  0
LINE
  5
150
100
AcDbEntity
  8
L1
100
AcDbLine
 10
79.3887555722306
 20
-110.0
 30
0.0
 11
79.3887555722306
 21
-104.9434299833212
 31
0.0
  0
LINE
  5
151
100
AcDbEntity
  8
L1
100
AcDbLine
 10
80.8887555722306
 20
-104.9434299833212
 30
0.0
 11
80.8887555722306
 21
-110.0
 31
0.0
  0
LINE
  5
152
100
AcDbEntity
  8
L1
100
AcDbLine
 10
80.8887555722306
 20
-110.0
 30
0.0
 11
79.3887555722306
 21
-110.0
 31
0.0
  0
ARC
  5
153
100
AcDbEntity
  8
L1
100
AcDbCircle
 10
80.13875557223059
 20
-100.0
 30
0.0
 40
5.0
100
AcDbArc
 50
98.62692655867864
 51
261.3730734413213
  0
LINE
  5
154
100
AcDbEntity
  8
L1
100
AcDbLine
 10
79.3887555722306
 20
-90.0
 30
0.0
 11
79.3887555722306
 21
-95.05657001667874
 31
0.0
  0
LINE
  5
155
100
AcDbEntity
  8
L1
100
AcDbLine
 10
80.8887555722306
 20
-95.05657001667874
 30
0.0
 11
80.8887555722306
 21
-90.0
 31
0.0
  0
LINE
  5
156
100
AcDbEntity
  8
L6
 48
0.3
100
AcDbLine
 10
80.13875557223059
 20
-111.0
 30
0.0
 11
80.13875557223059
 21
-88.0
 31
0.0
  0
ARC
  5
157
100
AcDbEntity
  8
L1
100
AcDbCircle
 10
80.13875557223059
 20
-100.0
 30
0.0
 40
5.0
100
AcDbArc
 50
278.6269265586788
 51
81.37307344132134
  0
LINE
  5
158
100
AcDbEntity
  8
L6
 48
0.3
100
AcDbLine
 10
73.1387555722306
 20
-100.0
 30
0.0
 11
87.1387555722306
 21
-100.0
 31
0.0
  0
LINE
  5
17D
100
AcDbEntity
  8
L1
100
AcDbLine
 10
-59.8612444277694
 20
-129.2499999999999
 30
0.0
 11
-59.8612444277694
 21
-130.75
 31
0.0
  0
CIRCLE
  5
17E
100
AcDbEntity
  8
L1
100
AcDbCircle
 10
-49.8612444277694
 20
-130.0
 30
0.0
 40
2.399999999999999
  0
CIRCLE
  5
17F
100
AcDbEntity
  8
L1
100
AcDbCircle
 10
-49.8612444277694
 20
-130.0
 30
0.0
 40
2.1
  0
LINE
  5
180
100
AcDbEntity
  8
L1
100
AcDbLine
 10
-39.8612444277694
 20
-130.75
 30
0.0
 11
-44.91781444444813
 21
-130.75
 31
0.0
  0
LINE
  5
181
100
AcDbEntity
  8
L1
100
AcDbLine
 10
-44.91781444444813
 20
-129.2499999999999
 30
0.0
 11
-39.8612444277694
 21
-129.2499999999999
 31
0.0
  0
LINE
  5
182
100
AcDbEntity
  8
L1
100
AcDbLine
 10
-39.8612444277694
 20
-129.2499999999999
 30
0.0
 11
-39.8612444277694
 21
-130.75
 31
0.0
  0
ARC
  5
183
100
AcDbEntity
  8
L1
100
AcDbCircle
 10
-49.8612444277694
 20
-130.0
 30
0.0
 40
5.0
100
AcDbArc
 50
188.6269265586786
 51
351.3730734413213
  0
LINE
  5
184
100
AcDbEntity
  8
L1
100
AcDbLine
 10
-59.8612444277694
 20
-130.75
 30
0.0
 11
-54.80467441109067
 21
-130.75
 31
0.0
  0
LINE
  5
185
100
AcDbEntity
  8
L1
100
AcDbLine
 10
-54.80467441109067
 20
-129.2499999999999
 30
0.0
 11
-59.8612444277694
 21
-129.2499999999999
 31
0.0
  0
LINE
  5
186
100
AcDbEntity
  8
L6
 48
0.3
100
AcDbLine
 10
-38.86124442776941
 20
-130.0
 30
0.0
 11
-61.8612444277694
 21
-130.0
 31
0.0
  0
ARC
  5
187
100
AcDbEntity
  8
L1
100
AcDbCircle
 10
-49.8612444277694
 20
-130.0
 30
0.0
 40
5.0
100
AcDbArc
 50
8.626926558678817
 51
171.3730734413213
  0
LINE
  5
188
100
AcDbEntity
  8
L6
 48
0.3
100
AcDbLine
 10
-49.8612444277694
 20
-137.0
 30
0.0
 11
-49.8612444277694
 21
-122.9999999999999
 31
0.0
  0
LINE
  5
189
100
AcDbEntity
  8
L1
100
AcDbLine
 10
-9.861244427769406
 20
-129.2499999999999
 30
0.0
 11
-9.861244427769406
 21
-130.75
 31
0.0
  0
CIRCLE
  5
18A
100
AcDbEntity
  8
L1
100
AcDbCircle
 10
0.1387555722305933
 20
-130.0
 30
0.0
 40
2.399999999999999
  0
CIRCLE
  5
18B
100
AcDbEntity
  8
L1
100
AcDbCircle
 10
0.1387555722305933
 20
-130.0
 30
0.0
 40
2.1
  0
LINE
  5
18C
100
AcDbEntity
  8
L1
100
AcDbLine
 10
10.13875557223059
 20
-130.75
 30
0.0
 11
5.082185555551859
 21
-130.75
 31
0.0
  0
LINE
  5
18D
100
AcDbEntity
  8
L1
100
AcDbLine
 10
5.082185555551859
 20
-129.2499999999999
 30
0.0
 11
10.13875557223059
 21
-129.2499999999999
 31
0.0
  0
LINE
  5
18E
100
AcDbEntity
  8
L1
100
AcDbLine
 10
10.13875557223059
 20
-129.2499999999999
 30
0.0
 11
10.13875557223059
 21
-130.75
 31
0.0
  0
ARC
  5
18F
100
AcDbEntity
  8
L1
100
AcDbCircle
 10
0.1387555722305933
 20
-130.0
 30
0.0
 40
5.0
100
AcDbArc
 50
188.6269265586786
 51
351.3730734413213
  0
LINE
  5
190
100
AcDbEntity
  8
L1
100
AcDbLine
 10
-9.861244427769406
 20
-130.75
 30
0.0
 11
-4.804674411090672
 21
-130.75
 31
0.0
  0
LINE
  5
191
100
AcDbEntity
  8
L1
100
AcDbLine
 10
-4.804674411090672
 20
-129.2499999999999
 30
0.0
 11
-9.861244427769406
 21
-129.2499999999999
 31
0.0
  0
LINE
  5
192
100
AcDbEntity
  8
L6
 48
0.3
100
AcDbLine
 10
11.13875557223059
 20
-130.0
 30
0.0
 11
-11.8612444277694
 21
-130.0
 31
0.0
  0
ARC
  5
193
100
AcDbEntity
  8
L1
100
AcDbCircle
 10
0.1387555722305933
 20
-130.0
 30
0.0
 40
5.0
100
AcDbArc
 50
8.626926558678817
 51
171.3730734413213
  0
LINE
  5
1AA
100
AcDbEntity
  8
L1
100
AcDbLine
 10
-77.3612444277694
 20
-136.0
 30
0.0
 11
-77.3612444277694
 21
-140.9999999999999
 31
0.0
  0
LINE
  5
1AB
100
AcDbEntity
  8
L1
100
AcDbLine
 10
-87.86124442776941
 20
-130.0
 30
0.0
 11
-87.86124442776941
 21
-127.5
 31
0.0
  0
LINE
  5
1AC
100
AcDbEntity
  8
L1
100
AcDbLine
 10
-89.8612444277694
 20
-130.0
 30
0.0
 11
-89.8612444277694
 21
-127.5
 31
0.0
  0
LINE
  5
1AD
100
AcDbEntity
  8
L1
100
AcDbLine
 10
-80.8612444277694
 20
-141.9999999999999
 30
0.0
 11
-89.8612444277694
 21
-141.9999999999999
 31
0.0
  0
LINE
  5
1AE
100
AcDbEntity
  8
L1
100
AcDbLine
 10
-79.8612444277694
 20
-136.0
 30
0.0
 11
-79.8612444277694
 21
-140.9999999999999
 31
0.0
  0
ARC
  5
1AF
100
AcDbEntity
  8
L1
100
AcDbCircle
 10
-85.8612444277694
 20
-136.0
 30
0.0
 40
6.0
100
AcDbArc
 50
0.0
 51
90.0
  0
LINE
  5
1B0
100
AcDbEntity
  8
L1
100
AcDbLine
 10
-79.8612444277694
 20
-140.0
 30
0.0
 11
-77.3612444277694
 21
-140.0
 31
0.0
  0
LINE
  5
1B1
100
AcDbEntity
  8
L1
100
AcDbLine
 10
-79.8612444277694
 20
-138.0
 30
0.0
 11
-77.3612444277694
 21
-138.0
 31
0.0
  0
LINE
  5
1B2
100
AcDbEntity
  8
L1
100
AcDbLine
 10
-91.86124442776941
 20
-140.0
 30
0.0
 11
-91.86124442776941
 21
-131.0
 31
0.0
  0
ARC
  5
1B3
100
AcDbEntity
  8
L1
100
AcDbCircle
 10
-89.8612444277694
 20
-140.0
 30
0.0
 40
5.0
100
AcDbArc
 50
180.0
 51
270.0
  0
ARC
  5
1B4
100
AcDbEntity
  8
L1
100
AcDbCircle
 10
-89.8612444277694
 20
-140.0
 30
0.0
 40
2.0
100
AcDbArc
 50
180.0
 51
270.0
  0
LINE
  5
1B5
100
AcDbEntity
  8
L6
 48
0.3
100
AcDbLine
 10
-94.8612444277694
 20
-136.0
 30
0.0
 11
-76.8612444277694
 21
-136.0
 31
0.0
  0
LINE
  5
1B6
100
AcDbEntity
  8
L1
100
AcDbLine
 10
-85.8612444277694
 20
-127.5
 30
0.0
 11
-90.8612444277694
 21
-127.5
 31
0.0
  0
LINE
  5
1B7
100
AcDbEntity
  8
L1
100
AcDbLine
 10
-85.8612444277694
 20
-130.0
 30
0.0
 11
-90.8612444277694
 21
-130.0
 31
0.0
  0
ARC
  5
1B8
100
AcDbEntity
  8
L1
100
AcDbCircle
 10
-85.8612444277694
 20
-136.0
 30
0.0
 40
8.5
100
AcDbArc
 50
0.0
 51
90.0
  0
LINE
  5
1B9
100
AcDbEntity
  8
L6
 48
0.3
100
AcDbLine
 10
-85.8612444277694
 20
-145.0
 30
0.0
 11
-85.8612444277694
 21
-127.0
 31
0.0
  0
LINE
  5
1BB
100
AcDbEntity
  8
L1
100
AcDbLine
 10
-94.8612444277694
 20
-140.0
 30
0.0
 11
-94.8612444277694
 21
140.0
 31
0.0
  0
LINE
  5
1BC
100
AcDbEntity
  8
L1
100
AcDbLine
 10
-91.86124442776941
 20
-126.5
 30
0.0
 11
-91.86124442776941
 21
126.5
 31
0.0
  0
LINE
  5
1BD
100
AcDbEntity
  8
L1
100
AcDbLine
 10
90.13875557223059
 20
-145.0
 30
0.0
 11
-89.8612444277694
 21
-145.0
 31
0.0
  0
LINE
  5
1BE
100
AcDbEntity
  8
L1
100
AcDbLine
 10
76.63875557223059
 20
-141.9999999999999
 30
0.0
 11
-76.36124442776941
 21
-141.9999999999999
 31
0.0
  0
LINE
  5
1BF
100
AcDbEntity
  8
L6
 48
0.3
100
AcDbLine
 10
50.13875557223059
 20
-137.0
 30
0.0
 11
50.13875557223059
 21
-122.9999999999999
 31
0.0
  0
LINE
  5
1C0
100
AcDbEntity
  8
L6
 48
0.3
100
AcDbLine
 10
61.13875557223059
 20
-130.0
 30
0.0
 11
38.13875557223059
 21
-130.0
 31
0.0
  0
ARC
  5
1C1
100
AcDbEntity
  8
L1
100
AcDbCircle
 10
50.13875557223059
 20
-130.0
 30
0.0
 40
5.0
100
AcDbArc
 50
8.626926558678817
 51
171.3730734413213
  0
LINE
  5
1C2
100
AcDbEntity
  8
L1
100
AcDbLine
 10
60.13875557223059
 20
-129.2499999999999
 30
0.0
 11
60.13875557223059
 21
-130.75
 31
0.0
  0
LINE
  5
1C3
100
AcDbEntity
  8
L1
100
AcDbLine
 10
55.08218555555186
 20
-129.2499999999999
 30
0.0
 11
60.13875557223059
 21
-129.2499999999999
 31
0.0
  0
LINE
  5
1C4
100
AcDbEntity
  8
L1
100
AcDbLine
 10
60.13875557223059
 20
-130.75
 30
0.0
 11
55.08218555555186
 21
-130.75
 31
0.0
  0
LINE
  5
1C5
100
AcDbEntity
  8
L1
100
AcDbLine
 10
40.13875557223059
 20
-130.75
 30
0.0
 11
45.19532558890932
 21
-130.75
 31
0.0
  0
LINE
  5
1C6
100
AcDbEntity
  8
L1
100
AcDbLine
 10
40.13875557223059
 20
-129.2499999999999
 30
0.0
 11
40.13875557223059
 21
-130.75
 31
0.0
  0
LINE
  5
1C7
100
AcDbEntity
  8
L1
100
AcDbLine
 10
45.19532558890932
 20
-129.2499999999999
 30
0.0
 11
40.13875557223059
 21
-129.2499999999999
 31
0.0
  0
CIRCLE
  5
1C8
100
AcDbEntity
  8
L1
100
AcDbCircle
 10
50.13875557223059
 20
-130.0
 30
0.0
 40
2.1
  0
CIRCLE
  5
1C9
100
AcDbEntity
  8
L1
100
AcDbCircle
 10
50.13875557223059
 20
-130.0
 30
0.0
 40
2.399999999999999
  0
ARC
  5
1CA
100
AcDbEntity
  8
L1
100
AcDbCircle
 10
50.13875557223059
 20
-130.0
 30
0.0
 40
5.0
100
AcDbArc
 50
188.6269265586786
 51
351.3730734413213
  0
LINE
  5
1CB
100
AcDbEntity
  8
L1
100
AcDbLine
 10
30.13875557223059
 20
-54.0
 30
0.0
 11
30.13875557223059
 21
-80.0
 31
0.0
  0
LINE
  5
1CC
100
AcDbEntity
  8
L1
100
AcDbLine
 10
30.13875557223059
 20
-54.0
 30
0.0
 11
77.13875557223059
 21
-54.0
 31
0.0
  0
LINE
  5
1CD
100
AcDbEntity
  8
L1
100
AcDbLine
 10
30.13875557223059
 20
-46.0
 30
0.0
 11
77.13875557223059
 21
-46.0
 31
0.0
  0
LINE
  5
1CE
100
AcDbEntity
  8
L1
100
AcDbLine
 10
30.13875557223059
 20
-4.000000000000056
 30
0.0
 11
30.13875557223059
 21
-46.0
 31
0.0
  0
LINE
  5
1CF
100
AcDbEntity
  8
L1
100
AcDbLine
 10
16.13875557223059
 20
-80.0
 30
0.0
 11
30.13875557223059
 21
-80.0
 31
0.0
  0
LINE
  5
1D0
100
AcDbEntity
  8
L1
100
AcDbLine
 10
6.138755572230593
 20
-70.0
 30
0.0
 11
16.13875557223059
 21
-80.0
 31
0.0
  0
LINE
  5
1D1
100
AcDbEntity
  8
L6
 48
0.3
100
AcDbLine
 10
95.13875557223059
 20
-136.0
 30
0.0
 11
77.13875557223059
 21
-136.0
 31
0.0
  0
LINE
  5
1D2
100
AcDbEntity
  8
L6
 48
0.3
100
AcDbLine
 10
86.13875557223058
 20
-145.0
 30
0.0
 11
86.13875557223058
 21
-127.0
 31
0.0
  0
LINE
  5
1D3
100
AcDbEntity
  8
L1
100
AcDbLine
 10
88.1387555722306
 20
-130.0
 30
0.0
 11
88.1387555722306
 21
-127.5
 31
0.0
  0
LINE
  5
1D4
100
AcDbEntity
  8
L1
100
AcDbLine
 10
90.13875557223059
 20
-130.0
 30
0.0
 11
90.13875557223059
 21
-127.5
 31
0.0
  0
LINE
  5
1D5
100
AcDbEntity
  8
L1
100
AcDbLine
 10
80.13875557223059
 20
-138.0
 30
0.0
 11
77.63875557223059
 21
-138.0
 31
0.0
  0
LINE
  5
1D6
100
AcDbEntity
  8
L1
100
AcDbLine
 10
80.13875557223059
 20
-140.0
 30
0.0
 11
77.63875557223059
 21
-140.0
 31
0.0
  0
LINE
  5
1D7
100
AcDbEntity
  8
L1
100
AcDbLine
 10
81.13875557223058
 20
-141.9999999999999
 30
0.0
 11
90.13875557223059
 21
-141.9999999999999
 31
0.0
  0
LINE
  5
1D8
100
AcDbEntity
  8
L1
100
AcDbLine
 10
92.1387555722306
 20
-126.5
 30
0.0
 11
92.1387555722306
 21
126.5
 31
0.0
  0
ARC
  5
1D9
100
AcDbEntity
  8
L1
100
AcDbCircle
 10
86.13875557223058
 20
-136.0
 30
0.0
 40
8.5
100
AcDbArc
 50
90.0
 51
180.0
  0
LINE
  5
1DA
100
AcDbEntity
  8
L1
100
AcDbLine
 10
86.13875557223058
 20
-127.5
 30
0.0
 11
91.13875557223058
 21
-127.5
 31
0.0
  0
LINE
  5
1DB
100
AcDbEntity
  8
L1
100
AcDbLine
 10
86.13875557223058
 20
-130.0
 30
0.0
 11
91.13875557223058
 21
-130.0
 31
0.0
  0
LINE
  5
1DC
100
AcDbEntity
  8
L1
100
AcDbLine
 10
80.13875557223059
 20
-136.0
 30
0.0
 11
80.13875557223059
 21
-140.9999999999999
 31
0.0
  0
LINE
  5
1DD
100
AcDbEntity
  8
L1
100
AcDbLine
 10
77.63875557223059
 20
-136.0
 30
0.0
 11
77.63875557223059
 21
-140.9999999999999
 31
0.0
  0
ARC
  5
1DE
100
AcDbEntity
  8
L1
100
AcDbCircle
 10
86.13875557223058
 20
-136.0
 30
0.0
 40
6.0
100
AcDbArc
 50
90.0
 51
180.0
  0
ARC
  5
1DF
100
AcDbEntity
  8
L1
100
AcDbCircle
 10
90.13875557223059
 20
-140.0
 30
0.0
 40
2.0
100
AcDbArc
 50
270.0
 51
0.0
  0
ARC
  5
1E0
100
AcDbEntity
  8
L1
100
AcDbCircle
 10
90.13875557223059
 20
-140.0
 30
0.0
 40
5.0
100
AcDbArc
 50
270.0
 51
0.0
  0
LINE
  5
1E2
100
AcDbEntity
  8
L1
100
AcDbLine
 10
95.13875557223059
 20
-140.0
 30
0.0
 11
95.13875557223059
 21
140.0
 31
0.0
  0
LINE
  5
1E3
100
AcDbEntity
  8
L1
100
AcDbLine
 10
92.1387555722306
 20
-140.0
 30
0.0
 11
92.1387555722306
 21
-131.0
 31
0.0
  0
LINE
  5
221
100
AcDbEntity
  8
L6
100
AcDbLine
 10
-420.8467238774278
 20
0.0
 30
0.0
 11
-629.5252934387981
 21
0.0
 31
0.0
  0
LINE
  5
223
100
AcDbEntity
  8
L6
 48
0.3
100
AcDbLine
 10
-430.2483774574762
 20
136.0
 30
0.0
 11
-448.2483774574761
 21
136.0
 31
0.0
  0
ARC
  5
231
100
AcDbEntity
  8
L1
100
AcDbCircle
 10
-430.2483774574762
 20
145.0
 30
0.0
 40
2.5
100
AcDbArc
 50
64.89590974977128
 51
90.0
  0
ARC
  5
232
100
AcDbEntity
  8
L1
100
AcDbCircle
 10
-430.248377457476
 20
145.0
 30
0.0
 40
2.5
100
AcDbArc
 50
0.0
 51
25.1040902502147
  0
LINE
  5
233
100
AcDbEntity
  8
L1
100
AcDbLine
 10
-427.9845311729417
 20
146.0606601717798
 30
0.0
 11
-428.1877172856962
 21
146.0606601717798
 31
0.0
  0
LINE
  5
234
100
AcDbEntity
  8
L1
100
AcDbLine
 10
-429.1877172856962
 20
147.2638462845343
 30
0.0
 11
-429.1877172856962
 21
147.0606601717799
 31
0.0
  0
ARC
  5
235
100
AcDbEntity
  8
L1
100
AcDbCircle
 10
-428.1877172856962
 20
147.0606601717798
 30
0.0
 40
1.0
100
AcDbArc
 50
179.9999999999972
 51
270.0000000000026
  0
ARC
  5
236
100
AcDbEntity
  8
L1
100
AcDbCircle
 10
-622.3090376292561
 20
147.0606601717798
 30
0.0
 40
1.0
100
AcDbArc
 50
269.9999999999973
 51
0.0000000000027098
  0
ARC
  5
237
100
AcDbEntity
  8
L1
100
AcDbCircle
 10
-620.2483774574763
 20
145.0
 30
0.0
 40
2.5
100
AcDbArc
 50
154.8959097497817
 51
180.0
  0
LINE
  5
238
100
AcDbEntity
  8
L1
100
AcDbLine
 10
-621.3090376292561
 20
147.2638462845343
 30
0.0
 11
-621.3090376292561
 21
147.0606601717799
 31
0.0
  0
LINE
  5
239
100
AcDbEntity
  8
L1
100
AcDbLine
 10
-622.5122237420106
 20
146.0606601717798
 30
0.0
 11
-622.3090376292561
 21
146.0606601717798
 31
0.0
  0
LINE
  5
254
100
AcDbEntity
  8
L1
100
AcDbLine
 10
-622.7483774574761
 20
132.4999999999999
 30
0.0
 11
-620.6767180927711
 21
130.428340635295
 31
0.0
  0
LINE
  5
255
100
AcDbEntity
  8
L1
100
AcDbLine
 10
-427.7483774574761
 20
132.5
 30
0.0
 11
-429.8200368221813
 21
130.4283406352949
 31
0.0
  0
LINE
  5
256
100
AcDbEntity
  8
L1
100
AcDbLine
 10
-442.7483774574762
 20
147.5
 30
0.0
 11
-444.8200368221813
 21
145.4283406352948
 31
0.0
  0
LINE
  5
257
100
AcDbEntity
  8
L1
100
AcDbLine
 10
-607.7483774574763
 20
147.5
 30
0.0
 11
-605.6767180927711
 21
145.4283406352949
 31
0.0
  0
ARC
  5
258
100
AcDbEntity
  8
L1
100
AcDbCircle
 10
-428.7483774574761
 20
146.5
 30
0.0
 40
2.5
100
AcDbArc
 50
0.0
 51
90.0
  0
ARC
  5
259
100
AcDbEntity
  8
L1
100
AcDbCircle
 10
-621.7483774574762
 20
146.5
 30
0.0
 40
2.5
100
AcDbArc
 50
90.00000000000046
 51
180.0
  0
LINE
  5
25A
100
AcDbEntity
  8
L1
100
AcDbLine
 10
-525.2483774574762
 20
148.9999999999999
 30
0.0
 11
-428.7483774574761
 21
149.0
 31
0.0
  0
LINE
  5
25B
100
AcDbEntity
  8
L1
100
AcDbLine
 10
-621.7483774574762
 20
149.0
 30
0.0
 11
-525.2483774574762
 21
149.000000000001
 31
0.0
  0
LINE
  5
25C
100
AcDbEntity
  8
L1
100
AcDbLine
 10
-426.2483774574762
 20
-146.5
 30
0.0
 11
-426.2483774574762
 21
146.5
 31
0.0
  0
LINE
  5
25D
100
AcDbEntity
  8
L1
100
AcDbLine
 10
-624.2483774574761
 20
146.5
 30
0.0
 11
-624.2483774574735
 21
-146.5
 31
0.0
  0
ARC
  5
25E
100
AcDbEntity
  8
L1
100
AcDbCircle
 10
-620.2483774574763
 20
145.0
 30
0.0
 40
2.5
100
AcDbArc
 50
90.00000000000035
 51
115.1040902502246
  0
LINE
  5
25F
100
AcDbEntity
  8
L1
100
AcDbLine
 10
-444.8200368221814
 20
145.4283406352948
 30
0.0
 11
-525.2483774574762
 21
145.4283406352949
 31
0.0
  0
LINE
  5
260
100
AcDbEntity
  8
L1
100
AcDbLine
 10
-430.2483774574762
 20
147.5
 30
0.0
 11
-442.7483774574763
 21
147.5
 31
0.0
  0
LINE
  5
261
100
AcDbEntity
  8
L1
100
AcDbLine
 10
-620.2483774574763
 20
147.5
 30
0.0
 11
-607.7483774574763
 21
147.5
 31
0.0
  0
LINE
  5
262
100
AcDbEntity
  8
L1
100
AcDbLine
 10
-605.6767180927709
 20
145.4283406352949
 30
0.0
 11
-525.2483774574762
 21
145.4283406352956
 31
0.0
  0
LINE
  5
263
100
AcDbEntity
  8
L1
100
AcDbLine
 10
-427.7483774574761
 20
145.0
 30
0.0
 11
-427.7483774574762
 21
132.5
 31
0.0
  0
LINE
  5
264
100
AcDbEntity
  8
L1
100
AcDbLine
 10
-429.8200368221813
 20
130.4283406352949
 30
0.0
 11
-429.8200368221801
 21
-130.4283406352961
 31
0.0
  0
LINE
  5
265
100
AcDbEntity
  8
L1
100
AcDbLine
 10
-620.6767180927711
 20
130.4283406352949
 30
0.0
 11
-620.676718092771
 21
-130.4283406352949
 31
0.0
  0
LINE
  5
266
100
AcDbEntity
  8
L1
100
AcDbLine
 10
-622.7483774574762
 20
145.0
 30
0.0
 11
-622.7483774574761
 21
132.4999999999999
 31
0.0
  0
LINE
  5
267
100
AcDbEntity
  8
L1
100
AcDbLine
 10
-521.248377457476
 20
143.9999999999999
 30
0.0
 11
-525.2483774574762
 21
143.9999999999999
 31
0.0
  0
LINE
  5
268
100
AcDbEntity
  8
L6
 48
0.3
100
AcDbLine
 10
-520.2483774574761
 20
130.0
 30
0.0
 11
-530.2483774574762
 21
130.0
 31
0.0
  0
LINE
  5
269
100
AcDbEntity
  8
L1
100
AcDbLine
 10
-521.2483774574762
 20
132.3711811402759
 30
0.0
 11
-521.2483774574762
 21
143.9999999999999
 31
0.0
  0
ARC
  5
26A
100
AcDbEntity
  8
L1
100
AcDbCircle
 10
-525.2483774574762
 20
130.0
 30
0.0
 40
4.65
100
AcDbArc
 50
270.0
 51
90.0
  0
ARC
  5
26B
100
AcDbEntity
  8
L1
100
AcDbCircle
 10
-525.2483774574762
 20
130.0
 30
0.0
 40
3.5
100
AcDbArc
 50
270.0
 51
90.0
  0
LINE
  5
26C
100
AcDbEntity
  8
L1
100
AcDbLine
 10
-521.2483774574762
 20
79.99999999999994
 30
0.0
 11
-495.2483774574761
 21
79.99999999999994
 31
0.0
  0
LINE
  5
26D
100
AcDbEntity
  8
L1
100
AcDbLine
 10
-521.248377457476
 20
79.99999999999989
 30
0.0
 11
-521.2483774574762
 21
127.6288188597241
 31
0.0
  0
LINE
  5
26E
100
AcDbEntity
  8
L6
 48
0.3
100
AcDbLine
 10
-470.2483774574761
 20
130.0
 30
0.0
 11
-480.2483774574762
 21
130.0
 31
0.0
  0
LINE
  5
26F
100
AcDbEntity
  8
L1
100
AcDbLine
 10
-452.2483774574761
 20
141.9999999999999
 30
0.0
 11
-454.7483774574762
 21
141.9999999999999
 31
0.0
  0
LINE
  5
270
100
AcDbEntity
  8
L1
100
AcDbLine
 10
-452.2483774574761
 20
141.9999999999999
 30
0.0
 11
-452.2483774574762
 21
130.6152236891498
 31
0.0
  0
LINE
  5
271
100
AcDbEntity
  8
L1
100
AcDbLine
 10
-454.7483774574762
 20
141.9999999999999
 30
0.0
 11
-454.7483774574763
 21
129.5796897832171
 31
0.0
  0
LINE
  5
272
100
AcDbEntity
  8
L6
 48
0.3
100
AcDbLine
 10
-475.2483774574762
 20
125.0
 30
0.0
 11
-475.2483774574762
 21
135.0
 31
0.0
  0
CIRCLE
  5
273
100
AcDbEntity
  8
L1
100
AcDbCircle
 10
-475.2483774574762
 20
130.0
 30
0.0
 40
3.5
  0
CIRCLE
  5
274
100
AcDbEntity
  8
L1
100
AcDbCircle
 10
-475.2483774574762
 20
130.0
 30
0.0
 40
4.65
  0
CIRCLE
  5
275
100
AcDbEntity
  8
L1
100
AcDbCircle
 10
-439.2483774574762
 20
136.0
 30
0.0
 40
3.45
  0
CIRCLE
  5
276
100
AcDbEntity
  8
L1
100
AcDbCircle
 10
-439.2483774574762
 20
136.0
 30
0.0
 40
5.45
  0
LINE
  5
278
100
AcDbEntity
  8
L1
100
AcDbLine
 10
-433.2483774574761
 20
122.9999999999999
 30
0.0
 11
-433.2483774574761
 21
120.5
 31
0.0
  0
LINE
  5
279
100
AcDbEntity
  8
L1
100
AcDbLine
 10
-433.2483774574761
 20
122.9999999999999
 30
0.0
 11
-444.6331537683263
 21
122.9999999999999
 31
0.0
  0
LINE
  5
27A
100
AcDbEntity
  8
L1
100
AcDbLine
 10
-433.2483774574761
 20
120.5
 30
0.0
 11
-445.668687674259
 21
120.5
 31
0.0
  0
LINE
  5
27B
100
AcDbEntity
  8
L6
 48
0.3
100
AcDbLine
 10
-439.2483774574762
 20
145.0
 30
0.0
 11
-439.2483774574762
 21
127.0
 31
0.0
  0
LINE
  5
27C
100
AcDbEntity
  8
L1
100
AcDbLine
 10
-444.6331537683263
 20
122.9999999999999
 30
0.0
 11
-452.2483774574762
 21
130.6152236891498
 31
0.0
  0
LINE
  5
27D
100
AcDbEntity
  8
L1
100
AcDbLine
 10
-445.668687674259
 20
120.5
 30
0.0
 11
-454.7483774574763
 21
129.5796897832171
 31
0.0
  0
LINE
  5
27E
100
AcDbEntity
  8
L6
 48
0.3
100
AcDbLine
 10
-445.2483774574761
 20
95.0
 30
0.0
 11
-445.2483774574761
 21
105.0
 31
0.0
  0
CIRCLE
  5
27F
100
AcDbEntity
  8
L1
100
AcDbCircle
 10
-445.2483774574761
 20
100.0
 30
0.0
 40
3.5
  0
CIRCLE
  5
280
100
AcDbEntity
  8
L1
100
AcDbCircle
 10
-445.2483774574761
 20
100.0
 30
0.0
 40
4.65
  0
LINE
  5
281
100
AcDbEntity
  8
L6
 48
0.3
100
AcDbLine
 10
-438.2483774574762
 20
100.0
 30
0.0
 11
-452.2483774574761
 21
100.0
 31
0.0
  0
LINE
  5
282
100
AcDbEntity
  8
L1
100
AcDbLine
 10
-495.2483774574761
 20
3.999999999999943
 30
0.0
 11
-495.2483774574761
 21
45.99999999999994
 31
0.0
  0
CIRCLE
  5
289
100
AcDbEntity
  8
L1
100
AcDbCircle
 10
-445.2483774574761
 20
50.0
 30
0.0
 40
3.5
  0
LINE
  5
28A
100
AcDbEntity
  8
L6
 48
0.3
100
AcDbLine
 10
-445.2483774574761
 20
45.0
 30
0.0
 11
-445.2483774574761
 21
55.0
 31
0.0
  0
LINE
  5
28B
100
AcDbEntity
  8
L1
100
AcDbLine
 10
-431.2483774574761
 20
45.99999999999994
 30
0.0
 11
-431.2483774574761
 21
53.99999999999995
 31
0.0
  0
LINE
  5
28C
100
AcDbEntity
  8
L1
100
AcDbLine
 10
-442.8771963172003
 20
45.99999999999994
 30
0.0
 11
-431.2483774574761
 21
45.99999999999994
 31
0.0
  0
LINE
  5
28D
100
AcDbEntity
  8
L1
100
AcDbLine
 10
-431.2483774574761
 20
53.99999999999995
 30
0.0
 11
-442.8771963172001
 21
53.99999999999995
 31
0.0
  0
CIRCLE
  5
28E
100
AcDbEntity
  8
L1
100
AcDbCircle
 10
-445.2483774574761
 20
50.0
 30
0.0
 40
4.65
  0
LINE
  5
28F
100
AcDbEntity
  8
L6
 48
0.3
100
AcDbLine
 10
-438.2483774574762
 20
50.0
 30
0.0
 11
-452.2483774574761
 21
50.0
 31
0.0
  0
CIRCLE
  5
290
100
AcDbEntity
  8
L1
100
AcDbCircle
 10
-445.2483774574761
 20
0.0
 30
0.0
 40
3.5
  0
LINE
  5
291
100
AcDbEntity
  8
L6
 48
0.3
100
AcDbLine
 10
-445.2483774574761
 20
-5.0
 30
0.0
 11
-445.2483774574761
 21
5.0
 31
0.0
  0
LINE
  5
292
100
AcDbEntity
  8
L1
100
AcDbLine
 10
-431.2483774574761
 20
-4.000000000000056
 30
0.0
 11
-431.2483774574761
 21
3.999999999999943
 31
0.0
  0
LINE
  5
294
100
AcDbEntity
  8
L1
100
AcDbLine
 10
-431.2483774574761
 20
3.999999999999943
 30
0.0
 11
-442.8771963172001
 21
3.999999999999943
 31
0.0
  0
CIRCLE
  5
295
100
AcDbEntity
  8
L1
100
AcDbCircle
 10
-445.2483774574761
 20
0.0
 30
0.0
 40
4.65
  0
LINE
  5
2AA
100
AcDbEntity
  8
L1
100
AcDbLine
 10
-447.6195585977522
 20
3.999999999999943
 30
0.0
 11
-495.2483774574761
 21
3.999999999999943
 31
0.0
  0
LINE
  5
2AE
100
AcDbEntity
  8
L1
100
AcDbLine
 10
-447.6195585977522
 20
53.99999999999995
 30
0.0
 11
-495.2483774574761
 21
53.99999999999995
 31
0.0
  0
LINE
  5
2AF
100
AcDbEntity
  8
L1
100
AcDbLine
 10
-495.2483774574761
 20
45.99999999999994
 30
0.0
 11
-447.6195585977519
 21
45.99999999999994
 31
0.0
  0
LINE
  5
2BC
100
AcDbEntity
  8
L1
100
AcDbLine
 10
-495.2483774574761
 20
53.99999999999995
 30
0.0
 11
-495.2483774574761
 21
79.99999999999994
 31
0.0
  0
LINE
  5
2BD
100
AcDbEntity
  8
L1
100
AcDbLine
 10
-529.2483774574763
 20
143.9999999999999
 30
0.0
 11
-525.2483774574762
 21
143.9999999999999
 31
0.0
  0
LINE
  5
2BE
100
AcDbEntity
  8
L1
100
AcDbLine
 10
-529.2483774574761
 20
132.3711811402759
 30
0.0
 11
-529.2483774574761
 21
143.9999999999999
 31
0.0
  0
LINE
  5
2BF
100
AcDbEntity
  8
L1
100
AcDbLine
 10
-529.2483774574763
 20
79.99999999999989
 30
0.0
 11
-529.2483774574761
 21
127.6288188597241
 31
0.0
  0
LINE
  5
2C3
100
AcDbEntity
  8
L1
100
AcDbLine
 10
-605.863601146626
 20
122.9999999999999
 30
0.0
 11
-598.248377457476
 21
130.6152236891498
 31
0.0
  0
LINE
  5
2C4
100
AcDbEntity
  8
L1
100
AcDbLine
 10
-604.8280672406933
 20
120.5
 30
0.0
 11
-595.748377457476
 21
129.5796897832171
 31
0.0
  0
LINE
  5
2C5
100
AcDbEntity
  8
L1
100
AcDbLine
 10
-598.2483774574761
 20
141.9999999999999
 30
0.0
 11
-595.7483774574761
 21
141.9999999999999
 31
0.0
  0
LINE
  5
2C6
100
AcDbEntity
  8
L1
100
AcDbLine
 10
-598.2483774574761
 20
141.9999999999999
 30
0.0
 11
-598.248377457476
 21
130.6152236891498
 31
0.0
  0
LINE
  5
2C7
100
AcDbEntity
  8
L1
100
AcDbLine
 10
-595.7483774574761
 20
141.9999999999999
 30
0.0
 11
-595.748377457476
 21
129.5796897832171
 31
0.0
  0
LINE
  5
2C8
100
AcDbEntity
  8
L1
100
AcDbLine
 10
-617.2483774574762
 20
122.9999999999999
 30
0.0
 11
-617.2483774574762
 21
120.5
 31
0.0
  0
LINE
  5
2C9
100
AcDbEntity
  8
L1
100
AcDbLine
 10
-617.2483774574762
 20
122.9999999999999
 30
0.0
 11
-605.863601146626
 21
122.9999999999999
 31
0.0
  0
LINE
  5
2CA
100
AcDbEntity
  8
L1
100
AcDbLine
 10
-617.2483774574762
 20
120.5
 30
0.0
 11
-604.8280672406933
 21
120.5
 31
0.0
  0
CIRCLE
  5
2CB
100
AcDbEntity
  8
L1
100
AcDbCircle
 10
-611.2483774574761
 20
136.0
 30
0.0
 40
5.45
  0
CIRCLE
  5
2CC
100
AcDbEntity
  8
L1
100
AcDbCircle
 10
-611.2483774574761
 20
136.0
 30
0.0
 40
3.45
  0
LINE
  5
2D8
100
AcDbEntity
  8
L1
100
AcDbLine
 10
-619.2483774574761
 20
-4.000000000000056
 30
0.0
 11
-619.2483774574761
 21
3.999999999999943
 31
0.0
  0
LINE
  5
2DA
100
AcDbEntity
  8
L1
100
AcDbLine
 10
-619.2483774574761
 20
3.999999999999943
 30
0.0
 11
-607.6195585977521
 21
3.999999999999943
 31
0.0
  0
LINE
  5
2DB
100
AcDbEntity
  8
L1
100
AcDbLine
 10
-602.8771963172001
 20
3.999999999999943
 30
0.0
 11
-555.2483774574762
 21
3.999999999999943
 31
0.0
  0
LINE
  5
2DF
100
AcDbEntity
  8
L1
100
AcDbLine
 10
-607.619558597752
 20
45.99999999999994
 30
0.0
 11
-619.2483774574761
 21
45.99999999999994
 31
0.0
  0
LINE
  5
2E0
100
AcDbEntity
  8
L1
100
AcDbLine
 10
-602.8771963172001
 20
53.99999999999995
 30
0.0
 11
-555.2483774574762
 21
53.99999999999995
 31
0.0
  0
CIRCLE
  5
2E9
100
AcDbEntity
  8
L1
100
AcDbCircle
 10
-605.2483774574762
 20
0.0
 30
0.0
 40
4.65
  0
LINE
  5
2EA
100
AcDbEntity
  8
L6
 48
0.3
100
AcDbLine
 10
-605.2483774574762
 20
-5.0
 30
0.0
 11
-605.2483774574762
 21
5.0
 31
0.0
  0
CIRCLE
  5
2EB
100
AcDbEntity
  8
L1
100
AcDbCircle
 10
-605.2483774574762
 20
0.0
 30
0.0
 40
3.5
  0
CIRCLE
  5
2ED
100
AcDbEntity
  8
L1
100
AcDbCircle
 10
-605.2483774574762
 20
50.0
 30
0.0
 40
4.65
  0
LINE
  5
2EE
100
AcDbEntity
  8
L6
 48
0.3
100
AcDbLine
 10
-605.2483774574762
 20
45.0
 30
0.0
 11
-605.2483774574762
 21
55.0
 31
0.0
  0
CIRCLE
  5
2EF
100
AcDbEntity
  8
L1
100
AcDbCircle
 10
-605.2483774574762
 20
50.0
 30
0.0
 40
3.5
  0
LINE
  5
2F0
100
AcDbEntity
  8
L6
 48
0.3
100
AcDbLine
 10
-612.2483774574761
 20
50.0
 30
0.0
 11
-598.2483774574761
 21
50.0
 31
0.0
  0
ARC
  5
2F2
100
AcDbEntity
  8
L1
100
AcDbCircle
 10
-525.2483774574762
 20
130.0
 30
0.0
 40
3.5
100
AcDbArc
 50
90.0
 51
270.0
  0
ARC
  5
2F3
100
AcDbEntity
  8
L1
100
AcDbCircle
 10
-525.2483774574762
 20
130.0
 30
0.0
 40
4.65
100
AcDbArc
 50
90.0
 51
270.0
  0
LINE
  5
2F4
100
AcDbEntity
  8
L6
 48
0.3
100
AcDbLine
 10
-530.2483774574762
 20
130.0
 30
0.0
 11
-520.2483774574761
 21
130.0
 31
0.0
  0
LINE
  5
2F9
100
AcDbEntity
  8
L6
 48
0.3
100
AcDbLine
 10
-575.2483774574762
 20
125.0
 30
0.0
 11
-575.2483774574762
 21
135.0
 31
0.0
  0
CIRCLE
  5
2FA
100
AcDbEntity
  8
L1
100
AcDbCircle
 10
-575.2483774574762
 20
130.0
 30
0.0
 40
3.5
  0
CIRCLE
  5
2FB
100
AcDbEntity
  8
L1
100
AcDbCircle
 10
-575.2483774574762
 20
130.0
 30
0.0
 40
4.65
  0
LINE
  5
2FC
100
AcDbEntity
  8
L6
 48
0.3
100
AcDbLine
 10
-580.2483774574762
 20
130.0
 30
0.0
 11
-570.2483774574761
 21
130.0
 31
0.0
  0
LINE
  5
2FD
100
AcDbEntity
  8
L6
 48
0.3
100
AcDbLine
 10
-605.2483774574762
 20
95.0
 30
0.0
 11
-605.2483774574762
 21
105.0
 31
0.0
  0
CIRCLE
  5
300
100
AcDbEntity
  8
L1
100
AcDbCircle
 10
-605.2483774574762
 20
100.0
 30
0.0
 40
4.65
  0
CIRCLE
  5
302
100
AcDbEntity
  8
L1
100
AcDbCircle
 10
-605.2483774574762
 20
100.0
 30
0.0
 40
3.5
  0
LINE
  5
304
100
AcDbEntity
  8
L1
100
AcDbLine
 10
-619.2483774574761
 20
45.99999999999994
 30
0.0
 11
-619.2483774574761
 21
53.99999999999995
 31
0.0
  0
LINE
  5
307
100
AcDbEntity
  8
L6
100
AcDbLine
 10
-525.2483774574762
 20
-151.5552735135179
 30
0.0
 11
-525.2483774574762
 21
151.3740873909246
 31
0.0
  0
LINE
  5
308
100
AcDbEntity
  8
L1
100
AcDbLine
 10
-529.2483774574761
 20
79.99999999999994
 30
0.0
 11
-555.2483774574762
 21
79.99999999999994
 31
0.0
  0
LINE
  5
309
100
AcDbEntity
  8
L1
100
AcDbLine
 10
-555.2483774574762
 20
3.999999999999943
 30
0.0
 11
-555.2483774574762
 21
45.99999999999994
 31
0.0
  0
LINE
  5
30A
100
AcDbEntity
  8
L1
100
AcDbLine
 10
-555.2483774574762
 20
53.99999999999995
 30
0.0
 11
-555.2483774574762
 21
79.99999999999994
 31
0.0
  0
LINE
  5
30B
100
AcDbEntity
  8
L6
 48
0.3
100
AcDbLine
 10
-611.2483774574761
 20
145.0
 30
0.0
 11
-611.2483774574761
 21
127.0
 31
0.0
  0
LINE
  5
30C
100
AcDbEntity
  8
L6
 48
0.3
100
AcDbLine
 10
-620.2483774574761
 20
136.0
 30
0.0
 11
-602.2483774574761
 21
136.0
 31
0.0
  0
LINE
  5
30D
100
AcDbEntity
  8
L6
 48
0.3
100
AcDbLine
 10
-612.2483774574761
 20
100.0
 30
0.0
 11
-598.2483774574761
 21
100.0
 31
0.0
  0
LINE
  5
30E
100
AcDbEntity
  8
L1
100
AcDbLine
 10
-619.2483774574761
 20
53.99999999999995
 30
0.0
 11
-607.6195585977521
 21
53.99999999999995
 31
0.0
  0
LINE
  5
30F
100
AcDbEntity
  8
L1
100
AcDbLine
 10
-555.2483774574762
 20
45.99999999999994
 30
0.0
 11
-602.8771963172004
 21
45.99999999999994
 31
0.0
  0
ARC
  5
327
100
AcDbEntity
  8
L2
100
AcDbCircle
 10
5.83112457658467
 20
223.7247345984355
 30
0.0
 40
0.5
100
AcDbArc
 50
181.9999999999998
 51
270.0
1001
ACAD
1000
ASC_BOUNDS
1002
{
1070
    19
1002
}
  0
ARC
  5
328
100
AcDbEntity
  8
L2
100
AcDbCircle
 10
10.68644875858945
 20
223.7421843467868
 30
0.0
 40
0.5
100
AcDbArc
 50
181.9999999999998
 51
270.0
1001
ACAD
1000
ASC_BOUNDS
1002
{
1070
    19
1002
}
  0
LINE
  5
335
100
AcDbEntity
  8
L1
100
AcDbLine
 10
97.63875557223059
 20
220.2247345984358
 30
0.0
 11
97.63875557223071
 21
342.946122929511
 31
0.0
  0
LINE
  5
336
100
AcDbEntity
  8
L1
100
AcDbLine
 10
99.13875557223059
 20
343.0247345984355
 30
0.0
 11
97.63875557223071
 21
342.9461229295109
 31
0.0
1001
ACAD
1000
ASC_BOUNDS
1002
{
1070
    19
1002
}
  0
LINE
  5
343
100
AcDbEntity
  8
L1
100
AcDbLine
 10
94.33490799493723
 20
353.2247345984355
 30
0.0
 11
93.90176188449776
 21
353.2247345984355
 31
0.0
1001
ACAD
1000
ASC_BOUNDS
1002
{
1070
    19
1002
}
  0
LINE
  5
344
100
AcDbEntity
  8
L1
100
AcDbLine
 10
99.13875557223059
 20
350.2247345984355
 30
0.0
 11
-94.8612444277694
 21
350.2247345984355
 31
0.0
1001
ACAD
1000
ASC_BOUNDS
1002
{
1070
    19
1002
}
  0
LINE
  5
345
100
AcDbEntity
  8
L1
100
AcDbLine
 10
95.13875557223059
 20
350.2247345984355
 30
0.0
 11
94.33490799493723
 21
353.2247345984355
 31
0.0
1001
ACAD
1000
ASC_BOUNDS
1002
{
1070
    19
1002
}
  0
LINE
  5
346
100
AcDbEntity
  8
L1
100
AcDbLine
 10
99.13875557223059
 20
343.0247345984355
 30
0.0
 11
99.13875557223059
 21
350.2247345984355
 31
0.0
1001
ACAD
1000
ASC_BOUNDS
1002
{
1070
    19
1002
}
  0
LINE
  5
34A
100
AcDbEntity
  8
L1
100
AcDbLine
 10
93.90176188449776
 20
353.2247345984355
 30
0.0
 11
-93.62425074003658
 21
353.2247345984355
 31
0.0
  0
LINE
  5
34C
100
AcDbEntity
  8
L2
100
AcDbLine
 10
10.13875557223059
 20
229.2247345984355
 30
0.0
 11
0.1387555722305933
 21
229.2247345984355
 31
0.0
  0
LINE
  5
34E
100
AcDbEntity
  8
L1
100
AcDbLine
 10
3.638755572230593
 20
218.2247345984356
 30
0.0
 11
4.793456110610009
 21
220.2247345984356
 31
0.0
  0
LINE
  5
34F
100
AcDbEntity
  8
L1
100
AcDbLine
 10
-3.361244427769463
 20
218.2247345984356
 30
0.0
 11
3.638755572230593
 21
218.2247345984356
 31
0.0
  0
LINE
  5
350
100
AcDbEntity
  8
L1
100
AcDbLine
 10
46.63875557223059
 20
218.2247345984356
 30
0.0
 11
45.4840550338514
 21
220.2247345984356
 31
0.0
  0
LINE
  5
351
100
AcDbEntity
  8
L1
100
AcDbLine
 10
50.13875557223059
 20
218.2247345984356
 30
0.0
 11
46.63875557223059
 21
218.2247345984356
 31
0.0
  0
LINE
  5
352
100
AcDbEntity
  8
L1
100
AcDbLine
 10
53.63875557223059
 20
218.2247345984356
 30
0.0
 11
54.79345611061001
 21
220.2247345984356
 31
0.0
  0
LINE
  5
353
100
AcDbEntity
  8
L1
100
AcDbLine
 10
50.13875557223059
 20
218.2247345984356
 30
0.0
 11
53.63875557223059
 21
218.2247345984356
 31
0.0
  0
LINE
  5
358
100
AcDbEntity
  8
L2
100
AcDbLine
 10
5.138755572230593
 20
229.2247345984355
 30
0.0
 11
5.331429163075085
 21
223.7072848500843
 31
0.0
  0
LINE
  5
359
100
AcDbEntity
  8
L2
100
AcDbLine
 10
10.13875557223059
 20
229.2247345984355
 30
0.0
 11
10.18675334507975
 21
223.7247345984356
 31
0.0
  0
LINE
  5
367
100
AcDbEntity
  8
L1
100
AcDbLine
 10
73.03875557223057
 20
218.2247345984356
 30
0.0
 11
73.03875557223057
 21
220.2247345984356
 31
0.0
  0
LINE
  5
368
100
AcDbEntity
  8
L1
100
AcDbLine
 10
70.53875557223057
 20
218.2247345984356
 30
0.0
 11
70.53875557223057
 21
220.2247345984356
 31
0.0
  0
LINE
  5
36A
100
AcDbEntity
  8
L1
100
AcDbLine
 10
83.63875557223058
 20
218.2247345984356
 30
0.0
 11
84.79345611060944
 21
220.2247345984346
 31
0.0
1001
ACAD
1000
ASC_BOUNDS
1002
{
1070
    19
1002
}
  0
LINE
  5
36C
100
AcDbEntity
  8
L1
100
AcDbLine
 10
83.63875557223058
 20
218.2247345984356
 30
0.0
 11
76.63875557223059
 21
218.2247345984356
 31
0.0
1001
ACAD
1000
ASC_BOUNDS
1002
{
1070
    19
1002
}
  0
LINE
  5
36D
100
AcDbEntity
  8
L1
100
AcDbLine
 10
92.1387555722306
 20
220.2247345984353
 30
0.0
 11
92.1387555722306
 21
218.2247345984356
 31
0.0
  0
LINE
  5
370
100
AcDbEntity
  8
L1
100
AcDbLine
 10
92.1387555722306
 20
218.2247345984356
 30
0.0
 11
83.63875557223058
 21
218.2247345984356
 31
0.0
  0
LINE
  5
371
100
AcDbEntity
  8
L1
100
AcDbLine
 10
76.63875557223059
 20
218.2247345984356
 30
0.0
 11
75.4840550338514
 21
220.2247345984356
 31
0.0
1001
ACAD
1000
ASC_BOUNDS
1002
{
1070
    19
1002
}
  0
LINE
  5
372
100
AcDbEntity
  8
L1
100
AcDbLine
 10
76.63875557223059
 20
218.2247345984356
 30
0.0
 11
70.53875557223057
 21
218.2247345984356
 31
0.0
  0
LINE
  5
373
100
AcDbEntity
  8
L1
100
AcDbLine
 10
97.63875557223059
 20
220.224734598436
 30
0.0
 11
95.56709620752554
 21
220.2247345984357
 31
0.0
  0
LINE
  5
3A2
100
AcDbEntity
  8
L2
100
AcDbLine
 10
-87.86124442776939
 20
223.2247345984355
 30
0.0
 11
88.13875557223056
 21
223.2247345984355
 31
0.0
1001
ACAD
1000
ASC_BOUNDS
1002
{
1070
    19
1002
}
  0
LINE
  5
3AB
100
AcDbEntity
  8
L6
 48
2.0
100
AcDbLine
 10
0.1387555722305933
 20
357.2247345984355
 30
0.0
 11
0.1387555722305933
 21
213.9207811379806
 31
0.0
  0
LINE
  5
3BB
100
AcDbEntity
  8
L1
100
AcDbLine
 10
30.13875557223059
 20
46.0
 30
0.0
 11
77.13875557223059
 21
46.0
 31
0.0
  0
LINE
  5
3BC
100
AcDbEntity
  8
L1
100
AcDbLine
 10
30.13875557223059
 20
54.0
 30
0.0
 11
77.13875557223059
 21
54.0
 31
0.0
  0
LINE
  5
3BD
100
AcDbEntity
  8
L1
100
AcDbLine
 10
30.13875557223059
 20
4.000000000000056
 30
0.0
 11
77.13875557223059
 21
4.000000000000056
 31
0.0
  0
ARC
  5
3BE
100
AcDbEntity
  8
L1
100
AcDbCircle
 10
50.13875557223059
 20
130.0
 30
0.0
 40
5.0
100
AcDbArc
 50
188.6269265586786
 51
351.3730734413211
  0
ARC
  5
3BF
100
AcDbEntity
  8
L1
100
AcDbCircle
 10
50.13875557223059
 20
130.0
 30
0.0
 40
5.0
100
AcDbArc
 50
8.626926558678659
 51
171.3730734413213
  0
LINE
  5
3C2
100
AcDbEntity
  8
L6
 48
0.3
100
AcDbLine
 10
61.13875557223059
 20
130.0
 30
0.0
 11
38.13875557223059
 21
130.0
 31
0.0
  0
LINE
  5
3C4
100
AcDbEntity
  8
L1
100
AcDbLine
 10
30.13875557223059
 20
4.000000000000056
 30
0.0
 11
30.13875557223059
 21
46.0
 31
0.0
  0
LINE
  5
3C5
100
AcDbEntity
  8
L1
100
AcDbLine
 10
-29.8612444277694
 20
4.000000000000056
 30
0.0
 11
-29.8612444277694
 21
46.0
 31
0.0
  0
LINE
  5
3C6
100
AcDbEntity
  8
L1
100
AcDbLine
 10
-82.86124442776936
 20
54.0
 30
0.0
 11
-91.86124442776941
 21
54.0
 31
0.0
  0
LINE
  5
3C7
100
AcDbEntity
  8
L1
100
AcDbLine
 10
-82.86124442776936
 20
46.0
 30
0.0
 11
-91.86124442776941
 21
46.0
 31
0.0
  0
LINE
  5
3C8
100
AcDbEntity
  8
L1
100
AcDbLine
 10
-85.8612444277694
 20
130.0
 30
0.0
 11
-90.8612444277694
 21
130.0
 31
0.0
  0
LINE
  5
3C9
100
AcDbEntity
  8
L1
100
AcDbLine
 10
-85.8612444277694
 20
127.5
 30
0.0
 11
-90.8612444277694
 21
127.5
 31
0.0
  0
LINE
  5
3CA
100
AcDbEntity
  8
L6
 48
0.3
100
AcDbLine
 10
-94.8612444277694
 20
136.0
 30
0.0
 11
-76.8612444277694
 21
136.0
 31
0.0
  0
LINE
  5
3CB
100
AcDbEntity
  8
L1
100
AcDbLine
 10
-80.8612444277694
 20
141.9999999999999
 30
0.0
 11
-89.8612444277694
 21
141.9999999999999
 31
0.0
  0
LINE
  5
3CC
100
AcDbEntity
  8
L1
100
AcDbLine
 10
90.13875557223059
 20
145.0
 30
0.0
 11
-89.8612444277694
 21
145.0
 31
0.0
  0
LINE
  5
3CD
100
AcDbEntity
  8
L1
100
AcDbLine
 10
-96.36124442776946
 20
149.0
 30
0.0
 11
96.63875557223059
 21
149.000000000002
 31
0.0
  0
LINE
  5
3CE
100
AcDbEntity
  8
L1
100
AcDbLine
 10
-91.86124442776941
 20
140.0
 30
0.0
 11
-91.86124442776941
 21
131.0
 31
0.0
  0
ARC
  5
3CF
100
AcDbEntity
  8
L1
100
AcDbCircle
 10
-96.36124442776941
 20
146.5
 30
0.0
 40
2.5
100
AcDbArc
 50
90.0
 51
180.0
  0
ARC
  5
3D0
100
AcDbEntity
  8
L1
100
AcDbCircle
 10
-89.8612444277694
 20
140.0
 30
0.0
 40
2.0
100
AcDbArc
 50
90.0
 51
180.0
  0
ARC
  5
3D1
100
AcDbEntity
  8
L1
100
AcDbCircle
 10
-89.8612444277694
 20
140.0
 30
0.0
 40
5.0
100
AcDbArc
 50
90.0
 51
180.0
  0
LINE
  5
3D2
100
AcDbEntity
  8
L1
100
AcDbLine
 10
-89.8612444277694
 20
130.0
 30
0.0
 11
-89.8612444277694
 21
127.5
 31
0.0
  0
ARC
  5
3D3
100
AcDbEntity
  8
L1
100
AcDbCircle
 10
-90.8612444277694
 20
126.5
 30
0.0
 40
1.0
100
AcDbArc
 50
90.0
 51
180.0
  0
ARC
  5
3D4
100
AcDbEntity
  8
L1
100
AcDbCircle
 10
-90.8612444277694
 20
131.0
 30
0.0
 40
1.0
100
AcDbArc
 50
180.0
 51
270.0
  0
LINE
  5
3D6
100
AcDbEntity
  8
L1
100
AcDbLine
 10
-79.8612444277694
 20
136.0
 30
0.0
 11
-79.8612444277694
 21
140.9999999999999
 31
0.0
  0
LINE
  5
3D7
100
AcDbEntity
  8
L1
100
AcDbLine
 10
-77.3612444277694
 20
136.0
 30
0.0
 11
-77.3612444277694
 21
140.9999999999999
 31
0.0
  0
LINE
  5
3D8
100
AcDbEntity
  8
L6
 48
0.3
100
AcDbLine
 10
-85.8612444277694
 20
145.0
 30
0.0
 11
-85.8612444277694
 21
127.0
 31
0.0
  0
LINE
  5
3D9
100
AcDbEntity
  8
L1
100
AcDbLine
 10
76.63875557223059
 20
141.9999999999999
 30
0.0
 11
-76.36124442776941
 21
141.9999999999999
 31
0.0
  0
LINE
  5
3DA
100
AcDbEntity
  8
L1
100
AcDbLine
 10
-79.8612444277694
 20
140.0
 30
0.0
 11
-77.3612444277694
 21
140.0
 31
0.0
  0
ARC
  5
3DB
100
AcDbEntity
  8
L1
100
AcDbCircle
 10
-80.8612444277694
 20
140.9999999999999
 30
0.0
 40
1.0
100
AcDbArc
 50
0.0
 51
90.0
  0
ARC
  5
3DC
100
AcDbEntity
  8
L1
100
AcDbCircle
 10
-76.36124442776941
 20
140.9999999999999
 30
0.0
 40
1.0
100
AcDbArc
 50
90.0
 51
180.0
  0
LINE
  5
3DD
100
AcDbEntity
  8
L1
100
AcDbLine
 10
-15.8612444277694
 20
80.0
 30
0.0
 11
-29.8612444277694
 21
80.0
 31
0.0
  0
ARC
  5
3DE
100
AcDbEntity
  8
L1
100
AcDbCircle
 10
-49.8612444277694
 20
130.0
 30
0.0
 40
5.0
100
AcDbArc
 50
188.6269265586786
 51
351.3730734413211
  0
ARC
  5
3DF
100
AcDbEntity
  8
L1
100
AcDbCircle
 10
-49.8612444277694
 20
130.0
 30
0.0
 40
5.0
100
AcDbArc
 50
8.626926558678659
 51
171.3730734413213
  0
LINE
  5
3E0
100
AcDbEntity
  8
L6
 48
0.3
100
AcDbLine
 10
-38.86124442776941
 20
130.0
 30
0.0
 11
-61.8612444277694
 21
130.0
 31
0.0
  0
LINE
  5
3E1
100
AcDbEntity
  8
L6
 48
0.3
100
AcDbLine
 10
-63.86124442776941
 20
115.5
 30
0.0
 11
-63.86124442776941
 21
109.4999999999999
 31
0.0
  0
CIRCLE
  5
3E2
100
AcDbEntity
  8
L3
100
AcDbCircle
 10
-63.86124442776941
 20
112.5
 30
0.0
 40
2.6
  0
CIRCLE
  5
3E3
100
AcDbEntity
  8
L3
100
AcDbCircle
 10
-63.86124442776941
 20
112.5
 30
0.0
 40
6.0
  0
LINE
  5
3E4
100
AcDbEntity
  8
L1
100
AcDbLine
 10
-79.8612444277694
 20
138.0
 30
0.0
 11
-77.3612444277694
 21
138.0
 31
0.0
  0
ARC
  5
3E5
100
AcDbEntity
  8
L1
100
AcDbCircle
 10
-85.8612444277694
 20
136.0
 30
0.0
 40
8.5
100
AcDbArc
 50
270.0
 51
0.0
  0
ARC
  5
3E6
100
AcDbEntity
  8
L1
100
AcDbCircle
 10
-85.8612444277694
 20
136.0
 30
0.0
 40
6.0
100
AcDbArc
 50
270.0
 51
0.0
  0
LINE
  5
3E7
100
AcDbEntity
  8
L1
100
AcDbLine
 10
-87.86124442776941
 20
130.0
 30
0.0
 11
-87.86124442776941
 21
127.5
 31
0.0
  0
LINE
  5
3E8
100
AcDbEntity
  8
L1
100
AcDbLine
 10
-59.8612444277694
 20
129.2499999999999
 30
0.0
 11
-59.8612444277694
 21
130.75
 31
0.0
  0
LINE
  5
3E9
100
AcDbEntity
  8
L1
100
AcDbLine
 10
-54.80467441109067
 20
129.2499999999999
 30
0.0
 11
-59.8612444277694
 21
129.2499999999999
 31
0.0
  0
LINE
  5
3EA
100
AcDbEntity
  8
L1
100
AcDbLine
 10
-59.8612444277694
 20
130.75
 30
0.0
 11
-54.80467441109067
 21
130.75
 31
0.0
  0
LINE
  5
3EB
100
AcDbEntity
  8
L6
 48
0.3
100
AcDbLine
 10
-79.8612444277694
 20
111.0
 30
0.0
 11
-79.8612444277694
 21
88.0
 31
0.0
  0
ARC
  5
3EC
100
AcDbEntity
  8
L1
100
AcDbCircle
 10
-79.8612444277694
 20
100.0
 30
0.0
 40
5.0
100
AcDbArc
 50
98.62692655867867
 51
261.3730734413213
  0
CIRCLE
  5
3ED
100
AcDbEntity
  8
L1
100
AcDbCircle
 10
-79.8612444277694
 20
100.0
 30
0.0
 40
2.1
  0
CIRCLE
  5
3EE
100
AcDbEntity
  8
L1
100
AcDbCircle
 10
-79.8612444277694
 20
100.0
 30
0.0
 40
2.399999999999999
  0
ARC
  5
3EF
100
AcDbEntity
  8
L1
100
AcDbCircle
 10
-79.8612444277694
 20
100.0
 30
0.0
 40
5.0
100
AcDbArc
 50
278.6269265586786
 51
81.37307344132118
  0
LINE
  5
3F0
100
AcDbEntity
  8
L6
 48
0.3
100
AcDbLine
 10
-86.86124442776941
 20
100.0
 30
0.0
 11
-72.86124442776941
 21
100.0
 31
0.0
  0
LINE
  5
3F1
100
AcDbEntity
  8
L1
100
AcDbLine
 10
-79.11124442776941
 20
110.0
 30
0.0
 11
-80.61124442776941
 21
110.0
 31
0.0
  0
LINE
  5
3F2
100
AcDbEntity
  8
L1
100
AcDbLine
 10
-80.61124442776941
 20
110.0
 30
0.0
 11
-80.61124442776941
 21
104.9434299833212
 31
0.0
  0
LINE
  5
3F3
100
AcDbEntity
  8
L1
100
AcDbLine
 10
-79.11124442776941
 20
104.9434299833212
 30
0.0
 11
-79.11124442776941
 21
110.0
 31
0.0
  0
LINE
  5
3F4
100
AcDbEntity
  8
L1
100
AcDbLine
 10
-79.11124442776941
 20
90.0
 30
0.0
 11
-80.61124442776941
 21
90.0
 31
0.0
  0
LINE
  5
3F5
100
AcDbEntity
  8
L1
100
AcDbLine
 10
-80.61124442776941
 20
90.0
 30
0.0
 11
-80.61124442776941
 21
95.05657001667874
 31
0.0
  0
LINE
  5
3F6
100
AcDbEntity
  8
L1
100
AcDbLine
 10
-79.11124442776941
 20
95.05657001667874
 30
0.0
 11
-79.11124442776941
 21
90.0
 31
0.0
  0
LINE
  5
3F7
100
AcDbEntity
  8
L6
 48
0.3
100
AcDbLine
 10
-60.86124442776941
 20
112.5
 30
0.0
 11
-66.8612444277694
 21
112.5
 31
0.0
  0
LINE
  5
3F8
100
AcDbEntity
  8
L6
 48
0.3
100
AcDbLine
 10
-49.8612444277694
 20
137.0
 30
0.0
 11
-49.8612444277694
 21
122.9999999999999
 31
0.0
  0
LINE
  5
3F9
100
AcDbEntity
  8
L1
100
AcDbLine
 10
-44.91781444444813
 20
129.2499999999999
 30
0.0
 11
-39.8612444277694
 21
129.2499999999999
 31
0.0
  0
LINE
  5
3FA
100
AcDbEntity
  8
L1
100
AcDbLine
 10
-39.8612444277694
 20
130.75
 30
0.0
 11
-44.91781444444813
 21
130.75
 31
0.0
  0
CIRCLE
  5
3FB
100
AcDbEntity
  8
L1
100
AcDbCircle
 10
-49.8612444277694
 20
130.0
 30
0.0
 40
2.1
  0
CIRCLE
  5
3FC
100
AcDbEntity
  8
L1
100
AcDbCircle
 10
-49.8612444277694
 20
130.0
 30
0.0
 40
2.399999999999999
  0
LINE
  5
3FD
100
AcDbEntity
  8
L1
100
AcDbLine
 10
-39.8612444277694
 20
129.2499999999999
 30
0.0
 11
-39.8612444277694
 21
130.75
 31
0.0
  0
LINE
  5
3FE
100
AcDbEntity
  8
L1
100
AcDbLine
 10
-29.8612444277694
 20
54.0
 30
0.0
 11
-76.86124442776935
 21
54.0
 31
0.0
  0
LINE
  5
3FF
100
AcDbEntity
  8
L1
100
AcDbLine
 10
-29.8612444277694
 20
46.0
 30
0.0
 11
-76.86124442776935
 21
46.0
 31
0.0
  0
ARC
  5
400
100
AcDbEntity
  8
L1
100
AcDbCircle
 10
-79.8612444277694
 20
50.0
 30
0.0
 40
5.0
100
AcDbArc
 50
98.62692655867867
 51
261.3730734413213
  0
CIRCLE
  5
401
100
AcDbEntity
  8
L1
100
AcDbCircle
 10
-79.8612444277694
 20
50.0
 30
0.0
 40
2.1
  0
CIRCLE
  5
402
100
AcDbEntity
  8
L1
100
AcDbCircle
 10
-79.8612444277694
 20
50.0
 30
0.0
 40
2.399999999999999
  0
ARC
  5
403
100
AcDbEntity
  8
L1
100
AcDbCircle
 10
-79.8612444277694
 20
50.0
 30
0.0
 40
5.0
100
AcDbArc
 50
278.6269265586786
 51
81.37307344132118
  0
LINE
  5
404
100
AcDbEntity
  8
L6
 48
0.3
100
AcDbLine
 10
-79.8612444277694
 20
61.0
 30
0.0
 11
-79.8612444277694
 21
38.0
 31
0.0
  0
LINE
  5
405
100
AcDbEntity
  8
L6
 48
0.3
100
AcDbLine
 10
-86.86124442776941
 20
50.0
 30
0.0
 11
-72.86124442776941
 21
50.0
 31
0.0
  0
LINE
  5
406
100
AcDbEntity
  8
L1
100
AcDbLine
 10
-79.11124442776941
 20
60.0
 30
0.0
 11
-80.61124442776941
 21
60.0
 31
0.0
  0
LINE
  5
407
100
AcDbEntity
  8
L1
100
AcDbLine
 10
-80.61124442776941
 20
60.0
 30
0.0
 11
-80.61124442776941
 21
54.94342998332126
 31
0.0
  0
LINE
  5
408
100
AcDbEntity
  8
L1
100
AcDbLine
 10
-79.11124442776941
 20
54.94342998332126
 30
0.0
 11
-79.11124442776941
 21
60.0
 31
0.0
  0
LINE
  5
409
100
AcDbEntity
  8
L1
100
AcDbLine
 10
-79.11124442776941
 20
40.0
 30
0.0
 11
-80.61124442776941
 21
40.0
 31
0.0
  0
LINE
  5
40A
100
AcDbEntity
  8
L1
100
AcDbLine
 10
-80.61124442776941
 20
40.0
 30
0.0
 11
-80.61124442776941
 21
45.05657001667873
 31
0.0
  0
LINE
  5
40B
100
AcDbEntity
  8
L1
100
AcDbLine
 10
-79.11124442776941
 20
45.05657001667873
 30
0.0
 11
-79.11124442776941
 21
40.0
 31
0.0
  0
LINE
  5
40C
100
AcDbEntity
  8
L1
100
AcDbLine
 10
-29.8612444277694
 20
54.0
 30
0.0
 11
-29.8612444277694
 21
80.0
 31
0.0
  0
ARC
  5
40D
100
AcDbEntity
  8
L1
100
AcDbCircle
 10
0.1387555722305933
 20
130.0
 30
0.0
 40
5.0
100
AcDbArc
 50
188.6269265586786
 51
351.3730734413211
  0
CIRCLE
  5
40E
100
AcDbEntity
  8
L1
100
AcDbCircle
 10
0.1387555722305933
 20
130.0
 30
0.0
 40
2.1
  0
CIRCLE
  5
40F
100
AcDbEntity
  8
L1
100
AcDbCircle
 10
0.1387555722305933
 20
130.0
 30
0.0
 40
2.399999999999999
  0
ARC
  5
410
100
AcDbEntity
  8
L1
100
AcDbCircle
 10
0.1387555722305933
 20
130.0
 30
0.0
 40
5.0
100
AcDbArc
 50
8.626926558678659
 51
171.3730734413213
  0
LINE
  5
411
100
AcDbEntity
  8
L6
 48
0.3
100
AcDbLine
 10
11.13875557223059
 20
130.0
 30
0.0
 11
-11.8612444277694
 21
130.0
 31
0.0
  0
LINE
  5
412
100
AcDbEntity
  8
L1
100
AcDbLine
 10
-4.804674411090672
 20
129.2499999999999
 30
0.0
 11
-9.861244427769406
 21
129.2499999999999
 31
0.0
  0
LINE
  5
413
100
AcDbEntity
  8
L1
100
AcDbLine
 10
-9.861244427769406
 20
130.75
 30
0.0
 11
-4.804674411090672
 21
130.75
 31
0.0
  0
LINE
  5
414
100
AcDbEntity
  8
L1
100
AcDbLine
 10
-9.861244427769406
 20
129.2499999999999
 30
0.0
 11
-9.861244427769406
 21
130.75
 31
0.0
  0
LINE
  5
415
100
AcDbEntity
  8
L1
100
AcDbLine
 10
5.082185555551859
 20
129.2499999999999
 30
0.0
 11
10.13875557223059
 21
129.2499999999999
 31
0.0
  0
LINE
  5
416
100
AcDbEntity
  8
L1
100
AcDbLine
 10
10.13875557223059
 20
130.75
 30
0.0
 11
5.082185555551859
 21
130.75
 31
0.0
  0
LINE
  5
417
100
AcDbEntity
  8
L1
100
AcDbLine
 10
10.13875557223059
 20
129.2499999999999
 30
0.0
 11
10.13875557223059
 21
130.75
 31
0.0
  0
LINE
  5
418
100
AcDbEntity
  8
L6
 48
0.3
100
AcDbLine
 10
50.13875557223059
 20
137.0
 30
0.0
 11
50.13875557223059
 21
122.9999999999999
 31
0.0
  0
LINE
  5
419
100
AcDbEntity
  8
L1
100
AcDbLine
 10
45.19532558890932
 20
129.2499999999999
 30
0.0
 11
40.13875557223059
 21
129.2499999999999
 31
0.0
  0
LINE
  5
41A
100
AcDbEntity
  8
L1
100
AcDbLine
 10
40.13875557223059
 20
130.75
 30
0.0
 11
45.19532558890932
 21
130.75
 31
0.0
  0
LINE
  5
41B
100
AcDbEntity
  8
L1
100
AcDbLine
 10
40.13875557223059
 20
129.2499999999999
 30
0.0
 11
40.13875557223059
 21
130.75
 31
0.0
  0
CIRCLE
  5
41C
100
AcDbEntity
  8
L1
100
AcDbCircle
 10
50.13875557223059
 20
130.0
 30
0.0
 40
2.399999999999999
  0
CIRCLE
  5
41D
100
AcDbEntity
  8
L1
100
AcDbCircle
 10
50.13875557223059
 20
130.0
 30
0.0
 40
2.1
  0
LINE
  5
41E
100
AcDbEntity
  8
L1
100
AcDbLine
 10
16.13875557223059
 20
80.0
 30
0.0
 11
30.13875557223059
 21
80.0
 31
0.0
  0
LINE
  5
41F
100
AcDbEntity
  8
L1
100
AcDbLine
 10
6.138755572230593
 20
70.0
 30
0.0
 11
-5.861244427769406
 21
70.0
 31
0.0
  0
LINE
  5
420
100
AcDbEntity
  8
L1
100
AcDbLine
 10
-5.861244427769406
 20
70.0
 30
0.0
 11
-15.8612444277694
 21
80.0
 31
0.0
  0
LINE
  5
421
100
AcDbEntity
  8
L1
100
AcDbLine
 10
6.138755572230593
 20
70.0
 30
0.0
 11
16.13875557223059
 21
80.0
 31
0.0
  0
LINE
  5
422
100
AcDbEntity
  8
L1
100
AcDbLine
 10
30.13875557223059
 20
54.0
 30
0.0
 11
30.13875557223059
 21
80.0
 31
0.0
  0
LINE
  5
423
100
AcDbEntity
  8
L1
100
AcDbLine
 10
-82.86124442776936
 20
4.000000000000056
 30
0.0
 11
-91.86124442776941
 21
4.000000000000056
 31
0.0
  0
LINE
  5
424
100
AcDbEntity
  8
L1
100
AcDbLine
 10
-29.8612444277694
 20
4.000000000000056
 30
0.0
 11
-76.86124442776935
 21
4.000000000000056
 31
0.0
  0
LINE
  5
425
100
AcDbEntity
  8
L1
100
AcDbLine
 10
-79.11124442776941
 20
4.943429983321266
 30
0.0
 11
-79.11124442776941
 21
10.0
 31
0.0
  0
LINE
  5
426
100
AcDbEntity
  8
L1
100
AcDbLine
 10
-80.61124442776941
 20
10.0
 30
0.0
 11
-80.61124442776941
 21
4.943429983321266
 31
0.0
  0
LINE
  5
427
100
AcDbEntity
  8
L1
100
AcDbLine
 10
-79.11124442776941
 20
10.0
 30
0.0
 11
-80.61124442776941
 21
10.0
 31
0.0
  0
LINE
  5
428
100
AcDbEntity
  8
L1
100
AcDbLine
 10
92.1387555722306
 20
140.0
 30
0.0
 11
92.1387555722306
 21
131.0
 31
0.0
  0
LINE
  5
429
100
AcDbEntity
  8
L1
100
AcDbLine
 10
77.63875557223059
 20
136.0
 30
0.0
 11
77.63875557223059
 21
140.9999999999999
 31
0.0
  0
LINE
  5
42A
100
AcDbEntity
  8
L1
100
AcDbLine
 10
80.13875557223059
 20
136.0
 30
0.0
 11
80.13875557223059
 21
140.9999999999999
 31
0.0
  0
LINE
  5
42B
100
AcDbEntity
  8
L6
 48
0.3
100
AcDbLine
 10
86.13875557223058
 20
145.0
 30
0.0
 11
86.13875557223058
 21
127.0
 31
0.0
  0
LINE
  5
42C
100
AcDbEntity
  8
L1
100
AcDbLine
 10
81.13875557223058
 20
141.9999999999999
 30
0.0
 11
90.13875557223059
 21
141.9999999999999
 31
0.0
  0
ARC
  5
42D
100
AcDbEntity
  8
L1
100
AcDbCircle
 10
81.13875557223058
 20
140.9999999999999
 30
0.0
 40
1.0
100
AcDbArc
 50
90.0
 51
180.0
  0
LINE
  5
42E
100
AcDbEntity
  8
L1
100
AcDbLine
 10
80.13875557223059
 20
140.0
 30
0.0
 11
77.63875557223059
 21
140.0
 31
0.0
  0
ARC
  5
42F
100
AcDbEntity
  8
L1
100
AcDbCircle
 10
76.63875557223059
 20
140.9999999999999
 30
0.0
 40
1.0
100
AcDbArc
 50
0.0
 51
90.0
  0
ARC
  5
430
100
AcDbEntity
  8
L1
100
AcDbCircle
 10
96.63875557223059
 20
146.5
 30
0.0
 40
2.5
100
AcDbArc
 50
0.0
 51
90.0
  0
ARC
  5
431
100
AcDbEntity
  8
L1
100
AcDbCircle
 10
90.13875557223059
 20
140.0
 30
0.0
 40
5.0
100
AcDbArc
 50
0.0
 51
90.0
  0
ARC
  5
432
100
AcDbEntity
  8
L1
100
AcDbCircle
 10
90.13875557223059
 20
140.0
 30
0.0
 40
2.0
100
AcDbArc
 50
0.0
 51
90.0
  0
LINE
  5
433
100
AcDbEntity
  8
L1
100
AcDbLine
 10
86.13875557223058
 20
130.0
 30
0.0
 11
91.13875557223058
 21
130.0
 31
0.0
  0
LINE
  5
434
100
AcDbEntity
  8
L1
100
AcDbLine
 10
86.13875557223058
 20
127.5
 30
0.0
 11
91.13875557223058
 21
127.5
 31
0.0
  0
LINE
  5
435
100
AcDbEntity
  8
L6
 48
0.3
100
AcDbLine
 10
95.13875557223059
 20
136.0
 30
0.0
 11
77.13875557223059
 21
136.0
 31
0.0
  0
CIRCLE
  5
436
100
AcDbEntity
  8
L3
100
AcDbCircle
 10
64.13875557223059
 20
112.5
 30
0.0
 40
2.6
  0
LINE
  5
437
100
AcDbEntity
  8
L6
 48
0.3
100
AcDbLine
 10
64.13875557223059
 20
115.5
 30
0.0
 11
64.13875557223059
 21
109.4999999999999
 31
0.0
  0
CIRCLE
  5
438
100
AcDbEntity
  8
L3
100
AcDbCircle
 10
64.13875557223059
 20
112.5
 30
0.0
 40
6.0
  0
LINE
  5
439
100
AcDbEntity
  8
L1
100
AcDbLine
 10
60.13875557223059
 20
129.2499999999999
 30
0.0
 11
60.13875557223059
 21
130.75
 31
0.0
  0
LINE
  5
43A
100
AcDbEntity
  8
L1
100
AcDbLine
 10
60.13875557223059
 20
130.75
 30
0.0
 11
55.08218555555186
 21
130.75
 31
0.0
  0
LINE
  5
43B
100
AcDbEntity
  8
L1
100
AcDbLine
 10
55.08218555555186
 20
129.2499999999999
 30
0.0
 11
60.13875557223059
 21
129.2499999999999
 31
0.0
  0
ARC
  5
43C
100
AcDbEntity
  8
L1
100
AcDbCircle
 10
86.13875557223058
 20
136.0
 30
0.0
 40
6.0
100
AcDbArc
 50
180.0
 51
270.0
  0
ARC
  5
43D
100
AcDbEntity
  8
L1
100
AcDbCircle
 10
86.13875557223058
 20
136.0
 30
0.0
 40
8.5
100
AcDbArc
 50
180.0
 51
270.0
  0
LINE
  5
43E
100
AcDbEntity
  8
L1
100
AcDbLine
 10
80.13875557223059
 20
138.0
 30
0.0
 11
77.63875557223059
 21
138.0
 31
0.0
  0
LINE
  5
43F
100
AcDbEntity
  8
L1
100
AcDbLine
 10
88.1387555722306
 20
130.0
 30
0.0
 11
88.1387555722306
 21
127.5
 31
0.0
  0
LINE
  5
440
100
AcDbEntity
  8
L6
 48
0.3
100
AcDbLine
 10
61.13875557223059
 20
112.5
 30
0.0
 11
67.13875557223059
 21
112.5
 31
0.0
  0
ARC
  5
441
100
AcDbEntity
  8
L1
100
AcDbCircle
 10
80.13875557223059
 20
100.0
 30
0.0
 40
5.0
100
AcDbArc
 50
278.6269265586786
 51
81.37307344132118
  0
LINE
  5
442
100
AcDbEntity
  8
L6
 48
0.3
100
AcDbLine
 10
80.13875557223059
 20
111.0
 30
0.0
 11
80.13875557223059
 21
88.0
 31
0.0
  0
CIRCLE
  5
443
100
AcDbEntity
  8
L1
100
AcDbCircle
 10
80.13875557223059
 20
100.0
 30
0.0
 40
2.1
  0
CIRCLE
  5
444
100
AcDbEntity
  8
L1
100
AcDbCircle
 10
80.13875557223059
 20
100.0
 30
0.0
 40
2.399999999999999
  0
ARC
  5
445
100
AcDbEntity
  8
L1
100
AcDbCircle
 10
80.13875557223059
 20
100.0
 30
0.0
 40
5.0
100
AcDbArc
 50
98.62692655867867
 51
261.3730734413213
  0
LINE
  5
446
100
AcDbEntity
  8
L1
100
AcDbLine
 10
80.8887555722306
 20
110.0
 30
0.0
 11
79.3887555722306
 21
110.0
 31
0.0
  0
LINE
  5
447
100
AcDbEntity
  8
L6
 48
0.3
100
AcDbLine
 10
73.1387555722306
 20
100.0
 30
0.0
 11
87.1387555722306
 21
100.0
 31
0.0
  0
LINE
  5
448
100
AcDbEntity
  8
L1
100
AcDbLine
 10
79.3887555722306
 20
110.0
 30
0.0
 11
79.3887555722306
 21
104.9434299833212
 31
0.0
  0
LINE
  5
449
100
AcDbEntity
  8
L1
100
AcDbLine
 10
80.8887555722306
 20
104.9434299833212
 30
0.0
 11
80.8887555722306
 21
110.0
 31
0.0
  0
LINE
  5
44A
100
AcDbEntity
  8
L1
100
AcDbLine
 10
80.8887555722306
 20
90.0
 30
0.0
 11
79.3887555722306
 21
90.0
 31
0.0
  0
LINE
  5
44B
100
AcDbEntity
  8
L1
100
AcDbLine
 10
79.3887555722306
 20
90.0
 30
0.0
 11
79.3887555722306
 21
95.05657001667874
 31
0.0
  0
LINE
  5
44C
100
AcDbEntity
  8
L1
100
AcDbLine
 10
80.8887555722306
 20
95.05657001667874
 30
0.0
 11
80.8887555722306
 21
90.0
 31
0.0
  0
LINE
  5
44D
100
AcDbEntity
  8
L1
100
AcDbLine
 10
90.13875557223059
 20
130.0
 30
0.0
 11
90.13875557223059
 21
127.5
 31
0.0
  0
ARC
  5
44E
100
AcDbEntity
  8
L1
100
AcDbCircle
 10
91.13875557223058
 20
131.0
 30
0.0
 40
1.0
100
AcDbArc
 50
270.0
 51
0.0
  0
ARC
  5
44F
100
AcDbEntity
  8
L1
100
AcDbCircle
 10
91.13875557223058
 20
126.5
 30
0.0
 40
1.0
100
AcDbArc
 50
0.0
 51
90.0
  0
LINE
  5
450
100
AcDbEntity
  8
L1
100
AcDbLine
 10
83.1387555722306
 20
46.0
 30
0.0
 11
92.1387555722306
 21
46.0
 31
0.0
  0
LINE
  5
451
100
AcDbEntity
  8
L1
100
AcDbLine
 10
83.1387555722306
 20
54.0
 30
0.0
 11
92.1387555722306
 21
54.0
 31
0.0
  0
CIRCLE
  5
452
100
AcDbEntity
  8
L1
100
AcDbCircle
 10
80.13875557223059
 20
50.0
 30
0.0
 40
2.1
  0
CIRCLE
  5
453
100
AcDbEntity
  8
L1
100
AcDbCircle
 10
80.13875557223059
 20
50.0
 30
0.0
 40
2.399999999999999
  0
ARC
  5
454
100
AcDbEntity
  8
L1
100
AcDbCircle
 10
80.13875557223059
 20
50.0
 30
0.0
 40
5.0
100
AcDbArc
 50
278.6269265586786
 51
81.37307344132118
  0
ARC
  5
455
100
AcDbEntity
  8
L1
100
AcDbCircle
 10
80.13875557223059
 20
50.0
 30
0.0
 40
5.0
100
AcDbArc
 50
98.62692655867867
 51
261.3730734413213
  0
LINE
  5
456
100
AcDbEntity
  8
L6
 48
0.3
100
AcDbLine
 10
80.13875557223059
 20
61.0
 30
0.0
 11
80.13875557223059
 21
38.0
 31
0.0
  0
LINE
  5
457
100
AcDbEntity
  8
L1
100
AcDbLine
 10
80.8887555722306
 20
60.0
 30
0.0
 11
79.3887555722306
 21
60.0
 31
0.0
  0
LINE
  5
458
100
AcDbEntity
  8
L6
 48
0.3
100
AcDbLine
 10
73.1387555722306
 20
50.0
 30
0.0
 11
87.1387555722306
 21
50.0
 31
0.0
  0
LINE
  5
459
100
AcDbEntity
  8
L1
100
AcDbLine
 10
79.3887555722306
 20
60.0
 30
0.0
 11
79.3887555722306
 21
54.94342998332126
 31
0.0
  0
LINE
  5
45A
100
AcDbEntity
  8
L1
100
AcDbLine
 10
80.8887555722306
 20
54.94342998332126
 30
0.0
 11
80.8887555722306
 21
60.0
 31
0.0
  0
LINE
  5
45B
100
AcDbEntity
  8
L1
100
AcDbLine
 10
80.8887555722306
 20
40.0
 30
0.0
 11
79.3887555722306
 21
40.0
 31
0.0
  0
LINE
  5
45C
100
AcDbEntity
  8
L1
100
AcDbLine
 10
79.3887555722306
 20
40.0
 30
0.0
 11
79.3887555722306
 21
45.05657001667873
 31
0.0
  0
LINE
  5
45D
100
AcDbEntity
  8
L1
100
AcDbLine
 10
80.8887555722306
 20
45.05657001667873
 30
0.0
 11
80.8887555722306
 21
40.0
 31
0.0
  0
LINE
  5
45E
100
AcDbEntity
  8
L1
100
AcDbLine
 10
83.1387555722306
 20
4.000000000000056
 30
0.0
 11
92.1387555722306
 21
4.000000000000056
 31
0.0
  0
LINE
  5
45F
100
AcDbEntity
  8
L1
100
AcDbLine
 10
80.8887555722306
 20
4.943429983321266
 30
0.0
 11
80.8887555722306
 21
10.0
 31
0.0
  0
LINE
  5
460
100
AcDbEntity
  8
L1
100
AcDbLine
 10
79.3887555722306
 20
10.0
 30
0.0
 11
79.3887555722306
 21
4.943429983321266
 31
0.0
  0
LINE
  5
461
100
AcDbEntity
  8
L1
100
AcDbLine
 10
80.8887555722306
 20
10.0
 30
0.0
 11
79.3887555722306
 21
10.0
 31
0.0
  0
LINE
  5
49D
100
AcDbEntity
  8
L1
100
AcDbLine
 10
-196.1930599954334
 20
-147.4999999999996
 30
0.0
 11
-196.1930599954334
 21
147.4999999999996
 31
0.0
  0
LINE
  5
49E
100
AcDbEntity
  8
L1
100
AcDbLine
 10
-318.9930599954335
 20
-148.9999999999993
 30
0.0
 11
-318.9930599954334
 21
148.999999999998
 31
0.0
  0
LINE
  5
49F
100
AcDbEntity
  8
L1
100
AcDbLine
 10
-326.1930599954335
 20
-148.9999999999993
 30
0.0
 11
-326.1930599954334
 21
148.9999999999993
 31
0.0
  0
LINE
  5
4A0
100
AcDbEntity
  8
L1
100
AcDbLine
 10
-329.1930599954334
 20
-144.1961524227066
 30
0.0
 11
-329.1930599954334
 21
144.1961524227066
 31
0.0
  0
LINE
  5
4A1
100
AcDbEntity
  8
L1
100
AcDbLine
 10
-318.9361381205533
 20
-146.5606601717798
 30
0.0
 11
-196.1930599954335
 21
-146.5606601717798
 31
0.0
  0
LINE
  5
4A2
100
AcDbEntity
  8
L1
100
AcDbLine
 10
-196.1930599954334
 20
-147.4999999999996
 30
0.0
 11
-318.9144483265089
 21
-147.4999999999996
 31
0.0
  0
LINE
  5
4A3
100
AcDbEntity
  8
L1
100
AcDbLine
 10
-318.9930599954335
 20
-132.4999999999999
 30
0.0
 11
-196.1930599954334
 21
-132.4999999999999
 31
0.0
  0
LINE
  5
4A4
100
AcDbEntity
  8
L1
100
AcDbLine
 10
-194.1930599954334
 20
-141.9999999999999
 30
0.0
 11
-194.1930599954334
 21
-120.3999999999999
 31
0.0
  0
LINE
  5
4A5
100
AcDbEntity
  8
L1
100
AcDbLine
 10
-196.1930599954334
 20
-141.9999999999999
 30
0.0
 11
-194.1930599954334
 21
-141.9999999999999
 31
0.0
  0
LINE
  5
4A6
100
AcDbEntity
  8
L1
100
AcDbLine
 10
-194.1930599954334
 20
-131.3999999999999
 30
0.0
 11
-196.1930599954334
 21
-131.3999999999999
 31
0.0
  0
LINE
  5
4A7
100
AcDbEntity
  8
L1
100
AcDbLine
 10
-194.1930599954334
 20
-122.8999999999999
 30
0.0
 11
-196.1930599954334
 21
-122.8999999999999
 31
0.0
  0
LINE
  5
4A8
100
AcDbEntity
  8
L1
100
AcDbLine
 10
-194.1930599954334
 20
-120.3999999999999
 30
0.0
 11
-196.1930599954334
 21
-120.3999999999999
 31
0.0
  0
LINE
  5
4A9
100
AcDbEntity
  8
L1
100
AcDbLine
 10
-194.1930599954334
 20
-100.0
 30
0.0
 11
-194.1930599954334
 21
-96.5
 31
0.0
  0
LINE
  5
4AA
100
AcDbEntity
  8
L1
100
AcDbLine
 10
-194.1930599954334
 20
-100.0
 30
0.0
 11
-194.1930599954334
 21
-103.4999999999999
 31
0.0
  0
LINE
  5
4AB
100
AcDbEntity
  8
L1
100
AcDbLine
 10
-194.1930599954334
 20
-103.4999999999999
 30
0.0
 11
-196.1930599954334
 21
-104.6547005383792
 31
0.0
  0
LINE
  5
4AC
100
AcDbEntity
  8
L1
100
AcDbLine
 10
-194.1930599954334
 20
-96.5
 30
0.0
 11
-196.1930599954334
 21
-95.34529946162075
 31
0.0
  0
LINE
  5
4AD
100
AcDbEntity
  8
L1
100
AcDbLine
 10
-194.1930599954334
 20
-50.0
 30
0.0
 11
-194.1930599954334
 21
-46.5
 31
0.0
  0
LINE
  5
4AE
100
AcDbEntity
  8
L1
100
AcDbLine
 10
-194.1930599954334
 20
-53.5
 30
0.0
 11
-196.1930599954334
 21
-54.6547005383793
 31
0.0
  0
LINE
  5
4AF
100
AcDbEntity
  8
L1
100
AcDbLine
 10
-194.1930599954334
 20
-50.0
 30
0.0
 11
-194.1930599954334
 21
-53.5
 31
0.0
  0
LINE
  5
4B0
100
AcDbEntity
  8
L1
100
AcDbLine
 10
-194.1930599954334
 20
-46.5
 30
0.0
 11
-196.1930599954334
 21
-45.34529946162069
 31
0.0
  0
LINE
  5
4B1
100
AcDbEntity
  8
L1
100
AcDbLine
 10
-318.9930599954335
 20
-148.9999999999993
 30
0.0
 11
-326.1930599954335
 21
-148.9999999999993
 31
0.0
  0
LINE
  5
4B2
100
AcDbEntity
  8
L1
100
AcDbLine
 10
-326.1930599954335
 20
-145.0
 30
0.0
 11
-329.1930599954334
 21
-144.1961524227066
 31
0.0
  0
LINE
  5
4B3
100
AcDbEntity
  8
L1
100
AcDbLine
 10
-196.1930599954334
 20
147.4999999999996
 30
0.0
 11
-318.9144483265089
 21
147.4999999999996
 31
0.0
  0
LINE
  5
4B4
100
AcDbEntity
  8
L1
100
AcDbLine
 10
-318.9361381205533
 20
146.5606601717798
 30
0.0
 11
-196.1930599954335
 21
146.5606601717798
 31
0.0
  0
LINE
  5
4B5
100
AcDbEntity
  8
L6
100
AcDbLine
 10
-343.1930599954335
 20
0.0
 30
0.0
 11
-179.1930599954334
 21
0.0
 31
0.0
1001
ACAD
1000
ASC_BOUNDS
1002
{
1070
    19
1005
0
1002
}
  0
LINE
  5
4B6
100
AcDbEntity
  8
L1
100
AcDbLine
 10
-318.9930599954336
 20
132.4999999999999
 30
0.0
 11
-196.1930599954334
 21
132.4999999999999
 31
0.0
  0
LINE
  5
4B7
100
AcDbEntity
  8
L1
100
AcDbLine
 10
-194.1930599954334
 20
0.0
 30
0.0
 11
-194.1930599954334
 21
3.5
 31
0.0
  0
LINE
  5
4B8
100
AcDbEntity
  8
L6
100
AcDbLine
 10
-192.1930599954334
 20
0.0
 30
0.0
 11
-202.1930599954334
 21
0.0
 31
0.0
  0
LINE
  5
4B9
100
AcDbEntity
  8
L1
100
AcDbLine
 10
-194.1930599954334
 20
0.0
 30
0.0
 11
-194.1930599954334
 21
-3.5
 31
0.0
  0
LINE
  5
4BA
100
AcDbEntity
  8
L1
100
AcDbLine
 10
-194.1930599954334
 20
-3.5
 30
0.0
 11
-196.1930599954334
 21
-4.654700538379245
 31
0.0
  0
LINE
  5
4BB
100
AcDbEntity
  8
L1
100
AcDbLine
 10
-194.1930599954334
 20
3.5
 30
0.0
 11
-196.1930599954334
 21
4.654700538379302
 31
0.0
  0
LINE
  5
4BC
100
AcDbEntity
  8
L1
100
AcDbLine
 10
-194.1930599954334
 20
53.5
 30
0.0
 11
-196.1930599954334
 21
54.6547005383793
 31
0.0
  0
LINE
  5
4BD
100
AcDbEntity
  8
L1
100
AcDbLine
 10
-194.1930599954334
 20
50.0
 30
0.0
 11
-194.1930599954334
 21
53.5
 31
0.0
  0
LINE
  5
4BE
100
AcDbEntity
  8
L1
100
AcDbLine
 10
-194.1930599954334
 20
50.0
 30
0.0
 11
-194.1930599954334
 21
46.5
 31
0.0
  0
LINE
  5
4BF
100
AcDbEntity
  8
L1
100
AcDbLine
 10
-194.1930599954334
 20
46.5
 30
0.0
 11
-196.1930599954334
 21
45.34529946162069
 31
0.0
  0
LINE
  5
4C0
100
AcDbEntity
  8
L1
100
AcDbLine
 10
-194.1930599954334
 20
103.4999999999999
 30
0.0
 11
-196.1930599954334
 21
104.6547005383793
 31
0.0
  0
LINE
  5
4C1
100
AcDbEntity
  8
L1
100
AcDbLine
 10
-194.1930599954334
 20
100.0
 30
0.0
 11
-194.1930599954334
 21
96.5
 31
0.0
  0
LINE
  5
4C2
100
AcDbEntity
  8
L1
100
AcDbLine
 10
-194.1930599954334
 20
96.5
 30
0.0
 11
-196.1930599954334
 21
95.3452994616207
 31
0.0
  0
LINE
  5
4C3
100
AcDbEntity
  8
L1
100
AcDbLine
 10
-194.1930599954334
 20
100.0
 30
0.0
 11
-194.1930599954334
 21
103.4999999999999
 31
0.0
  0
LINE
  5
4C4
100
AcDbEntity
  8
L1
100
AcDbLine
 10
-194.1930599954334
 20
141.9999999999999
 30
0.0
 11
-194.1930599954334
 21
120.3999999999999
 31
0.0
  0
LINE
  5
4C5
100
AcDbEntity
  8
L1
100
AcDbLine
 10
-194.1930599954334
 20
131.3999999999999
 30
0.0
 11
-196.1930599954334
 21
131.3999999999999
 31
0.0
  0
LINE
  5
4C6
100
AcDbEntity
  8
L1
100
AcDbLine
 10
-194.1930599954334
 20
120.3999999999999
 30
0.0
 11
-196.1930599954334
 21
120.3999999999999
 31
0.0
  0
LINE
  5
4C7
100
AcDbEntity
  8
L1
100
AcDbLine
 10
-194.1930599954334
 20
122.8999999999999
 30
0.0
 11
-196.1930599954334
 21
122.8999999999999
 31
0.0
  0
LINE
  5
4C8
100
AcDbEntity
  8
L1
100
AcDbLine
 10
-196.1930599954334
 20
141.9999999999999
 30
0.0
 11
-194.1930599954334
 21
141.9999999999999
 31
0.0
  0
LINE
  5
4C9
100
AcDbEntity
  8
L1
100
AcDbLine
 10
-326.1930599954335
 20
145.0
 30
0.0
 11
-329.1930599954334
 21
144.1961524227066
 31
0.0
  0
LINE
  5
4CA
100
AcDbEntity
  8
L1
100
AcDbLine
 10
-318.9930599954335
 20
148.9999999999993
 30
0.0
 11
-326.1930599954335
 21
148.9999999999993
 31
0.0
  0
LINE
  5
4CB
100
AcDbEntity
  8
L1
100
AcDbLine
 10
-318.9930599954335
 20
148.9999999999993
 30
0.0
 11
-318.9144483265089
 21
147.4999999999996
 31
0.0
  0
ARC
  5
4CC
100
AcDbEntity
  8
L1
100
AcDbCircle
 10
-327.3528917210529
 20
147.2249272595737
 30
0.0
 40
8.442925555484189
100
AcDbArc
 50
351.9548828857621
 51
1.867042003575853
  0
LINE
  5
4CD
100
AcDbEntity
  8
L1
100
AcDbLine
 10
-444.8200368221814
 20
-145.4283406352948
 30
0.0
 11
-525.2483774574762
 21
-145.4283406352949
 31
0.0
  0
LINE
  5
4CE
100
AcDbEntity
  8
L1
100
AcDbLine
 10
-525.2483774574762
 20
-148.9999999999999
 30
0.0
 11
-428.7483774574761
 21
-149.0
 31
0.0
  0
LINE
  5
4CF
100
AcDbEntity
  8
L1
100
AcDbLine
 10
-495.2483774574761
 20
-45.99999999999994
 30
0.0
 11
-447.6195585977519
 21
-45.99999999999994
 31
0.0
  0
LINE
  5
4D0
100
AcDbEntity
  8
L1
100
AcDbLine
 10
-447.6195585977522
 20
-53.99999999999995
 30
0.0
 11
-495.2483774574761
 21
-53.99999999999995
 31
0.0
  0
LINE
  5
4D1
100
AcDbEntity
  8
L1
100
AcDbLine
 10
-447.6195585977522
 20
-3.999999999999943
 30
0.0
 11
-495.2483774574761
 21
-3.999999999999943
 31
0.0
  0
LINE
  5
4D2
100
AcDbEntity
  8
L1
100
AcDbLine
 10
-495.2483774574761
 20
-53.99999999999995
 30
0.0
 11
-495.2483774574761
 21
-79.99999999999994
 31
0.0
  0
LINE
  5
4D3
100
AcDbEntity
  8
L1
100
AcDbLine
 10
-555.2483774574762
 20
-53.99999999999995
 30
0.0
 11
-555.2483774574762
 21
-79.99999999999994
 31
0.0
  0
LINE
  5
4D4
100
AcDbEntity
  8
L1
100
AcDbLine
 10
-555.2483774574762
 20
-3.999999999999943
 30
0.0
 11
-555.2483774574762
 21
-45.99999999999994
 31
0.0
  0
LINE
  5
4D5
100
AcDbEntity
  8
L1
100
AcDbLine
 10
-602.8771963172001
 20
-3.999999999999943
 30
0.0
 11
-555.2483774574762
 21
-3.999999999999943
 31
0.0
  0
LINE
  5
4D6
100
AcDbEntity
  8
L1
100
AcDbLine
 10
-619.2483774574761
 20
-3.999999999999943
 30
0.0
 11
-607.6195585977521
 21
-3.999999999999943
 31
0.0
  0
LINE
  5
4D7
100
AcDbEntity
  8
L1
100
AcDbLine
 10
-555.2483774574762
 20
-45.99999999999994
 30
0.0
 11
-602.8771963172004
 21
-45.99999999999994
 31
0.0
  0
LINE
  5
4D8
100
AcDbEntity
  8
L1
100
AcDbLine
 10
-602.8771963172001
 20
-53.99999999999995
 30
0.0
 11
-555.2483774574762
 21
-53.99999999999995
 31
0.0
  0
CIRCLE
  5
4D9
100
AcDbEntity
  8
L1
100
AcDbCircle
 10
-605.2483774574762
 20
-50.0
 30
0.0
 40
3.5
  0
LINE
  5
4DA
100
AcDbEntity
  8
L6
 48
0.3
100
AcDbLine
 10
-612.2483774574761
 20
-50.0
 30
0.0
 11
-598.2483774574761
 21
-50.0
 31
0.0
  0
CIRCLE
  5
4DB
100
AcDbEntity
  8
L1
100
AcDbCircle
 10
-605.2483774574762
 20
-50.0
 30
0.0
 40
4.65
  0
LINE
  5
4DC
100
AcDbEntity
  8
L1
100
AcDbLine
 10
-619.2483774574761
 20
-53.99999999999995
 30
0.0
 11
-607.6195585977521
 21
-53.99999999999995
 31
0.0
  0
LINE
  5
4DD
100
AcDbEntity
  8
L1
100
AcDbLine
 10
-607.619558597752
 20
-45.99999999999994
 30
0.0
 11
-619.2483774574761
 21
-45.99999999999994
 31
0.0
  0
LINE
  5
4DE
100
AcDbEntity
  8
L1
100
AcDbLine
 10
-619.2483774574761
 20
-45.99999999999994
 30
0.0
 11
-619.2483774574761
 21
-53.99999999999995
 31
0.0
  0
LINE
  5
4DF
100
AcDbEntity
  8
L6
 48
0.3
100
AcDbLine
 10
-605.2483774574762
 20
-45.0
 30
0.0
 11
-605.2483774574762
 21
-55.0
 31
0.0
  0
LINE
  5
4E0
100
AcDbEntity
  8
L1
100
AcDbLine
 10
-495.2483774574761
 20
-3.999999999999943
 30
0.0
 11
-495.2483774574761
 21
-45.99999999999994
 31
0.0
  0
LINE
  5
4E1
100
AcDbEntity
  8
L1
100
AcDbLine
 10
-605.6767180927709
 20
-145.4283406352949
 30
0.0
 11
-525.2483774574762
 21
-145.4283406352956
 31
0.0
  0
LINE
  5
4E2
100
AcDbEntity
  8
L1
100
AcDbLine
 10
-621.7483774574762
 20
-149.0
 30
0.0
 11
-525.2483774574762
 21
-149.000000000001
 31
0.0
  0
LINE
  5
4E3
100
AcDbEntity
  8
L1
100
AcDbLine
 10
-529.2483774574761
 20
-79.99999999999994
 30
0.0
 11
-555.2483774574762
 21
-79.99999999999994
 31
0.0
  0
CIRCLE
  5
4E4
100
AcDbEntity
  8
L1
100
AcDbCircle
 10
-605.2483774574762
 20
-100.0
 30
0.0
 40
3.5
  0
LINE
  5
4E5
100
AcDbEntity
  8
L6
 48
0.3
100
AcDbLine
 10
-612.2483774574761
 20
-100.0
 30
0.0
 11
-598.2483774574761
 21
-100.0
 31
0.0
  0
CIRCLE
  5
4E6
100
AcDbEntity
  8
L1
100
AcDbCircle
 10
-605.2483774574762
 20
-100.0
 30
0.0
 40
4.65
  0
LINE
  5
4E7
100
AcDbEntity
  8
L6
 48
0.3
100
AcDbLine
 10
-605.2483774574762
 20
-95.0
 30
0.0
 11
-605.2483774574762
 21
-105.0
 31
0.0
  0
LINE
  5
4E8
100
AcDbEntity
  8
L6
 48
0.3
100
AcDbLine
 10
-611.2483774574761
 20
-145.0
 30
0.0
 11
-611.2483774574761
 21
-127.0
 31
0.0
  0
LINE
  5
4E9
100
AcDbEntity
  8
L1
100
AcDbLine
 10
-622.7483774574762
 20
-145.0
 30
0.0
 11
-622.7483774574761
 21
-132.4999999999999
 31
0.0
  0
LINE
  5
4EA
100
AcDbEntity
  8
L6
 48
0.3
100
AcDbLine
 10
-620.2483774574761
 20
-136.0
 30
0.0
 11
-602.2483774574761
 21
-136.0
 31
0.0
  0
CIRCLE
  5
4EB
100
AcDbEntity
  8
L1
100
AcDbCircle
 10
-611.2483774574761
 20
-136.0
 30
0.0
 40
5.45
  0
LINE
  5
4EC
100
AcDbEntity
  8
L1
100
AcDbLine
 10
-617.2483774574762
 20
-120.5
 30
0.0
 11
-604.8280672406933
 21
-120.5
 31
0.0
  0
LINE
  5
4ED
100
AcDbEntity
  8
L1
100
AcDbLine
 10
-617.2483774574762
 20
-122.9999999999999
 30
0.0
 11
-605.863601146626
 21
-122.9999999999999
 31
0.0
  0
LINE
  5
4EE
100
AcDbEntity
  8
L1
100
AcDbLine
 10
-622.7483774574761
 20
-132.4999999999999
 30
0.0
 11
-620.6767180927711
 21
-130.428340635295
 31
0.0
  0
LINE
  5
4EF
100
AcDbEntity
  8
L1
100
AcDbLine
 10
-617.2483774574762
 20
-122.9999999999999
 30
0.0
 11
-617.2483774574762
 21
-120.5
 31
0.0
  0
CIRCLE
  5
4F0
100
AcDbEntity
  8
L1
100
AcDbCircle
 10
-611.2483774574761
 20
-136.0
 30
0.0
 40
3.45
  0
LINE
  5
4F1
100
AcDbEntity
  8
L1
100
AcDbLine
 10
-595.7483774574761
 20
-141.9999999999999
 30
0.0
 11
-595.748377457476
 21
-129.5796897832171
 31
0.0
  0
LINE
  5
4F2
100
AcDbEntity
  8
L1
100
AcDbLine
 10
-598.2483774574761
 20
-141.9999999999999
 30
0.0
 11
-598.248377457476
 21
-130.6152236891498
 31
0.0
  0
LINE
  5
4F3
100
AcDbEntity
  8
L1
100
AcDbLine
 10
-604.8280672406933
 20
-120.5
 30
0.0
 11
-595.748377457476
 21
-129.5796897832171
 31
0.0
  0
LINE
  5
4F4
100
AcDbEntity
  8
L1
100
AcDbLine
 10
-605.863601146626
 20
-122.9999999999999
 30
0.0
 11
-598.248377457476
 21
-130.6152236891498
 31
0.0
  0
LINE
  5
4F5
100
AcDbEntity
  8
L1
100
AcDbLine
 10
-598.2483774574761
 20
-141.9999999999999
 30
0.0
 11
-595.7483774574761
 21
-141.9999999999999
 31
0.0
  0
LINE
  5
4F6
100
AcDbEntity
  8
L1
100
AcDbLine
 10
-607.7483774574763
 20
-147.5
 30
0.0
 11
-605.6767180927711
 21
-145.4283406352949
 31
0.0
  0
LINE
  5
4F7
100
AcDbEntity
  8
L1
100
AcDbLine
 10
-620.2483774574763
 20
-147.5
 30
0.0
 11
-607.7483774574763
 21
-147.5
 31
0.0
  0
ARC
  5
4F8
100
AcDbEntity
  8
L1
100
AcDbCircle
 10
-622.3090376292561
 20
-147.0606601717798
 30
0.0
 40
1.0
100
AcDbArc
 50
359.9999999999973
 51
90.0000000000027
  0
ARC
  5
4F9
100
AcDbEntity
  8
L1
100
AcDbCircle
 10
-620.2483774574763
 20
-145.0
 30
0.0
 40
2.5
100
AcDbArc
 50
180.0
 51
205.1040902502147
  0
LINE
  5
4FA
100
AcDbEntity
  8
L1
100
AcDbLine
 10
-621.3090376292561
 20
-147.2638462845343
 30
0.0
 11
-621.3090376292561
 21
-147.0606601717799
 31
0.0
  0
LINE
  5
4FB
100
AcDbEntity
  8
L1
100
AcDbLine
 10
-622.5122237420106
 20
-146.0606601717798
 30
0.0
 11
-622.3090376292561
 21
-146.0606601717798
 31
0.0
  0
ARC
  5
4FC
100
AcDbEntity
  8
L1
100
AcDbCircle
 10
-621.7483774574762
 20
-146.5
 30
0.0
 40
2.5
100
AcDbArc
 50
180.0
 51
269.9999999999995
  0
ARC
  5
4FD
100
AcDbEntity
  8
L1
100
AcDbCircle
 10
-620.2483774574763
 20
-145.0
 30
0.0
 40
2.5
100
AcDbArc
 50
244.8959097497753
 51
269.9999999999996
  0
LINE
  5
4FE
100
AcDbEntity
  8
L6
 48
0.3
100
AcDbLine
 10
-580.2483774574762
 20
-130.0
 30
0.0
 11
-570.2483774574761
 21
-130.0
 31
0.0
  0
CIRCLE
  5
4FF
100
AcDbEntity
  8
L1
100
AcDbCircle
 10
-575.2483774574762
 20
-130.0
 30
0.0
 40
4.65
  0
CIRCLE
  5
500
100
AcDbEntity
  8
L1
100
AcDbCircle
 10
-575.2483774574762
 20
-130.0
 30
0.0
 40
3.5
  0
LINE
  5
501
100
AcDbEntity
  8
L6
 48
0.3
100
AcDbLine
 10
-575.2483774574762
 20
-125.0
 30
0.0
 11
-575.2483774574762
 21
-135.0
 31
0.0
  0
LINE
  5
502
100
AcDbEntity
  8
L1
100
AcDbLine
 10
-529.2483774574763
 20
-79.99999999999989
 30
0.0
 11
-529.2483774574761
 21
-127.6288188597241
 31
0.0
  0
LINE
  5
503
100
AcDbEntity
  8
L1
100
AcDbLine
 10
-521.248377457476
 20
-79.99999999999989
 30
0.0
 11
-521.2483774574762
 21
-127.6288188597241
 31
0.0
  0
LINE
  5
505
100
AcDbEntity
  8
L1
100
AcDbLine
 10
-521.2483774574762
 20
-79.99999999999994
 30
0.0
 11
-495.2483774574761
 21
-79.99999999999994
 31
0.0
  0
ARC
  5
507
100
AcDbEntity
  8
L1
100
AcDbCircle
 10
-525.2483774574762
 20
-130.0
 30
0.0
 40
4.65
100
AcDbArc
 50
90.0
 51
270.0
  0
ARC
  5
508
100
AcDbEntity
  8
L1
100
AcDbCircle
 10
-525.2483774574762
 20
-130.0
 30
0.0
 40
3.5
100
AcDbArc
 50
90.0
 51
270.0
  0
ARC
  5
50A
100
AcDbEntity
  8
L1
100
AcDbCircle
 10
-525.2483774574762
 20
-130.0
 30
0.0
 40
3.5
100
AcDbArc
 50
270.0
 51
90.0
  0
ARC
  5
50B
100
AcDbEntity
  8
L1
100
AcDbCircle
 10
-525.2483774574762
 20
-130.0
 30
0.0
 40
4.65
100
AcDbArc
 50
270.0
 51
90.0
  0
LINE
  5
50C
100
AcDbEntity
  8
L6
 48
0.3
100
AcDbLine
 10
-530.2483774574762
 20
-130.0
 30
0.0
 11
-520.2483774574761
 21
-130.0
 31
0.0
  0
LINE
  5
50D
100
AcDbEntity
  8
L6
 48
0.3
100
AcDbLine
 10
-520.2483774574761
 20
-130.0
 30
0.0
 11
-530.2483774574762
 21
-130.0
 31
0.0
  0
LINE
  5
50E
100
AcDbEntity
  8
L1
100
AcDbLine
 10
-529.2483774574763
 20
-143.9999999999999
 30
0.0
 11
-525.2483774574762
 21
-143.9999999999999
 31
0.0
  0
LINE
  5
50F
100
AcDbEntity
  8
L1
100
AcDbLine
 10
-529.2483774574761
 20
-132.3711811402759
 30
0.0
 11
-529.2483774574761
 21
-143.9999999999999
 31
0.0
  0
LINE
  5
510
100
AcDbEntity
  8
L1
100
AcDbLine
 10
-521.248377457476
 20
-143.9999999999999
 30
0.0
 11
-525.2483774574762
 21
-143.9999999999999
 31
0.0
  0
LINE
  5
511
100
AcDbEntity
  8
L1
100
AcDbLine
 10
-521.2483774574762
 20
-132.3711811402759
 30
0.0
 11
-521.2483774574762
 21
-143.9999999999999
 31
0.0
  0
LINE
  5
512
100
AcDbEntity
  8
L1
100
AcDbLine
 10
-431.2483774574761
 20
-3.999999999999943
 30
0.0
 11
-442.8771963172001
 21
-3.999999999999943
 31
0.0
  0
LINE
  5
513
100
AcDbEntity
  8
L6
 48
0.3
100
AcDbLine
 10
-438.2483774574762
 20
-50.0
 30
0.0
 11
-452.2483774574761
 21
-50.0
 31
0.0
  0
CIRCLE
  5
514
100
AcDbEntity
  8
L1
100
AcDbCircle
 10
-445.2483774574761
 20
-50.0
 30
0.0
 40
4.65
  0
CIRCLE
  5
515
100
AcDbEntity
  8
L1
100
AcDbCircle
 10
-445.2483774574761
 20
-50.0
 30
0.0
 40
3.5
  0
LINE
  5
516
100
AcDbEntity
  8
L6
 48
0.3
100
AcDbLine
 10
-445.2483774574761
 20
-45.0
 30
0.0
 11
-445.2483774574761
 21
-55.0
 31
0.0
  0
LINE
  5
517
100
AcDbEntity
  8
L1
100
AcDbLine
 10
-431.2483774574761
 20
-53.99999999999995
 30
0.0
 11
-442.8771963172001
 21
-53.99999999999995
 31
0.0
  0
LINE
  5
518
100
AcDbEntity
  8
L1
100
AcDbLine
 10
-442.8771963172003
 20
-45.99999999999994
 30
0.0
 11
-431.2483774574761
 21
-45.99999999999994
 31
0.0
  0
LINE
  5
519
100
AcDbEntity
  8
L1
100
AcDbLine
 10
-431.2483774574761
 20
-45.99999999999994
 30
0.0
 11
-431.2483774574761
 21
-53.99999999999995
 31
0.0
  0
LINE
  5
51A
100
AcDbEntity
  8
L6
 48
0.3
100
AcDbLine
 10
-438.2483774574762
 20
-100.0
 30
0.0
 11
-452.2483774574761
 21
-100.0
 31
0.0
  0
CIRCLE
  5
51B
100
AcDbEntity
  8
L1
100
AcDbCircle
 10
-445.2483774574761
 20
-100.0
 30
0.0
 40
4.65
  0
CIRCLE
  5
51C
100
AcDbEntity
  8
L1
100
AcDbCircle
 10
-445.2483774574761
 20
-100.0
 30
0.0
 40
3.5
  0
LINE
  5
51D
100
AcDbEntity
  8
L6
 48
0.3
100
AcDbLine
 10
-445.2483774574761
 20
-95.0
 30
0.0
 11
-445.2483774574761
 21
-105.0
 31
0.0
  0
LINE
  5
51E
100
AcDbEntity
  8
L6
 48
0.3
100
AcDbLine
 10
-430.2483774574762
 20
-136.0
 30
0.0
 11
-448.2483774574761
 21
-136.0
 31
0.0
  0
LINE
  5
51F
100
AcDbEntity
  8
L1
100
AcDbLine
 10
-445.668687674259
 20
-120.5
 30
0.0
 11
-454.7483774574763
 21
-129.5796897832171
 31
0.0
  0
LINE
  5
520
100
AcDbEntity
  8
L1
100
AcDbLine
 10
-444.6331537683263
 20
-122.9999999999999
 30
0.0
 11
-452.2483774574762
 21
-130.6152236891498
 31
0.0
  0
CIRCLE
  5
521
100
AcDbEntity
  8
L1
100
AcDbCircle
 10
-475.2483774574762
 20
-130.0
 30
0.0
 40
4.65
  0
CIRCLE
  5
522
100
AcDbEntity
  8
L1
100
AcDbCircle
 10
-475.2483774574762
 20
-130.0
 30
0.0
 40
3.5
  0
LINE
  5
523
100
AcDbEntity
  8
L6
 48
0.3
100
AcDbLine
 10
-475.2483774574762
 20
-125.0
 30
0.0
 11
-475.2483774574762
 21
-135.0
 31
0.0
  0
LINE
  5
524
100
AcDbEntity
  8
L6
 48
0.3
100
AcDbLine
 10
-470.2483774574761
 20
-130.0
 30
0.0
 11
-480.2483774574762
 21
-130.0
 31
0.0
  0
LINE
  5
525
100
AcDbEntity
  8
L1
100
AcDbLine
 10
-454.7483774574762
 20
-141.9999999999999
 30
0.0
 11
-454.7483774574763
 21
-129.5796897832171
 31
0.0
  0
LINE
  5
526
100
AcDbEntity
  8
L1
100
AcDbLine
 10
-452.2483774574761
 20
-141.9999999999999
 30
0.0
 11
-452.2483774574762
 21
-130.6152236891498
 31
0.0
  0
LINE
  5
527
100
AcDbEntity
  8
L1
100
AcDbLine
 10
-452.2483774574761
 20
-141.9999999999999
 30
0.0
 11
-454.7483774574762
 21
-141.9999999999999
 31
0.0
  0
LINE
  5
528
100
AcDbEntity
  8
L1
100
AcDbLine
 10
-427.7483774574761
 20
-145.0
 30
0.0
 11
-427.7483774574762
 21
-132.5
 31
0.0
  0
LINE
  5
529
100
AcDbEntity
  8
L6
 48
0.3
100
AcDbLine
 10
-439.2483774574762
 20
-145.0
 30
0.0
 11
-439.2483774574762
 21
-127.0
 31
0.0
  0
LINE
  5
52A
100
AcDbEntity
  8
L1
100
AcDbLine
 10
-427.7483774574761
 20
-132.5
 30
0.0
 11
-429.8200368221813
 21
-130.4283406352949
 31
0.0
  0
CIRCLE
  5
52B
100
AcDbEntity
  8
L1
100
AcDbCircle
 10
-439.2483774574762
 20
-136.0
 30
0.0
 40
5.45
  0
LINE
  5
52C
100
AcDbEntity
  8
L1
100
AcDbLine
 10
-433.2483774574761
 20
-120.5
 30
0.0
 11
-445.668687674259
 21
-120.5
 31
0.0
  0
LINE
  5
52D
100
AcDbEntity
  8
L1
100
AcDbLine
 10
-433.2483774574761
 20
-122.9999999999999
 30
0.0
 11
-444.6331537683263
 21
-122.9999999999999
 31
0.0
  0
LINE
  5
52E
100
AcDbEntity
  8
L1
100
AcDbLine
 10
-433.2483774574761
 20
-122.9999999999999
 30
0.0
 11
-433.2483774574761
 21
-120.5
 31
0.0
  0
CIRCLE
  5
52F
100
AcDbEntity
  8
L1
100
AcDbCircle
 10
-439.2483774574762
 20
-136.0
 30
0.0
 40
3.45
  0
ARC
  5
530
100
AcDbEntity
  8
L1
100
AcDbCircle
 10
-428.1877172856962
 20
-147.0606601717798
 30
0.0
 40
1.0
100
AcDbArc
 50
89.99999999999729
 51
180.0000000000026
  0
ARC
  5
531
100
AcDbEntity
  8
L1
100
AcDbCircle
 10
-428.7483774574761
 20
-146.5
 30
0.0
 40
2.5
100
AcDbArc
 50
270.0
 51
0.0
  0
LINE
  5
532
100
AcDbEntity
  8
L1
100
AcDbLine
 10
-430.2483774574762
 20
-147.5
 30
0.0
 11
-442.7483774574763
 21
-147.5
 31
0.0
  0
LINE
  5
533
100
AcDbEntity
  8
L1
100
AcDbLine
 10
-442.7483774574762
 20
-147.5
 30
0.0
 11
-444.8200368221813
 21
-145.4283406352948
 31
0.0
  0
ARC
  5
534
100
AcDbEntity
  8
L1
100
AcDbCircle
 10
-430.2483774574762
 20
-145.0
 30
0.0
 40
2.5
100
AcDbArc
 50
270.0
 51
295.1040902502287
  0
LINE
  5
535
100
AcDbEntity
  8
L1
100
AcDbLine
 10
-429.1877172856962
 20
-147.2638462845343
 30
0.0
 11
-429.1877172856962
 21
-147.0606601717799
 31
0.0
  0
ARC
  5
536
100
AcDbEntity
  8
L1
100
AcDbCircle
 10
-430.248377457476
 20
-145.0
 30
0.0
 40
2.5
100
AcDbArc
 50
334.8959097497888
 51
0.0
  0
LINE
  5
537
100
AcDbEntity
  8
L1
100
AcDbLine
 10
-427.9845311729417
 20
-146.0606601717798
 30
0.0
 11
-428.1877172856962
 21
-146.0606601717798
 31
0.0
  0
LINE
  5
53A
100
AcDbEntity
  8
L2
100
AcDbLine
 10
-9.861244427769406
 20
229.2247345984355
 30
0.0
 11
0.1387555722305933
 21
229.2247345984355
 31
0.0
  0
LINE
  5
591
100
AcDbEntity
  8
L1
100
AcDbLine
 10
-83.3612444277694
 20
218.2247345984356
 30
0.0
 11
-84.51594496614825
 21
220.2247345984346
 31
0.0
1001
ACAD
1000
ASC_BOUNDS
1002
{
1070
    19
1002
}
  0
LINE
  5
592
100
AcDbEntity
  8
L1
100
AcDbLine
 10
-91.86124442776941
 20
218.2247345984356
 30
0.0
 11
-83.3612444277694
 21
218.2247345984356
 31
0.0
  0
LINE
  5
593
100
AcDbEntity
  8
L2
 48
2.0
100
AcDbLine
 10
-91.86124442776941
 20
353.2247345984355
 30
0.0
 11
-91.86124442776939
 21
227.2247345984355
 31
0.0
  0
LINE
  5
595
100
AcDbEntity
  8
L2
100
AcDbLine
 10
-9.861244427769406
 20
229.2247345984355
 30
0.0
 11
-9.909242200618564
 21
223.7247345984356
 31
0.0
  0
LINE
  5
596
100
AcDbEntity
  8
L2
100
AcDbLine
 10
-4.861244427769406
 20
229.2247345984355
 30
0.0
 11
-5.053918018613899
 21
223.7072848500843
 31
0.0
  0
ARC
  5
597
100
AcDbEntity
  8
L2
100
AcDbCircle
 10
-5.553613432123484
 20
223.7247345984355
 30
0.0
 40
0.5
100
AcDbArc
 50
270.0
 51
358.0000000000001
1001
ACAD
1000
ASC_BOUNDS
1002
{
1070
    19
1002
}
  0
LINE
  5
598
100
AcDbEntity
  8
L1
100
AcDbLine
 10
-3.361244427769406
 20
218.2247345984356
 30
0.0
 11
-4.515944966148822
 21
220.2247345984356
 31
0.0
  0
ARC
  5
599
100
AcDbEntity
  8
L2
100
AcDbCircle
 10
-10.40893761412826
 20
223.7421843467868
 30
0.0
 40
0.5
100
AcDbArc
 50
270.0
 51
358.0000000000001
1001
ACAD
1000
ASC_BOUNDS
1002
{
1070
    19
1002
}
  0
LINE
  5
59A
100
AcDbEntity
  8
L1
100
AcDbLine
 10
-49.8612444277694
 20
218.2247345984356
 30
0.0
 11
-53.36124442776941
 21
218.2247345984356
 31
0.0
  0
LINE
  5
5A1
100
AcDbEntity
  8
L1
100
AcDbLine
 10
-46.36124442776941
 20
218.2247345984356
 30
0.0
 11
-45.20654388939021
 21
220.2247345984356
 31
0.0
  0
LINE
  5
5A2
100
AcDbEntity
  8
L1
100
AcDbLine
 10
-49.8612444277694
 20
218.2247345984356
 30
0.0
 11
-46.36124442776941
 21
218.2247345984356
 31
0.0
  0
LINE
  5
5A7
100
AcDbEntity
  8
L1
100
AcDbLine
 10
-53.36124442776941
 20
218.2247345984356
 30
0.0
 11
-54.51594496614882
 21
220.2247345984356
 31
0.0
  0
LINE
  5
5AD
100
AcDbEntity
  8
L1
100
AcDbLine
 10
-76.36124442776941
 20
218.2247345984356
 30
0.0
 11
-75.20654388939021
 21
220.2247345984356
 31
0.0
1001
ACAD
1000
ASC_BOUNDS
1002
{
1070
    19
1002
}
  0
LINE
  5
5AE
100
AcDbEntity
  8
L1
100
AcDbLine
 10
-76.36124442776941
 20
218.2247345984356
 30
0.0
 11
-70.26124442776938
 21
218.2247345984356
 31
0.0
  0
LINE
  5
5B0
100
AcDbEntity
  8
L1
100
AcDbLine
 10
-72.76124442776938
 20
218.2247345984356
 30
0.0
 11
-72.76124442776938
 21
220.2247345984356
 31
0.0
  0
LINE
  5
5B1
100
AcDbEntity
  8
L1
100
AcDbLine
 10
-70.26124442776938
 20
218.2247345984356
 30
0.0
 11
-70.26124442776938
 21
220.2247345984356
 31
0.0
  0
LINE
  5
5B4
100
AcDbEntity
  8
L1
100
AcDbLine
 10
-83.3612444277694
 20
218.2247345984356
 30
0.0
 11
-76.36124442776941
 21
218.2247345984356
 31
0.0
1001
ACAD
1000
ASC_BOUNDS
1002
{
1070
    19
1002
}
  0
LINE
  5
5CA
100
AcDbEntity
  8
L1
100
AcDbLine
 10
-97.3612444277694
 20
220.2247345984358
 30
0.0
 11
-97.36124442776953
 21
342.946122929511
 31
0.0
  0
LINE
  5
5CF
100
AcDbEntity
  8
L1
100
AcDbLine
 10
-91.86124442776941
 20
220.2247345984353
 30
0.0
 11
-91.86124442776941
 21
218.2247345984356
 31
0.0
  0
LINE
  5
5D2
100
AcDbEntity
  8
L1
100
AcDbLine
 10
-97.3612444277694
 20
220.224734598436
 30
0.0
 11
-95.28958506306436
 21
220.2247345984357
 31
0.0
  0
LINE
  5
5DA
100
AcDbEntity
  8
L1
100
AcDbLine
 10
-98.86124442776941
 20
343.0247345984355
 30
0.0
 11
-97.36124442776953
 21
342.9461229295109
 31
0.0
1001
ACAD
1000
ASC_BOUNDS
1002
{
1070
    19
1002
}
  0
LINE
  5
5DB
100
AcDbEntity
  8
L1
100
AcDbLine
 10
-98.86124442776941
 20
343.0247345984355
 30
0.0
 11
-98.86124442776941
 21
350.2247345984355
 31
0.0
1001
ACAD
1000
ASC_BOUNDS
1002
{
1070
    19
1002
}
  0
LINE
  5
5DC
100
AcDbEntity
  8
L1
100
AcDbLine
 10
-94.8612444277694
 20
350.2247345984355
 30
0.0
 11
-94.05739685047604
 21
353.2247345984355
 31
0.0
1001
ACAD
1000
ASC_BOUNDS
1002
{
1070
    19
1002
}
  0
LINE
  5
5DD
100
AcDbEntity
  8
L1
100
AcDbLine
 10
-94.05739685047604
 20
353.2247345984355
 30
0.0
 11
-93.62425074003658
 21
353.2247345984355
 31
0.0
1001
ACAD
1000
ASC_BOUNDS
1002
{
1070
    19
1002
}
  0
LINE
  5
5DE
100
AcDbEntity
  8
L1
100
AcDbLine
 10
-98.86124442776941
 20
350.2247345984355
 30
0.0
 11
-94.8612444277694
 21
350.2247345984355
 31
0.0
1001
ACAD
1000
ASC_BOUNDS
1002
{
1070
    19
1002
}
  0
LINE
  5
105D
100
AcDbEntity
  8
L1
100
AcDbLine
 10
-82.3612444277694
 20
220.2247345984356
 30
0.0
 11
-82.3612444277694
 21
343.0247345984355
 31
0.0
  0
LINE
  5
105E
100
AcDbEntity
  8
L1
100
AcDbLine
 10
82.63875557223059
 20
220.2247345984356
 30
0.0
 11
82.63875557223059
 21
343.0247345984355
 31
0.0
  0
LINE
  5
1060
100
AcDbEntity
  8
L1
100
AcDbLine
 10
99.13875557223118
 20
343.0247345984355
 30
0.0
 11
-98.86124442776941
 21
343.0247345984355
 31
0.0
  0
LINE
  5
1075
100
AcDbEntity
  8
L1
100
AcDbLine
 10
-97.36124442776935
 20
220.2247345984356
 30
0.0
 11
97.63875557223061
 21
220.2247345984356
 31
0.0
  0
LINE
  5
108E
100
AcDbEntity
  8
L2
 48
2.0
100
AcDbLine
 10
-199.6930599954334
 20
-80.09642166001162
 30
0.0
 11
-199.6930599954334
 21
78.40110312514775
 31
0.0
  0
LINE
  5
108F
100
AcDbEntity
  8
L1
 48
2.0
100
AcDbLine
 10
-195.6930599954334
 20
-95.63397459621558
 30
0.0
 11
-195.6930599954334
 21
-54.36602540378448
 31
0.0
  0
LINE
  5
1090
100
AcDbEntity
  8
L1
100
AcDbLine
 10
-195.6930599954334
 20
143.9999999999999
 30
0.0
 11
-196.1930599954334
 21
143.9999999999999
 31
0.0
  0
LINE
  5
1093
100
AcDbEntity
  8
L1
100
AcDbLine
 10
-195.6930599954334
 20
143.9999999999999
 30
0.0
 11
-195.6930599954334
 21
141.9999999999999
 31
0.0
  0
LINE
  5
1094
100
AcDbEntity
  8
L1
100
AcDbLine
 10
-195.6930599954334
 20
120.3999999999999
 30
0.0
 11
-195.6930599954334
 21
104.3660254037844
 31
0.0
  0
LINE
  5
1095
100
AcDbEntity
  8
L1
100
AcDbLine
 10
-195.6930599954334
 20
-143.9999999999999
 30
0.0
 11
-195.6930599954334
 21
-141.9999999999999
 31
0.0
  0
LINE
  5
1096
100
AcDbEntity
  8
L1
100
AcDbLine
 10
-195.6930599954334
 20
-143.9999999999999
 30
0.0
 11
-196.1930599954334
 21
-143.9999999999999
 31
0.0
  0
LINE
  5
1097
100
AcDbEntity
  8
L1
100
AcDbLine
 10
-195.6930599954334
 20
-120.3999999999999
 30
0.0
 11
-195.6930599954334
 21
-104.3660254037844
 31
0.0
  0
LINE
  5
1098
100
AcDbEntity
  8
L1
 48
2.0
100
AcDbLine
 10
-195.6930599954334
 20
4.366025403784476
 30
0.0
 11
-195.6930599954334
 21
45.63397459621552
 31
0.0
  0
LINE
  5
1099
100
AcDbEntity
  8
L1
 48
2.0
100
AcDbLine
 10
-195.6930599954334
 20
-45.63397459621552
 30
0.0
 11
-195.6930599954334
 21
-4.366025403784419
 31
0.0
  0
LINE
  5
109A
100
AcDbEntity
  8
L1
 48
2.0
100
AcDbLine
 10
-195.6930599954334
 20
54.36602540378448
 30
0.0
 11
-195.6930599954334
 21
95.63397459621553
 31
0.0
  0
LINE
  5
10BE
100
AcDbEntity
  8
L1
100
AcDbLine
 10
-94.86124442776953
 20
219.7247345984355
 30
0.0
 11
-91.86124442776941
 21
219.7247345984355
 31
0.0
1001
ACAD
1000
ASC_BOUNDS
1002
{
1070
    19
1005
0
1002
}
  0
LINE
  5
10C0
100
AcDbEntity
  8
L1
100
AcDbLine
 10
-94.86124442776953
 20
219.7247345984355
 30
0.0
 11
-94.86124442776953
 21
220.2247345984356
 31
0.0
1001
ACAD
1000
ASC_BOUNDS
1002
{
1070
    19
1005
0
1002
}
  0
LINE
  5
10C4
100
AcDbEntity
  8
L1
100
AcDbLine
 10
-70.26124442776938
 20
219.7247345984355
 30
0.0
 11
-54.22726983155394
 21
219.7247345984355
 31
0.0
1001
ACAD
1000
ASC_BOUNDS
1002
{
1070
    19
1005
0
1002
}
  0
LINE
  5
10C5
100
AcDbEntity
  8
L1
100
AcDbLine
 10
-45.49521902398504
 20
219.7247345984355
 30
0.0
 11
-4.22726983155394
 21
219.7247345984355
 31
0.0
1001
ACAD
1000
ASC_BOUNDS
1002
{
1070
    19
1005
0
1002
}
  0
LINE
  5
10C6
100
AcDbEntity
  8
L1
100
AcDbLine
 10
45.77273016844623
 20
219.7247345984355
 30
0.0
 11
4.504780976015126
 21
219.7247345984355
 31
0.0
1001
ACAD
1000
ASC_BOUNDS
1002
{
1070
    19
1005
0
1002
}
  0
LINE
  5
10C7
100
AcDbEntity
  8
L1
100
AcDbLine
 10
70.53875557223057
 20
219.7247345984355
 30
0.0
 11
54.50478097601513
 21
219.7247345984355
 31
0.0
1001
ACAD
1000
ASC_BOUNDS
1002
{
1070
    19
1005
0
1002
}
  0
LINE
  5
10C9
100
AcDbEntity
  8
L1
100
AcDbLine
 10
95.13875557223071
 20
219.7247345984355
 30
0.0
 11
92.1387555722306
 21
219.7247345984355
 31
0.0
1001
ACAD
1000
ASC_BOUNDS
1002
{
1070
    19
1005
0
1002
}
  0
LINE
  5
10CA
100
AcDbEntity
  8
L1
100
AcDbLine
 10
95.13875557223071
 20
219.7247345984355
 30
0.0
 11
95.13875557223071
 21
220.2247345984356
 31
0.0
1001
ACAD
1000
ASC_BOUNDS
1002
{
1070
    19
1005
0
1002
}
  0
LINE
  5
10D6
100
AcDbEntity
  8
L2
 48
2.0
100
AcDbLine
 10
-199.1930599954334
 20
78.40110312514775
 30
0.0
 11
-199.1930599954335
 21
138.0
 31
0.0
  0
LINE
  5
10D7
100
AcDbEntity
  8
L2
 48
2.0
100
AcDbLine
 10
-199.1930599954334
 20
-137.9999999999999
 30
0.0
 11
-199.1930599954334
 21
-80.17724576335309
 31
0.0
  0
LINE
  5
10E4
100
AcDbEntity
  8
L2
 48
2.0
100
AcDbLine
 10
-329.1930599954334
 20
141.9999999999999
 30
0.0
 11
-203.1930599954335
 21
141.9999999999999
 31
0.0
  0
ARC
  5
10EF
100
AcDbEntity
  8
L2
100
AcDbCircle
 10
-87.86124442776939
 20
227.2247345984355
 30
0.0
 40
4.0
100
AcDbArc
 50
180.0
 51
270.0
1001
ACAD
1000
ASC_BOUNDS
1002
{
1070
    19
1002
}
  0
LINE
  5
10F0
100
AcDbEntity
  8
L2
 48
2.0
100
AcDbLine
 10
92.1387555722306
 20
353.2247345984355
 30
0.0
 11
92.13875557223056
 21
227.2247345984355
 31
0.0
  0
ARC
  5
10F1
100
AcDbEntity
  8
L2
 48
2.0
100
AcDbCircle
 10
88.13875557223056
 20
227.2247345984355
 30
0.0
 40
4.0
100
AcDbArc
 50
270.0
 51
360.0
  0
ARC
  5
10F5
100
AcDbEntity
  8
L2
100
AcDbCircle
 10
-200.2105097437847
 20
10.54769318635885
 30
0.0
 40
0.5
100
AcDbArc
 50
271.9999999999998
 51
0.0
1001
ACAD
1000
ASC_BOUNDS
1002
{
1070
    19
1002
}
  0
LINE
  5
10F6
100
AcDbEntity
  8
L2
100
AcDbLine
 10
-205.6930599954335
 20
10.0
 30
0.0
 11
-200.1930599954335
 21
10.04799777284915
 31
0.0
  0
LINE
  5
10F9
100
AcDbEntity
  8
L2
100
AcDbLine
 10
-205.6930599954335
 20
-10.0
 30
0.0
 11
-205.6930599954335
 21
0.0
 31
0.0
  0
LINE
  5
10FA
100
AcDbEntity
  8
L2
100
AcDbLine
 10
-205.6930599954335
 20
-10.0
 30
0.0
 11
-200.1930599954335
 21
-10.04799777284915
 31
0.0
  0
ARC
  5
10FB
100
AcDbEntity
  8
L2
100
AcDbCircle
 10
-200.2105097437847
 20
-10.54769318635885
 30
0.0
 40
0.5
100
AcDbArc
 50
0.0
 51
88.00000000000009
1001
ACAD
1000
ASC_BOUNDS
1002
{
1070
    19
1002
}
  0
LINE
  5
10FC
100
AcDbEntity
  8
L2
100
AcDbLine
 10
-205.6930599954335
 20
5.0
 30
0.0
 11
-200.1756102470822
 21
5.192673590844492
 31
0.0
  0
LINE
  5
10FD
100
AcDbEntity
  8
L2
100
AcDbLine
 10
-205.6930599954335
 20
-5.0
 30
0.0
 11
-200.1756102470822
 21
-5.192673590844492
 31
0.0
  0
ARC
  5
10FF
100
AcDbEntity
  8
L2
100
AcDbCircle
 10
-200.1930599954335
 20
-5.692369004354077
 30
0.0
 40
0.5
100
AcDbArc
 50
0.0
 51
88.00000000000009
1001
ACAD
1000
ASC_BOUNDS
1002
{
1070
    19
1002
}
  0
ARC
  5
1101
100
AcDbEntity
  8
L2
100
AcDbCircle
 10
-200.1930599954335
 20
5.692369004354077
 30
0.0
 40
0.5
100
AcDbArc
 50
271.9999999999998
 51
0.0
1001
ACAD
1000
ASC_BOUNDS
1002
{
1070
    19
1002
}
  0
LINE
  5
1103
100
AcDbEntity
  8
L2
100
AcDbLine
 10
-205.6930599954335
 20
10.0
 30
0.0
 11
-205.6930599954335
 21
0.0
 31
0.0
  0
LINE
  5
1105
100
AcDbEntity
  8
L2
 48
2.0
100
AcDbLine
 10
-329.1930599954334
 20
-141.9999999999999
 30
0.0
 11
-203.1930599954335
 21
-141.9999999999999
 31
0.0
  0
ARC
  5
1106
100
AcDbEntity
  8
L2
 48
2.0
100
AcDbCircle
 10
-203.1930599954335
 20
138.0
 30
0.0
 40
4.0
100
AcDbArc
 50
0.0
 51
90.0
  0
ARC
  5
1107
100
AcDbEntity
  8
L2
 48
2.0
100
AcDbCircle
 10
-203.1930599954335
 20
-137.9999999999999
 30
0.0
 40
4.0
100
AcDbArc
 50
270.0
 51
0.0
  0
LINE
  5
1108
100
AcDbEntity
  8
L2
100
AcDbLine
 10
-87.86124442776939
 20
-223.2247345984355
 30
0.0
 11
88.13875557223056
 21
-223.2247345984355
 31
0.0
1001
ACAD
1000
ASC_BOUNDS
1002
{
1070
    19
1002
}
  0
LINE
  5
1109
100
AcDbEntity
  8
L1
100
AcDbLine
 10
99.13875557223059
 20
-350.2247345984355
 30
0.0
 11
-94.8612444277694
 21
-350.2247345984355
 31
0.0
1001
ACAD
1000
ASC_BOUNDS
1002
{
1070
    19
1002
}
  0
LINE
  5
110A
100
AcDbEntity
  8
L1
100
AcDbLine
 10
93.90176188449776
 20
-353.2247345984355
 30
0.0
 11
-93.62425074003658
 21
-353.2247345984355
 31
0.0
  0
LINE
  5
110B
100
AcDbEntity
  8
L1
100
AcDbLine
 10
99.13875557223118
 20
-343.0247345984355
 30
0.0
 11
-98.86124442776941
 21
-343.0247345984355
 31
0.0
  0
LINE
  5
110C
100
AcDbEntity
  8
L1
100
AcDbLine
 10
-97.36124442776935
 20
-220.2247345984356
 30
0.0
 11
97.63875557223061
 21
-220.2247345984356
 31
0.0
  0
LINE
  5
110D
100
AcDbEntity
  8
L1
100
AcDbLine
 10
-70.26124442776938
 20
-219.7247345984355
 30
0.0
 11
-54.22726983155394
 21
-219.7247345984355
 31
0.0
1001
ACAD
1000
ASC_BOUNDS
1002
{
1070
    19
1005
0
1002
}
  0
LINE
  5
110E
100
AcDbEntity
  8
L2
 48
2.0
100
AcDbLine
 10
-91.86124442776941
 20
-353.2247345984355
 30
0.0
 11
-91.86124442776939
 21
-227.2247345984355
 31
0.0
  0
LINE
  5
110F
100
AcDbEntity
  8
L1
100
AcDbLine
 10
-97.3612444277694
 20
-220.2247345984358
 30
0.0
 11
-97.36124442776953
 21
-342.946122929511
 31
0.0
  0
LINE
  5
1110
100
AcDbEntity
  8
L1
100
AcDbLine
 10
-82.3612444277694
 20
-220.2247345984356
 30
0.0
 11
-82.3612444277694
 21
-343.0247345984355
 31
0.0
  0
LINE
  5
1111
100
AcDbEntity
  8
L1
100
AcDbLine
 10
-91.86124442776941
 20
-218.2247345984356
 30
0.0
 11
-83.3612444277694
 21
-218.2247345984356
 31
0.0
  0
ARC
  5
1112
100
AcDbEntity
  8
L2
100
AcDbCircle
 10
-87.86124442776939
 20
-227.2247345984355
 30
0.0
 40
4.0
100
AcDbArc
 50
90.0
 51
180.0
1001
ACAD
1000
ASC_BOUNDS
1002
{
1070
    19
1002
}
  0
LINE
  5
1113
100
AcDbEntity
  8
L1
100
AcDbLine
 10
-94.86124442776953
 20
-219.7247345984355
 30
0.0
 11
-91.86124442776941
 21
-219.7247345984355
 31
0.0
1001
ACAD
1000
ASC_BOUNDS
1002
{
1070
    19
1005
0
1002
}
  0
LINE
  5
1114
100
AcDbEntity
  8
L1
100
AcDbLine
 10
-97.3612444277694
 20
-220.224734598436
 30
0.0
 11
-95.28958506306436
 21
-220.2247345984357
 31
0.0
  0
LINE
  5
1115
100
AcDbEntity
  8
L1
100
AcDbLine
 10
-94.86124442776953
 20
-219.7247345984355
 30
0.0
 11
-94.86124442776953
 21
-220.2247345984356
 31
0.0
1001
ACAD
1000
ASC_BOUNDS
1002
{
1070
    19
1005
0
1002
}
  0
LINE
  5
1116
100
AcDbEntity
  8
L1
100
AcDbLine
 10
-91.86124442776941
 20
-220.2247345984353
 30
0.0
 11
-91.86124442776941
 21
-218.2247345984356
 31
0.0
  0
LINE
  5
1117
100
AcDbEntity
  8
L1
100
AcDbLine
 10
-76.36124442776941
 20
-218.2247345984356
 30
0.0
 11
-70.26124442776938
 21
-218.2247345984356
 31
0.0
  0
LINE
  5
1118
100
AcDbEntity
  8
L1
100
AcDbLine
 10
-83.3612444277694
 20
-218.2247345984356
 30
0.0
 11
-84.51594496614825
 21
-220.2247345984346
 31
0.0
1001
ACAD
1000
ASC_BOUNDS
1002
{
1070
    19
1002
}
  0
LINE
  5
1119
100
AcDbEntity
  8
L1
100
AcDbLine
 10
-76.36124442776941
 20
-218.2247345984356
 30
0.0
 11
-75.20654388939021
 21
-220.2247345984356
 31
0.0
1001
ACAD
1000
ASC_BOUNDS
1002
{
1070
    19
1002
}
  0
LINE
  5
111A
100
AcDbEntity
  8
L1
100
AcDbLine
 10
-83.3612444277694
 20
-218.2247345984356
 30
0.0
 11
-76.36124442776941
 21
-218.2247345984356
 31
0.0
1001
ACAD
1000
ASC_BOUNDS
1002
{
1070
    19
1002
}
  0
LINE
  5
111B
100
AcDbEntity
  8
L1
100
AcDbLine
 10
-72.76124442776938
 20
-218.2247345984356
 30
0.0
 11
-72.76124442776938
 21
-220.2247345984356
 31
0.0
  0
LINE
  5
111C
100
AcDbEntity
  8
L1
100
AcDbLine
 10
-70.26124442776938
 20
-218.2247345984356
 30
0.0
 11
-70.26124442776938
 21
-220.2247345984356
 31
0.0
  0
LINE
  5
111D
100
AcDbEntity
  8
L1
100
AcDbLine
 10
-98.86124442776941
 20
-343.0247345984355
 30
0.0
 11
-98.86124442776941
 21
-350.2247345984355
 31
0.0
1001
ACAD
1000
ASC_BOUNDS
1002
{
1070
    19
1002
}
  0
LINE
  5
111E
100
AcDbEntity
  8
L1
100
AcDbLine
 10
-98.86124442776941
 20
-343.0247345984355
 30
0.0
 11
-97.36124442776953
 21
-342.9461229295109
 31
0.0
1001
ACAD
1000
ASC_BOUNDS
1002
{
1070
    19
1002
}
  0
LINE
  5
111F
100
AcDbEntity
  8
L1
100
AcDbLine
 10
-94.8612444277694
 20
-350.2247345984355
 30
0.0
 11
-94.05739685047604
 21
-353.2247345984355
 31
0.0
1001
ACAD
1000
ASC_BOUNDS
1002
{
1070
    19
1002
}
  0
LINE
  5
1120
100
AcDbEntity
  8
L1
100
AcDbLine
 10
-98.86124442776941
 20
-350.2247345984355
 30
0.0
 11
-94.8612444277694
 21
-350.2247345984355
 31
0.0
1001
ACAD
1000
ASC_BOUNDS
1002
{
1070
    19
1002
}
  0
LINE
  5
1121
100
AcDbEntity
  8
L1
100
AcDbLine
 10
-94.05739685047604
 20
-353.2247345984355
 30
0.0
 11
-93.62425074003658
 21
-353.2247345984355
 31
0.0
1001
ACAD
1000
ASC_BOUNDS
1002
{
1070
    19
1002
}
  0
LINE
  5
1122
100
AcDbEntity
  8
L1
100
AcDbLine
 10
92.1387555722306
 20
-218.2247345984356
 30
0.0
 11
83.63875557223058
 21
-218.2247345984356
 31
0.0
  0
LINE
  5
1123
100
AcDbEntity
  8
L6
 48
2.0
100
AcDbLine
 10
0.1387555722305933
 20
-357.2247345984355
 30
0.0
 11
0.1387555722305933
 21
-213.9207811379806
 31
0.0
  0
LINE
  5
1124
100
AcDbEntity
  8
L1
100
AcDbLine
 10
82.63875557223059
 20
-220.2247345984356
 30
0.0
 11
82.63875557223059
 21
-343.0247345984355
 31
0.0
  0
ARC
  5
1125
100
AcDbEntity
  8
L2
100
AcDbCircle
 10
10.68644875858945
 20
-223.7421843467868
 30
0.0
 40
0.5
100
AcDbArc
 50
90.0
 51
178.0000000000001
1001
ACAD
1000
ASC_BOUNDS
1002
{
1070
    19
1002
}
  0
LINE
  5
1126
100
AcDbEntity
  8
L2
100
AcDbLine
 10
10.13875557223059
 20
-229.2247345984355
 30
0.0
 11
10.18675334507975
 21
-223.7247345984356
 31
0.0
  0
LINE
  5
1127
100
AcDbEntity
  8
L1
100
AcDbLine
 10
45.77273016844623
 20
-219.7247345984355
 30
0.0
 11
4.504780976015126
 21
-219.7247345984355
 31
0.0
1001
ACAD
1000
ASC_BOUNDS
1002
{
1070
    19
1005
0
1002
}
  0
LINE
  5
1128
100
AcDbEntity
  8
L1
100
AcDbLine
 10
-45.49521902398504
 20
-219.7247345984355
 30
0.0
 11
-4.22726983155394
 21
-219.7247345984355
 31
0.0
1001
ACAD
1000
ASC_BOUNDS
1002
{
1070
    19
1005
0
1002
}
  0
LINE
  5
1129
100
AcDbEntity
  8
L1
100
AcDbLine
 10
-49.8612444277694
 20
-218.2247345984356
 30
0.0
 11
-46.36124442776941
 21
-218.2247345984356
 31
0.0
  0
LINE
  5
112A
100
AcDbEntity
  8
L1
100
AcDbLine
 10
-49.8612444277694
 20
-218.2247345984356
 30
0.0
 11
-53.36124442776941
 21
-218.2247345984356
 31
0.0
  0
LINE
  5
112B
100
AcDbEntity
  8
L1
100
AcDbLine
 10
-53.36124442776941
 20
-218.2247345984356
 30
0.0
 11
-54.51594496614882
 21
-220.2247345984356
 31
0.0
  0
LINE
  5
112C
100
AcDbEntity
  8
L1
100
AcDbLine
 10
-46.36124442776941
 20
-218.2247345984356
 30
0.0
 11
-45.20654388939021
 21
-220.2247345984356
 31
0.0
  0
LINE
  5
112D
100
AcDbEntity
  8
L2
100
AcDbLine
 10
-9.861244427769406
 20
-229.2247345984355
 30
0.0
 11
0.1387555722305933
 21
-229.2247345984355
 31
0.0
  0
LINE
  5
112E
100
AcDbEntity
  8
L2
100
AcDbLine
 10
-9.861244427769406
 20
-229.2247345984355
 30
0.0
 11
-9.909242200618564
 21
-223.7247345984356
 31
0.0
  0
ARC
  5
112F
100
AcDbEntity
  8
L2
100
AcDbCircle
 10
-10.40893761412826
 20
-223.7421843467868
 30
0.0
 40
0.5
100
AcDbArc
 50
1.999999999999875
 51
90.0
1001
ACAD
1000
ASC_BOUNDS
1002
{
1070
    19
1002
}
  0
LINE
  5
1130
100
AcDbEntity
  8
L2
100
AcDbLine
 10
5.138755572230593
 20
-229.2247345984355
 30
0.0
 11
5.331429163075085
 21
-223.7072848500843
 31
0.0
  0
LINE
  5
1131
100
AcDbEntity
  8
L2
100
AcDbLine
 10
-4.861244427769406
 20
-229.2247345984355
 30
0.0
 11
-5.053918018613899
 21
-223.7072848500843
 31
0.0
  0
LINE
  5
1132
100
AcDbEntity
  8
L1
100
AcDbLine
 10
-3.361244427769463
 20
-218.2247345984356
 30
0.0
 11
3.638755572230593
 21
-218.2247345984356
 31
0.0
  0
ARC
  5
1133
100
AcDbEntity
  8
L2
100
AcDbCircle
 10
-5.553613432123484
 20
-223.7247345984355
 30
0.0
 40
0.5
100
AcDbArc
 50
1.999999999999875
 51
90.0
1001
ACAD
1000
ASC_BOUNDS
1002
{
1070
    19
1002
}
  0
LINE
  5
1134
100
AcDbEntity
  8
L1
100
AcDbLine
 10
-3.361244427769406
 20
-218.2247345984356
 30
0.0
 11
-4.515944966148822
 21
-220.2247345984356
 31
0.0
  0
ARC
  5
1135
100
AcDbEntity
  8
L2
100
AcDbCircle
 10
5.83112457658467
 20
-223.7247345984355
 30
0.0
 40
0.5
100
AcDbArc
 50
90.0
 51
178.0000000000001
1001
ACAD
1000
ASC_BOUNDS
1002
{
1070
    19
1002
}
  0
LINE
  5
1136
100
AcDbEntity
  8
L1
100
AcDbLine
 10
3.638755572230593
 20
-218.2247345984356
 30
0.0
 11
4.793456110610009
 21
-220.2247345984356
 31
0.0
  0
LINE
  5
1137
100
AcDbEntity
  8
L2
100
AcDbLine
 10
10.13875557223059
 20
-229.2247345984355
 30
0.0
 11
0.1387555722305933
 21
-229.2247345984355
 31
0.0
  0
LINE
  5
1138
100
AcDbEntity
  8
L1
100
AcDbLine
 10
50.13875557223059
 20
-218.2247345984356
 30
0.0
 11
46.63875557223059
 21
-218.2247345984356
 31
0.0
  0
LINE
  5
1139
100
AcDbEntity
  8
L1
100
AcDbLine
 10
46.63875557223059
 20
-218.2247345984356
 30
0.0
 11
45.4840550338514
 21
-220.2247345984356
 31
0.0
  0
LINE
  5
113A
100
AcDbEntity
  8
L1
100
AcDbLine
 10
70.53875557223057
 20
-219.7247345984355
 30
0.0
 11
54.50478097601513
 21
-219.7247345984355
 31
0.0
1001
ACAD
1000
ASC_BOUNDS
1002
{
1070
    19
1005
0
1002
}
  0
LINE
  5
113B
100
AcDbEntity
  8
L1
100
AcDbLine
 10
53.63875557223059
 20
-218.2247345984356
 30
0.0
 11
54.79345611061001
 21
-220.2247345984356
 31
0.0
  0
LINE
  5
113C
100
AcDbEntity
  8
L1
100
AcDbLine
 10
50.13875557223059
 20
-218.2247345984356
 30
0.0
 11
53.63875557223059
 21
-218.2247345984356
 31
0.0
  0
LINE
  5
113D
100
AcDbEntity
  8
L1
100
AcDbLine
 10
76.63875557223059
 20
-218.2247345984356
 30
0.0
 11
75.4840550338514
 21
-220.2247345984356
 31
0.0
1001
ACAD
1000
ASC_BOUNDS
1002
{
1070
    19
1002
}
  0
LINE
  5
113E
100
AcDbEntity
  8
L1
100
AcDbLine
 10
76.63875557223059
 20
-218.2247345984356
 30
0.0
 11
70.53875557223057
 21
-218.2247345984356
 31
0.0
  0
LINE
  5
113F
100
AcDbEntity
  8
L1
100
AcDbLine
 10
73.03875557223057
 20
-218.2247345984356
 30
0.0
 11
73.03875557223057
 21
-220.2247345984356
 31
0.0
  0
LINE
  5
1140
100
AcDbEntity
  8
L1
100
AcDbLine
 10
70.53875557223057
 20
-218.2247345984356
 30
0.0
 11
70.53875557223057
 21
-220.2247345984356
 31
0.0
  0
LINE
  5
1141
100
AcDbEntity
  8
L1
100
AcDbLine
 10
83.63875557223058
 20
-218.2247345984356
 30
0.0
 11
84.79345611060944
 21
-220.2247345984346
 31
0.0
1001
ACAD
1000
ASC_BOUNDS
1002
{
1070
    19
1002
}
  0
LINE
  5
1142
100
AcDbEntity
  8
L1
100
AcDbLine
 10
83.63875557223058
 20
-218.2247345984356
 30
0.0
 11
76.63875557223059
 21
-218.2247345984356
 31
0.0
1001
ACAD
1000
ASC_BOUNDS
1002
{
1070
    19
1002
}
  0
LINE
  5
1145
100
AcDbEntity
  8
L2
 48
2.0
100
AcDbLine
 10
92.1387555722306
 20
-353.2247345984355
 30
0.0
 11
92.13875557223056
 21
-227.2247345984355
 31
0.0
  0
LINE
  5
1146
100
AcDbEntity
  8
L1
100
AcDbLine
 10
97.63875557223059
 20
-220.2247345984358
 30
0.0
 11
97.63875557223071
 21
-342.946122929511
 31
0.0
  0
ARC
  5
1147
100
AcDbEntity
  8
L2
 48
2.0
100
AcDbCircle
 10
88.13875557223056
 20
-227.2247345984355
 30
0.0
 40
4.0
100
AcDbArc
 50
0.0
 51
90.0
  0
LINE
  5
1148
100
AcDbEntity
  8
L1
100
AcDbLine
 10
92.1387555722306
 20
-220.2247345984353
 30
0.0
 11
92.1387555722306
 21
-218.2247345984356
 31
0.0
  0
LINE
  5
1149
100
AcDbEntity
  8
L1
100
AcDbLine
 10
95.13875557223071
 20
-219.7247345984355
 30
0.0
 11
92.1387555722306
 21
-219.7247345984355
 31
0.0
1001
ACAD
1000
ASC_BOUNDS
1002
{
1070
    19
1005
0
1002
}
  0
LINE
  5
114A
100
AcDbEntity
  8
L1
100
AcDbLine
 10
95.13875557223071
 20
-219.7247345984355
 30
0.0
 11
95.13875557223071
 21
-220.2247345984356
 31
0.0
1001
ACAD
1000
ASC_BOUNDS
1002
{
1070
    19
1005
0
1002
}
  0
LINE
  5
114B
100
AcDbEntity
  8
L1
100
AcDbLine
 10
97.63875557223059
 20
-220.224734598436
 30
0.0
 11
95.56709620752554
 21
-220.2247345984357
 31
0.0
  0
LINE
  5
114C
100
AcDbEntity
  8
L1
100
AcDbLine
 10
99.13875557223059
 20
-343.0247345984355
 30
0.0
 11
99.13875557223059
 21
-350.2247345984355
 31
0.0
1001
ACAD
1000
ASC_BOUNDS
1002
{
1070
    19
1002
}
  0
LINE
  5
114D
100
AcDbEntity
  8
L1
100
AcDbLine
 10
99.13875557223059
 20
-343.0247345984355
 30
0.0
 11
97.63875557223071
 21
-342.9461229295109
 31
0.0
1001
ACAD
1000
ASC_BOUNDS
1002
{
1070
    19
1002
}
  0
LINE
  5
114E
100
AcDbEntity
  8
L1
100
AcDbLine
 10
94.33490799493723
 20
-353.2247345984355
 30
0.0
 11
93.90176188449776
 21
-353.2247345984355
 31
0.0
1001
ACAD
1000
ASC_BOUNDS
1002
{
1070
    19
1002
}
  0
LINE
  5
114F
100
AcDbEntity
  8
L1
100
AcDbLine
 10
95.13875557223059
 20
-350.2247345984355
 30
0.0
 11
94.33490799493723
 21
-353.2247345984355
 31
0.0
1001
ACAD
1000
ASC_BOUNDS
1002
{
1070
    19
1002
}
  0
LINE
  5
1150
100
AcDbEntity
  8
L2
100
AcDbLine
 10
205.9705711398946
 20
10.0
 30
0.0
 11
205.9705711398946
 21
0.0
 31
0.0
  0
LINE
  5
1151
100
AcDbEntity
  8
L1
100
AcDbLine
 10
196.4705711398946
 20
-147.4999999999996
 30
0.0
 11
196.4705711398946
 21
147.4999999999996
 31
0.0
  0
LINE
  5
1152
100
AcDbEntity
  8
L1
100
AcDbLine
 10
319.2705711398947
 20
-148.9999999999993
 30
0.0
 11
319.2705711398946
 21
148.999999999998
 31
0.0
  0
LINE
  5
1153
100
AcDbEntity
  8
L1
100
AcDbLine
 10
326.4705711398947
 20
-148.9999999999993
 30
0.0
 11
326.4705711398946
 21
148.9999999999993
 31
0.0
  0
LINE
  5
1154
100
AcDbEntity
  8
L1
100
AcDbLine
 10
329.4705711398946
 20
-144.1961524227066
 30
0.0
 11
329.4705711398946
 21
144.1961524227066
 31
0.0
  0
LINE
  5
1155
100
AcDbEntity
  8
L1
100
AcDbLine
 10
194.4705711398946
 20
0.0
 30
0.0
 11
194.4705711398946
 21
3.5
 31
0.0
  0
LINE
  5
1156
100
AcDbEntity
  8
L2
 48
2.0
100
AcDbLine
 10
199.9705711398946
 20
-80.09642166001162
 30
0.0
 11
199.9705711398946
 21
78.40110312514775
 31
0.0
  0
LINE
  5
1157
100
AcDbEntity
  8
L2
 48
2.0
100
AcDbLine
 10
329.4705711398946
 20
-141.9999999999999
 30
0.0
 11
203.4705711398946
 21
-141.9999999999999
 31
0.0
  0
LINE
  5
1158
100
AcDbEntity
  8
L1
100
AcDbLine
 10
319.2136492650145
 20
-146.5606601717798
 30
0.0
 11
196.4705711398947
 21
-146.5606601717798
 31
0.0
  0
LINE
  5
1159
100
AcDbEntity
  8
L1
100
AcDbLine
 10
196.4705711398946
 20
-147.4999999999996
 30
0.0
 11
319.1919594709701
 21
-147.4999999999996
 31
0.0
  0
LINE
  5
115A
100
AcDbEntity
  8
L1
100
AcDbLine
 10
319.2705711398947
 20
-132.4999999999999
 30
0.0
 11
196.4705711398946
 21
-132.4999999999999
 31
0.0
  0
LINE
  5
115B
100
AcDbEntity
  8
L6
100
AcDbLine
 10
343.4705711398946
 20
0.0
 30
0.0
 11
179.4705711398946
 21
0.0
 31
0.0
1001
ACAD
1000
ASC_BOUNDS
1002
{
1070
    19
1005
0
1002
}
  0
LINE
  5
115C
100
AcDbEntity
  8
L1
100
AcDbLine
 10
319.2705711398946
 20
-148.9999999999993
 30
0.0
 11
326.4705711398946
 21
-148.9999999999993
 31
0.0
  0
LINE
  5
115D
100
AcDbEntity
  8
L1
100
AcDbLine
 10
326.4705711398946
 20
-145.0
 30
0.0
 11
329.4705711398946
 21
-144.1961524227066
 31
0.0
  0
LINE
  5
115E
100
AcDbEntity
  8
L2
 48
2.0
100
AcDbLine
 10
199.4705711398946
 20
-137.9999999999999
 30
0.0
 11
199.4705711398946
 21
-80.17724576335309
 31
0.0
  0
LINE
  5
115F
100
AcDbEntity
  8
L1
100
AcDbLine
 10
195.9705711398946
 20
-120.3999999999999
 30
0.0
 11
195.9705711398946
 21
-104.3660254037844
 31
0.0
  0
LINE
  5
1160
100
AcDbEntity
  8
L1
100
AcDbLine
 10
194.4705711398946
 20
-141.9999999999999
 30
0.0
 11
194.4705711398946
 21
-120.3999999999999
 31
0.0
  0
ARC
  5
1161
100
AcDbEntity
  8
L2
 48
2.0
100
AcDbCircle
 10
203.4705711398946
 20
-137.9999999999999
 30
0.0
 40
4.0
100
AcDbArc
 50
180.0
 51
270.0
  0
LINE
  5
1162
100
AcDbEntity
  8
L1
100
AcDbLine
 10
196.4705711398946
 20
-141.9999999999999
 30
0.0
 11
194.4705711398946
 21
-141.9999999999999
 31
0.0
  0
LINE
  5
1163
100
AcDbEntity
  8
L1
100
AcDbLine
 10
195.9705711398946
 20
-143.9999999999999
 30
0.0
 11
195.9705711398946
 21
-141.9999999999999
 31
0.0
  0
LINE
  5
1164
100
AcDbEntity
  8
L1
100
AcDbLine
 10
195.9705711398946
 20
-143.9999999999999
 30
0.0
 11
196.4705711398946
 21
-143.9999999999999
 31
0.0
  0
LINE
  5
1165
100
AcDbEntity
  8
L1
100
AcDbLine
 10
194.4705711398946
 20
-131.3999999999999
 30
0.0
 11
196.4705711398946
 21
-131.3999999999999
 31
0.0
  0
LINE
  5
1166
100
AcDbEntity
  8
L1
100
AcDbLine
 10
194.4705711398946
 20
-122.8999999999999
 30
0.0
 11
196.4705711398946
 21
-122.8999999999999
 31
0.0
  0
LINE
  5
1167
100
AcDbEntity
  8
L1
100
AcDbLine
 10
194.4705711398946
 20
-120.3999999999999
 30
0.0
 11
196.4705711398946
 21
-120.3999999999999
 31
0.0
  0
LINE
  5
1168
100
AcDbEntity
  8
L1
100
AcDbLine
 10
194.4705711398946
 20
-50.0
 30
0.0
 11
194.4705711398946
 21
-53.5
 31
0.0
  0
LINE
  5
1169
100
AcDbEntity
  8
L1
 48
2.0
100
AcDbLine
 10
195.9705711398946
 20
-95.63397459621558
 30
0.0
 11
195.9705711398946
 21
-54.36602540378448
 31
0.0
  0
LINE
  5
116A
100
AcDbEntity
  8
L1
100
AcDbLine
 10
194.4705711398946
 20
-100.0
 30
0.0
 11
194.4705711398946
 21
-96.5
 31
0.0
  0
LINE
  5
116B
100
AcDbEntity
  8
L1
100
AcDbLine
 10
194.4705711398946
 20
-100.0
 30
0.0
 11
194.4705711398946
 21
-103.4999999999999
 31
0.0
  0
LINE
  5
116C
100
AcDbEntity
  8
L1
100
AcDbLine
 10
194.4705711398946
 20
-103.4999999999999
 30
0.0
 11
196.4705711398946
 21
-104.6547005383792
 31
0.0
  0
LINE
  5
116D
100
AcDbEntity
  8
L1
100
AcDbLine
 10
194.4705711398946
 20
-96.5
 30
0.0
 11
196.4705711398946
 21
-95.34529946162075
 31
0.0
  0
LINE
  5
116E
100
AcDbEntity
  8
L1
100
AcDbLine
 10
194.4705711398946
 20
-53.5
 30
0.0
 11
196.4705711398946
 21
-54.6547005383793
 31
0.0
  0
LINE
  5
116F
100
AcDbEntity
  8
L1
 48
2.0
100
AcDbLine
 10
195.9705711398946
 20
-45.63397459621552
 30
0.0
 11
195.9705711398946
 21
-4.366025403784419
 31
0.0
  0
LINE
  5
1170
100
AcDbEntity
  8
L1
100
AcDbLine
 10
194.4705711398946
 20
-50.0
 30
0.0
 11
194.4705711398946
 21
-46.5
 31
0.0
  0
LINE
  5
1171
100
AcDbEntity
  8
L1
100
AcDbLine
 10
194.4705711398946
 20
-46.5
 30
0.0
 11
196.4705711398946
 21
-45.34529946162069
 31
0.0
  0
LINE
  5
1172
100
AcDbEntity
  8
L6
100
AcDbLine
 10
192.4705711398946
 20
0.0
 30
0.0
 11
202.4705711398946
 21
0.0
 31
0.0
  0
ARC
  5
1173
100
AcDbEntity
  8
L2
100
AcDbCircle
 10
200.4705711398947
 20
-5.692369004354077
 30
0.0
 40
0.5
100
AcDbArc
 50
91.99999999999993
 51
180.0
1001
ACAD
1000
ASC_BOUNDS
1002
{
1070
    19
1002
}
  0
LINE
  5
1174
100
AcDbEntity
  8
L2
100
AcDbLine
 10
205.9705711398946
 20
-5.0
 30
0.0
 11
200.4531213915434
 21
-5.192673590844492
 31
0.0
  0
ARC
  5
1175
100
AcDbEntity
  8
L2
100
AcDbCircle
 10
200.4880208882459
 20
-10.54769318635885
 30
0.0
 40
0.5
100
AcDbArc
 50
91.99999999999993
 51
180.0
1001
ACAD
1000
ASC_BOUNDS
1002
{
1070
    19
1002
}
  0
LINE
  5
1176
100
AcDbEntity
  8
L2
100
AcDbLine
 10
205.9705711398946
 20
-10.0
 30
0.0
 11
200.4705711398947
 21
-10.04799777284915
 31
0.0
  0
LINE
  5
1177
100
AcDbEntity
  8
L2
100
AcDbLine
 10
205.9705711398946
 20
-10.0
 30
0.0
 11
205.9705711398946
 21
0.0
 31
0.0
  0
LINE
  5
1178
100
AcDbEntity
  8
L1
100
AcDbLine
 10
194.4705711398946
 20
0.0
 30
0.0
 11
194.4705711398946
 21
-3.5
 31
0.0
  0
LINE
  5
1179
100
AcDbEntity
  8
L1
100
AcDbLine
 10
194.4705711398946
 20
-3.5
 30
0.0
 11
196.4705711398946
 21
-4.654700538379245
 31
0.0
  0
LINE
  5
117A
100
AcDbEntity
  8
L2
 48
2.0
100
AcDbLine
 10
329.4705711398946
 20
141.9999999999999
 30
0.0
 11
203.4705711398947
 21
141.9999999999999
 31
0.0
  0
LINE
  5
117B
100
AcDbEntity
  8
L1
100
AcDbLine
 10
196.4705711398946
 20
147.4999999999996
 30
0.0
 11
319.1919594709701
 21
147.4999999999996
 31
0.0
  0
LINE
  5
117C
100
AcDbEntity
  8
L1
100
AcDbLine
 10
319.2136492650145
 20
146.5606601717798
 30
0.0
 11
196.4705711398947
 21
146.5606601717798
 31
0.0
  0
LINE
  5
117D
100
AcDbEntity
  8
L1
100
AcDbLine
 10
319.2705711398948
 20
132.4999999999999
 30
0.0
 11
196.4705711398946
 21
132.4999999999999
 31
0.0
  0
ARC
  5
117E
100
AcDbEntity
  8
L1
100
AcDbCircle
 10
327.6304028655141
 20
147.2249272595737
 30
0.0
 40
8.442925555484189
100
AcDbArc
 50
178.1329579964241
 51
188.0451171142378
  0
LINE
  5
117F
100
AcDbEntity
  8
L1
100
AcDbLine
 10
326.4705711398946
 20
145.0
 30
0.0
 11
329.4705711398946
 21
144.1961524227066
 31
0.0
  0
LINE
  5
1180
100
AcDbEntity
  8
L1
100
AcDbLine
 10
319.2705711398946
 20
148.9999999999993
 30
0.0
 11
326.4705711398946
 21
148.9999999999993
 31
0.0
  0
LINE
  5
1181
100
AcDbEntity
  8
L1
100
AcDbLine
 10
319.2705711398946
 20
148.9999999999993
 30
0.0
 11
319.1919594709701
 21
147.4999999999996
 31
0.0
  0
LINE
  5
1182
100
AcDbEntity
  8
L2
 48
2.0
100
AcDbLine
 10
199.4705711398946
 20
78.40110312514775
 30
0.0
 11
199.4705711398946
 21
138.0
 31
0.0
  0
LINE
  5
1183
100
AcDbEntity
  8
L1
100
AcDbLine
 10
195.9705711398946
 20
120.3999999999999
 30
0.0
 11
195.9705711398946
 21
104.3660254037844
 31
0.0
  0
LINE
  5
1184
100
AcDbEntity
  8
L1
100
AcDbLine
 10
194.4705711398946
 20
50.0
 30
0.0
 11
194.4705711398946
 21
53.5
 31
0.0
  0
LINE
  5
1185
100
AcDbEntity
  8
L1
 48
2.0
100
AcDbLine
 10
195.9705711398946
 20
4.366025403784476
 30
0.0
 11
195.9705711398946
 21
45.63397459621552
 31
0.0
  0
ARC
  5
1186
100
AcDbEntity
  8
L2
100
AcDbCircle
 10
200.4880208882459
 20
10.54769318635885
 30
0.0
 40
0.5
100
AcDbArc
 50
180.0
 51
268.0000000000001
1001
ACAD
1000
ASC_BOUNDS
1002
{
1070
    19
1002
}
  0
LINE
  5
1187
100
AcDbEntity
  8
L2
100
AcDbLine
 10
205.9705711398946
 20
10.0
 30
0.0
 11
200.4705711398947
 21
10.04799777284915
 31
0.0
  0
LINE
  5
1188
100
AcDbEntity
  8
L2
100
AcDbLine
 10
205.9705711398946
 20
5.0
 30
0.0
 11
200.4531213915434
 21
5.192673590844492
 31
0.0
  0
ARC
  5
1189
100
AcDbEntity
  8
L2
100
AcDbCircle
 10
200.4705711398947
 20
5.692369004354077
 30
0.0
 40
0.5
100
AcDbArc
 50
180.0
 51
268.0000000000001
1001
ACAD
1000
ASC_BOUNDS
1002
{
1070
    19
1002
}
  0
LINE
  5
118A
100
AcDbEntity
  8
L1
100
AcDbLine
 10
194.4705711398946
 20
3.5
 30
0.0
 11
196.4705711398946
 21
4.654700538379302
 31
0.0
  0
LINE
  5
118B
100
AcDbEntity
  8
L1
100
AcDbLine
 10
194.4705711398946
 20
50.0
 30
0.0
 11
194.4705711398946
 21
46.5
 31
0.0
  0
LINE
  5
118C
100
AcDbEntity
  8
L1
100
AcDbLine
 10
194.4705711398946
 20
46.5
 30
0.0
 11
196.4705711398946
 21
45.34529946162069
 31
0.0
  0
LINE
  5
118D
100
AcDbEntity
  8
L1
 48
2.0
100
AcDbLine
 10
195.9705711398946
 20
54.36602540378448
 30
0.0
 11
195.9705711398946
 21
95.63397459621553
 31
0.0
  0
LINE
  5
118E
100
AcDbEntity
  8
L1
100
AcDbLine
 10
194.4705711398946
 20
53.5
 30
0.0
 11
196.4705711398946
 21
54.6547005383793
 31
0.0
  0
LINE
  5
118F
100
AcDbEntity
  8
L1
100
AcDbLine
 10
194.4705711398946
 20
103.4999999999999
 30
0.0
 11
196.4705711398946
 21
104.6547005383793
 31
0.0
  0
LINE
  5
1190
100
AcDbEntity
  8
L1
100
AcDbLine
 10
194.4705711398946
 20
100.0
 30
0.0
 11
194.4705711398946
 21
96.5
 31
0.0
  0
LINE
  5
1191
100
AcDbEntity
  8
L1
100
AcDbLine
 10
194.4705711398946
 20
96.5
 30
0.0
 11
196.4705711398946
 21
95.3452994616207
 31
0.0
  0
LINE
  5
1192
100
AcDbEntity
  8
L1
100
AcDbLine
 10
194.4705711398946
 20
100.0
 30
0.0
 11
194.4705711398946
 21
103.4999999999999
 31
0.0
  0
LINE
  5
1193
100
AcDbEntity
  8
L1
100
AcDbLine
 10
194.4705711398946
 20
141.9999999999999
 30
0.0
 11
194.4705711398946
 21
120.3999999999999
 31
0.0
  0
LINE
  5
1194
100
AcDbEntity
  8
L1
100
AcDbLine
 10
194.4705711398946
 20
131.3999999999999
 30
0.0
 11
196.4705711398946
 21
131.3999999999999
 31
0.0
  0
LINE
  5
1195
100
AcDbEntity
  8
L1
100
AcDbLine
 10
194.4705711398946
 20
120.3999999999999
 30
0.0
 11
196.4705711398946
 21
120.3999999999999
 31
0.0
  0
LINE
  5
1196
100
AcDbEntity
  8
L1
100
AcDbLine
 10
194.4705711398946
 20
122.8999999999999
 30
0.0
 11
196.4705711398946
 21
122.8999999999999
 31
0.0
  0
ARC
  5
1197
100
AcDbEntity
  8
L2
 48
2.0
100
AcDbCircle
 10
203.4705711398947
 20
138.0
 30
0.0
 40
4.0
100
AcDbArc
 50
90.0
 51
180.0
  0
LINE
  5
1198
100
AcDbEntity
  8
L1
100
AcDbLine
 10
196.4705711398946
 20
141.9999999999999
 30
0.0
 11
194.4705711398946
 21
141.9999999999999
 31
0.0
  0
LINE
  5
1199
100
AcDbEntity
  8
L1
100
AcDbLine
 10
195.9705711398946
 20
143.9999999999999
 30
0.0
 11
196.4705711398946
 21
143.9999999999999
 31
0.0
  0
LINE
  5
119A
100
AcDbEntity
  8
L1
100
AcDbLine
 10
195.9705711398946
 20
143.9999999999999
 30
0.0
 11
195.9705711398946
 21
141.9999999999999
 31
0.0
  0
VIEWPORT
  5
104C
100
AcDbEntity
 67
     1
  8
0
100
AcDbViewport
 10
216.0767918088737
 20
148.5
 30
0.0
 40
432.1535836177474
 41
297.0
 68
    -1
 69
     1
1001
ACAD
1000
MVIEW
1002
{
1070
    16
1010
0.0
1020
0.0
1030
0.0
1010
0.0
1020
0.0
1030
1.0
1040
0.0
1040
297.0
1040
216.0767918088737
1040
148.5
1040
50.0
1040
0.0
1040
0.0
1070
     0
1070
   500
1070
     1
1070
     1
1070
     0
1070
     0
1070
     0
1070
     0
1040
0.0
1040
0.0
1040
0.0
1040
1.0
1040
1.0
1040
10.0
1040
10.0
1070
     0
1002
{
1002
}
1002
}
  0
ENDSEC
  0
SECTION
  2
OBJECTS
  0
DICTIONARY
  5
1B
100
AcDbDictionary
  3
ACAD_GROUP
350
19
  3
ACAD_MLINESTYLE
350
1A
  0
DICTIONARY
  5
19
102
{ACAD_REACTORS
330
1B
102
}
100
AcDbDictionary
  0
DICTIONARY
  5
1A
102
{ACAD_REACTORS
330
1B
102
}
100
AcDbDictionary
  3
STANDARD
350
1D
  0
MLINESTYLE
  5
1D
102
{ACAD_REACTORS
330
1A
102
}
100
AcDbMlineStyle
  2
STANDARD
 70
     0
  3

 62
     0
 51
90.0
 52
90.0
 71
     2
 49
0.5
 62
   256
  6
BYLAYER
 49
-0.5
 62
   256
  6
BYLAYER
  0
ENDSEC
  0
EOF
