  0
SECTION
  2
HEADER
  9
$ACADVER
  1
AC1014
  9
$ACADMAINTVER
 70
           0
  9
$DWGCODEPAGE
  3
ANSI_1252
  9
$INSBASE
 10
0.0
 20
0.0
 30
0.0
  9
$EXTMIN
 10
-63.627821845314
 20
-75.484296389731
 30
0.0
  9
$EXTMAX
 10
642.741229507081
 20
334.047653772782
 30
0.0
  9
$LIMMIN
 10
0.0
 20
0.0
  9
$LIMMAX
 10
0.0
 20
0.0
  9
$ORTHOMODE
 70
           0
  9
$REGENMODE
 70
           1
  9
$FILLMODE
 70
           1
  9
$QTEXTMODE
 70
           0
  9
$MIRRTEXT
 70
           1
  9
$DRAGMODE
 70
           2
  9
$LTSCALE
 40
1.0
  9
$OSMODE
 70
           0
  9
$ATTMODE
 70
           1
  9
$TEXTSIZE
 40
3.5
  9
$TRACEWID
 40
1.0
  9
$TEXTSTYLE
  7
STANDARD
  9
$CLAYER
  8
0
  9
$CELTYPE
  6
ByLayer
  9
$CECOLOR
 62
         256
  9
$CELTSCALE
 40
1.0
  9
$DELOBJ
 70
           1
  9
$DISPSILH
 70
           0
  9
$DIMSCALE
 40
1.0
  9
$DIMASZ
 40
6.0
  9
$DIMEXO
 40
1.0
  9
$DIMDLI
 40
3.75
  9
$DIMRND
 40
0.0
  9
$DIMDLE
 40
0.0
  9
$DIMEXE
 40
1.0
  9
$DIMTP
 40
0.0
  9
$DIMTM
 40
0.0
  9
$DIMTXT
 40
3.5
  9
$DIMCEN
 40
2.5
  9
$DIMTSZ
 40
0.0
  9
$DIMTOL
 70
           0
  9
$DIMLIM
 70
           0
  9
$DIMTIH
 70
           1
  9
$DIMTOH
 70
           1
  9
$DIMSE1
 70
           0
  9
$DIMSE2
 70
           0
  9
$DIMTAD
 70
           1
  9
$DIMZIN
 70
           0
  9
$DIMBLK
  1

  9
$DIMASO
 70
           1
  9
$DIMSHO
 70
           1
  9
$DIMPOST
  1

  9
$DIMAPOST
  1

  9
$DIMALT
 70
           0
  9
$DIMALTD
 70
           3
  9
$DIMALTF
 40
0.03937007874
  9
$DIMLFAC
 40
1.0
  9
$DIMTOFL
 70
           1
  9
$DIMTVP
 40
0.0
  9
$DIMTIX
 70
           0
  9
$DIMSOXD
 70
           0
  9
$DIMSAH
 70
           0
  9
$DIMBLK1
  1

  9
$DIMBLK2
  1

  9
$DIMSTYLE
  2
ISO-25
  9
$DIMCLRD
 70
           0
  9
$DIMCLRE
 70
           0
  9
$DIMCLRT
 70
           0
  9
$DIMTFAC
 40
1.0
  9
$DIMGAP
 40
1.524
  9
$DIMJUST
 70
           0
  9
$DIMSD1
 70
           0
  9
$DIMSD2
 70
           0
  9
$DIMTOLJ
 70
           0
  9
$DIMTZIN
 70
           0
  9
$DIMALTZ
 70
           0
  9
$DIMALTTZ
 70
           0
  9
$DIMFIT
 70
           3
  9
$DIMUPT
 70
           0
  9
$DIMUNIT
 70
           2
  9
$DIMDEC
 70
           2
  9
$DIMTDEC
 70
           2
  9
$DIMALTU
 70
           2
  9
$DIMALTTD
 70
           3
  9
$DIMTXSTY
  7
STANDARD
  9
$DIMAUNIT
 70
           0
  9
$LUNITS
 70
           2
  9
$LUPREC
 70
           2
  9
$SKETCHINC
 40
1.0
  9
$FILLETRAD
 40
10.0
  9
$AUNITS
 70
           0
  9
$AUPREC
 70
           0
  9
$MENU
  1
.
  9
$ELEVATION
 40
0.0
  9
$PELEVATION
 40
0.0
  9
$THICKNESS
 40
0.0
  9
$LIMCHECK
 70
           0
  9
$BLIPMODE
 70
           0
  9
$CHAMFERA
 40
10.0
  9
$CHAMFERB
 40
10.0
  9
$CHAMFERC
 40
20.0
  9
$CHAMFERD
 40
0.0
  9
$SKPOLY
 70
           0
  9
$TDCREATE
 40
2453815.452479236
  9
$TDUPDATE
 40
2453815.547141134
  9
$TDINDWG
 40
0.0011226736
  9
$TDUSRTIMER
 40
0.0011226736
  9
$USRTIMER
 70
           1
  9
$ANGBASE
 50
0.0
  9
$ANGDIR
 70
           0
  9
$PDMODE
 70
           0
  9
$PDSIZE
 40
-1.0
  9
$PLINEWID
 40
0.0
  9
$COORDS
 70
           0
  9
$SPLFRAME
 70
           0
  9
$SPLINETYPE
 70
           6
  9
$SPLINESEGS
 70
           8
  9
$ATTDIA
 70
           0
  9
$ATTREQ
 70
           0
  9
$HANDLING
 70
           1
  9
$HANDSEED
  5
31F
  9
$SURFTAB1
 70
           6
  9
$SURFTAB2
 70
           6
  9
$SURFTYPE
 70
           6
  9
$SURFU
 70
           6
  9
$SURFV
 70
           6
  9
$UCSNAME
  2

  9
$UCSORG
 10
0.0
 20
0.0
 30
0.0
  9
$UCSXDIR
 10
1.0
 20
0.0
 30
0.0
  9
$UCSYDIR
 10
0.0
 20
1.0
 30
0.0
  9
$PUCSNAME
  2

  9
$PUCSORG
 10
0.0
 20
0.0
 30
0.0
  9
$PUCSXDIR
 10
1.0
 20
0.0
 30
0.0
  9
$PUCSYDIR
 10
0.0
 20
1.0
 30
0.0
  9
$USERI1
 70
           0
  9
$USERI2
 70
           0
  9
$USERI3
 70
           0
  9
$USERI4
 70
           0
  9
$USERI5
 70
           0
  9
$USERR1
 40
0.0
  9
$USERR2
 40
0.0
  9
$USERR3
 40
0.0
  9
$USERR4
 40
0.0
  9
$USERR5
 40
0.0
  9
$WORLDVIEW
 70
           1
  9
$SHADEDGE
 70
           3
  9
$SHADEDIF
 70
          70
  9
$TILEMODE
 70
           1
  9
$MAXACTVP
 70
          64
  9
$PINSBASE
 10
0.0
 20
0.0
 30
0.0
  9
$PLIMCHECK
 70
           0
  9
$PEXTMIN
 10
1.000000000000E+20
 20
1.000000000000E+20
 30
1.000000000000E+20
  9
$PEXTMAX
 10
-1.000000000000E+20
 20
-1.000000000000E+20
 30
-1.000000000000E+20
  9
$PLIMMIN
 10
0.0
 20
0.0
  9
$PLIMMAX
 10
420.0
 20
297.0
  9
$UNITMODE
 70
           0
  9
$VISRETAIN
 70
           1
  9
$PLINEGEN
 70
           0
  9
$PSLTSCALE
 70
           1
  9
$TREEDEPTH
 70
        3020
  9
$PICKSTYLE
 70
           1
  9
$CMLSTYLE
  2
Standard
  9
$CMLJUST
 70
           0
  9
$CMLSCALE
 40
20.0
  9
$PROXYGRAPHICS
 70
           1
  9
$MEASUREMENT
 70
           1
  0
ENDSEC
  0
SECTION
  2
CLASSES
  0
CLASS
  1
ACDBDICTIONARYWDFLT
  2
AcDbDictionaryWithDefault
  3
"AutoCAD 2000"
 90
        0
280
           0
281
           0
  0
CLASS
  1
ACDBPLACEHOLDER
  2
AcDbPlaceHolder
  3
"AutoCAD 2000"
 90
        0
280
           0
281
           0
  0
CLASS
  1
LAYOUT
  2
AcDbLayout
  3
"AutoCAD 2000"
 90
        0
280
           0
281
           0
  0
CLASS
  1
LWPOLYLINE
  2
AcDbPolyline
  3
"AutoCAD"
 90
        0
280
           0
281
           1
  0
CLASS
  1
IMAGE
  2
AcDbRasterImage
  3
ISM
 90
      127
280
           0
281
           1
  0
CLASS
  1
OLE2FRAME
  2
AcDbOle2Frame
  3
""
 90
        0
280
           0
281
           1
  0
CLASS
  1
HATCH
  2
AcDbHatch
  3
"ACAD_SEDONA"
 90
        0
280
           0
281
           1
  0
CLASS
  1
DICTIONARYVAR
  2
AcDbDictionaryVar
  3
"AutoCAD"
 90
        0
280
           0
281
           0
  0
CLASS
  1
RASTERVARIABLES
  2
AcDbRasterVariables
  3
ISM
 90
        0
280
           0
281
           0
  0
CLASS
  1
IMAGEDEF
  2
AcDbRasterImageDef
  3
ISM
 90
        0
280
           0
281
           0
  0
CLASS
  1
IMAGEDEF_REACTOR
  2
AcDbRasterImageDefReactor
  3
ISM
 90
        1
280
           0
281
           0
  0
CLASS
  1
IDBUFFER
  2
AcDbIdBuffer
  3
"Acad"
 90
        0
280
           0
281
           0
  0
CLASS
  1
SPATIAL_FILTER
  2
AcDbSpatialFilter
  3
"Acad"
 90
        0
280
           0
281
           0
  0
CLASS
  1
XRECORD
  2
AcDbXrecord
  3
"<Built In>"
 90
        0
280
           0
281
           0
  0
CLASS
  1
SORTENTSTABLE
  2
AcDbSortentsTable
  3
"AutoCAD"
 90
        0
280
           0
281
           0
  0
CLASS
  1
LAYER_INDEX
  2
AcDbLayerIndex
  3
"Acad"
 90
        0
280
           0
281
           0
  0
CLASS
  1
SPATIAL_INDEX
  2
AcDbSpatialIndex
  3
"Acad"
 90
        0
280
           0
281
           0
  0
CLASS
  1
OBJECT_PTR
  2
CAseDLPNTableRecord
  3
"ASE-LPNTableRecord"
 90
        1
280
           0
281
           0
  0
CLASS
  1
PLOTSETTINGS
  2
AcDbPlotSettings
  3
"AutoCAD 2000"
 90
        0
280
           0
281
           0
  0
CLASS
  1
VBA_PROJECT
  2
AcDbVbaProject
  3
"acadvba"
 90
        0
280
           0
281
           0
  0
CLASS
  1
WIPEOUT
  2
AcDbWipeout
  3
WipeOut|AutoCAD Express Tool|expresstools@autodesk.com
 90
      127
280
           0
281
           1
  0
CLASS
  1
WIPEOUTVARIABLES
  2
AcDbWipeoutVariables
  3
WipeOut|AutoCAD Express Tool|expresstools@autodesk.com
 90
        0
280
           0
281
           0
  0
CLASS
  1
RTEXT
  2
RText
  3
RText|AutoCAD Express Tool|expresstools@autodesk.com
 90
        0
280
           0
281
           1
  0
CLASS
  1
ARCALIGNEDTEXT
  2
AcDbArcAlignedText
  3
ATEXT|AutoCAD Express Tool|expresstools@autodesk.com
 90
        0
280
           0
281
           1
  0
CLASS
  1
DIMASSOC
  2
AcDbDimAssoc
  3
AcDbDimAssoc|Product Desc:     AcDim ARX App For Dimension|Company:          Autodesk, Inc.|WEB Address:      www.autodesk.com
 90
        1
280
           0
281
           0
  0
ENDSEC
  0
SECTION
  2
TABLES
  0
TABLE
  2
VPORT
  5
8
100
AcDbSymbolTable
 70
           1
  0
VPORT
  5
29
100
AcDbSymbolTableRecord
100
AcDbViewportTableRecord
  2
*ACTIVE
 70
          64
 10
0.0
 20
0.0
 11
1.0
 21
1.0
 12
301.15140699901
 22
126.256843174278
 13
0.0
 23
0.0
 14
10.0
 24
10.0
 15
10.0
 25
10.0
 16
0.0
 26
0.0
 36
1.0
 17
0.0
 27
0.0
 37
0.0
 40
466.230686790325
 41
1.97297297285
 42
50.0
 43
0.0
 44
0.0
 50
0.0
 51
0.0
 71
           0
 72
        2000
 73
           1
 74
           3
 75
           0
 76
           0
 77
           0
 78
           0
  0
ENDTAB
  0
TABLE
  2
LTYPE
  5
5
100
AcDbSymbolTable
 70
           8
  0
LTYPE
  5
14
100
AcDbSymbolTableRecord
100
AcDbLinetypeTableRecord
  2
BYBLOCK
 70
          64
  3

 72
          65
 73
           0
 40
0.0
  0
LTYPE
  5
15
100
AcDbSymbolTableRecord
100
AcDbLinetypeTableRecord
  2
BYLAYER
 70
          64
  3

 72
          65
 73
           0
 40
0.0
  0
LTYPE
  5
16
100
AcDbSymbolTableRecord
100
AcDbLinetypeTableRecord
  2
CONTINUOUS
 70
          64
  3
Solid line
 72
          65
 73
           0
 40
0.0
  0
LTYPE
  5
2A
100
AcDbSymbolTableRecord
100
AcDbLinetypeTableRecord
  2
HIDDEN
 70
          64
  3
Hidden __ __ __ __ __ __ __ __ __ __ __ __ __ __
 72
          65
 73
           2
 40
1.905
 49
1.27
 74
           0
 49
-0.635
 74
           0
  0
LTYPE
  5
2B
100
AcDbSymbolTableRecord
100
AcDbLinetypeTableRecord
  2
PHANTOM
 70
          64
  3
Phantom ______  __  __  ______  __  __  ______
 72
          65
 73
           6
 40
12.7
 49
6.35
 74
           0
 49
-1.27
 74
           0
 49
1.27
 74
           0
 49
-1.27
 74
           0
 49
1.27
 74
           0
 49
-1.27
 74
           0
  0
LTYPE
  5
2C
100
AcDbSymbolTableRecord
100
AcDbLinetypeTableRecord
  2
CENTER
 70
          64
  3
Center ____ _ ____ _ ____ _ ____ _ ____ _ ____
 72
          65
 73
           4
 40
10.16
 49
6.35
 74
           0
 49
-1.27
 74
           0
 49
1.27
 74
           0
 49
-1.27
 74
           0
  0
LTYPE
  5
2D
100
AcDbSymbolTableRecord
100
AcDbLinetypeTableRecord
  2
CENTERX2
 70
          64
  3
Center (2x) ________  __  ________  __  _____
 72
          65
 73
           4
 40
20.32
 49
12.7
 74
           0
 49
-2.54
 74
           0
 49
2.54
 74
           0
 49
-2.54
 74
           0
  0
LTYPE
  5
2E
100
AcDbSymbolTableRecord
100
AcDbLinetypeTableRecord
  2
DOT2
 70
          64
  3
Dot (.5x) ........................................
 72
          65
 73
           2
 40
0.635
 49
0.0
 74
           0
 49
-0.635
 74
           0
  0
ENDTAB
  0
TABLE
  2
LAYER
  5
2
100
AcDbSymbolTable
 70
           2
  0
LAYER
  5
10
100
AcDbSymbolTableRecord
100
AcDbLayerTableRecord
  2
0
 70
          64
 62
           7
  6
CONTINUOUS
  0
LAYER
  5
311
100
AcDbSymbolTableRecord
100
AcDbLayerTableRecord
  2
DEFPOINTS
 70
           0
 62
           7
  6
CONTINUOUS
  0
ENDTAB
  0
TABLE
  2
STYLE
  5
3
100
AcDbSymbolTable
 70
           1
  0
STYLE
  5
11
100
AcDbSymbolTableRecord
100
AcDbTextStyleTableRecord
  2
STANDARD
 70
          64
 40
0.0
 41
1.0
 50
0.0
 71
           0
 42
2.5
  3
TXT
  4

  0
ENDTAB
  0
TABLE
  2
VIEW
  5
6
100
AcDbSymbolTable
 70
           0
  0
ENDTAB
  0
TABLE
  2
UCS
  5
7
100
AcDbSymbolTable
 70
           0
  0
ENDTAB
  0
TABLE
  2
APPID
  5
9
100
AcDbSymbolTable
 70
           1
  0
APPID
  5
12
100
AcDbSymbolTableRecord
100
AcDbRegAppTableRecord
  2
ACAD
 70
          64
  0
ENDTAB
  0
TABLE
  2
DIMSTYLE
  5
A
100
AcDbSymbolTable
 70
           1
  0
DIMSTYLE
105
27
100
AcDbSymbolTableRecord
100
AcDbDimStyleTableRecord
  2
ISO-25
 70
          64
  3

  4

  5

  6

  7

 40
1.0
 41
2.5
 42
0.625
 43
3.75
 44
1.25
 45
0.0
 46
0.0
 47
0.0
 48
0.0
 71
           0
 72
           0
 73
           0
 74
           0
 75
           0
 76
           0
 77
           1
 78
           8
140
2.5
141
2.5
142
0.0
143
0.03937007874
144
1.0
145
0.0
146
1.0
147
0.625
170
           0
171
           3
172
           1
173
           0
174
           0
175
           0
176
           0
177
           0
178
           0
270
           2
271
           2
272
           2
273
           2
274
           3
275
           0
280
           0
281
           0
282
           0
283
           0
284
           8
285
           0
286
           0
287
           3
288
           0
340
11
  0
ENDTAB
  0
TABLE
  2
BLOCK_RECORD
  5
1
100
AcDbSymbolTable
 70
           1
  0
BLOCK_RECORD
  5
1F
100
AcDbSymbolTableRecord
100
AcDbBlockTableRecord
  2
*MODEL_SPACE
  0
BLOCK_RECORD
  5
1B
100
AcDbSymbolTableRecord
100
AcDbBlockTableRecord
  2
*PAPER_SPACE
  0
ENDTAB
  0
ENDSEC
  0
SECTION
  2
BLOCKS
  0
BLOCK
  5
20
100
AcDbEntity
  8
0
100
AcDbBlockBegin
  2
*MODEL_SPACE
 70
           0
 10
0.0
 20
0.0
 30
0.0
  3
*MODEL_SPACE
  1

  0
ENDBLK
  5
21
100
AcDbEntity
  8
0
100
AcDbBlockEnd
  0
BLOCK
  5
1C
100
AcDbEntity
 67
           1
  8
0
100
AcDbBlockBegin
  2
*PAPER_SPACE
 70
           0
 10
0.0
 20
0.0
 30
0.0
  3
*PAPER_SPACE
  1

  0
ENDBLK
  5
1D
100
AcDbEntity
 67
           1
  8
0
100
AcDbBlockEnd
  0
ENDSEC
  0
SECTION
  2
ENTITIES
  0
LINE
  5
2F
100
AcDbEntity
  8
0
  6
CONTINUOUS
 62
           7
100
AcDbLine
 10
217.077909892412
 20
309.549024238027
 30
0.0
 11
69.993512748388
 21
309.549024238027
 31
0.0
  0
ELLIPSE
  5
30
100
AcDbEntity
  8
0
  6
CONTINUOUS
 62
           7
100
AcDbEllipse
 10
218.470175756643
 20
305.298146822732
 30
0.0
 11
5.5472974044441798
 21
-1.9766214442911405
 31
0.0
210
0.0
220
0.0
230
1.0
 40
0.678414388077
 41
2.0236459218520091
 42
2.0544212249236149
  0
LINE
  5
31
100
AcDbEntity
  8
0
  6
CONTINUOUS
 62
           7
100
AcDbLine
 10
217.537081785645
 20
304.047653772782
 30
0.0
 11
217.248872667386
 21
309.547011352928
 31
0.0
  0
LINE
  5
32
100
AcDbEntity
  8
0
  6
CONTINUOUS
 62
           7
100
AcDbLine
 10
69.534340855154
 20
304.047653772782
 30
0.0
 11
217.537081785645
 21
304.047653772782
 31
0.0
  0
LINE
  5
33
100
AcDbEntity
  8
0
  6
CONTINUOUS
 62
           7
100
AcDbLine
 10
69.822549973413
 20
309.547011352928
 30
0.0
 11
69.534340855154
 21
304.047653772782
 31
0.0
  0
ELLIPSE
  5
34
100
AcDbEntity
  8
0
  6
CONTINUOUS
 62
           7
100
AcDbEllipse
 10
68.601246884157
 20
305.298146822732
 30
0.0
 11
5.5472974044442083
 21
1.9766214442912542
 31
0.0
210
0.0
220
0.0
230
1.0
 40
0.678414388077
 41
1.087171428666178
 42
1.1179467317377789
  0
LINE
  5
35
100
AcDbEntity
  8
0
  6
CONTINUOUS
 62
           7
100
AcDbLine
 10
68.5357113204
 20
304.047653772782
 30
0.0
 11
68.823920438659
 21
309.547011352928
 31
0.0
  0
ARC
  5
36
100
AcDbEntity
  8
0
  6
CONTINUOUS
 62
           7
100
AcDbCircle
 10
69.309404021311
 20
-148.878033529985
 30
0.0
 40
458.425332082193
100
AcDbArc
 50
89.935865011351
 51
90.060677636164
  0
LINE
  5
37
100
AcDbEntity
  8
0
  6
CONTINUOUS
 62
           7
100
AcDbLine
 10
69.534340855154
 20
304.047653772782
 30
0.0
 11
68.5357113204
 21
304.047653772782
 31
0.0
  0
LINE
  5
38
100
AcDbEntity
  8
0
  6
CONTINUOUS
 62
           7
100
AcDbLine
 10
218.247502202141
 20
309.547011352928
 30
0.0
 11
218.5357113204
 21
304.047653772782
 31
0.0
  0
LWPOLYLINE
  5
39
100
AcDbEntity
  8
0
  6
CONTINUOUS
 62
           7
100
AcDbPolyline
 90
        6
 70
         128
 10
217.248872667386
 20
309.547011352928
 10
217.577958089234
 20
309.545293398294
 10
217.870176700898
 20
309.547766399167
 10
218.093895877292
 20
309.547112910629
 10
218.222564340087
 20
309.544833677752
 10
218.247502202141
 20
309.547011352928
  0
LINE
  5
3A
100
AcDbEntity
  8
0
  6
CONTINUOUS
 62
           7
100
AcDbLine
 10
218.5357113204
 20
304.047653772782
 30
0.0
 11
217.537081785645
 21
304.047653772782
 31
0.0
  0
LINE
  5
3B
100
AcDbEntity
  8
0
  6
CONTINUOUS
 62
           7
100
AcDbLine
 10
68.824025929497
 20
309.549024238027
 30
0.0
 11
71.655550736784
 21
310.414708246926
 31
0.0
  0
ARC
  5
3C
100
AcDbEntity
  8
0
  6
CONTINUOUS
 62
           7
100
AcDbCircle
 10
72.192185160553
 20
308.202595665492
 30
0.0
 40
2.300857280874
100
AcDbArc
 50
74.03496470049
 51
103.487450606297
  0
LINE
  5
3D
100
AcDbEntity
  8
0
  6
CONTINUOUS
 62
           7
100
AcDbLine
 10
72.825037555675
 20
310.414708246926
 30
0.0
 11
69.993512748388
 21
309.549024238027
 31
0.0
  0
LINE
  5
3E
100
AcDbEntity
  8
0
  6
CONTINUOUS
 62
           7
100
AcDbLine
 10
68.823920438659
 20
309.547011352928
 30
0.0
 11
68.824025929497
 21
309.549024238027
 31
0.0
  0
LINE
  5
3F
100
AcDbEntity
  8
0
  6
CONTINUOUS
 62
           7
100
AcDbLine
 10
217.077909892412
 20
309.549024238027
 30
0.0
 11
214.246385085125
 21
310.414708246926
 31
0.0
  0
ARC
  5
40
100
AcDbEntity
  8
0
  6
CONTINUOUS
 62
           7
100
AcDbCircle
 10
214.88513355813
 20
305.75716435669
 30
0.0
 40
4.701139723646
100
AcDbArc
 50
83.51773431894
 51
97.808987589756
  0
LINE
  5
41
100
AcDbEntity
  8
0
  6
CONTINUOUS
 62
           7
100
AcDbLine
 10
215.415871904016
 20
310.414708246926
 30
0.0
 11
218.247396711303
 21
309.549024238027
 31
0.0
  0
LINE
  5
42
100
AcDbEntity
  8
0
  6
CONTINUOUS
 62
           7
100
AcDbLine
 10
218.247396711303
 20
309.549024238027
 30
0.0
 11
218.247502202141
 21
309.547011352928
 31
0.0
  0
ELLIPSE
  5
43
100
AcDbEntity
  8
0
  6
CONTINUOUS
 62
           7
100
AcDbEllipse
 10
73.562035603006
 20
310.997579164267
 30
0.0
 11
2.0030953733983097
 21
0.0130987015972437
 31
0.0
210
0.0
220
0.0
230
1.0
 40
0.310585840872
 41
4.3335773740495496
 42
4.6913375889407192
  0
LINE
  5
44
100
AcDbEntity
  8
0
  6
CONTINUOUS
 62
           7
100
AcDbLine
 10
213.547484498302
 20
310.375308225334
 30
0.0
 11
73.523938142498
 21
310.375308225334
 31
0.0
  0
ELLIPSE
  5
45
100
AcDbEntity
  8
0
  6
CONTINUOUS
 62
           7
100
AcDbEllipse
 10
213.509387037793
 20
310.997579164267
 30
0.0
 11
2.0030953733983097
 21
-0.0130987015971868
 31
0.0
210
0.0
220
0.0
230
1.0
 40
0.310585840872
 41
4.7334403718286744
 42
5.0912005867198165
  0
LINE
  5
46
100
AcDbEntity
  8
0
  6
CONTINUOUS
 62
           7
100
AcDbLine
 10
74.712217246817
 20
333.049024238027
 30
0.0
 11
73.523938142498
 21
310.375308225334
 31
0.0
  0
LINE
  5
47
100
AcDbEntity
  8
0
  6
CONTINUOUS
 62
           7
100
AcDbLine
 10
212.359205393982
 20
333.049024238027
 30
0.0
 11
74.712217246817
 21
333.049024238027
 31
0.0
  0
LINE
  5
48
100
AcDbEntity
  8
0
  6
CONTINUOUS
 62
           7
100
AcDbLine
 10
213.547484498302
 20
310.375308225334
 30
0.0
 11
212.359205393982
 21
333.049024238027
 31
0.0
  0
LINE
  5
49
100
AcDbEntity
  8
0
  6
CONTINUOUS
 62
           7
100
AcDbLine
 10
71.526679072989
 20
310.375308225334
 30
0.0
 11
72.714958177308
 21
333.049024238027
 31
0.0
  0
ARC
  5
4A
100
AcDbEntity
  8
0
  6
CONTINUOUS
 62
           7
100
AcDbCircle
 10
73.577290143523
 20
314.008041529155
 30
0.0
 40
19.074776068132
100
AcDbArc
 50
86.588952815886
 51
92.591109180366
  0
ARC
  5
4B
100
AcDbEntity
  8
0
  6
CONTINUOUS
 62
           7
100
AcDbCircle
 10
213.494137599016
 20
314.00791255333
 30
0.0
 40
19.074905119008
100
AcDbArc
 50
87.4089237016
 51
93.411039430866
  0
LINE
  5
4C
100
AcDbEntity
  8
0
  6
CONTINUOUS
 62
           7
100
AcDbLine
 10
214.356464463491
 20
333.049024238027
 30
0.0
 11
215.544743567811
 21
310.375308225334
 31
0.0
  0
LINE
  5
4D
100
AcDbEntity
  8
0
  6
CONTINUOUS
 62
           7
100
AcDbLine
 10
72.714958177308
 20
333.049024238027
 30
0.0
 11
73.824048636285
 21
334.047653772782
 31
0.0
  0
LINE
  5
4E
100
AcDbEntity
  8
0
  6
CONTINUOUS
 62
           7
100
AcDbLine
 10
73.824048636285
 20
334.047653772782
 30
0.0
 11
74.712217246817
 21
334.047653772782
 31
0.0
  0
LINE
  5
4F
100
AcDbEntity
  8
0
  6
CONTINUOUS
 62
           7
100
AcDbLine
 10
74.712217246817
 20
333.049024238027
 30
0.0
 11
74.712217246817
 21
334.047653772782
 31
0.0
  0
LINE
  5
50
100
AcDbEntity
  8
0
  6
CONTINUOUS
 62
           7
100
AcDbLine
 10
212.359205393982
 20
334.047653772782
 30
0.0
 11
213.247374004515
 21
334.047653772782
 31
0.0
  0
LINE
  5
51
100
AcDbEntity
  8
0
  6
CONTINUOUS
 62
           7
100
AcDbLine
 10
213.247374004515
 20
334.047653772782
 30
0.0
 11
214.356464463491
 21
333.049024238027
 31
0.0
  0
LINE
  5
52
100
AcDbEntity
  8
0
  6
CONTINUOUS
 62
           7
100
AcDbLine
 10
212.359205393982
 20
334.047653772782
 30
0.0
 11
212.359205393982
 21
333.049024238027
 31
0.0
  0
LINE
  5
53
100
AcDbEntity
  8
0
  6
CONTINUOUS
 62
           7
100
AcDbLine
 10
74.712217246817
 20
334.047653772782
 30
0.0
 11
212.359205393982
 21
334.047653772782
 31
0.0
  0
LINE
  5
54
100
AcDbEntity
  8
0
  6
CONTINUOUS
 62
           7
100
AcDbLine
 10
67.5357113204
 20
304.047653772782
 30
0.0
 11
66.724129708444
 21
302.28431843418
 31
0.0
  0
ARC
  5
55
100
AcDbEntity
  8
0
  6
CONTINUOUS
 62
           7
100
AcDbCircle
 10
63.544719435013
 20
303.747653772782
 30
0.0
 40
3.5
100
AcDbArc
 50
90.0
 51
335.285573672134
  0
LINE
  5
56
100
AcDbEntity
  8
0
  6
CONTINUOUS
 62
           7
100
AcDbLine
 10
63.544719435013
 20
307.247653772782
 30
0.0
 11
64.543435564871
 21
310.974913111751
 31
0.0
  0
LINE
  5
57
100
AcDbEntity
  8
0
  6
CONTINUOUS
 62
           7
100
AcDbLine
 10
64.543435564871
 20
310.974913111751
 30
0.0
 11
65.510182486568
 21
311.998389774997
 31
0.0
  0
LINE
  5
58
100
AcDbEntity
  8
0
  6
CONTINUOUS
 62
           7
100
AcDbLine
 10
65.510182486568
 20
311.998389774997
 30
0.0
 11
71.71913854789
 21
314.047653772782
 31
0.0
  0
CIRCLE
  5
59
100
AcDbEntity
  8
0
  6
CONTINUOUS
 62
           7
100
AcDbCircle
 10
63.544719435013
 20
303.747653772782
 30
0.0
 40
1.5
  0
LINE
  5
5A
100
AcDbEntity
  8
0
  6
CONTINUOUS
 62
           7
100
AcDbLine
 10
68.5357113204
 20
304.047653772782
 30
0.0
 11
67.5357113204
 21
304.047653772782
 31
0.0
  0
LINE
  5
5B
100
AcDbEntity
  8
0
  6
CONTINUOUS
 62
           7
100
AcDbLine
 10
228.323930583655
 20
306.468318670492
 30
0.0
 11
228.5357113204
 21
304.047653772782
 31
0.0
  0
LINE
  5
5C
100
AcDbEntity
  8
0
  6
CONTINUOUS
 62
           7
100
AcDbLine
 10
218.247396711303
 20
309.549024238027
 30
0.0
 11
228.323930583655
 21
306.468318670492
 31
0.0
  0
LINE
  5
5D
100
AcDbEntity
  8
0
  6
CONTINUOUS
 62
           7
100
AcDbLine
 10
228.5357113204
 20
304.047653772782
 30
0.0
 11
218.5357113204
 21
304.047653772782
 31
0.0
  0
LINE
  5
5E
100
AcDbEntity
  8
0
  6
CONTINUOUS
 62
           7
100
AcDbLine
 10
215.078763183026
 20
319.266743641201
 30
0.0
 11
217.157805888446
 21
318.90015231819
 31
0.0
  0
LINE
  5
5F
100
AcDbEntity
  8
0
  6
CONTINUOUS
 62
           7
100
AcDbLine
 10
219.957805888446
 20
293.047653772782
 30
0.0
 11
219.957805888446
 21
304.047653772782
 31
0.0
  0
LINE
  5
60
100
AcDbEntity
  8
0
  6
CONTINUOUS
 62
           7
100
AcDbLine
 10
219.957805888446
 20
309.026099674726
 30
0.0
 11
219.957805888446
 21
309.900911990789
 31
0.0
  0
LINE
  5
61
100
AcDbEntity
  8
0
  6
CONTINUOUS
 62
           7
100
AcDbLine
 10
219.957805888446
 20
309.900911990789
 30
0.0
 11
217.157805888446
 21
310.047653772782
 31
0.0
  0
LINE
  5
62
100
AcDbEntity
  8
0
  6
CONTINUOUS
 62
           7
100
AcDbLine
 10
217.157805888446
 20
318.905371524237
 30
0.0
 11
224.231124722239
 21
317.658154570686
 31
0.0
  0
ARC
  5
63
100
AcDbEntity
  8
0
  6
CONTINUOUS
 62
           7
100
AcDbCircle
 10
224.092206180105
 20
316.870308368276
 30
0.0
 40
0.8
100
AcDbArc
 50
3.000000000001
 51
80.000000000002
  0
LINE
  5
64
100
AcDbEntity
  8
0
  6
CONTINUOUS
 62
           7
100
AcDbLine
 10
224.891109807909
 20
316.912177133271
 30
0.0
 11
225.391463292917
 21
307.364863893644
 31
0.0
  0
LINE
  5
65
100
AcDbEntity
  8
0
  6
CONTINUOUS
 62
           7
100
AcDbLine
 10
225.565310908767
 20
304.047653772782
 30
0.0
 11
225.984573143031
 21
296.047653772782
 31
0.0
  0
LINE
  5
66
100
AcDbEntity
  8
0
  6
CONTINUOUS
 62
           7
100
AcDbLine
 10
228.457805888446
 20
294.894366403195
 30
0.0
 11
225.984573143031
 21
296.047653772782
 31
0.0
  0
LINE
  5
67
100
AcDbEntity
  8
0
  6
CONTINUOUS
 62
           7
100
AcDbLine
 10
228.457805888446
 20
279.07737765648
 30
0.0
 11
228.457805888446
 21
294.894366403195
 31
0.0
  0
LINE
  5
68
100
AcDbEntity
  8
0
  6
CONTINUOUS
 62
           7
100
AcDbLine
 10
227.318206300079
 20
279.017653772782
 30
0.0
 11
228.457805888446
 21
279.07737765648
 31
0.0
  0
LINE
  5
69
100
AcDbEntity
  8
0
  6
CONTINUOUS
 62
           7
100
AcDbLine
 10
225.189479380305
 20
279.129215623347
 30
0.0
 11
227.318206300079
 21
279.017653772782
 31
0.0
  0
ARC
  5
6A
100
AcDbEntity
  8
0
  6
CONTINUOUS
 62
           7
100
AcDbCircle
 10
225.346487249033
 20
282.125104227611
 30
0.0
 40
3.0
100
AcDbArc
 50
192.000000000008
 51
267.000000000001
  0
LINE
  5
6B
100
AcDbEntity
  8
0
  6
CONTINUOUS
 62
           7
100
AcDbLine
 10
222.412044446832
 20
281.501369155158
 30
0.0
 11
219.957805888446
 21
293.047653772782
 31
0.0
  0
CIRCLE
  5
6C
100
AcDbEntity
  8
0
  6
CONTINUOUS
 62
           7
100
AcDbCircle
 10
220.728206300078
 20
314.047653772782
 30
0.0
 40
1.4
  0
LINE
  5
6D
100
AcDbEntity
  8
0
  6
CONTINUOUS
 62
           7
100
AcDbLine
 10
217.157805888446
 20
310.047653772782
 30
0.0
 11
217.157805888446
 21
318.905371524237
 31
0.0
  0
LINE
  5
6E
100
AcDbEntity
  8
0
  6
CONTINUOUS
 62
           7
100
AcDbLine
 10
229.657805888446
 20
293.694366403195
 30
0.0
 11
228.457805888446
 21
294.894366403195
 31
0.0
  0
LINE
  5
6F
100
AcDbEntity
  8
0
  6
CONTINUOUS
 62
           7
100
AcDbLine
 10
229.657805888446
 20
293.694366403195
 30
0.0
 11
229.657805888446
 21
280.27737765648
 31
0.0
  0
LINE
  5
70
100
AcDbEntity
  8
0
  6
CONTINUOUS
 62
           7
100
AcDbLine
 10
229.657805888446
 20
280.27737765648
 30
0.0
 11
228.457805888446
 21
279.07737765648
 31
0.0
  0
LINE
  5
71
100
AcDbEntity
  8
0
  6
CONTINUOUS
 62
           7
100
AcDbLine
 10
60.044719435012
 20
197.921006968882
 30
0.0
 11
60.044719435012
 21
189.421006968882
 31
0.0
  0
LINE
  5
72
100
AcDbEntity
  8
0
  6
CONTINUOUS
 62
           7
100
AcDbLine
 10
60.044719435012
 20
171.421006968882
 30
0.0
 11
60.044719435012
 21
162.921006968882
 31
0.0
  0
LINE
  5
73
100
AcDbEntity
  8
0
  6
CONTINUOUS
 62
           7
100
AcDbLine
 10
60.044719435012
 20
117.921006968882
 30
0.0
 11
60.044719435012
 21
109.421006968882
 31
0.0
  0
LINE
  5
74
100
AcDbEntity
  8
0
  6
CONTINUOUS
 62
           7
100
AcDbLine
 10
60.044719435012
 20
91.421006968882
 30
0.0
 11
60.044719435013
 21
82.921006968882
 31
0.0
  0
ARC
  5
75
100
AcDbEntity
  8
0
  6
CONTINUOUS
 62
           7
100
AcDbCircle
 10
212.349843906638
 20
209.235331033362
 30
0.0
 40
0.897576941359
100
AcDbArc
 50
0.585367042848
 51
89.40240951512
  0
LINE
  5
76
100
AcDbEntity
  8
0
  6
CONTINUOUS
 62
           7
100
AcDbLine
 10
212.359205393981
 20
210.132669652997
 30
0.0
 11
212.359205393981
 21
211.241760111974
 31
0.0
  0
ARC
  5
77
100
AcDbEntity
  8
0
  6
CONTINUOUS
 62
           7
100
AcDbCircle
 10
212.355899073345
 20
209.241194721823
 30
0.0
 40
2.000568122316
100
AcDbArc
 50
0.094692346416
 51
89.905307746181
  0
LINE
  5
78
100
AcDbEntity
  8
0
  6
CONTINUOUS
 62
           7
100
AcDbLine
 10
213.247374004514
 20
209.244501042465
 30
0.0
 11
214.356464463491
 21
209.244501042465
 31
0.0
  0
LINE
  5
79
100
AcDbEntity
  8
0
  6
CONTINUOUS
 62
           7
100
AcDbLine
 10
213.247374004515
 20
71.5975128953
 30
0.0
 11
213.247374004514
 21
209.244501042465
 31
0.0
  0
LINE
  5
7A
100
AcDbEntity
  8
0
  6
CONTINUOUS
 62
           7
100
AcDbLine
 10
214.356464463491
 20
209.244501042465
 30
0.0
 11
214.356464463491
 21
71.5975128953
 31
0.0
  0
LINE
  5
7B
100
AcDbEntity
  8
0
  6
CONTINUOUS
 62
           7
100
AcDbLine
 10
213.247374004515
 20
71.5975128953
 30
0.0
 11
214.356464463491
 21
71.5975128953
 31
0.0
  0
LINE
  5
7C
100
AcDbEntity
  8
0
  6
CONTINUOUS
 62
           7
100
AcDbLine
 10
212.359205393981
 20
210.132669652997
 30
0.0
 11
74.712217246817
 21
210.132669652997
 31
0.0
  0
LINE
  5
7D
100
AcDbEntity
  8
0
  6
CONTINUOUS
 62
           7
100
AcDbLine
 10
74.712217246817
 20
211.241760111973
 30
0.0
 11
74.712217246817
 21
210.132669652997
 31
0.0
  0
LINE
  5
7E
100
AcDbEntity
  8
0
  6
CONTINUOUS
 62
           7
100
AcDbLine
 10
74.712217246817
 20
211.241760111973
 30
0.0
 11
212.359205393981
 21
211.241760111974
 31
0.0
  0
ARC
  5
7F
100
AcDbEntity
  8
0
  6
CONTINUOUS
 62
           7
100
AcDbCircle
 10
74.715523400636
 20
209.241194853571
 30
0.0
 40
2.000567990292
100
AcDbArc
 50
90.09468748245
 51
179.904706614243
  0
ARC
  5
80
100
AcDbEntity
  8
0
  6
CONTINUOUS
 62
           7
100
AcDbCircle
 10
74.721387255929
 20
209.235139555112
 30
0.0
 40
0.897576941368
100
AcDbArc
 50
90.585367043501
 51
178.679637408546
  0
LINE
  5
81
100
AcDbEntity
  8
0
  6
CONTINUOUS
 62
           7
100
AcDbLine
 10
72.714958177308
 20
209.244501042464
 30
0.0
 11
73.824048636284
 21
209.244501042464
 31
0.0
  0
ARC
  5
82
100
AcDbEntity
  8
0
  6
CONTINUOUS
 62
           7
100
AcDbCircle
 10
212.350035384877
 20
71.606874382644
 30
0.0
 40
0.89757694136
100
AcDbArc
 50
270.585367043003
 51
358.679637407739
  0
LINE
  5
83
100
AcDbEntity
  8
0
  6
CONTINUOUS
 62
           7
100
AcDbLine
 10
74.712217246817
 20
70.709344284767
 30
0.0
 11
212.359205393982
 21
70.709344284767
 31
0.0
  0
ARC
  5
84
100
AcDbEntity
  8
0
  6
CONTINUOUS
 62
           7
100
AcDbCircle
 10
74.721578734166
 20
71.606682904404
 30
0.0
 40
0.897576941365
100
AcDbArc
 50
180.585367042989
 51
269.402409514755
  0
LINE
  5
85
100
AcDbEntity
  8
0
  6
CONTINUOUS
 62
           7
100
AcDbLine
 10
73.824048636284
 20
209.244501042464
 30
0.0
 11
73.824048636285
 21
71.597512895299
 31
0.0
  0
LINE
  5
86
100
AcDbEntity
  8
0
  6
CONTINUOUS
 62
           7
100
AcDbLine
 10
72.714958177308
 20
71.597512895299
 30
0.0
 11
72.714958177308
 21
209.244501042464
 31
0.0
  0
LINE
  5
87
100
AcDbEntity
  8
0
  6
CONTINUOUS
 62
           7
100
AcDbLine
 10
72.714958177308
 20
71.597512895299
 30
0.0
 11
73.824048636285
 21
71.597512895299
 31
0.0
  0
ARC
  5
88
100
AcDbEntity
  8
0
  6
CONTINUOUS
 62
           7
100
AcDbCircle
 10
74.715523400639
 20
71.600819084197
 30
0.0
 40
2.000567990296
100
AcDbArc
 50
180.095293414711
 51
269.905312517475
  0
LINE
  5
89
100
AcDbEntity
  8
0
  6
CONTINUOUS
 62
           7
100
AcDbLine
 10
74.712217246817
 20
69.60025382579
 30
0.0
 11
74.712217246817
 21
70.709344284767
 31
0.0
  0
ARC
  5
8A
100
AcDbEntity
  8
0
  6
CONTINUOUS
 62
           7
100
AcDbCircle
 10
212.35589907334
 20
71.600819215944
 30
0.0
 40
2.000568122318
100
AcDbArc
 50
270.094692253977
 51
359.905307706619
  0
LINE
  5
8B
100
AcDbEntity
  8
0
  6
CONTINUOUS
 62
           7
100
AcDbLine
 10
212.359205393982
 20
70.709344284767
 30
0.0
 11
212.359205393982
 21
69.600253825791
 31
0.0
  0
LINE
  5
8C
100
AcDbEntity
  8
0
  6
CONTINUOUS
 62
           7
100
AcDbLine
 10
212.359205393982
 20
69.600253825791
 30
0.0
 11
74.712217246817
 21
69.60025382579
 31
0.0
  0
ELLIPSE
  5
8D
100
AcDbEntity
  8
0
  6
CONTINUOUS
 62
           7
100
AcDbEllipse
 10
213.509387037793
 20
210.394682686276
 30
0.0
 11
0.8634392620919016
 21
1.8529119344077571
 31
0.0
210
0.0
220
0.0
230
1.0
 40
0.975465311814
 41
0.0688772755608853
 42
0.4266374904520034
  0
ARC
  5
8E
100
AcDbEntity
  8
0
  6
CONTINUOUS
 62
           7
100
AcDbCircle
 10
213.519143245526
 20
210.404204117538
 30
0.0
 40
2.031588286745
100
AcDbArc
 50
20.993892326883
 51
69.024596766392
  0
ELLIPSE
  5
8F
100
AcDbEntity
  8
0
  6
CONTINUOUS
 62
           7
100
AcDbEllipse
 10
213.509387037793
 20
210.394682686276
 30
0.0
 11
1.852911934407814
 21
0.8634392620919016
 31
0.0
210
0.0
220
0.0
230
1.0
 40
0.975465311814
 41
5.8565478167275984
 42
6.2143080316186889
  0
LINE
  5
90
100
AcDbEntity
  8
0
  6
CONTINUOUS
 62
           7
100
AcDbLine
 10
215.54474356781
 20
210.432780146784
 30
0.0
 11
214.356464463491
 21
209.244501042465
 31
0.0
  0
LINE
  5
91
100
AcDbEntity
  8
0
  6
CONTINUOUS
 62
           7
100
AcDbLine
 10
212.359205393981
 20
211.241760111974
 30
0.0
 11
213.547484498301
 21
212.430039216293
 31
0.0
  0
ELLIPSE
  5
92
100
AcDbEntity
  8
0
  6
CONTINUOUS
 62
           7
100
AcDbEllipse
 10
73.562035603006
 20
210.394682686275
 30
0.0
 11
1.8529119344077856
 21
-0.8634392620919016
 31
0.0
210
0.0
220
0.0
230
1.0
 40
0.975465311814
 41
3.210469929150725
 42
3.5682301440418431
  0
ARC
  5
93
100
AcDbEntity
  8
0
  6
CONTINUOUS
 62
           7
100
AcDbCircle
 10
73.55251417174
 20
210.40443889402
 30
0.0
 40
2.031588286737
100
AcDbArc
 50
110.982494577491
 51
159.024596766641
  0
ELLIPSE
  5
94
100
AcDbEntity
  8
0
  6
CONTINUOUS
 62
           7
100
AcDbEllipse
 10
73.562035603006
 20
210.394682686275
 30
0.0
 11
-0.8634392620918732
 21
1.852911934407814
 31
0.0
210
0.0
220
0.0
230
1.0
 40
0.975465311814
 41
5.8565478167275753
 42
6.2143080316187298
  0
LINE
  5
95
100
AcDbEntity
  8
0
  6
CONTINUOUS
 62
           7
100
AcDbLine
 10
73.523938142497
 20
212.430039216293
 30
0.0
 11
74.712217246817
 21
211.241760111973
 31
0.0
  0
LINE
  5
96
100
AcDbEntity
  8
0
  6
CONTINUOUS
 62
           7
100
AcDbLine
 10
72.714958177308
 20
209.244501042464
 30
0.0
 11
71.526679072988
 21
210.432780146784
 31
0.0
  0
ELLIPSE
  5
97
100
AcDbEntity
  8
0
  6
CONTINUOUS
 62
           7
100
AcDbEllipse
 10
73.562035603006
 20
70.447331251488
 30
0.0
 11
0.86343926209193
 21
1.8529119344077571
 31
0.0
210
0.0
220
0.0
230
1.0
 40
0.975465311814
 41
3.2104699291506975
 42
3.5682301440418382
  0
ARC
  5
98
100
AcDbEntity
  8
0
  6
CONTINUOUS
 62
           7
100
AcDbCircle
 10
73.552279395267
 20
70.437809820223
 30
0.0
 40
2.03158828674
100
AcDbArc
 50
200.993892326983
 51
249.024596766522
  0
ELLIPSE
  5
99
100
AcDbEntity
  8
0
  6
CONTINUOUS
 62
           7
100
AcDbEllipse
 10
73.562035603006
 20
70.447331251488
 30
0.0
 11
1.8529119344077856
 21
0.8634392620919016
 31
0.0
210
0.0
220
0.0
230
1.0
 40
0.975465311814
 41
2.7149551631378048
 42
3.0727153780289211
  0
LINE
  5
9A
100
AcDbEntity
  8
0
  6
CONTINUOUS
 62
           7
100
AcDbLine
 10
71.526679072989
 20
70.40923379098
 30
0.0
 11
72.714958177308
 21
71.597512895299
 31
0.0
  0
LINE
  5
9B
100
AcDbEntity
  8
0
  6
CONTINUOUS
 62
           7
100
AcDbLine
 10
74.712217246817
 20
69.60025382579
 30
0.0
 11
73.523938142498
 21
68.411974721471
 31
0.0
  0
ELLIPSE
  5
9C
100
AcDbEntity
  8
0
  6
CONTINUOUS
 62
           7
100
AcDbEllipse
 10
213.509387037793
 20
70.447331251489
 30
0.0
 11
1.852911934407814
 21
-0.8634392620918732
 31
0.0
210
0.0
220
0.0
230
1.0
 40
0.975465311814
 41
0.0688772755608595
 42
0.4266374904520055
  0
ARC
  5
9D
100
AcDbEntity
  8
0
  6
CONTINUOUS
 62
           7
100
AcDbCircle
 10
213.518908469066
 20
70.437575043743
 30
0.0
 40
2.03158828673
100
AcDbArc
 50
290.982494577357
 51
339.0245967666
  0
ELLIPSE
  5
9E
100
AcDbEntity
  8
0
  6
CONTINUOUS
 62
           7
100
AcDbEllipse
 10
213.509387037793
 20
70.447331251489
 30
0.0
 11
-0.8634392620919016
 21
1.8529119344077856
 31
0.0
210
0.0
220
0.0
230
1.0
 40
0.975465311814
 41
2.7149551631377902
 42
3.0727153780289078
  0
LINE
  5
9F
100
AcDbEntity
  8
0
  6
CONTINUOUS
 62
           7
100
AcDbLine
 10
213.547484498302
 20
68.411974721471
 30
0.0
 11
212.359205393982
 21
69.600253825791
 31
0.0
  0
LINE
  5
A0
100
AcDbEntity
  8
0
  6
CONTINUOUS
 62
           7
100
AcDbLine
 10
214.356464463491
 20
71.5975128953
 30
0.0
 11
215.544743567811
 21
70.40923379098
 31
0.0
  0
LINE
  5
A1
100
AcDbEntity
  8
0
  6
CONTINUOUS
 62
           7
100
AcDbLine
 10
215.078763183026
 20
150.421006968882
 30
0.0
 11
215.078763183026
 21
130.421006968882
 31
0.0
  0
LINE
  5
A2
100
AcDbEntity
  8
0
  6
CONTINUOUS
 62
           7
100
AcDbLine
 10
215.544743567811
 20
130.421006968882
 30
0.0
 11
215.544743567811
 21
70.40923379098
 31
0.0
  0
LINE
  5
A3
100
AcDbEntity
  8
0
  6
CONTINUOUS
 62
           7
100
AcDbLine
 10
215.54474356781
 20
210.432780146784
 30
0.0
 11
215.54474356781
 21
150.421006968882
 31
0.0
  0
LINE
  5
A4
100
AcDbEntity
  8
0
  6
CONTINUOUS
 62
           7
100
AcDbLine
 10
73.523938142497
 20
212.430039216293
 30
0.0
 11
213.547484498301
 21
212.430039216293
 31
0.0
  0
LINE
  5
A5
100
AcDbEntity
  8
0
  6
CONTINUOUS
 62
           7
100
AcDbLine
 10
71.526679072988
 20
117.921006968882
 30
0.0
 11
71.526679072988
 21
162.921006968882
 31
0.0
  0
LINE
  5
A6
100
AcDbEntity
  8
0
  6
CONTINUOUS
 62
           7
100
AcDbLine
 10
71.71913854789
 20
197.921006968882
 30
0.0
 11
71.71913854789
 21
162.921006968882
 31
0.0
  0
LINE
  5
A7
100
AcDbEntity
  8
0
  6
CONTINUOUS
 62
           7
100
AcDbLine
 10
71.526679072988
 20
197.921006968882
 30
0.0
 11
71.526679072988
 21
210.432780146784
 31
0.0
  0
LINE
  5
A8
100
AcDbEntity
  8
0
  6
CONTINUOUS
 62
           7
100
AcDbLine
 10
71.526679072989
 20
70.40923379098
 30
0.0
 11
71.526679072989
 21
82.921006968882
 31
0.0
  0
LINE
  5
A9
100
AcDbEntity
  8
0
  6
CONTINUOUS
 62
           7
100
AcDbLine
 10
71.71913854789
 20
82.921006968882
 30
0.0
 11
71.71913854789
 21
117.921006968882
 31
0.0
  0
LINE
  5
AA
100
AcDbEntity
  8
0
  6
CONTINUOUS
 62
           7
100
AcDbLine
 10
213.547484498302
 20
68.411974721471
 30
0.0
 11
73.523938142498
 21
68.411974721471
 31
0.0
  0
LINE
  5
AB
100
AcDbEntity
  8
0
  6
CONTINUOUS
 62
           7
100
AcDbLine
 10
224.201525133871
 20
130.421006968882
 30
0.0
 11
224.201525133871
 21
150.421006968882
 31
0.0
  0
LINE
  5
AC
100
AcDbEntity
  8
0
  6
CONTINUOUS
 62
           7
100
AcDbLine
 10
215.078763183026
 20
130.421006968882
 30
0.0
 11
224.201525133871
 21
130.421006968882
 31
0.0
  0
LINE
  5
AD
100
AcDbEntity
  8
0
  6
CONTINUOUS
 62
           7
100
AcDbLine
 10
215.078763183026
 20
150.421006968882
 30
0.0
 11
217.157805888446
 21
150.421006968882
 31
0.0
  0
LINE
  5
AE
100
AcDbEntity
  8
0
  6
CONTINUOUS
 62
           7
100
AcDbLine
 10
224.861510219541
 20
150.421006968882
 30
0.0
 11
224.861510219541
 21
130.421006968882
 31
0.0
  0
LINE
  5
AF
100
AcDbEntity
  8
0
  6
CONTINUOUS
 62
           7
100
AcDbLine
 10
224.861510219541
 20
130.421006968882
 30
0.0
 11
224.201525133871
 21
130.421006968882
 31
0.0
  0
LINE
  5
B0
100
AcDbEntity
  8
0
  6
CONTINUOUS
 62
           7
100
AcDbLine
 10
225.535711320399
 20
150.421006968882
 30
0.0
 11
225.5357113204
 21
130.421006968882
 31
0.0
  0
LINE
  5
B1
100
AcDbEntity
  8
0
  6
CONTINUOUS
 62
           7
100
AcDbLine
 10
224.861510219541
 20
130.421006968882
 30
0.0
 11
225.5357113204
 21
130.421006968882
 31
0.0
  0
LINE
  5
B2
100
AcDbEntity
  8
0
  6
CONTINUOUS
 62
           7
100
AcDbLine
 10
65.510182486568
 20
197.921006968882
 30
0.0
 11
65.510182486568
 21
162.921006968882
 31
0.0
  0
LINE
  5
B3
100
AcDbEntity
  8
0
  6
CONTINUOUS
 62
           7
100
AcDbLine
 10
65.510182486568
 20
197.921006968882
 30
0.0
 11
71.71913854789
 21
197.921006968882
 31
0.0
  0
LINE
  5
B4
100
AcDbEntity
  8
0
  6
CONTINUOUS
 62
           7
100
AcDbLine
 10
65.510182486568
 20
162.921006968882
 30
0.0
 11
71.71913854789
 21
162.921006968882
 31
0.0
  0
LINE
  5
B5
100
AcDbEntity
  8
0
  6
CONTINUOUS
 62
           7
100
AcDbLine
 10
65.510182486568
 20
82.921006968882
 30
0.0
 11
71.71913854789
 21
82.921006968882
 31
0.0
  0
LINE
  5
B6
100
AcDbEntity
  8
0
  6
CONTINUOUS
 62
           7
100
AcDbLine
 10
65.510182486568
 20
82.921006968882
 30
0.0
 11
65.510182486568
 21
117.921006968882
 31
0.0
  0
LINE
  5
B7
100
AcDbEntity
  8
0
  6
CONTINUOUS
 62
           7
100
AcDbLine
 10
65.510182486568
 20
117.921006968882
 30
0.0
 11
71.71913854789
 21
117.921006968882
 31
0.0
  0
LINE
  5
B8
100
AcDbEntity
  8
0
  6
CONTINUOUS
 62
           7
100
AcDbLine
 10
64.54343556487
 20
197.921006968882
 30
0.0
 11
64.54343556487
 21
162.921006968882
 31
0.0
  0
LINE
  5
B9
100
AcDbEntity
  8
0
  6
CONTINUOUS
 62
           7
100
AcDbLine
 10
64.54343556487
 20
162.921006968882
 30
0.0
 11
65.510182486568
 21
162.921006968882
 31
0.0
  0
LINE
  5
BA
100
AcDbEntity
  8
0
  6
CONTINUOUS
 62
           7
100
AcDbLine
 10
64.54343556487
 20
197.921006968882
 30
0.0
 11
65.510182486568
 21
197.921006968882
 31
0.0
  0
LINE
  5
BB
100
AcDbEntity
  8
0
  6
CONTINUOUS
 62
           7
100
AcDbLine
 10
64.543435564871
 20
82.921006968882
 30
0.0
 11
64.543435564871
 21
117.921006968882
 31
0.0
  0
LINE
  5
BC
100
AcDbEntity
  8
0
  6
CONTINUOUS
 62
           7
100
AcDbLine
 10
64.543435564871
 20
82.921006968882
 30
0.0
 11
65.510182486568
 21
82.921006968882
 31
0.0
  0
LINE
  5
BD
100
AcDbEntity
  8
0
  6
CONTINUOUS
 62
           7
100
AcDbLine
 10
64.543435564871
 20
117.921006968882
 30
0.0
 11
65.510182486568
 21
117.921006968882
 31
0.0
  0
LINE
  5
BE
100
AcDbEntity
  8
0
  6
CONTINUOUS
 62
           7
100
AcDbLine
 10
63.544719435012
 20
171.421006968882
 30
0.0
 11
63.544719435012
 21
162.921006968882
 31
0.0
  0
LINE
  5
BF
100
AcDbEntity
  8
0
  6
CONTINUOUS
 62
           7
100
AcDbLine
 10
63.598205681154
 20
171.421006968882
 30
0.0
 11
63.598205681154
 21
189.421006968882
 31
0.0
  0
LINE
  5
C0
100
AcDbEntity
  8
0
  6
CONTINUOUS
 62
           7
100
AcDbLine
 10
63.544719435012
 20
197.921006968882
 30
0.0
 11
63.544719435012
 21
189.421006968882
 31
0.0
  0
LINE
  5
C1
100
AcDbEntity
  8
0
  6
CONTINUOUS
 62
           7
100
AcDbLine
 10
63.544719435012
 20
171.421006968882
 30
0.0
 11
63.598205681154
 21
171.421006968882
 31
0.0
  0
LINE
  5
C2
100
AcDbEntity
  8
0
  6
CONTINUOUS
 62
           7
100
AcDbLine
 10
63.544719435012
 20
189.421006968882
 30
0.0
 11
63.598205681154
 21
189.421006968882
 31
0.0
  0
LINE
  5
C3
100
AcDbEntity
  8
0
  6
CONTINUOUS
 62
           7
100
AcDbLine
 10
63.544719435012
 20
162.921006968882
 30
0.0
 11
64.54343556487
 21
162.921006968882
 31
0.0
  0
LINE
  5
C4
100
AcDbEntity
  8
0
  6
CONTINUOUS
 62
           7
100
AcDbLine
 10
63.544719435012
 20
197.921006968882
 30
0.0
 11
64.54343556487
 21
197.921006968882
 31
0.0
  0
LINE
  5
C5
100
AcDbEntity
  8
0
  6
CONTINUOUS
 62
           7
100
AcDbLine
 10
63.598205681155
 20
91.421006968882
 30
0.0
 11
63.598205681155
 21
109.421006968882
 31
0.0
  0
LINE
  5
C6
100
AcDbEntity
  8
0
  6
CONTINUOUS
 62
           7
100
AcDbLine
 10
63.544719435012
 20
109.421006968882
 30
0.0
 11
63.544719435012
 21
117.921006968882
 31
0.0
  0
LINE
  5
C7
100
AcDbEntity
  8
0
  6
CONTINUOUS
 62
           7
100
AcDbLine
 10
63.544719435013
 20
82.921006968882
 30
0.0
 11
63.544719435012
 21
91.421006968882
 31
0.0
  0
LINE
  5
C8
100
AcDbEntity
  8
0
  6
CONTINUOUS
 62
           7
100
AcDbLine
 10
63.544719435012
 20
91.421006968882
 30
0.0
 11
63.598205681155
 21
91.421006968882
 31
0.0
  0
LINE
  5
C9
100
AcDbEntity
  8
0
  6
CONTINUOUS
 62
           7
100
AcDbLine
 10
63.544719435012
 20
109.421006968882
 30
0.0
 11
63.598205681155
 21
109.421006968882
 31
0.0
  0
LINE
  5
CA
100
AcDbEntity
  8
0
  6
CONTINUOUS
 62
           7
100
AcDbLine
 10
63.544719435013
 20
82.921006968882
 30
0.0
 11
64.543435564871
 21
82.921006968882
 31
0.0
  0
LINE
  5
CB
100
AcDbEntity
  8
0
  6
CONTINUOUS
 62
           7
100
AcDbLine
 10
63.544719435012
 20
117.921006968882
 30
0.0
 11
64.543435564871
 21
117.921006968882
 31
0.0
  0
LINE
  5
CC
100
AcDbEntity
  8
0
  6
CONTINUOUS
 62
           7
100
AcDbLine
 10
69.993512748387
 20
215.132692359785
 30
0.0
 11
72.825037555674
 21
212.301167552498
 31
0.0
  0
LINE
  5
CD
100
AcDbEntity
  8
0
  6
CONTINUOUS
 62
           7
100
AcDbLine
 10
71.655550736783
 20
211.131680733607
 30
0.0
 11
68.824025929496
 21
213.963205540894
 31
0.0
  0
ELLIPSE
  5
CE
100
AcDbEntity
  8
0
  6
CONTINUOUS
 62
           7
100
AcDbEllipse
 10
68.601246884156
 20
215.355471405125
 30
0.0
 11
-0.0544259076902165
 21
5.7070746072607221
 31
0.0
210
0.0
220
0.0
230
1.0
 40
0.037852759928
 41
4.4655866580950567
 42
4.4963619611666736
  0
ARC
  5
CF
100
AcDbEntity
  8
0
  6
CONTINUOUS
 62
           7
100
AcDbCircle
 10
69.822189384424
 20
214.134519714733
 30
0.0
 40
0.998278201014
100
AcDbArc
 50
89.979304138255
 51
180.246721047318
  0
ELLIPSE
  5
D0
100
AcDbEntity
  8
0
  6
CONTINUOUS
 62
           7
100
AcDbEllipse
 10
68.601246884156
 20
215.355471405125
 30
0.0
 11
5.7070746072606369
 21
-0.0544259076902449
 31
0.0
210
0.0
220
0.0
230
1.0
 40
0.037852759928
 41
4.9284159996028007
 42
4.9591913026743981
  0
LINE
  5
D1
100
AcDbEntity
  8
0
  6
CONTINUOUS
 62
           7
100
AcDbLine
 10
218.247396711302
 20
213.963205540895
 30
0.0
 11
215.415871904015
 21
211.131680733607
 31
0.0
  0
LINE
  5
D2
100
AcDbEntity
  8
0
  6
CONTINUOUS
 62
           7
100
AcDbLine
 10
214.246385085124
 20
212.301167552498
 30
0.0
 11
217.077909892411
 21
215.132692359786
 31
0.0
  0
ELLIPSE
  5
D3
100
AcDbEntity
  8
0
  6
CONTINUOUS
 62
           7
100
AcDbEllipse
 10
218.470175756642
 20
215.355471405126
 30
0.0
 11
5.7070746072606653
 21
0.0544259076901881
 31
0.0
210
0.0
220
0.0
230
1.0
 40
0.037852759928
 41
4.4655866580951047
 42
4.4963619611667447
  0
ARC
  5
D4
100
AcDbEntity
  8
0
  6
CONTINUOUS
 62
           7
100
AcDbCircle
 10
217.249224066247
 20
214.134528904849
 30
0.0
 40
0.998278201017
100
AcDbArc
 50
359.979304138721
 51
90.020168398037
  0
ELLIPSE
  5
D5
100
AcDbEntity
  8
0
  6
CONTINUOUS
 62
           7
100
AcDbEllipse
 10
218.470175756642
 20
215.355471405126
 30
0.0
 11
0.0544259076902449
 21
5.7070746072606653
 31
0.0
210
0.0
220
0.0
230
1.0
 40
0.037852759928
 41
1.7868233460129379
 42
1.8175986490845195
  0
LINE
  5
D6
100
AcDbEntity
  8
0
  6
CONTINUOUS
 62
           7
100
AcDbLine
 10
68.824025929497
 20
66.87880839687
 30
0.0
 11
71.655550736784
 21
69.710333204157
 31
0.0
  0
LINE
  5
D7
100
AcDbEntity
  8
0
  6
CONTINUOUS
 62
           7
100
AcDbLine
 10
72.825037555675
 20
68.540846385266
 30
0.0
 11
69.993512748388
 21
65.709321577979
 31
0.0
  0
ELLIPSE
  5
D8
100
AcDbEntity
  8
0
  6
CONTINUOUS
 62
           7
100
AcDbEllipse
 10
68.601246884157
 20
65.486542532639
 30
0.0
 11
5.7070746072606653
 21
0.0544259076902449
 31
0.0
210
0.0
220
0.0
230
1.0
 40
0.037852759928
 41
1.3239940045052425
 42
1.3547693075768328
  0
ARC
  5
D9
100
AcDbEntity
  8
0
  6
CONTINUOUS
 62
           7
100
AcDbCircle
 10
69.822198574558
 20
66.707485032917
 30
0.0
 40
0.998278201023
100
AcDbArc
 50
179.979304138827
 51
270.020168397695
  0
ELLIPSE
  5
DA
100
AcDbEntity
  8
0
  6
CONTINUOUS
 62
           7
100
AcDbEllipse
 10
68.601246884156
 20
65.486542532639
 30
0.0
 11
0.0544259076901881
 21
5.7070746072606653
 31
0.0
210
0.0
220
0.0
230
1.0
 40
0.037852759928
 41
4.9284159996027919
 42
4.959191302674383
  0
LINE
  5
DB
100
AcDbEntity
  8
0
  6
CONTINUOUS
 62
           7
100
AcDbLine
 10
217.077909892412
 20
65.709321577979
 30
0.0
 11
214.246385085125
 21
68.540846385266
 31
0.0
  0
LINE
  5
DC
100
AcDbEntity
  8
0
  6
CONTINUOUS
 62
           7
100
AcDbLine
 10
215.415871904016
 20
69.710333204157
 30
0.0
 11
218.247396711303
 21
66.87880839687
 31
0.0
  0
ELLIPSE
  5
DD
100
AcDbEntity
  8
0
  6
CONTINUOUS
 62
           7
100
AcDbEllipse
 10
218.470175756643
 20
65.486542532639
 30
0.0
 11
-0.0544259076902449
 21
5.7070746072606369
 31
0.0
210
0.0
220
0.0
230
1.0
 40
0.037852759928
 41
1.3239940045052199
 42
1.354769307576809
  0
ARC
  5
DE
100
AcDbEntity
  8
0
  6
CONTINUOUS
 62
           7
100
AcDbCircle
 10
217.249233256371
 20
66.707494223032
 30
0.0
 40
0.998278201016
100
AcDbArc
 50
269.979304138463
 51
0.246721020781
  0
ELLIPSE
  5
DF
100
AcDbEntity
  8
0
  6
CONTINUOUS
 62
           7
100
AcDbEllipse
 10
218.470175756643
 20
65.486542532639
 30
0.0
 11
5.7070746072606653
 21
-0.0544259076902165
 31
0.0
210
0.0
220
0.0
230
1.0
 40
0.037852759928
 41
1.7868233460130156
 42
1.8175986490845857
  0
LINE
  5
E0
100
AcDbEntity
  8
0
  6
CONTINUOUS
 62
           7
100
AcDbLine
 10
69.993512748387
 20
215.132692359785
 30
0.0
 11
217.077909892411
 21
215.132692359786
 31
0.0
  0
LINE
  5
E1
100
AcDbEntity
  8
0
  6
CONTINUOUS
 62
           7
100
AcDbLine
 10
68.824025929496
 20
197.921006968882
 30
0.0
 11
68.824025929496
 21
213.963205540894
 31
0.0
  0
LINE
  5
E2
100
AcDbEntity
  8
0
  6
CONTINUOUS
 62
           7
100
AcDbLine
 10
218.247396711302
 20
213.963205540895
 30
0.0
 11
218.247396711303
 21
157.671006968882
 31
0.0
  0
LINE
  5
E3
100
AcDbEntity
  8
0
  6
CONTINUOUS
 62
           7
100
AcDbLine
 10
228.323930583655
 20
110.421006968882
 30
0.0
 11
228.323930583655
 21
90.421006968882
 31
0.0
  0
LINE
  5
E4
100
AcDbEntity
  8
0
  6
CONTINUOUS
 62
           7
100
AcDbLine
 10
218.247396711303
 20
90.421006968882
 30
0.0
 11
228.323930583655
 21
90.421006968882
 31
0.0
  0
LINE
  5
E5
100
AcDbEntity
  8
0
  6
CONTINUOUS
 62
           7
100
AcDbLine
 10
218.247396711303
 20
90.421006968882
 30
0.0
 11
218.247396711303
 21
66.87880839687
 31
0.0
  0
LINE
  5
E6
100
AcDbEntity
  8
0
  6
CONTINUOUS
 62
           7
100
AcDbLine
 10
218.247396711303
 20
130.421006968882
 30
0.0
 11
218.247396711303
 21
129.921006968882
 31
0.0
  0
LINE
  5
E7
100
AcDbEntity
  8
0
  6
CONTINUOUS
 62
           7
100
AcDbLine
 10
218.247396711303
 20
122.671006968882
 30
0.0
 11
218.247396711303
 21
110.421006968882
 31
0.0
  0
LINE
  5
E8
100
AcDbEntity
  8
0
  6
CONTINUOUS
 62
           7
100
AcDbLine
 10
218.247396711303
 20
110.421006968882
 30
0.0
 11
228.323930583655
 21
110.421006968882
 31
0.0
  0
CIRCLE
  5
E9
100
AcDbEntity
  8
0
  6
CONTINUOUS
 62
           7
100
AcDbCircle
 10
222.5357113204
 20
100.421006968882
 30
0.0
 40
3.5
  0
LINE
  5
EA
100
AcDbEntity
  8
0
  6
CONTINUOUS
 62
           7
100
AcDbLine
 10
68.824025929497
 20
66.87880839687
 30
0.0
 11
68.824025929496
 21
82.921006968882
 31
0.0
  0
LINE
  5
EB
100
AcDbEntity
  8
0
  6
CONTINUOUS
 62
           7
100
AcDbLine
 10
217.077909892412
 20
65.709321577979
 30
0.0
 11
69.993512748388
 21
65.709321577979
 31
0.0
  0
LINE
  5
EC
100
AcDbEntity
  8
0
  6
CONTINUOUS
 62
           7
100
AcDbLine
 10
68.824025929496
 20
117.921006968882
 30
0.0
 11
68.824025929496
 21
162.921006968882
 31
0.0
  0
LINE
  5
ED
100
AcDbEntity
  8
0
  6
CONTINUOUS
 62
           7
100
AcDbLine
 10
68.823920438658
 20
214.134168315868
 30
0.0
 11
68.535711320399
 21
214.422377434127
 31
0.0
  0
ELLIPSE
  5
EE
100
AcDbEntity
  8
0
  6
CONTINUOUS
 62
           7
100
AcDbEllipse
 10
69.537083666397
 20
214.419634622884
 30
0.0
 11
0.7090462434350968
 21
-0.7090462434350684
 31
0.0
210
0.0
220
0.0
230
1.0
 40
0.997264688634
 41
2.3575640180627206
 42
3.9256212891168394
  0
LINE
  5
EF
100
AcDbEntity
  8
0
  6
CONTINUOUS
 62
           7
100
AcDbLine
 10
69.534340855154
 20
215.421006968882
 30
0.0
 11
69.822549973413
 21
215.132797850623
 31
0.0
  0
LINE
  5
F0
100
AcDbEntity
  8
0
  6
CONTINUOUS
 62
           7
100
AcDbLine
 10
217.248872667386
 20
215.132797850623
 30
0.0
 11
217.537081785645
 21
215.421006968882
 31
0.0
  0
ELLIPSE
  5
F1
100
AcDbEntity
  8
0
  6
CONTINUOUS
 62
           7
100
AcDbEllipse
 10
217.534338974401
 20
214.419634622884
 30
0.0
 11
0.7090462434350116
 21
0.7090462434351252
 31
0.0
210
0.0
220
0.0
230
1.0
 40
0.997264688634
 41
5.4991566716524476
 42
7.0672139427066494
  0
LINE
  5
F2
100
AcDbEntity
  8
0
  6
CONTINUOUS
 62
           7
100
AcDbLine
 10
218.535711320399
 20
214.422377434128
 30
0.0
 11
218.24750220214
 21
214.134168315869
 31
0.0
  0
LINE
  5
F3
100
AcDbEntity
  8
0
  6
CONTINUOUS
 62
           7
100
AcDbLine
 10
218.247502202141
 20
66.707845621896
 30
0.0
 11
218.5357113204
 21
66.419636503637
 31
0.0
  0
ELLIPSE
  5
F4
100
AcDbEntity
  8
0
  6
CONTINUOUS
 62
           7
100
AcDbEllipse
 10
217.534338974402
 20
66.42237931488
 30
0.0
 11
0.7090462434351252
 21
-0.70904624343504
 31
0.0
210
0.0
220
0.0
230
1.0
 40
0.997264688634
 41
5.4991566716524769
 42
7.0672139427066023
  0
LINE
  5
F5
100
AcDbEntity
  8
0
  6
CONTINUOUS
 62
           7
100
AcDbLine
 10
217.537081785645
 20
65.421006968882
 30
0.0
 11
217.248872667386
 21
65.709216087141
 31
0.0
  0
LINE
  5
F6
100
AcDbEntity
  8
0
  6
CONTINUOUS
 62
           7
100
AcDbLine
 10
69.822549973413
 20
65.709216087141
 30
0.0
 11
69.534340855154
 21
65.421006968882
 31
0.0
  0
ELLIPSE
  5
F7
100
AcDbEntity
  8
0
  6
CONTINUOUS
 62
           7
100
AcDbEllipse
 10
69.537083666398
 20
66.42237931488
 30
0.0
 11
0.70904624343504
 21
0.7090462434350684
 31
0.0
210
0.0
220
0.0
230
1.0
 40
0.997264688634
 41
2.3575640180627122
 42
3.9256212891168478
  0
LINE
  5
F8
100
AcDbEntity
  8
0
  6
CONTINUOUS
 62
           7
100
AcDbLine
 10
68.5357113204
 20
66.419636503636
 30
0.0
 11
68.823920438659
 21
66.707845621895
 31
0.0
  0
LINE
  5
F9
100
AcDbEntity
  8
0
  6
CONTINUOUS
 62
           7
100
AcDbLine
 10
218.535711320399
 20
157.671006968882
 30
0.0
 11
218.535711320399
 21
214.422377434128
 31
0.0
  0
LINE
  5
FA
100
AcDbEntity
  8
0
  6
CONTINUOUS
 62
           7
100
AcDbLine
 10
217.537081785645
 20
215.421006968882
 30
0.0
 11
69.534340855154
 21
215.421006968882
 31
0.0
  0
LINE
  5
FB
100
AcDbEntity
  8
0
  6
CONTINUOUS
 62
           7
100
AcDbLine
 10
68.535711320399
 20
214.422377434127
 30
0.0
 11
68.535711320399
 21
197.921006968882
 31
0.0
  0
LINE
  5
FC
100
AcDbEntity
  8
0
  6
CONTINUOUS
 62
           7
100
AcDbLine
 10
68.535711320399
 20
162.921006968882
 30
0.0
 11
68.5357113204
 21
117.921006968882
 31
0.0
  0
LINE
  5
FD
100
AcDbEntity
  8
0
  6
CONTINUOUS
 62
           7
100
AcDbLine
 10
218.5357113204
 20
110.421006968882
 30
0.0
 11
218.5357113204
 21
122.671006968882
 31
0.0
  0
LINE
  5
FE
100
AcDbEntity
  8
0
  6
CONTINUOUS
 62
           7
100
AcDbLine
 10
218.5357113204
 20
129.921006968882
 30
0.0
 11
218.5357113204
 21
130.421006968882
 31
0.0
  0
LINE
  5
FF
100
AcDbEntity
  8
0
  6
CONTINUOUS
 62
           7
100
AcDbLine
 10
218.5357113204
 20
66.419636503637
 30
0.0
 11
218.5357113204
 21
90.421006968882
 31
0.0
  0
LINE
  5
100
100
AcDbEntity
  8
0
  6
CONTINUOUS
 62
           7
100
AcDbLine
 10
68.5357113204
 20
82.921006968882
 30
0.0
 11
68.5357113204
 21
66.419636503636
 31
0.0
  0
LINE
  5
101
100
AcDbEntity
  8
0
  6
CONTINUOUS
 62
           7
100
AcDbLine
 10
69.534340855154
 20
65.421006968882
 30
0.0
 11
217.537081785645
 21
65.421006968882
 31
0.0
  0
LINE
  5
102
100
AcDbEntity
  8
0
  6
CONTINUOUS
 62
           7
100
AcDbLine
 10
60.044719435012
 20
189.421006968882
 30
0.0
 11
63.544719435012
 21
189.421006968882
 31
0.0
  0
LINE
  5
103
100
AcDbEntity
  8
0
  6
CONTINUOUS
 62
           7
100
AcDbLine
 10
60.044719435012
 20
197.921006968882
 30
0.0
 11
63.544719435012
 21
197.921006968882
 31
0.0
  0
LINE
  5
104
100
AcDbEntity
  8
0
  6
CONTINUOUS
 62
           7
100
AcDbLine
 10
60.044719435012
 20
171.421006968882
 30
0.0
 11
63.544719435012
 21
171.421006968882
 31
0.0
  0
LINE
  5
105
100
AcDbEntity
  8
0
  6
CONTINUOUS
 62
           7
100
AcDbLine
 10
60.044719435012
 20
162.921006968882
 30
0.0
 11
63.544719435012
 21
162.921006968882
 31
0.0
  0
LINE
  5
106
100
AcDbEntity
  8
0
  6
CONTINUOUS
 62
           7
100
AcDbLine
 10
60.044719435012
 20
109.421006968882
 30
0.0
 11
63.544719435012
 21
109.421006968882
 31
0.0
  0
LINE
  5
107
100
AcDbEntity
  8
0
  6
CONTINUOUS
 62
           7
100
AcDbLine
 10
60.044719435012
 20
117.921006968882
 30
0.0
 11
63.544719435012
 21
117.921006968882
 31
0.0
  0
LINE
  5
108
100
AcDbEntity
  8
0
  6
CONTINUOUS
 62
           7
100
AcDbLine
 10
60.044719435012
 20
91.421006968882
 30
0.0
 11
63.544719435012
 21
91.421006968882
 31
0.0
  0
LINE
  5
109
100
AcDbEntity
  8
0
  6
CONTINUOUS
 62
           7
100
AcDbLine
 10
60.044719435013
 20
82.921006968882
 30
0.0
 11
63.544719435013
 21
82.921006968882
 31
0.0
  0
LINE
  5
10A
100
AcDbEntity
  8
0
  6
CONTINUOUS
 62
           7
100
AcDbLine
 10
228.5357113204
 20
110.421006968882
 30
0.0
 11
228.5357113204
 21
90.421006968882
 31
0.0
  0
LINE
  5
10B
100
AcDbEntity
  8
0
  6
CONTINUOUS
 62
           7
100
AcDbLine
 10
228.323930583655
 20
90.421006968882
 30
0.0
 11
228.5357113204
 21
90.421006968882
 31
0.0
  0
LINE
  5
10C
100
AcDbEntity
  8
0
  6
CONTINUOUS
 62
           7
100
AcDbLine
 10
228.323930583655
 20
110.421006968882
 30
0.0
 11
228.5357113204
 21
110.421006968882
 31
0.0
  0
LINE
  5
10D
100
AcDbEntity
  8
0
  6
CONTINUOUS
 62
           7
100
AcDbLine
 10
224.231124722239
 20
150.421006968882
 30
0.0
 11
224.231124722239
 21
157.671006968882
 31
0.0
  0
LINE
  5
10E
100
AcDbEntity
  8
0
  6
CONTINUOUS
 62
           7
100
AcDbLine
 10
224.231124722239
 20
150.421006968882
 30
0.0
 11
217.157805888446
 21
150.421006968882
 31
0.0
  0
LINE
  5
10F
100
AcDbEntity
  8
0
  6
CONTINUOUS
 62
           7
100
AcDbLine
 10
217.157805888446
 20
150.421006968882
 30
0.0
 11
217.157805888446
 21
157.671006968882
 31
0.0
  0
LINE
  5
110
100
AcDbEntity
  8
0
  6
CONTINUOUS
 62
           7
100
AcDbLine
 10
217.157805888446
 20
157.671006968882
 30
0.0
 11
224.231124722239
 21
157.671006968882
 31
0.0
  0
LINE
  5
111
100
AcDbEntity
  8
0
  6
CONTINUOUS
 62
           7
100
AcDbLine
 10
224.231124722239
 20
122.671006968882
 30
0.0
 11
224.231124722239
 21
129.921006968882
 31
0.0
  0
LINE
  5
112
100
AcDbEntity
  8
0
  6
CONTINUOUS
 62
           7
100
AcDbLine
 10
217.157805888446
 20
122.671006968882
 30
0.0
 11
224.231124722239
 21
122.671006968882
 31
0.0
  0
LINE
  5
113
100
AcDbEntity
  8
0
  6
CONTINUOUS
 62
           7
100
AcDbLine
 10
217.157805888446
 20
129.921006968882
 30
0.0
 11
224.231124722239
 21
129.921006968882
 31
0.0
  0
LINE
  5
114
100
AcDbEntity
  8
0
  6
CONTINUOUS
 62
           7
100
AcDbLine
 10
217.157805888446
 20
122.671006968882
 30
0.0
 11
217.157805888446
 21
129.921006968882
 31
0.0
  0
LINE
  5
115
100
AcDbEntity
  8
0
  6
CONTINUOUS
 62
           7
100
AcDbLine
 10
224.891109807909
 20
157.671006968882
 30
0.0
 11
224.891109807909
 21
150.421006968882
 31
0.0
  0
LINE
  5
116
100
AcDbEntity
  8
0
  6
CONTINUOUS
 62
           7
100
AcDbLine
 10
224.891109807909
 20
150.421006968882
 30
0.0
 11
224.231124722239
 21
150.421006968882
 31
0.0
  0
LINE
  5
117
100
AcDbEntity
  8
0
  6
CONTINUOUS
 62
           7
100
AcDbLine
 10
224.231124722239
 20
157.671006968882
 30
0.0
 11
224.891109807909
 21
157.671006968882
 31
0.0
  0
LINE
  5
118
100
AcDbEntity
  8
0
  6
CONTINUOUS
 62
           7
100
AcDbLine
 10
224.891109807909
 20
129.921006968882
 30
0.0
 11
224.891109807909
 21
122.671006968882
 31
0.0
  0
LINE
  5
119
100
AcDbEntity
  8
0
  6
CONTINUOUS
 62
           7
100
AcDbLine
 10
224.891109807909
 20
122.671006968882
 30
0.0
 11
224.231124722239
 21
122.671006968882
 31
0.0
  0
LINE
  5
11A
100
AcDbEntity
  8
0
  6
CONTINUOUS
 62
           7
100
AcDbLine
 10
224.231124722239
 20
129.921006968882
 30
0.0
 11
224.891109807909
 21
129.921006968882
 31
0.0
  0
LINE
  5
11B
100
AcDbEntity
  8
0
  6
CONTINUOUS
 62
           7
100
AcDbLine
 10
225.61771868805
 20
129.921006968882
 30
0.0
 11
225.61771868805
 21
150.421006968882
 31
0.0
  0
LINE
  5
11C
100
AcDbEntity
  8
0
  6
CONTINUOUS
 62
           7
100
AcDbLine
 10
225.984573143031
 20
122.671006968882
 30
0.0
 11
225.984573143031
 21
157.671006968882
 31
0.0
  0
LINE
  5
11D
100
AcDbEntity
  8
0
  6
CONTINUOUS
 62
           7
100
AcDbLine
 10
224.891109807909
 20
122.671006968882
 30
0.0
 11
225.984573143031
 21
122.671006968882
 31
0.0
  0
LINE
  5
11E
100
AcDbEntity
  8
0
  6
CONTINUOUS
 62
           7
100
AcDbLine
 10
224.891109807909
 20
129.921006968882
 30
0.0
 11
225.61771868805
 21
129.921006968882
 31
0.0
  0
LINE
  5
11F
100
AcDbEntity
  8
0
  6
CONTINUOUS
 62
           7
100
AcDbLine
 10
225.61771868805
 20
150.421006968882
 30
0.0
 11
224.891109807909
 21
150.421006968882
 31
0.0
  0
LINE
  5
120
100
AcDbEntity
  8
0
  6
CONTINUOUS
 62
           7
100
AcDbLine
 10
224.891109807909
 20
157.671006968882
 30
0.0
 11
225.984573143031
 21
157.671006968882
 31
0.0
  0
LINE
  5
121
100
AcDbEntity
  8
0
  6
CONTINUOUS
 62
           7
100
AcDbLine
 10
219.957805888446
 20
130.421006968882
 30
0.0
 11
219.957805888446
 21
129.921006968882
 31
0.0
  0
LINE
  5
122
100
AcDbEntity
  8
0
  6
CONTINUOUS
 62
           7
100
AcDbLine
 10
228.457805888446
 20
122.671006968882
 30
0.0
 11
228.457805888446
 21
157.671006968882
 31
0.0
  0
LINE
  5
123
100
AcDbEntity
  8
0
  6
CONTINUOUS
 62
           7
100
AcDbLine
 10
228.457805888446
 20
122.671006968882
 30
0.0
 11
225.984573143031
 21
122.671006968882
 31
0.0
  0
LINE
  5
124
100
AcDbEntity
  8
0
  6
CONTINUOUS
 62
           7
100
AcDbLine
 10
228.457805888446
 20
157.671006968882
 30
0.0
 11
225.984573143031
 21
157.671006968882
 31
0.0
  0
LINE
  5
125
100
AcDbEntity
  8
0
  6
CONTINUOUS
 62
           7
100
AcDbLine
 10
229.657805888446
 20
156.471006968882
 30
0.0
 11
229.657805888446
 21
123.871006968882
 31
0.0
  0
LINE
  5
126
100
AcDbEntity
  8
0
  6
CONTINUOUS
 62
           7
100
AcDbLine
 10
229.657805888446
 20
123.871006968882
 30
0.0
 11
228.457805888446
 21
122.671006968882
 31
0.0
  0
LINE
  5
127
100
AcDbEntity
  8
0
  6
CONTINUOUS
 62
           7
100
AcDbLine
 10
229.657805888446
 20
156.471006968882
 30
0.0
 11
228.457805888446
 21
157.671006968882
 31
0.0
  0
LINE
  5
128
100
AcDbEntity
  8
0
  6
CONTINUOUS
 62
           7
100
AcDbLine
 10
-29.827821845313
 20
82.921006968882
 30
0.0
 11
-29.827821845313
 21
91.421006968882
 31
0.0
  0
LINE
  5
129
100
AcDbEntity
  8
0
  6
CONTINUOUS
 62
           7
100
AcDbLine
 10
-29.827821845313
 20
109.421006968882
 30
0.0
 11
-29.827821845313
 21
117.921006968882
 31
0.0
  0
LINE
  5
12A
100
AcDbEntity
  8
0
  6
CONTINUOUS
 62
           7
100
AcDbLine
 10
-29.827821845313
 20
162.921006968882
 30
0.0
 11
-29.827821845313
 21
171.421006968882
 31
0.0
  0
LINE
  5
12B
100
AcDbEntity
  8
0
  6
CONTINUOUS
 62
           7
100
AcDbLine
 10
-29.827821845313
 20
189.421006968882
 30
0.0
 11
-29.827821845313
 21
197.921006968882
 31
0.0
  0
LINE
  5
12C
100
AcDbEntity
  8
0
  6
CONTINUOUS
 62
           7
100
AcDbLine
 10
-36.048486743024
 20
110.421006968882
 30
0.0
 11
-36.048486743024
 21
90.421006968882
 31
0.0
  0
LINE
  5
12D
100
AcDbEntity
  8
0
  6
CONTINUOUS
 62
           7
100
AcDbLine
 10
-36.048486743024
 20
110.421006968882
 30
0.0
 11
-33.627821845314
 21
110.421006968882
 31
0.0
  0
LINE
  5
12E
100
AcDbEntity
  8
0
  6
CONTINUOUS
 62
           7
100
AcDbLine
 10
-36.048486743024
 20
90.421006968882
 30
0.0
 11
-33.627821845314
 21
90.421006968882
 31
0.0
  0
LINE
  5
12F
100
AcDbEntity
  8
0
  6
CONTINUOUS
 62
           7
100
AcDbLine
 10
-33.627821845314
 20
110.421006968882
 30
0.0
 11
-33.627821845314
 21
90.421006968882
 31
0.0
  0
LINE
  5
130
100
AcDbEntity
  8
0
  6
CONTINUOUS
 62
           7
100
AcDbLine
 10
-39.129192310559
 20
90.421006968882
 30
0.0
 11
-39.129192310559
 21
66.87880839687
 31
0.0
  0
LINE
  5
131
100
AcDbEntity
  8
0
  6
CONTINUOUS
 62
           7
100
AcDbLine
 10
-39.994876319458
 20
69.710333204157
 30
0.0
 11
-39.129192310559
 21
66.87880839687
 31
0.0
  0
ELLIPSE
  5
132
100
AcDbEntity
  8
0
  6
CONTINUOUS
 62
           7
100
AcDbEllipse
 10
-40.577747236799
 20
70.447331251489
 30
0.0
 11
-0.0130987015972295
 21
2.0030953733983097
 31
0.0
210
0.0
220
0.0
230
1.0
 40
0.310585840872
 41
4.3335773740495798
 42
4.6913375889407209
  0
LINE
  5
133
100
AcDbEntity
  8
0
  6
CONTINUOUS
 62
           7
100
AcDbLine
 10
-39.955476297865
 20
130.421006968882
 30
0.0
 11
-39.955476297865
 21
129.921006968882
 31
0.0
  0
LINE
  5
134
100
AcDbEntity
  8
0
  6
CONTINUOUS
 62
           7
100
AcDbLine
 10
-39.955476297865
 20
122.671006968882
 30
0.0
 11
-39.955476297865
 21
70.40923379098
 31
0.0
  0
LINE
  5
135
100
AcDbEntity
  8
0
  6
CONTINUOUS
 62
           7
100
AcDbLine
 10
-39.129192310559
 20
130.421006968882
 30
0.0
 11
-39.129192310559
 21
129.921006968882
 31
0.0
  0
LINE
  5
136
100
AcDbEntity
  8
0
  6
CONTINUOUS
 62
           7
100
AcDbLine
 10
-39.129192310559
 20
122.671006968882
 30
0.0
 11
-39.129192310559
 21
110.421006968882
 31
0.0
  0
ELLIPSE
  5
137
100
AcDbEntity
  8
0
  6
CONTINUOUS
 62
           7
100
AcDbEllipse
 10
-37.818122962811
 20
100.421006968882
 30
0.0
 11
0.0
 21
3.5000000000000284
 31
0.0
210
0.0
220
0.0
230
1.0
 40
0.305730681459
 41
0.0
 42
6.2831853071795862
  0
LINE
  5
138
100
AcDbEntity
  8
0
  6
CONTINUOUS
 62
           7
100
AcDbLine
 10
-39.129192310559
 20
110.421006968882
 30
0.0
 11
-36.048486743024
 21
110.421006968882
 31
0.0
  0
LINE
  5
139
100
AcDbEntity
  8
0
  6
CONTINUOUS
 62
           7
100
AcDbLine
 10
-39.129192310559
 20
90.421006968882
 30
0.0
 11
-36.048486743024
 21
90.421006968882
 31
0.0
  0
LINE
  5
13A
100
AcDbEntity
  8
0
  6
CONTINUOUS
 62
           7
100
AcDbLine
 10
-46.492345205802
 20
150.421006968882
 30
0.0
 11
-46.492345205802
 21
130.421006968882
 31
0.0
  0
LINE
  5
13B
100
AcDbEntity
  8
0
  6
CONTINUOUS
 62
           7
100
AcDbLine
 10
-46.492345205802
 20
130.421006968882
 30
0.0
 11
-33.627821845314
 21
130.421006968882
 31
0.0
  0
LINE
  5
13C
100
AcDbEntity
  8
0
  6
CONTINUOUS
 62
           7
100
AcDbLine
 10
-33.627821845314
 20
150.421006968882
 30
0.0
 11
-33.627821845314
 21
130.421006968882
 31
0.0
  0
LINE
  5
13D
100
AcDbEntity
  8
0
  6
CONTINUOUS
 62
           7
100
AcDbLine
 10
-47.238322643218
 20
130.421006968882
 30
0.0
 11
-47.238322643218
 21
150.421006968882
 31
0.0
  0
LINE
  5
13E
100
AcDbEntity
  8
0
  6
CONTINUOUS
 62
           7
100
AcDbLine
 10
-46.492345205802
 20
130.421006968882
 30
0.0
 11
-47.238322643218
 21
130.421006968882
 31
0.0
  0
LINE
  5
13F
100
AcDbEntity
  8
0
  6
CONTINUOUS
 62
           7
100
AcDbLine
 10
-48.846911713732
 20
150.421006968882
 30
0.0
 11
-48.846911713732
 21
130.421006968882
 31
0.0
  0
LINE
  5
140
100
AcDbEntity
  8
0
  6
CONTINUOUS
 62
           7
100
AcDbLine
 10
-48.846911713732
 20
150.421006968882
 30
0.0
 11
-48.485539596769
 21
150.421006968882
 31
0.0
  0
LINE
  5
141
100
AcDbEntity
  8
0
  6
CONTINUOUS
 62
           7
100
AcDbLine
 10
-48.846911713732
 20
130.421006968882
 30
0.0
 11
-47.238322643218
 21
130.421006968882
 31
0.0
  0
LINE
  5
142
100
AcDbEntity
  8
0
  6
CONTINUOUS
 62
           7
100
AcDbLine
 10
-39.12717942546
 20
66.707845621896
 30
0.0
 11
-33.627821845313
 21
66.419636503637
 31
0.0
  0
ELLIPSE
  5
143
100
AcDbEntity
  8
0
  6
CONTINUOUS
 62
           7
100
AcDbEllipse
 10
-34.878314895264
 20
65.486542532639
 30
0.0
 11
-1.9766214442911831
 21
5.5472974044442083
 31
0.0
210
0.0
220
0.0
230
1.0
 40
0.678414388077
 41
1.0871714286662024
 42
1.1179467317377956
  0
LINE
  5
144
100
AcDbEntity
  8
0
  6
CONTINUOUS
 62
           7
100
AcDbLine
 10
-33.627821845313
 20
66.419636503637
 30
0.0
 11
-33.627821845313
 21
90.421006968882
 31
0.0
  0
LINE
  5
145
100
AcDbEntity
  8
0
  6
CONTINUOUS
 62
           7
100
AcDbLine
 10
-33.627821845313
 20
65.421006968882
 30
0.0
 11
-39.12717942546
 21
65.709216087141
 31
0.0
  0
ARC
  5
146
100
AcDbEntity
  8
0
  6
CONTINUOUS
 62
           7
100
AcDbCircle
 10
419.297865554784
 20
66.194699669801
 30
0.0
 40
458.425332179524
100
AcDbArc
 50
179.935865011364
 51
180.064134988637
  0
LINE
  5
147
100
AcDbEntity
  8
0
  6
CONTINUOUS
 62
           7
100
AcDbLine
 10
-33.627821845313
 20
66.419636503637
 30
0.0
 11
-33.627821845313
 21
65.421006968882
 31
0.0
  0
LINE
  5
148
100
AcDbEntity
  8
0
  6
CONTINUOUS
 62
           7
100
AcDbLine
 10
-33.627821845314
 20
110.421006968882
 30
0.0
 11
-33.627821845314
 21
122.671006968882
 31
0.0
  0
LINE
  5
149
100
AcDbEntity
  8
0
  6
CONTINUOUS
 62
           7
100
AcDbLine
 10
-33.627821845314
 20
129.921006968882
 30
0.0
 11
-33.627821845314
 21
130.421006968882
 31
0.0
  0
LINE
  5
14A
100
AcDbEntity
  8
0
  6
CONTINUOUS
 62
           7
100
AcDbLine
 10
-39.129192310559
 20
213.963205540895
 30
0.0
 11
-39.129192310559
 21
157.671006968882
 31
0.0
  0
ELLIPSE
  5
14B
100
AcDbEntity
  8
0
  6
CONTINUOUS
 62
           7
100
AcDbEllipse
 10
-34.878314895264
 20
215.355471405126
 30
0.0
 11
1.9766214442911405
 21
5.5472974044442367
 31
0.0
210
0.0
220
0.0
230
1.0
 40
0.678414388077
 41
2.023645921852002
 42
2.0544212249235954
  0
LINE
  5
14C
100
AcDbEntity
  8
0
  6
CONTINUOUS
 62
           7
100
AcDbLine
 10
-33.627821845314
 20
214.422377434128
 30
0.0
 11
-39.12717942546
 21
214.134168315869
 31
0.0
  0
LINE
  5
14D
100
AcDbEntity
  8
0
  6
CONTINUOUS
 62
           7
100
AcDbLine
 10
-33.627821845314
 20
157.671006968882
 30
0.0
 11
-33.627821845314
 21
214.422377434128
 31
0.0
  0
LINE
  5
14E
100
AcDbEntity
  8
0
  6
CONTINUOUS
 62
           7
100
AcDbLine
 10
-39.12717942546
 20
215.132797850623
 30
0.0
 11
-33.627821845314
 21
215.421006968882
 31
0.0
  0
ARC
  5
14F
100
AcDbEntity
  8
0
  6
CONTINUOUS
 62
           7
100
AcDbCircle
 10
16.078356868897
 20
214.687771531152
 30
0.0
 40
55.208312001614
100
AcDbArc
 50
179.425455004836
 51
180.574544995164
  0
LINE
  5
150
100
AcDbEntity
  8
0
  6
CONTINUOUS
 62
           7
100
AcDbLine
 10
-33.627821845314
 20
215.421006968882
 30
0.0
 11
-33.627821845314
 21
214.422377434128
 31
0.0
  0
LINE
  5
151
100
AcDbEntity
  8
0
  6
CONTINUOUS
 62
           7
100
AcDbLine
 10
-39.129192310559
 20
65.709321577979
 30
0.0
 11
-39.994876319458
 21
68.540846385266
 31
0.0
  0
ARC
  5
152
100
AcDbEntity
  8
0
  6
CONTINUOUS
 62
           7
100
AcDbCircle
 10
-36.660772960633
 20
69.09182016029
 30
0.0
 40
3.390988586351
100
AcDbArc
 50
169.490471935993
 51
190.509528064009
  0
LINE
  5
153
100
AcDbEntity
  8
0
  6
CONTINUOUS
 62
           7
100
AcDbLine
 10
-39.12717942546
 20
65.709216087141
 30
0.0
 11
-39.129192310559
 21
65.709321577979
 31
0.0
  0
LINE
  5
154
100
AcDbEntity
  8
0
  6
CONTINUOUS
 62
           7
100
AcDbLine
 10
-39.129192310559
 20
213.963205540895
 30
0.0
 11
-39.994876319458
 21
211.131680733607
 31
0.0
  0
ARC
  5
155
100
AcDbEntity
  8
0
  6
CONTINUOUS
 62
           7
100
AcDbCircle
 10
-36.810634826869
 20
211.750213754638
 30
0.0
 40
3.243759698442
100
AcDbArc
 50
169.007296619937
 51
190.992703380065
  0
LINE
  5
156
100
AcDbEntity
  8
0
  6
CONTINUOUS
 62
           7
100
AcDbLine
 10
-39.994876319458
 20
212.301167552498
 30
0.0
 11
-39.129192310559
 21
215.132692359786
 31
0.0
  0
LINE
  5
157
100
AcDbEntity
  8
0
  6
CONTINUOUS
 62
           7
100
AcDbLine
 10
-39.129192310559
 20
215.132692359786
 30
0.0
 11
-39.12717942546
 21
215.132797850623
 31
0.0
  0
ELLIPSE
  5
158
100
AcDbEntity
  8
0
  6
CONTINUOUS
 62
           7
100
AcDbEllipse
 10
-40.577747236799
 20
210.394682686276
 30
0.0
 11
0.0130987015972153
 21
2.0030953733983097
 31
0.0
210
0.0
220
0.0
230
1.0
 40
0.310585840872
 41
4.7334403718286788
 42
5.0912005867197667
  0
LINE
  5
159
100
AcDbEntity
  8
0
  6
CONTINUOUS
 62
           7
100
AcDbLine
 10
-39.955476297866
 20
210.432780146784
 30
0.0
 11
-39.955476297865
 21
157.671006968882
 31
0.0
  0
LINE
  5
15A
100
AcDbEntity
  8
0
  6
CONTINUOUS
 62
           7
100
AcDbLine
 10
-39.955476297865
 20
68.411974721471
 30
0.0
 11
-62.629192310559
 21
69.600253825791
 31
0.0
  0
ARC
  5
15B
100
AcDbEntity
  8
0
  6
CONTINUOUS
 62
           7
100
AcDbCircle
 10
-43.58808062567
 20
70.462580690267
 30
0.0
 40
19.074905119198
100
AcDbArc
 50
176.588960569173
 51
183.411039430829
  0
LINE
  5
15C
100
AcDbEntity
  8
0
  6
CONTINUOUS
 62
           7
100
AcDbLine
 10
-62.629192310559
 20
71.5975128953
 30
0.0
 11
-39.955476297865
 21
70.40923379098
 31
0.0
  0
LINE
  5
15D
100
AcDbEntity
  8
0
  6
CONTINUOUS
 62
           7
100
AcDbLine
 10
-62.629192310559
 20
209.244501042465
 30
0.0
 11
-62.629192310559
 21
71.5975128953
 31
0.0
  0
LINE
  5
15E
100
AcDbEntity
  8
0
  6
CONTINUOUS
 62
           7
100
AcDbLine
 10
-39.955476297866
 20
210.432780146784
 30
0.0
 11
-62.629192310559
 21
209.244501042465
 31
0.0
  0
ARC
  5
15F
100
AcDbEntity
  8
0
  6
CONTINUOUS
 62
           7
100
AcDbCircle
 10
-43.588080618489
 20
210.379433247522
 30
0.0
 40
19.074905126369
100
AcDbArc
 50
176.588960570381
 51
183.41103942962
  0
LINE
  5
160
100
AcDbEntity
  8
0
  6
CONTINUOUS
 62
           7
100
AcDbLine
 10
-62.629192310559
 20
211.241760111974
 30
0.0
 11
-39.955476297866
 21
212.430039216293
 31
0.0
  0
LINE
  5
161
100
AcDbEntity
  8
0
  6
CONTINUOUS
 62
           7
100
AcDbLine
 10
-63.627821845313
 20
70.709344284767
 30
0.0
 11
-63.627821845313
 21
71.5975128953
 31
0.0
  0
LINE
  5
162
100
AcDbEntity
  8
0
  6
CONTINUOUS
 62
           7
100
AcDbLine
 10
-63.627821845313
 20
71.5975128953
 30
0.0
 11
-62.629192310559
 21
71.5975128953
 31
0.0
  0
LINE
  5
163
100
AcDbEntity
  8
0
  6
CONTINUOUS
 62
           7
100
AcDbLine
 10
-63.627821845313
 20
70.709344284767
 30
0.0
 11
-62.629192310559
 21
69.600253825791
 31
0.0
  0
LINE
  5
164
100
AcDbEntity
  8
0
  6
CONTINUOUS
 62
           7
100
AcDbLine
 10
-63.627821845314
 20
209.244501042465
 30
0.0
 11
-63.627821845314
 21
210.132669652997
 31
0.0
  0
LINE
  5
165
100
AcDbEntity
  8
0
  6
CONTINUOUS
 62
           7
100
AcDbLine
 10
-63.627821845314
 20
210.132669652997
 30
0.0
 11
-62.629192310559
 21
211.241760111974
 31
0.0
  0
LINE
  5
166
100
AcDbEntity
  8
0
  6
CONTINUOUS
 62
           7
100
AcDbLine
 10
-63.627821845314
 20
209.244501042465
 30
0.0
 11
-62.629192310559
 21
209.244501042465
 31
0.0
  0
LINE
  5
167
100
AcDbEntity
  8
0
  6
CONTINUOUS
 62
           7
100
AcDbLine
 10
-63.627821845313
 20
71.5975128953
 30
0.0
 11
-63.627821845314
 21
209.244501042465
 31
0.0
  0
LINE
  5
168
100
AcDbEntity
  8
0
  6
CONTINUOUS
 62
           7
100
AcDbLine
 10
-31.864486506711
 20
82.921006968882
 30
0.0
 11
-31.864486506711
 21
91.421006968882
 31
0.0
  0
LINE
  5
169
100
AcDbEntity
  8
0
  6
CONTINUOUS
 62
           7
100
AcDbLine
 10
-33.627821845313
 20
91.421006968882
 30
0.0
 11
-31.864486506711
 21
91.421006968882
 31
0.0
  0
LINE
  5
16A
100
AcDbEntity
  8
0
  6
CONTINUOUS
 62
           7
100
AcDbLine
 10
-33.627821845313
 20
82.921006968882
 30
0.0
 11
-31.864486506711
 21
82.921006968882
 31
0.0
  0
LINE
  5
16B
100
AcDbEntity
  8
0
  6
CONTINUOUS
 62
           7
100
AcDbLine
 10
-31.864486506712
 20
109.421006968882
 30
0.0
 11
-31.864486506712
 21
117.921006968882
 31
0.0
  0
LINE
  5
16C
100
AcDbEntity
  8
0
  6
CONTINUOUS
 62
           7
100
AcDbLine
 10
-33.627821845313
 20
109.421006968882
 30
0.0
 11
-31.864486506712
 21
109.421006968882
 31
0.0
  0
LINE
  5
16D
100
AcDbEntity
  8
0
  6
CONTINUOUS
 62
           7
100
AcDbLine
 10
-33.627821845313
 20
117.921006968882
 30
0.0
 11
-31.864486506712
 21
117.921006968882
 31
0.0
  0
LINE
  5
16E
100
AcDbEntity
  8
0
  6
CONTINUOUS
 62
           7
100
AcDbLine
 10
-31.864486506712
 20
171.421006968882
 30
0.0
 11
-31.864486506712
 21
162.921006968882
 31
0.0
  0
LINE
  5
16F
100
AcDbEntity
  8
0
  6
CONTINUOUS
 62
           7
100
AcDbLine
 10
-33.627821845313
 20
171.421006968882
 30
0.0
 11
-31.864486506712
 21
171.421006968882
 31
0.0
  0
LINE
  5
170
100
AcDbEntity
  8
0
  6
CONTINUOUS
 62
           7
100
AcDbLine
 10
-33.627821845313
 20
162.921006968882
 30
0.0
 11
-31.864486506712
 21
162.921006968882
 31
0.0
  0
LINE
  5
171
100
AcDbEntity
  8
0
  6
CONTINUOUS
 62
           7
100
AcDbLine
 10
-31.864486506712
 20
197.921006968882
 30
0.0
 11
-31.864486506712
 21
189.421006968882
 31
0.0
  0
LINE
  5
172
100
AcDbEntity
  8
0
  6
CONTINUOUS
 62
           7
100
AcDbLine
 10
-33.627821845313
 20
189.421006968882
 30
0.0
 11
-31.864486506712
 21
189.421006968882
 31
0.0
  0
LINE
  5
173
100
AcDbEntity
  8
0
  6
CONTINUOUS
 62
           7
100
AcDbLine
 10
-33.627821845313
 20
197.921006968882
 30
0.0
 11
-31.864486506712
 21
197.921006968882
 31
0.0
  0
LINE
  5
174
100
AcDbEntity
  8
0
  6
CONTINUOUS
 62
           7
100
AcDbLine
 10
-31.864486506711
 20
91.421006968882
 30
0.0
 11
-29.827821845313
 21
91.421006968882
 31
0.0
  0
LINE
  5
175
100
AcDbEntity
  8
0
  6
CONTINUOUS
 62
           7
100
AcDbLine
 10
-31.864486506711
 20
82.921006968882
 30
0.0
 11
-29.827821845313
 21
82.921006968882
 31
0.0
  0
LINE
  5
176
100
AcDbEntity
  8
0
  6
CONTINUOUS
 62
           7
100
AcDbLine
 10
-31.864486506712
 20
109.421006968882
 30
0.0
 11
-29.827821845313
 21
109.421006968882
 31
0.0
  0
LINE
  5
177
100
AcDbEntity
  8
0
  6
CONTINUOUS
 62
           7
100
AcDbLine
 10
-31.864486506712
 20
117.921006968882
 30
0.0
 11
-29.827821845313
 21
117.921006968882
 31
0.0
  0
LINE
  5
178
100
AcDbEntity
  8
0
  6
CONTINUOUS
 62
           7
100
AcDbLine
 10
-31.864486506712
 20
171.421006968882
 30
0.0
 11
-29.827821845313
 21
171.421006968882
 31
0.0
  0
LINE
  5
179
100
AcDbEntity
  8
0
  6
CONTINUOUS
 62
           7
100
AcDbLine
 10
-31.864486506712
 20
162.921006968882
 30
0.0
 11
-29.827821845313
 21
162.921006968882
 31
0.0
  0
LINE
  5
17A
100
AcDbEntity
  8
0
  6
CONTINUOUS
 62
           7
100
AcDbLine
 10
-31.864486506712
 20
189.421006968882
 30
0.0
 11
-29.827821845313
 21
189.421006968882
 31
0.0
  0
LINE
  5
17B
100
AcDbEntity
  8
0
  6
CONTINUOUS
 62
           7
100
AcDbLine
 10
-31.864486506712
 20
197.921006968882
 30
0.0
 11
-29.827821845313
 21
197.921006968882
 31
0.0
  0
LINE
  5
17C
100
AcDbEntity
  8
0
  6
CONTINUOUS
 62
           7
100
AcDbLine
 10
-23.274534475727
 20
123.871006968882
 30
0.0
 11
-24.474534475727
 21
122.671006968882
 31
0.0
  0
LINE
  5
17D
100
AcDbEntity
  8
0
  6
CONTINUOUS
 62
           7
100
AcDbLine
 10
-23.274534475727
 20
123.871006968882
 30
0.0
 11
-9.857545729012
 21
123.871006968882
 31
0.0
  0
LINE
  5
17E
100
AcDbEntity
  8
0
  6
CONTINUOUS
 62
           7
100
AcDbLine
 10
-9.857545729012
 20
123.871006968882
 30
0.0
 11
-8.657545729012
 21
122.671006968883
 31
0.0
  0
LINE
  5
17F
100
AcDbEntity
  8
0
  6
CONTINUOUS
 62
           7
100
AcDbLine
 10
-8.657545729012
 20
122.671006968883
 30
0.0
 11
-24.474534475727
 21
122.671006968882
 31
0.0
  0
LINE
  5
180
100
AcDbEntity
  8
0
  6
CONTINUOUS
 62
           7
100
AcDbLine
 10
-9.857545729012
 20
123.871006968882
 30
0.0
 11
-9.857545729012
 21
156.471006968882
 31
0.0
  0
LINE
  5
181
100
AcDbEntity
  8
0
  6
CONTINUOUS
 62
           7
100
AcDbLine
 10
-9.857545729012
 20
156.471006968882
 30
0.0
 11
-8.657545729012
 21
157.671006968882
 31
0.0
  0
LINE
  5
182
100
AcDbEntity
  8
0
  6
CONTINUOUS
 62
           7
100
AcDbLine
 10
-8.657545729012
 20
122.671006968883
 30
0.0
 11
-8.657545729012
 21
157.671006968882
 31
0.0
  0
LINE
  5
183
100
AcDbEntity
  8
0
  6
CONTINUOUS
 62
           7
100
AcDbLine
 10
-23.274534475727
 20
156.471006968882
 30
0.0
 11
-23.274534475727
 21
123.871006968882
 31
0.0
  0
LINE
  5
184
100
AcDbEntity
  8
0
  6
CONTINUOUS
 62
           7
100
AcDbLine
 10
-9.857545729012
 20
156.471006968882
 30
0.0
 11
-23.274534475727
 21
156.471006968882
 31
0.0
  0
LINE
  5
185
100
AcDbEntity
  8
0
  6
CONTINUOUS
 62
           7
100
AcDbLine
 10
-10.857545729012
 20
124.871006968882
 30
0.0
 11
-10.857545729012
 21
155.471006968882
 31
0.0
  0
LINE
  5
186
100
AcDbEntity
  8
0
  6
CONTINUOUS
 62
           7
100
AcDbLine
 10
-10.857545729012
 20
155.471006968882
 30
0.0
 11
-22.274534475727
 21
155.471006968882
 31
0.0
  0
LINE
  5
187
100
AcDbEntity
  8
0
  6
CONTINUOUS
 62
           7
100
AcDbLine
 10
-22.274534475727
 20
155.471006968882
 30
0.0
 11
-22.274534475727
 21
124.871006968882
 31
0.0
  0
LINE
  5
188
100
AcDbEntity
  8
0
  6
CONTINUOUS
 62
           7
100
AcDbLine
 10
-22.274534475727
 20
124.871006968882
 30
0.0
 11
-10.857545729012
 21
124.871006968882
 31
0.0
  0
LINE
  5
189
100
AcDbEntity
  8
0
  6
CONTINUOUS
 62
           7
100
AcDbLine
 10
-22.230790143964
 20
124.914751300645
 30
0.0
 11
-22.274534475727
 21
124.871006968882
 31
0.0
  0
LINE
  5
18A
100
AcDbEntity
  8
0
  6
CONTINUOUS
 62
           7
100
AcDbLine
 10
-22.230790143964
 20
124.914751300645
 30
0.0
 11
-10.901290060775
 21
124.914751300645
 31
0.0
  0
LINE
  5
18B
100
AcDbEntity
  8
0
  6
CONTINUOUS
 62
           7
100
AcDbLine
 10
-10.901290060775
 20
124.914751300645
 30
0.0
 11
-10.857545729012
 21
124.871006968882
 31
0.0
  0
LINE
  5
18C
100
AcDbEntity
  8
0
  6
CONTINUOUS
 62
           7
100
AcDbLine
 10
-10.901290060775
 20
124.914751300645
 30
0.0
 11
-10.901290060775
 21
155.42726263712
 31
0.0
  0
LINE
  5
18D
100
AcDbEntity
  8
0
  6
CONTINUOUS
 62
           7
100
AcDbLine
 10
-10.901290060775
 20
155.42726263712
 30
0.0
 11
-10.857545729012
 21
155.471006968882
 31
0.0
  0
LINE
  5
18E
100
AcDbEntity
  8
0
  6
CONTINUOUS
 62
           7
100
AcDbLine
 10
-23.274534475727
 20
156.471006968882
 30
0.0
 11
-24.474534475727
 21
157.671006968882
 31
0.0
  0
LINE
  5
18F
100
AcDbEntity
  8
0
  6
CONTINUOUS
 62
           7
100
AcDbLine
 10
-8.657545729012
 20
157.671006968882
 30
0.0
 11
-24.474534475727
 21
157.671006968882
 31
0.0
  0
LINE
  5
190
100
AcDbEntity
  8
0
  6
CONTINUOUS
 62
           7
100
AcDbLine
 10
-10.901290060775
 20
155.42726263712
 30
0.0
 11
-22.230790143964
 21
155.42726263712
 31
0.0
  0
LINE
  5
191
100
AcDbEntity
  8
0
  6
CONTINUOUS
 62
           7
100
AcDbLine
 10
-22.230790143964
 20
155.42726263712
 30
0.0
 11
-22.274534475727
 21
155.471006968882
 31
0.0
  0
LINE
  5
192
100
AcDbEntity
  8
0
  6
CONTINUOUS
 62
           7
100
AcDbLine
 10
-22.230790143964
 20
155.42726263712
 30
0.0
 11
-22.230790143964
 21
124.914751300645
 31
0.0
  0
LINE
  5
193
100
AcDbEntity
  8
0
  6
CONTINUOUS
 62
           7
100
AcDbLine
 10
-24.474534475727
 20
122.671006968882
 30
0.0
 11
-24.474534475727
 21
157.671006968882
 31
0.0
  0
ARC
  5
194
100
AcDbEntity
  8
0
  6
CONTINUOUS
 62
           7
100
AcDbCircle
 10
-15.643781845604
 20
139.455828397454
 30
0.0
 40
0.522321428571
100
AcDbArc
 50
0.0
 51
180.0
  0
LINE
  5
195
100
AcDbEntity
  8
0
  6
CONTINUOUS
 62
           7
100
AcDbLine
 10
-16.166103274176
 20
139.455828397454
 30
0.0
 11
-16.166103274176
 21
136.884399826025
 31
0.0
  0
LINE
  5
196
100
AcDbEntity
  8
0
  6
CONTINUOUS
 62
           7
100
AcDbLine
 10
-16.166103274176
 20
136.884399826025
 30
0.0
 11
-15.121460417033
 21
136.884399826025
 31
0.0
  0
LINE
  5
197
100
AcDbEntity
  8
0
  6
CONTINUOUS
 62
           7
100
AcDbLine
 10
-15.121460417033
 20
136.884399826025
 30
0.0
 11
-15.121460417033
 21
139.455828397454
 31
0.0
  0
ARC
  5
198
100
AcDbEntity
  8
0
  6
CONTINUOUS
 62
           7
100
AcDbCircle
 10
-17.491996131319
 20
139.455828397454
 30
0.0
 40
0.522321428571
100
AcDbArc
 50
0.0
 51
180.0
  0
LINE
  5
199
100
AcDbEntity
  8
0
  6
CONTINUOUS
 62
           7
100
AcDbLine
 10
-18.01431755989
 20
139.455828397454
 30
0.0
 11
-18.01431755989
 21
136.884399826025
 31
0.0
  0
LINE
  5
19A
100
AcDbEntity
  8
0
  6
CONTINUOUS
 62
           7
100
AcDbLine
 10
-18.01431755989
 20
136.884399826025
 30
0.0
 11
-16.969674702747
 21
136.884399826025
 31
0.0
  0
LINE
  5
19B
100
AcDbEntity
  8
0
  6
CONTINUOUS
 62
           7
100
AcDbLine
 10
-16.969674702747
 20
136.884399826025
 30
0.0
 11
-16.969674702747
 21
139.455828397454
 31
0.0
  0
ARC
  5
19C
100
AcDbEntity
  8
0
  6
CONTINUOUS
 62
           7
100
AcDbCircle
 10
-15.603603274176
 20
139.937971254597
 30
0.0
 40
1.285714285714
100
AcDbArc
 50
0.0
 51
138.590377890732
  0
LINE
  5
19D
100
AcDbEntity
  8
0
  6
CONTINUOUS
 62
           7
100
AcDbLine
 10
-14.317888988461
 20
139.937971254597
 30
0.0
 11
-14.317888988461
 21
135.759399826025
 31
0.0
  0
LINE
  5
19E
100
AcDbEntity
  8
0
  6
CONTINUOUS
 62
           7
100
AcDbLine
 10
-14.317888988461
 20
135.759399826025
 30
0.0
 11
-18.817888988462
 21
135.759399826025
 31
0.0
  0
LINE
  5
19F
100
AcDbEntity
  8
0
  6
CONTINUOUS
 62
           7
100
AcDbLine
 10
-18.817888988462
 20
135.759399826025
 30
0.0
 11
-18.817888988462
 21
139.937971254597
 31
0.0
  0
ARC
  5
1A0
100
AcDbEntity
  8
0
  6
CONTINUOUS
 62
           7
100
AcDbCircle
 10
-17.532174702747
 20
139.937971254597
 30
0.0
 40
1.285714285714
100
AcDbArc
 50
41.409622109275
 51
180.000000000001
  0
LINE
  5
1A1
100
AcDbEntity
  8
0
  6
CONTINUOUS
 62
           7
100
AcDbLine
 10
-18.01431755989
 20
129.330828397454
 30
0.0
 11
-16.969674702747
 21
129.330828397454
 31
0.0
  0
LINE
  5
1A2
100
AcDbEntity
  8
0
  6
CONTINUOUS
 62
           7
100
AcDbLine
 10
-16.969674702747
 20
129.330828397454
 30
0.0
 11
-16.969674702747
 21
132.54511411174
 31
0.0
  0
LINE
  5
1A3
100
AcDbEntity
  8
0
  6
CONTINUOUS
 62
           7
100
AcDbLine
 10
-16.969674702747
 20
132.54511411174
 30
0.0
 11
-16.166103274176
 21
132.54511411174
 31
0.0
  0
LINE
  5
1A4
100
AcDbEntity
  8
0
  6
CONTINUOUS
 62
           7
100
AcDbLine
 10
-16.166103274176
 20
132.54511411174
 30
0.0
 11
-16.166103274176
 21
129.330828397454
 31
0.0
  0
LINE
  5
1A5
100
AcDbEntity
  8
0
  6
CONTINUOUS
 62
           7
100
AcDbLine
 10
-16.166103274176
 20
129.330828397454
 30
0.0
 11
-14.317888988461
 21
129.330828397454
 31
0.0
  0
LINE
  5
1A6
100
AcDbEntity
  8
0
  6
CONTINUOUS
 62
           7
100
AcDbLine
 10
-14.317888988461
 20
129.330828397454
 30
0.0
 11
-14.317888988461
 21
128.205828397454
 31
0.0
  0
LINE
  5
1A7
100
AcDbEntity
  8
0
  6
CONTINUOUS
 62
           7
100
AcDbLine
 10
-14.317888988461
 20
128.205828397454
 30
0.0
 11
-18.817888988461
 21
128.205828397454
 31
0.0
  0
LINE
  5
1A8
100
AcDbEntity
  8
0
  6
CONTINUOUS
 62
           7
100
AcDbLine
 10
-18.817888988461
 20
128.205828397454
 30
0.0
 11
-18.817888988462
 21
133.027256968882
 31
0.0
  0
LINE
  5
1A9
100
AcDbEntity
  8
0
  6
CONTINUOUS
 62
           7
100
AcDbLine
 10
-18.817888988462
 20
133.027256968882
 30
0.0
 11
-18.01431755989
 21
133.027256968882
 31
0.0
  0
LINE
  5
1AA
100
AcDbEntity
  8
0
  6
CONTINUOUS
 62
           7
100
AcDbLine
 10
-18.01431755989
 20
133.027256968882
 30
0.0
 11
-18.01431755989
 21
129.330828397454
 31
0.0
  0
LINE
  5
1AB
100
AcDbEntity
  8
0
  6
CONTINUOUS
 62
           7
100
AcDbLine
 10
-18.817888988462
 20
133.830828397454
 30
0.0
 11
-18.817888988462
 21
134.955828397454
 31
0.0
  0
LINE
  5
1AC
100
AcDbEntity
  8
0
  6
CONTINUOUS
 62
           7
100
AcDbLine
 10
-18.817888988462
 20
134.955828397454
 30
0.0
 11
-14.317888988461
 21
134.955828397454
 31
0.0
  0
LINE
  5
1AD
100
AcDbEntity
  8
0
  6
CONTINUOUS
 62
           7
100
AcDbLine
 10
-14.317888988461
 20
133.830828397454
 30
0.0
 11
-18.817888988462
 21
133.830828397454
 31
0.0
  0
LINE
  5
1AE
100
AcDbEntity
  8
0
  6
CONTINUOUS
 62
           7
100
AcDbLine
 10
-14.317888988461
 20
134.955828397454
 30
0.0
 11
-14.317888988461
 21
133.830828397454
 31
0.0
  0
ARC
  5
1AF
100
AcDbEntity
  8
0
  6
CONTINUOUS
 62
           7
100
AcDbCircle
 10
-17.491996131319
 20
143.356691791521
 30
0.0
 40
0.480208034505
100
AcDbArc
 50
180.0
 51
270.0
  0
LINE
  5
1B0
100
AcDbEntity
  8
0
  6
CONTINUOUS
 62
           7
100
AcDbLine
 10
-17.491996131319
 20
142.876483757016
 30
0.0
 11
-15.643781845604
 21
142.876483757016
 31
0.0
  0
ARC
  5
1B1
100
AcDbEntity
  8
0
  6
CONTINUOUS
 62
           7
100
AcDbCircle
 10
-15.643781845604
 20
143.356691791521
 30
0.0
 40
0.480208034505
100
AcDbArc
 50
270.000000000003
 51
359.999999999999
  0
LINE
  5
1B2
100
AcDbEntity
  8
0
  6
CONTINUOUS
 62
           7
100
AcDbLine
 10
-15.1635738111
 20
143.356691791521
 30
0.0
 11
-15.1635738111
 21
145.384250717673
 31
0.0
  0
ARC
  5
1B3
100
AcDbEntity
  8
0
  6
CONTINUOUS
 62
           7
100
AcDbCircle
 10
-15.643781845604
 20
145.384250717673
 30
0.0
 40
0.480208034505
100
AcDbArc
 50
0.0
 51
90.0
  0
LINE
  5
1B4
100
AcDbEntity
  8
0
  6
CONTINUOUS
 62
           7
100
AcDbLine
 10
-15.643781845604
 20
145.864458752177
 30
0.0
 11
-17.491996131319
 21
145.864458752177
 31
0.0
  0
ARC
  5
1B5
100
AcDbEntity
  8
0
  6
CONTINUOUS
 62
           7
100
AcDbCircle
 10
-17.491996131319
 20
145.384250717673
 30
0.0
 40
0.480208034505
100
AcDbArc
 50
90.0
 51
180.0
  0
LINE
  5
1B6
100
AcDbEntity
  8
0
  6
CONTINUOUS
 62
           7
100
AcDbLine
 10
-17.972204165823
 20
145.384250717673
 30
0.0
 11
-17.972204165823
 21
143.356691791521
 31
0.0
  0
ARC
  5
1B7
100
AcDbEntity
  8
0
  6
CONTINUOUS
 62
           7
100
AcDbCircle
 10
-15.603603274176
 20
143.177971254597
 30
0.0
 40
1.285714285714
100
AcDbArc
 50
270.000000000001
 51
360.0
  0
LINE
  5
1B8
100
AcDbEntity
  8
0
  6
CONTINUOUS
 62
           7
100
AcDbLine
 10
-15.603603274176
 20
141.892256968882
 30
0.0
 11
-17.532174702747
 21
141.892256968882
 31
0.0
  0
ARC
  5
1B9
100
AcDbEntity
  8
0
  6
CONTINUOUS
 62
           7
100
AcDbCircle
 10
-17.532174702747
 20
143.177971254597
 30
0.0
 40
1.285714285714
100
AcDbArc
 50
180.0
 51
270.0
  0
LINE
  5
1BA
100
AcDbEntity
  8
0
  6
CONTINUOUS
 62
           7
100
AcDbLine
 10
-18.817888988462
 20
143.177971254597
 30
0.0
 11
-18.817888988462
 21
145.562971254597
 31
0.0
  0
ARC
  5
1BB
100
AcDbEntity
  8
0
  6
CONTINUOUS
 62
           7
100
AcDbCircle
 10
-17.532174702747
 20
145.562971254597
 30
0.0
 40
1.285714285714
100
AcDbArc
 50
90.000000000001
 51
180.0
  0
LINE
  5
1BC
100
AcDbEntity
  8
0
  6
CONTINUOUS
 62
           7
100
AcDbLine
 10
-17.532174702747
 20
146.848685540311
 30
0.0
 11
-15.603603274176
 21
146.848685540311
 31
0.0
  0
ARC
  5
1BD
100
AcDbEntity
  8
0
  6
CONTINUOUS
 62
           7
100
AcDbCircle
 10
-15.603603274176
 20
145.562971254597
 30
0.0
 40
1.285714285714
100
AcDbArc
 50
0.0
 51
90.000000000001
  0
LINE
  5
1BE
100
AcDbEntity
  8
0
  6
CONTINUOUS
 62
           7
100
AcDbLine
 10
-14.317888988462
 20
145.562971254597
 30
0.0
 11
-14.317888988462
 21
143.177971254597
 31
0.0
  0
LINE
  5
1BF
100
AcDbEntity
  8
0
  6
CONTINUOUS
 62
           7
100
AcDbLine
 10
-14.317888988462
 20
150.766723311798
 30
0.0
 11
-14.317888988462
 21
152.136185540311
 31
0.0
  0
LINE
  5
1C0
100
AcDbEntity
  8
0
  6
CONTINUOUS
 62
           7
100
AcDbLine
 10
-14.317888988462
 20
148.234219197396
 30
0.0
 11
-15.675270200194
 21
149.500471254597
 31
0.0
  0
LINE
  5
1C1
100
AcDbEntity
  8
0
  6
CONTINUOUS
 62
           7
100
AcDbLine
 10
-14.317888988462
 20
146.864756968882
 30
0.0
 11
-14.317888988462
 21
148.234219197396
 31
0.0
  0
LINE
  5
1C2
100
AcDbEntity
  8
0
  6
CONTINUOUS
 62
           7
100
AcDbLine
 10
-16.567888988462
 20
148.81574014034
 30
0.0
 11
-14.317888988462
 21
146.864756968882
 31
0.0
  0
LINE
  5
1C3
100
AcDbEntity
  8
0
  6
CONTINUOUS
 62
           7
100
AcDbLine
 10
-18.817888988462
 20
146.864756968882
 30
0.0
 11
-16.567888988462
 21
148.81574014034
 31
0.0
  0
LINE
  5
1C4
100
AcDbEntity
  8
0
  6
CONTINUOUS
 62
           7
100
AcDbLine
 10
-18.817888988462
 20
148.234219197396
 30
0.0
 11
-18.817888988462
 21
146.864756968882
 31
0.0
  0
LINE
  5
1C5
100
AcDbEntity
  8
0
  6
CONTINUOUS
 62
           7
100
AcDbLine
 10
-17.460507776729
 20
149.500471254597
 30
0.0
 11
-18.817888988462
 21
148.234219197396
 31
0.0
  0
LINE
  5
1C6
100
AcDbEntity
  8
0
  6
CONTINUOUS
 62
           7
100
AcDbLine
 10
-18.817888988462
 20
150.766723311798
 30
0.0
 11
-17.460507776729
 21
149.500471254597
 31
0.0
  0
LINE
  5
1C7
100
AcDbEntity
  8
0
  6
CONTINUOUS
 62
           7
100
AcDbLine
 10
-18.817888988462
 20
152.136185540311
 30
0.0
 11
-18.817888988462
 21
150.766723311798
 31
0.0
  0
LINE
  5
1C8
100
AcDbEntity
  8
0
  6
CONTINUOUS
 62
           7
100
AcDbLine
 10
-16.567888988462
 20
150.185202368853
 30
0.0
 11
-18.817888988462
 21
152.136185540311
 31
0.0
  0
LINE
  5
1C9
100
AcDbEntity
  8
0
  6
CONTINUOUS
 62
           7
100
AcDbLine
 10
-14.317888988462
 20
152.136185540311
 30
0.0
 11
-16.567888988462
 21
150.185202368853
 31
0.0
  0
LINE
  5
1CA
100
AcDbEntity
  8
0
  6
CONTINUOUS
 62
           7
100
AcDbLine
 10
-15.675270200194
 20
149.500471254597
 30
0.0
 11
-14.317888988462
 21
150.766723311798
 31
0.0
  0
LINE
  5
1CB
100
AcDbEntity
  8
0
  6
CONTINUOUS
 62
           7
100
AcDbLine
 10
-8.597821845314
 20
122.671006968883
 30
0.0
 11
-8.597821845314
 21
157.671006968882
 31
0.0
  0
LINE
  5
1CC
100
AcDbEntity
  8
0
  6
CONTINUOUS
 62
           7
100
AcDbLine
 10
-8.597821845314
 20
157.671006968882
 30
0.0
 11
-8.657545729012
 21
157.671006968882
 31
0.0
  0
LINE
  5
1CD
100
AcDbEntity
  8
0
  6
CONTINUOUS
 62
           7
100
AcDbLine
 10
-8.597821845314
 20
122.671006968883
 30
0.0
 11
-8.657545729012
 21
122.671006968883
 31
0.0
  0
LINE
  5
1CE
100
AcDbEntity
  8
0
  6
CONTINUOUS
 62
           7
100
AcDbLine
 10
-25.627821845314
 20
122.671006968882
 30
0.0
 11
-25.627821845314
 21
157.671006968882
 31
0.0
  0
LINE
  5
1CF
100
AcDbEntity
  8
0
  6
CONTINUOUS
 62
           7
100
AcDbLine
 10
-24.474534475727
 20
157.671006968882
 30
0.0
 11
-25.627821845314
 21
157.671006968882
 31
0.0
  0
LINE
  5
1D0
100
AcDbEntity
  8
0
  6
CONTINUOUS
 62
           7
100
AcDbLine
 10
-24.474534475727
 20
122.671006968882
 30
0.0
 11
-25.627821845314
 21
122.671006968882
 31
0.0
  0
LINE
  5
1D1
100
AcDbEntity
  8
0
  6
CONTINUOUS
 62
           7
100
AcDbLine
 10
-32.627821845314
 20
129.921006968882
 30
0.0
 11
-32.627821845314
 21
150.421006968882
 31
0.0
  0
LINE
  5
1D2
100
AcDbEntity
  8
0
  6
CONTINUOUS
 62
           7
100
AcDbLine
 10
-32.627821845314
 20
150.421006968882
 30
0.0
 11
-46.492345205802
 21
150.421006968882
 31
0.0
  0
LINE
  5
1D3
100
AcDbEntity
  8
0
  6
CONTINUOUS
 62
           7
100
AcDbLine
 10
-46.492345205803
 20
157.671006968882
 30
0.0
 11
-46.492345205802
 21
150.421006968882
 31
0.0
  0
LINE
  5
1D4
100
AcDbEntity
  8
0
  6
CONTINUOUS
 62
           7
100
AcDbLine
 10
-46.492345205802
 20
129.921006968882
 30
0.0
 11
-46.492345205802
 21
122.671006968882
 31
0.0
  0
LINE
  5
1D5
100
AcDbEntity
  8
0
  6
CONTINUOUS
 62
           7
100
AcDbLine
 10
-46.492345205802
 20
129.921006968882
 30
0.0
 11
-32.627821845314
 21
129.921006968882
 31
0.0
  0
LINE
  5
1D6
100
AcDbEntity
  8
0
  6
CONTINUOUS
 62
           7
100
AcDbLine
 10
-46.492345205803
 20
157.671006968882
 30
0.0
 11
-25.627821845314
 21
157.671006968882
 31
0.0
  0
LINE
  5
1D7
100
AcDbEntity
  8
0
  6
CONTINUOUS
 62
           7
100
AcDbLine
 10
-46.492345205802
 20
122.671006968882
 30
0.0
 11
-25.627821845314
 21
122.671006968882
 31
0.0
  0
LINE
  5
1D8
100
AcDbEntity
  8
0
  6
CONTINUOUS
 62
           7
100
AcDbLine
 10
-47.238322643218
 20
122.671006968882
 30
0.0
 11
-47.238322643218
 21
129.921006968882
 31
0.0
  0
LINE
  5
1D9
100
AcDbEntity
  8
0
  6
CONTINUOUS
 62
           7
100
AcDbLine
 10
-47.238322643218
 20
129.921006968882
 30
0.0
 11
-46.492345205802
 21
129.921006968882
 31
0.0
  0
LINE
  5
1DA
100
AcDbEntity
  8
0
  6
CONTINUOUS
 62
           7
100
AcDbLine
 10
-46.492345205802
 20
122.671006968882
 30
0.0
 11
-47.238322643218
 21
122.671006968882
 31
0.0
  0
LINE
  5
1DB
100
AcDbEntity
  8
0
  6
CONTINUOUS
 62
           7
100
AcDbLine
 10
-47.238322643218
 20
150.421006968882
 30
0.0
 11
-47.238322643218
 21
157.671006968882
 31
0.0
  0
LINE
  5
1DC
100
AcDbEntity
  8
0
  6
CONTINUOUS
 62
           7
100
AcDbLine
 10
-46.492345205802
 20
150.421006968882
 30
0.0
 11
-47.238322643218
 21
150.421006968882
 31
0.0
  0
LINE
  5
1DD
100
AcDbEntity
  8
0
  6
CONTINUOUS
 62
           7
100
AcDbLine
 10
-47.238322643218
 20
157.671006968882
 30
0.0
 11
-46.492345205803
 21
157.671006968882
 31
0.0
  0
LINE
  5
1DE
100
AcDbEntity
  8
0
  6
CONTINUOUS
 62
           7
100
AcDbLine
 10
-48.485539596769
 20
122.671006968882
 30
0.0
 11
-48.485539596769
 21
129.921006968882
 31
0.0
  0
LINE
  5
1DF
100
AcDbEntity
  8
0
  6
CONTINUOUS
 62
           7
100
AcDbLine
 10
-48.485539596769
 20
129.921006968882
 30
0.0
 11
-47.238322643218
 21
129.921006968882
 31
0.0
  0
LINE
  5
1E0
100
AcDbEntity
  8
0
  6
CONTINUOUS
 62
           7
100
AcDbLine
 10
-48.485539596769
 20
122.671006968882
 30
0.0
 11
-47.238322643218
 21
122.671006968882
 31
0.0
  0
LINE
  5
1E1
100
AcDbEntity
  8
0
  6
CONTINUOUS
 62
           7
100
AcDbLine
 10
-48.485539596769
 20
150.421006968882
 30
0.0
 11
-48.485539596769
 21
157.671006968882
 31
0.0
  0
LINE
  5
1E2
100
AcDbEntity
  8
0
  6
CONTINUOUS
 62
           7
100
AcDbLine
 10
-47.238322643218
 20
150.421006968882
 30
0.0
 11
-48.485539596769
 21
150.421006968882
 31
0.0
  0
LINE
  5
1E3
100
AcDbEntity
  8
0
  6
CONTINUOUS
 62
           7
100
AcDbLine
 10
-48.485539596769
 20
157.671006968882
 30
0.0
 11
-47.238322643218
 21
157.671006968882
 31
0.0
  0
LINE
  5
1E4
100
AcDbEntity
  8
0
  6
CONTINUOUS
 62
           7
100
AcDbLine
 10
357.589718783073
 20
197.921006968882
 30
0.0
 11
357.589718783073
 21
189.421006968882
 31
0.0
  0
LINE
  5
1E5
100
AcDbEntity
  8
0
  6
CONTINUOUS
 62
           7
100
AcDbLine
 10
357.589718783072
 20
171.421006968882
 30
0.0
 11
357.589718783072
 21
162.921006968882
 31
0.0
  0
LINE
  5
1E6
100
AcDbEntity
  8
0
  6
CONTINUOUS
 62
           7
100
AcDbLine
 10
357.589718783072
 20
117.921006968882
 30
0.0
 11
357.589718783072
 21
109.421006968882
 31
0.0
  0
LINE
  5
1E7
100
AcDbEntity
  8
0
  6
CONTINUOUS
 62
           7
100
AcDbLine
 10
357.589718783072
 20
91.421006968882
 30
0.0
 11
357.589718783072
 21
82.921006968882
 31
0.0
  0
LINE
  5
1E8
100
AcDbEntity
  8
0
  6
CONTINUOUS
 62
           7
100
AcDbLine
 10
357.589718783073
 20
197.921006968882
 30
0.0
 11
364.589718783073
 21
197.921006968882
 31
0.0
  0
LINE
  5
1E9
100
AcDbEntity
  8
0
  6
CONTINUOUS
 62
           7
100
AcDbLine
 10
364.589718783073
 20
197.921006968882
 30
0.0
 11
364.589718783073
 21
189.421006968882
 31
0.0
  0
LINE
  5
1EA
100
AcDbEntity
  8
0
  6
CONTINUOUS
 62
           7
100
AcDbLine
 10
357.589718783073
 20
189.421006968882
 30
0.0
 11
364.589718783073
 21
189.421006968882
 31
0.0
  0
LINE
  5
1EB
100
AcDbEntity
  8
0
  6
CONTINUOUS
 62
           7
100
AcDbLine
 10
364.589718783072
 20
171.421006968882
 30
0.0
 11
364.589718783072
 21
162.921006968882
 31
0.0
  0
LINE
  5
1EC
100
AcDbEntity
  8
0
  6
CONTINUOUS
 62
           7
100
AcDbLine
 10
357.589718783072
 20
162.921006968882
 30
0.0
 11
364.589718783072
 21
162.921006968882
 31
0.0
  0
LINE
  5
1ED
100
AcDbEntity
  8
0
  6
CONTINUOUS
 62
           7
100
AcDbLine
 10
357.589718783072
 20
171.421006968882
 30
0.0
 11
364.589718783072
 21
171.421006968882
 31
0.0
  0
LINE
  5
1EE
100
AcDbEntity
  8
0
  6
CONTINUOUS
 62
           7
100
AcDbLine
 10
364.589718783072
 20
109.421006968882
 30
0.0
 11
364.589718783072
 21
117.921006968882
 31
0.0
  0
LINE
  5
1EF
100
AcDbEntity
  8
0
  6
CONTINUOUS
 62
           7
100
AcDbLine
 10
357.589718783072
 20
109.421006968882
 30
0.0
 11
364.589718783072
 21
109.421006968882
 31
0.0
  0
LINE
  5
1F0
100
AcDbEntity
  8
0
  6
CONTINUOUS
 62
           7
100
AcDbLine
 10
357.589718783072
 20
117.921006968882
 30
0.0
 11
364.589718783072
 21
117.921006968882
 31
0.0
  0
LINE
  5
1F1
100
AcDbEntity
  8
0
  6
CONTINUOUS
 62
           7
100
AcDbLine
 10
364.589718783072
 20
82.921006968882
 30
0.0
 11
364.589718783072
 21
91.421006968882
 31
0.0
  0
LINE
  5
1F2
100
AcDbEntity
  8
0
  6
CONTINUOUS
 62
           7
100
AcDbLine
 10
357.589718783072
 20
82.921006968882
 30
0.0
 11
364.589718783072
 21
82.921006968882
 31
0.0
  0
LINE
  5
1F3
100
AcDbEntity
  8
0
  6
CONTINUOUS
 62
           7
100
AcDbLine
 10
357.589718783072
 20
91.421006968882
 30
0.0
 11
364.589718783072
 21
91.421006968882
 31
0.0
  0
LINE
  5
1F4
100
AcDbEntity
  8
0
  6
CONTINUOUS
 62
           7
100
AcDbLine
 10
368.316978122041
 20
197.921006968882
 30
0.0
 11
368.316978122041
 21
162.921006968882
 31
0.0
  0
LINE
  5
1F5
100
AcDbEntity
  8
0
  6
CONTINUOUS
 62
           7
100
AcDbLine
 10
364.789332171181
 20
171.421006968882
 30
0.0
 11
364.789332171181
 21
189.421006968882
 31
0.0
  0
LINE
  5
1F6
100
AcDbEntity
  8
0
  6
CONTINUOUS
 62
           7
100
AcDbLine
 10
364.589718783072
 20
162.921006968882
 30
0.0
 11
368.316978122041
 21
162.921006968882
 31
0.0
  0
LINE
  5
1F7
100
AcDbEntity
  8
0
  6
CONTINUOUS
 62
           7
100
AcDbLine
 10
364.589718783072
 20
171.421006968882
 30
0.0
 11
364.789332171181
 21
171.421006968882
 31
0.0
  0
LINE
  5
1F8
100
AcDbEntity
  8
0
  6
CONTINUOUS
 62
           7
100
AcDbLine
 10
364.589718783073
 20
189.421006968882
 30
0.0
 11
364.789332171181
 21
189.421006968882
 31
0.0
  0
LINE
  5
1F9
100
AcDbEntity
  8
0
  6
CONTINUOUS
 62
           7
100
AcDbLine
 10
364.589718783073
 20
197.921006968882
 30
0.0
 11
368.316978122041
 21
197.921006968882
 31
0.0
  0
LINE
  5
1FA
100
AcDbEntity
  8
0
  6
CONTINUOUS
 62
           7
100
AcDbLine
 10
364.789332171181
 20
91.421006968882
 30
0.0
 11
364.789332171181
 21
109.421006968882
 31
0.0
  0
LINE
  5
1FB
100
AcDbEntity
  8
0
  6
CONTINUOUS
 62
           7
100
AcDbLine
 10
368.316978122041
 20
82.921006968882
 30
0.0
 11
368.316978122041
 21
117.921006968882
 31
0.0
  0
LINE
  5
1FC
100
AcDbEntity
  8
0
  6
CONTINUOUS
 62
           7
100
AcDbLine
 10
364.589718783072
 20
82.921006968882
 30
0.0
 11
368.316978122041
 21
82.921006968882
 31
0.0
  0
LINE
  5
1FD
100
AcDbEntity
  8
0
  6
CONTINUOUS
 62
           7
100
AcDbLine
 10
364.589718783072
 20
91.421006968882
 30
0.0
 11
364.789332171181
 21
91.421006968882
 31
0.0
  0
LINE
  5
1FE
100
AcDbEntity
  8
0
  6
CONTINUOUS
 62
           7
100
AcDbLine
 10
364.589718783072
 20
109.421006968882
 30
0.0
 11
364.789332171181
 21
109.421006968882
 31
0.0
  0
LINE
  5
1FF
100
AcDbEntity
  8
0
  6
CONTINUOUS
 62
           7
100
AcDbLine
 10
364.589718783072
 20
117.921006968882
 30
0.0
 11
368.316978122041
 21
117.921006968882
 31
0.0
  0
LINE
  5
200
100
AcDbEntity
  8
0
  6
CONTINUOUS
 62
           7
100
AcDbLine
 10
364.576206359371
 20
189.421006968882
 30
0.0
 11
364.576206359371
 21
171.421006968882
 31
0.0
  0
LINE
  5
201
100
AcDbEntity
  8
0
  6
CONTINUOUS
 62
           7
100
AcDbLine
 10
364.57620635937
 20
91.421006968882
 30
0.0
 11
364.57620635937
 21
109.421006968882
 31
0.0
  0
LINE
  5
202
100
AcDbEntity
  8
0
  6
CONTINUOUS
 62
           7
100
AcDbLine
 10
369.340454785288
 20
197.921006968882
 30
0.0
 11
369.340454785288
 21
162.921006968882
 31
0.0
  0
LINE
  5
203
100
AcDbEntity
  8
0
  6
CONTINUOUS
 62
           7
100
AcDbLine
 10
368.316978122041
 20
162.921006968882
 30
0.0
 11
369.340454785288
 21
162.921006968882
 31
0.0
  0
LINE
  5
204
100
AcDbEntity
  8
0
  6
CONTINUOUS
 62
           7
100
AcDbLine
 10
368.316978122041
 20
197.921006968882
 30
0.0
 11
369.340454785288
 21
197.921006968882
 31
0.0
  0
LINE
  5
205
100
AcDbEntity
  8
0
  6
CONTINUOUS
 62
           7
100
AcDbLine
 10
369.340454785288
 20
82.921006968882
 30
0.0
 11
369.340454785288
 21
117.921006968882
 31
0.0
  0
LINE
  5
206
100
AcDbEntity
  8
0
  6
CONTINUOUS
 62
           7
100
AcDbLine
 10
368.316978122041
 20
82.921006968882
 30
0.0
 11
369.340454785288
 21
82.921006968882
 31
0.0
  0
LINE
  5
207
100
AcDbEntity
  8
0
  6
CONTINUOUS
 62
           7
100
AcDbLine
 10
368.316978122041
 20
117.921006968882
 30
0.0
 11
369.340454785288
 21
117.921006968882
 31
0.0
  0
LINE
  5
208
100
AcDbEntity
  8
0
  6
CONTINUOUS
 62
           7
100
AcDbLine
 10
371.389718783072
 20
197.921006968882
 30
0.0
 11
371.389718783072
 21
162.921006968882
 31
0.0
  0
LINE
  5
209
100
AcDbEntity
  8
0
  6
CONTINUOUS
 62
           7
100
AcDbLine
 10
369.340454785288
 20
162.921006968882
 30
0.0
 11
371.389718783072
 21
162.921006968882
 31
0.0
  0
LINE
  5
20A
100
AcDbEntity
  8
0
  6
CONTINUOUS
 62
           7
100
AcDbLine
 10
369.340454785288
 20
197.921006968882
 30
0.0
 11
371.389718783072
 21
197.921006968882
 31
0.0
  0
LINE
  5
20B
100
AcDbEntity
  8
0
  6
CONTINUOUS
 62
           7
100
AcDbLine
 10
371.389718783072
 20
82.921006968882
 30
0.0
 11
371.389718783072
 21
117.921006968882
 31
0.0
  0
LINE
  5
20C
100
AcDbEntity
  8
0
  6
CONTINUOUS
 62
           7
100
AcDbLine
 10
369.340454785288
 20
82.921006968882
 30
0.0
 11
371.389718783072
 21
82.921006968882
 31
0.0
  0
LINE
  5
20D
100
AcDbEntity
  8
0
  6
CONTINUOUS
 62
           7
100
AcDbLine
 10
369.340454785288
 20
117.921006968882
 30
0.0
 11
371.389718783072
 21
117.921006968882
 31
0.0
  0
LINE
  5
20E
100
AcDbEntity
  8
0
  6
CONTINUOUS
 62
           7
100
AcDbLine
 10
361.389718783072
 20
189.421006968882
 30
0.0
 11
361.389718783072
 21
171.421006968882
 31
0.0
  0
LINE
  5
20F
100
AcDbEntity
  8
0
  6
CONTINUOUS
 62
           7
100
AcDbLine
 10
361.389718783072
 20
91.421006968882
 30
0.0
 11
361.389718783072
 21
109.421006968882
 31
0.0
  0
LINE
  5
210
100
AcDbEntity
  8
0
  6
CONTINUOUS
 62
           7
100
AcDbLine
 10
366.889076363219
 20
214.134168315868
 30
0.0
 11
361.389718783073
 21
214.422377434127
 31
0.0
  0
ELLIPSE
  5
211
100
AcDbEntity
  8
0
  6
CONTINUOUS
 62
           7
100
AcDbEllipse
 10
362.640211833023
 20
215.355471405125
 30
0.0
 11
-1.9766214442910837
 21
5.5472974044442367
 31
0.0
210
0.0
220
0.0
230
1.0
 40
0.678414388077
 41
4.2287640822560197
 42
4.2595393853276233
  0
LINE
  5
212
100
AcDbEntity
  8
0
  6
CONTINUOUS
 62
           7
100
AcDbLine
 10
366.891089248318
 20
197.921006968882
 30
0.0
 11
366.891089248318
 21
213.963205540894
 31
0.0
  0
LINE
  5
213
100
AcDbEntity
  8
0
  6
CONTINUOUS
 62
           7
100
AcDbLine
 10
361.389718783073
 20
214.422377434127
 30
0.0
 11
361.389718783073
 21
197.921006968882
 31
0.0
  0
LINE
  5
214
100
AcDbEntity
  8
0
  6
CONTINUOUS
 62
           7
100
AcDbLine
 10
361.389718783073
 20
215.421006968882
 30
0.0
 11
366.889076363219
 21
215.132797850623
 31
0.0
  0
ARC
  5
215
100
AcDbEntity
  8
0
  6
CONTINUOUS
 62
           7
100
AcDbCircle
 10
301.162435708282
 20
214.672285874923
 30
0.0
 40
65.728843457729
100
AcDbArc
 50
359.530918120172
 51
0.469081879829
  0
LINE
  5
216
100
AcDbEntity
  8
0
  6
CONTINUOUS
 62
           7
100
AcDbLine
 10
361.389718783073
 20
214.422377434127
 30
0.0
 11
361.389718783073
 21
215.421006968882
 31
0.0
  0
LINE
  5
217
100
AcDbEntity
  8
0
  6
CONTINUOUS
 62
           7
100
AcDbLine
 10
366.891089248318
 20
117.921006968882
 30
0.0
 11
366.891089248318
 21
162.921006968882
 31
0.0
  0
LINE
  5
218
100
AcDbEntity
  8
0
  6
CONTINUOUS
 62
           7
100
AcDbLine
 10
361.389718783072
 20
162.921006968882
 30
0.0
 11
361.389718783072
 21
117.921006968882
 31
0.0
  0
ELLIPSE
  5
219
100
AcDbEntity
  8
0
  6
CONTINUOUS
 62
           7
100
AcDbEllipse
 10
362.640211833022
 20
65.486542532639
 30
0.0
 11
1.9766214442911405
 21
5.5472974044442651
 31
0.0
210
0.0
220
0.0
230
1.0
 40
0.678414388077
 41
5.1652385754418013
 42
5.1960138785133969
  0
LINE
  5
21A
100
AcDbEntity
  8
0
  6
CONTINUOUS
 62
           7
100
AcDbLine
 10
361.389718783072
 20
66.419636503636
 30
0.0
 11
366.889076363219
 21
66.707845621895
 31
0.0
  0
LINE
  5
21B
100
AcDbEntity
  8
0
  6
CONTINUOUS
 62
           7
100
AcDbLine
 10
366.891089248317
 20
66.87880839687
 30
0.0
 11
366.891089248318
 21
82.921006968882
 31
0.0
  0
LINE
  5
21C
100
AcDbEntity
  8
0
  6
CONTINUOUS
 62
           7
100
AcDbLine
 10
361.389718783072
 20
82.921006968882
 30
0.0
 11
361.389718783072
 21
66.419636503636
 31
0.0
  0
LINE
  5
21D
100
AcDbEntity
  8
0
  6
CONTINUOUS
 62
           7
100
AcDbLine
 10
366.889076363219
 20
65.709216087141
 30
0.0
 11
361.389718783072
 21
65.421006968882
 31
0.0
  0
LWPOLYLINE
  5
21E
100
AcDbEntity
  8
0
  6
CONTINUOUS
 62
           7
100
AcDbPolyline
 90
        6
 70
         128
 10
366.889076363219
 20
66.707845621895
 10
366.887358408584
 20
66.378760200047
 10
366.889831409457
 20
66.086541588384
 10
366.889177920919
 20
65.862822411989
 10
366.886898688042
 20
65.734153949194
 10
366.889076363219
 20
65.709216087141
  0
LINE
  5
21F
100
AcDbEntity
  8
0
  6
CONTINUOUS
 62
           7
100
AcDbLine
 10
361.389718783072
 20
65.421006968882
 30
0.0
 11
361.389718783072
 21
66.419636503636
 31
0.0
  0
LINE
  5
220
100
AcDbEntity
  8
0
  6
CONTINUOUS
 62
           7
100
AcDbLine
 10
366.891089248318
 20
215.132692359785
 30
0.0
 11
367.756773257217
 21
212.301167552498
 31
0.0
  0
ARC
  5
221
100
AcDbEntity
  8
0
  6
CONTINUOUS
 62
           7
100
AcDbCircle
 10
364.422669898227
 20
211.750193777476
 30
0.0
 40
3.390988586513
100
AcDbArc
 50
349.490471936479
 51
10.509528063522
  0
LINE
  5
222
100
AcDbEntity
  8
0
  6
CONTINUOUS
 62
           7
100
AcDbLine
 10
367.756773257217
 20
211.131680733607
 30
0.0
 11
366.891089248318
 21
213.963205540894
 31
0.0
  0
LINE
  5
223
100
AcDbEntity
  8
0
  6
CONTINUOUS
 62
           7
100
AcDbLine
 10
366.889076363219
 20
215.132797850623
 30
0.0
 11
366.891089248318
 21
215.132692359785
 31
0.0
  0
LINE
  5
224
100
AcDbEntity
  8
0
  6
CONTINUOUS
 62
           7
100
AcDbLine
 10
366.891089248317
 20
66.87880839687
 30
0.0
 11
367.756773257216
 21
69.710333204157
 31
0.0
  0
ARC
  5
225
100
AcDbEntity
  8
0
  6
CONTINUOUS
 62
           7
100
AcDbCircle
 10
364.572531764789
 20
69.091800183128
 30
0.0
 40
3.243759698282
100
AcDbArc
 50
349.007296619426
 51
10.992703380575
  0
LINE
  5
226
100
AcDbEntity
  8
0
  6
CONTINUOUS
 62
           7
100
AcDbLine
 10
367.756773257216
 20
68.540846385266
 30
0.0
 11
366.891089248317
 21
65.709321577979
 31
0.0
  0
LINE
  5
227
100
AcDbEntity
  8
0
  6
CONTINUOUS
 62
           7
100
AcDbLine
 10
366.891089248317
 20
65.709321577979
 30
0.0
 11
366.889076363219
 21
65.709216087141
 31
0.0
  0
ELLIPSE
  5
228
100
AcDbEntity
  8
0
  6
CONTINUOUS
 62
           7
100
AcDbEllipse
 10
368.339644174558
 20
210.394682686275
 30
0.0
 11
-0.0130987015973005
 21
2.0030953733983097
 31
0.0
210
0.0
220
0.0
230
1.0
 40
0.310585840872
 41
1.1919847204597998
 42
1.5497449353509269
  0
LINE
  5
229
100
AcDbEntity
  8
0
  6
CONTINUOUS
 62
           7
100
AcDbLine
 10
367.717373235624
 20
197.921006968882
 30
0.0
 11
367.717373235624
 21
210.432780146784
 31
0.0
  0
LINE
  5
22A
100
AcDbEntity
  8
0
  6
CONTINUOUS
 62
           7
100
AcDbLine
 10
367.717373235624
 20
117.921006968882
 30
0.0
 11
367.717373235624
 21
162.921006968882
 31
0.0
  0
LINE
  5
22B
100
AcDbEntity
  8
0
  6
CONTINUOUS
 62
           7
100
AcDbLine
 10
367.717373235624
 20
70.40923379098
 30
0.0
 11
367.717373235624
 21
82.921006968882
 31
0.0
  0
ELLIPSE
  5
22C
100
AcDbEntity
  8
0
  6
CONTINUOUS
 62
           7
100
AcDbEllipse
 10
368.339644174557
 20
70.447331251488
 30
0.0
 11
0.0130987015973005
 21
2.0030953733982813
 31
0.0
210
0.0
220
0.0
230
1.0
 40
0.310585840872
 41
1.591847718238913
 42
1.9496079331301008
  0
LINE
  5
22D
100
AcDbEntity
  8
0
  6
CONTINUOUS
 62
           7
100
AcDbLine
 10
367.717373235624
 20
212.430039216293
 30
0.0
 11
390.391089248318
 21
211.241760111973
 31
0.0
  0
ARC
  5
22E
100
AcDbEntity
  8
0
  6
CONTINUOUS
 62
           7
100
AcDbCircle
 10
371.348625779797
 20
210.379438190355
 30
0.0
 40
19.07625480223
100
AcDbArc
 50
356.589187320223
 51
3.410812679778
  0
LINE
  5
22F
100
AcDbEntity
  8
0
  6
CONTINUOUS
 62
           7
100
AcDbLine
 10
390.391089248318
 20
209.244501042464
 30
0.0
 11
367.717373235624
 21
210.432780146784
 31
0.0
  0
LINE
  5
230
100
AcDbEntity
  8
0
  6
CONTINUOUS
 62
           7
100
AcDbLine
 10
390.391089248318
 20
71.597512895299
 30
0.0
 11
390.391089248318
 21
209.244501042464
 31
0.0
  0
LINE
  5
231
100
AcDbEntity
  8
0
  6
CONTINUOUS
 62
           7
100
AcDbLine
 10
367.717373235624
 20
70.40923379098
 30
0.0
 11
390.391089248317
 21
71.597512895299
 31
0.0
  0
ARC
  5
232
100
AcDbEntity
  8
0
  6
CONTINUOUS
 62
           7
100
AcDbCircle
 10
371.348625779591
 20
70.462575747404
 30
0.0
 40
19.076254802436
100
AcDbArc
 50
356.58918732024
 51
3.410812679755
  0
LINE
  5
233
100
AcDbEntity
  8
0
  6
CONTINUOUS
 62
           7
100
AcDbLine
 10
390.391089248317
 20
69.60025382579
 30
0.0
 11
367.717373235624
 21
68.411974721471
 31
0.0
  0
LINE
  5
234
100
AcDbEntity
  8
0
  6
CONTINUOUS
 62
           7
100
AcDbLine
 10
390.391089248318
 20
211.241760111973
 30
0.0
 11
391.389718783073
 21
210.132669652997
 31
0.0
  0
LINE
  5
235
100
AcDbEntity
  8
0
  6
CONTINUOUS
 62
           7
100
AcDbLine
 10
391.389718783073
 20
210.132669652997
 30
0.0
 11
391.389718783073
 21
209.244501042464
 31
0.0
  0
LINE
  5
236
100
AcDbEntity
  8
0
  6
CONTINUOUS
 62
           7
100
AcDbLine
 10
390.391089248318
 20
209.244501042464
 30
0.0
 11
391.389718783073
 21
209.244501042464
 31
0.0
  0
LINE
  5
237
100
AcDbEntity
  8
0
  6
CONTINUOUS
 62
           7
100
AcDbLine
 10
390.391089248318
 20
71.597512895299
 30
0.0
 11
391.389718783072
 21
71.597512895299
 31
0.0
  0
LINE
  5
238
100
AcDbEntity
  8
0
  6
CONTINUOUS
 62
           7
100
AcDbLine
 10
391.389718783072
 20
71.597512895299
 30
0.0
 11
391.389718783072
 21
70.709344284767
 31
0.0
  0
LINE
  5
239
100
AcDbEntity
  8
0
  6
CONTINUOUS
 62
           7
100
AcDbLine
 10
390.391089248317
 20
69.60025382579
 30
0.0
 11
391.389718783072
 21
70.709344284767
 31
0.0
  0
LINE
  5
23A
100
AcDbEntity
  8
0
  6
CONTINUOUS
 62
           7
100
AcDbLine
 10
391.389718783073
 20
209.244501042464
 30
0.0
 11
391.389718783072
 21
71.597512895299
 31
0.0
  0
LINE
  5
23B
100
AcDbEntity
  8
0
  6
CONTINUOUS
 62
           7
100
AcDbLine
 10
360.389718783072
 20
150.421006968882
 30
0.0
 11
360.389718783072
 21
129.921006968882
 31
0.0
  0
LINE
  5
23C
100
AcDbEntity
  8
0
  6
CONTINUOUS
 62
           7
100
AcDbLine
 10
350.389718783072
 20
122.671006968882
 30
0.0
 11
350.389718783072
 21
157.671006968882
 31
0.0
  0
LINE
  5
23D
100
AcDbEntity
  8
0
  6
CONTINUOUS
 62
           7
100
AcDbLine
 10
360.389718783072
 20
129.921006968882
 30
0.0
 11
361.389718783072
 21
129.921006968882
 31
0.0
  0
LINE
  5
23E
100
AcDbEntity
  8
0
  6
CONTINUOUS
 62
           7
100
AcDbLine
 10
350.389718783072
 20
122.671006968882
 30
0.0
 11
361.389718783072
 21
122.671006968882
 31
0.0
  0
LINE
  5
23F
100
AcDbEntity
  8
0
  6
CONTINUOUS
 62
           7
100
AcDbLine
 10
361.389718783072
 20
150.421006968882
 30
0.0
 11
360.389718783072
 21
150.421006968882
 31
0.0
  0
LINE
  5
240
100
AcDbEntity
  8
0
  6
CONTINUOUS
 62
           7
100
AcDbLine
 10
350.389718783072
 20
157.671006968882
 30
0.0
 11
361.389718783072
 21
157.671006968882
 31
0.0
  0
LINE
  5
241
100
AcDbEntity
  8
0
  6
CONTINUOUS
 62
           7
100
AcDbLine
 10
338.843434165448
 20
157.671006968882
 30
0.0
 11
338.843434165448
 21
122.671006968882
 31
0.0
  0
LINE
  5
242
100
AcDbEntity
  8
0
  6
CONTINUOUS
 62
           7
100
AcDbLine
 10
338.843434165448
 20
122.671006968882
 30
0.0
 11
350.389718783072
 21
122.671006968882
 31
0.0
  0
LINE
  5
243
100
AcDbEntity
  8
0
  6
CONTINUOUS
 62
           7
100
AcDbLine
 10
338.843434165448
 20
157.671006968882
 30
0.0
 11
350.389718783072
 21
157.671006968882
 31
0.0
  0
LINE
  5
244
100
AcDbEntity
  8
0
  6
CONTINUOUS
 62
           7
100
AcDbLine
 10
336.471280633637
 20
122.671006968882
 30
0.0
 11
336.471280633637
 21
157.671006968882
 31
0.0
  0
LINE
  5
245
100
AcDbEntity
  8
0
  6
CONTINUOUS
 62
           7
100
AcDbLine
 10
338.843434165448
 20
122.671006968882
 30
0.0
 11
336.471280633637
 21
122.671006968882
 31
0.0
  0
LINE
  5
246
100
AcDbEntity
  8
0
  6
CONTINUOUS
 62
           7
100
AcDbLine
 10
336.471280633637
 20
157.671006968882
 30
0.0
 11
338.843434165448
 21
157.671006968882
 31
0.0
  0
LINE
  5
247
100
AcDbEntity
  8
0
  6
CONTINUOUS
 62
           7
100
AcDbLine
 10
336.359718783072
 20
122.671006968883
 30
0.0
 11
336.359718783072
 21
157.671006968882
 31
0.0
  0
LINE
  5
248
100
AcDbEntity
  8
0
  6
CONTINUOUS
 62
           7
100
AcDbLine
 10
336.471280633637
 20
122.671006968882
 30
0.0
 11
336.359718783072
 21
122.671006968883
 31
0.0
  0
LINE
  5
249
100
AcDbEntity
  8
0
  6
CONTINUOUS
 62
           7
100
AcDbLine
 10
336.471280633637
 20
157.671006968882
 30
0.0
 11
336.359718783072
 21
157.671006968882
 31
0.0
  0
LINE
  5
24A
100
AcDbEntity
  8
0
  6
CONTINUOUS
 62
           7
100
AcDbLine
 10
69.993512748387
 20
-50.985666854977
 30
0.0
 11
217.077909892411
 21
-50.985666854977
 31
0.0
  0
ELLIPSE
  5
24B
100
AcDbEntity
  8
0
  6
CONTINUOUS
 62
           7
100
AcDbEllipse
 10
68.601246884156
 20
-46.734789439682
 30
0.0
 11
5.5472974044442083
 21
-1.9766214442911689
 31
0.0
210
0.0
220
0.0
230
1.0
 40
0.678414388077
 41
5.1652385754418084
 42
5.1960138785134076
  0
LINE
  5
24C
100
AcDbEntity
  8
0
  6
CONTINUOUS
 62
           7
100
AcDbLine
 10
69.534340855154
 20
-45.484296389731
 30
0.0
 11
69.822549973413
 21
-50.983653969878
 31
0.0
  0
LINE
  5
24D
100
AcDbEntity
  8
0
  6
CONTINUOUS
 62
           7
100
AcDbLine
 10
217.248872667386
 20
-50.983653969878
 30
0.0
 11
217.537081785645
 21
-45.484296389731
 31
0.0
  0
ELLIPSE
  5
24E
100
AcDbEntity
  8
0
  6
CONTINUOUS
 62
           7
100
AcDbEllipse
 10
218.470175756642
 20
-46.734789439682
 30
0.0
 11
5.5472974044442935
 21
1.9766214442911689
 31
0.0
210
0.0
220
0.0
230
1.0
 40
0.678414388077
 41
4.2287640822560073
 42
4.25953938532761
  0
LINE
  5
24F
100
AcDbEntity
  8
0
  6
CONTINUOUS
 62
           7
100
AcDbLine
 10
217.537081785645
 20
-45.484296389731
 30
0.0
 11
69.534340855154
 21
-45.484296389731
 31
0.0
  0
LINE
  5
250
100
AcDbEntity
  8
0
  6
CONTINUOUS
 62
           7
100
AcDbLine
 10
218.535711320399
 20
-45.484296389731
 30
0.0
 11
218.24750220214
 21
-50.983653969878
 31
0.0
  0
ARC
  5
251
100
AcDbEntity
  8
0
  6
CONTINUOUS
 62
           7
100
AcDbCircle
 10
217.797190018708
 20
11.210735456535
 30
0.0
 40
62.19680641353
100
AcDbArc
 50
269.494882794936
 51
270.414831797302
  0
LINE
  5
252
100
AcDbEntity
  8
0
  6
CONTINUOUS
 62
           7
100
AcDbLine
 10
217.537081785645
 20
-45.484296389731
 30
0.0
 11
218.535711320399
 21
-45.484296389731
 31
0.0
  0
LINE
  5
253
100
AcDbEntity
  8
0
  6
CONTINUOUS
 62
           7
100
AcDbLine
 10
68.823920438658
 20
-50.983653969878
 30
0.0
 11
68.535711320399
 21
-45.484296389731
 31
0.0
  0
ARC
  5
254
100
AcDbEntity
  8
0
  6
CONTINUOUS
 62
           7
100
AcDbCircle
 10
69.268946758128
 20
4.221882322395
 30
0.0
 40
55.20831199953
100
AcDbArc
 50
269.53814190117
 51
270.574544995187
  0
LINE
  5
255
100
AcDbEntity
  8
0
  6
CONTINUOUS
 62
           7
100
AcDbLine
 10
68.535711320399
 20
-45.484296389731
 30
0.0
 11
69.534340855154
 21
-45.484296389731
 31
0.0
  0
LINE
  5
256
100
AcDbEntity
  8
0
  6
CONTINUOUS
 62
           7
100
AcDbLine
 10
218.247396711302
 20
-50.985666854977
 30
0.0
 11
215.415871904015
 21
-51.851350863876
 31
0.0
  0
ARC
  5
257
100
AcDbEntity
  8
0
  6
CONTINUOUS
 62
           7
100
AcDbCircle
 10
214.86489812899
 20
-48.517247505065
 30
0.0
 40
3.390988586337
100
AcDbArc
 50
259.490471935991
 51
279.350975587589
  0
LINE
  5
258
100
AcDbEntity
  8
0
  6
CONTINUOUS
 62
           7
100
AcDbLine
 10
214.246385085124
 20
-51.851350863876
 30
0.0
 11
217.077909892411
 21
-50.985666854977
 31
0.0
  0
LINE
  5
259
100
AcDbEntity
  8
0
  6
CONTINUOUS
 62
           7
100
AcDbLine
 10
218.24750220214
 20
-50.983653969878
 30
0.0
 11
218.247396711302
 21
-50.985666854977
 31
0.0
  0
LINE
  5
25A
100
AcDbEntity
  8
0
  6
CONTINUOUS
 62
           7
100
AcDbLine
 10
69.993512748387
 20
-50.985666854977
 30
0.0
 11
72.825037555674
 21
-51.851350863876
 31
0.0
  0
ARC
  5
25B
100
AcDbEntity
  8
0
  6
CONTINUOUS
 62
           7
100
AcDbCircle
 10
72.206504534644
 20
-48.667109371285
 30
0.0
 40
3.243759698442
100
AcDbArc
 50
260.220880399605
 51
280.992703380041
  0
LINE
  5
25C
100
AcDbEntity
  8
0
  6
CONTINUOUS
 62
           7
100
AcDbLine
 10
71.655550736783
 20
-51.851350863876
 30
0.0
 11
68.824025929496
 21
-50.985666854977
 31
0.0
  0
LINE
  5
25D
100
AcDbEntity
  8
0
  6
CONTINUOUS
 62
           7
100
AcDbLine
 10
68.824025929496
 20
-50.985666854977
 30
0.0
 11
68.823920438658
 21
-50.983653969878
 31
0.0
  0
ELLIPSE
  5
25E
100
AcDbEntity
  8
0
  6
CONTINUOUS
 62
           7
100
AcDbEllipse
 10
213.509387037793
 20
-52.434221781217
 30
0.0
 11
2.0030953733983097
 21
0.0130987015972153
 31
0.0
210
0.0
220
0.0
230
1.0
 40
0.310585840872
 41
1.1919847204597942
 42
1.5497449353509118
  0
LINE
  5
25F
100
AcDbEntity
  8
0
  6
CONTINUOUS
 62
           7
100
AcDbLine
 10
73.523938142497
 20
-51.811950842283
 30
0.0
 11
213.547484498301
 21
-51.811950842283
 31
0.0
  0
ELLIPSE
  5
260
100
AcDbEntity
  8
0
  6
CONTINUOUS
 62
           7
100
AcDbEllipse
 10
73.562035603006
 20
-52.434221781217
 30
0.0
 11
2.0030953733983381
 21
-0.0130987015972153
 31
0.0
210
0.0
220
0.0
230
1.0
 40
0.310585840872
 41
1.5918477182388384
 42
1.9496079331299938
  0
LINE
  5
261
100
AcDbEntity
  8
0
  6
CONTINUOUS
 62
           7
100
AcDbLine
 10
212.359205393981
 20
-74.485666854977
 30
0.0
 11
213.547484498301
 21
-51.811950842283
 31
0.0
  0
LINE
  5
262
100
AcDbEntity
  8
0
  6
CONTINUOUS
 62
           7
100
AcDbLine
 10
74.712217246817
 20
-74.485666854977
 30
0.0
 11
212.359205393981
 21
-74.485666854977
 31
0.0
  0
LINE
  5
263
100
AcDbEntity
  8
0
  6
CONTINUOUS
 62
           7
100
AcDbLine
 10
73.523938142497
 20
-51.811950842283
 30
0.0
 11
74.712217246817
 21
-74.485666854977
 31
0.0
  0
LINE
  5
264
100
AcDbEntity
  8
0
  6
CONTINUOUS
 62
           7
100
AcDbLine
 10
215.54474356781
 20
-51.811950842283
 30
0.0
 11
214.356464463491
 21
-74.485666854977
 31
0.0
  0
ARC
  5
265
100
AcDbEntity
  8
0
  6
CONTINUOUS
 62
           7
100
AcDbCircle
 10
213.494137598985
 20
-55.444555170654
 30
0.0
 40
19.074905118632
100
AcDbArc
 50
266.588960569162
 51
272.591076298546
  0
ARC
  5
266
100
AcDbEntity
  8
0
  6
CONTINUOUS
 62
           7
100
AcDbCircle
 10
73.577290143517
 20
-55.444684146048
 30
0.0
 40
19.074776068189
100
AcDbArc
 50
267.408890819659
 51
273.411047184121
  0
LINE
  5
267
100
AcDbEntity
  8
0
  6
CONTINUOUS
 62
           7
100
AcDbLine
 10
72.714958177308
 20
-74.485666854977
 30
0.0
 11
71.526679072988
 21
-51.811950842283
 31
0.0
  0
LINE
  5
268
100
AcDbEntity
  8
0
  6
CONTINUOUS
 62
           7
100
AcDbLine
 10
74.712217246817
 20
-74.485666854977
 30
0.0
 11
74.712217246817
 21
-75.484296389731
 31
0.0
  0
LINE
  5
269
100
AcDbEntity
  8
0
  6
CONTINUOUS
 62
           7
100
AcDbLine
 10
74.712217246817
 20
-75.484296389731
 30
0.0
 11
73.824048636284
 21
-75.484296389731
 31
0.0
  0
LINE
  5
26A
100
AcDbEntity
  8
0
  6
CONTINUOUS
 62
           7
100
AcDbLine
 10
72.714958177308
 20
-74.485666854977
 30
0.0
 11
73.824048636284
 21
-75.484296389731
 31
0.0
  0
LINE
  5
26B
100
AcDbEntity
  8
0
  6
CONTINUOUS
 62
           7
100
AcDbLine
 10
213.247374004514
 20
-75.484296389731
 30
0.0
 11
212.359205393981
 21
-75.484296389731
 31
0.0
  0
LINE
  5
26C
100
AcDbEntity
  8
0
  6
CONTINUOUS
 62
           7
100
AcDbLine
 10
212.359205393981
 20
-75.484296389731
 30
0.0
 11
212.359205393981
 21
-74.485666854977
 31
0.0
  0
LINE
  5
26D
100
AcDbEntity
  8
0
  6
CONTINUOUS
 62
           7
100
AcDbLine
 10
213.247374004514
 20
-75.484296389731
 30
0.0
 11
214.356464463491
 21
-74.485666854977
 31
0.0
  0
LINE
  5
26E
100
AcDbEntity
  8
0
  6
CONTINUOUS
 62
           7
100
AcDbLine
 10
212.359205393981
 20
-75.484296389731
 30
0.0
 11
74.712217246817
 21
-75.484296389731
 31
0.0
  0
CIRCLE
  5
26F
100
AcDbEntity
  8
0
  6
CONTINUOUS
 62
           7
100
AcDbCircle
 10
63.544719435012
 20
-45.184296389731
 30
0.0
 40
1.5
  0
LINE
  5
270
100
AcDbEntity
  8
0
  6
CONTINUOUS
 62
           7
100
AcDbLine
 10
65.510182486568
 20
-53.435032391947
 30
0.0
 11
71.71913854789
 21
-55.484296389731
 31
0.0
  0
LINE
  5
271
100
AcDbEntity
  8
0
  6
CONTINUOUS
 62
           7
100
AcDbLine
 10
64.54343556487
 20
-52.4115557287
 30
0.0
 11
65.510182486568
 21
-53.435032391947
 31
0.0
  0
LINE
  5
272
100
AcDbEntity
  8
0
  6
CONTINUOUS
 62
           7
100
AcDbLine
 10
63.544719435012
 20
-48.684296389731
 30
0.0
 11
64.54343556487
 21
-52.4115557287
 31
0.0
  0
ARC
  5
273
100
AcDbEntity
  8
0
  6
CONTINUOUS
 62
           7
100
AcDbCircle
 10
63.544719435012
 20
-45.184296389731
 30
0.0
 40
3.5
100
AcDbArc
 50
24.714426327866
 51
270.0
  0
LINE
  5
274
100
AcDbEntity
  8
0
  6
CONTINUOUS
 62
           7
100
AcDbLine
 10
67.535711320399
 20
-45.484296389731
 30
0.0
 11
66.724129708443
 21
-43.72096105113
 31
0.0
  0
LINE
  5
275
100
AcDbEntity
  8
0
  6
CONTINUOUS
 62
           7
100
AcDbLine
 10
68.535711320399
 20
-45.484296389731
 30
0.0
 11
67.535711320399
 21
-45.484296389731
 31
0.0
  0
LINE
  5
276
100
AcDbEntity
  8
0
  6
CONTINUOUS
 62
           7
100
AcDbLine
 10
215.078763183026
 20
-60.70338625815
 30
0.0
 11
217.157805888446
 21
-60.336794935139
 31
0.0
  0
LINE
  5
277
100
AcDbEntity
  8
0
  6
CONTINUOUS
 62
           7
100
AcDbLine
 10
219.957805888446
 20
-45.484296389731
 30
0.0
 11
218.535711320399
 21
-45.484296389731
 31
0.0
  0
LINE
  5
278
100
AcDbEntity
  8
0
  6
CONTINUOUS
 62
           7
100
AcDbLine
 10
228.323930583655
 20
-47.904961287441
 30
0.0
 11
228.5357113204
 21
-45.484296389731
 31
0.0
  0
LINE
  5
279
100
AcDbEntity
  8
0
  6
CONTINUOUS
 62
           7
100
AcDbLine
 10
225.391463292917
 20
-48.801506510593
 30
0.0
 11
228.323930583655
 21
-47.904961287441
 31
0.0
  0
LINE
  5
27A
100
AcDbEntity
  8
0
  6
CONTINUOUS
 62
           7
100
AcDbLine
 10
228.5357113204
 20
-45.484296389731
 30
0.0
 11
225.565310908767
 21
-45.484296389731
 31
0.0
  0
LINE
  5
27B
100
AcDbEntity
  8
0
  6
CONTINUOUS
 62
           7
100
AcDbLine
 10
229.657805888446
 20
-21.714020273429
 30
0.0
 11
228.457805888446
 21
-20.514020273429
 31
0.0
  0
LINE
  5
27C
100
AcDbEntity
  8
0
  6
CONTINUOUS
 62
           7
100
AcDbLine
 10
229.657805888446
 20
-21.714020273429
 30
0.0
 11
229.657805888446
 21
-35.131009020144
 31
0.0
  0
LINE
  5
27D
100
AcDbEntity
  8
0
  6
CONTINUOUS
 62
           7
100
AcDbLine
 10
229.657805888446
 20
-35.131009020144
 30
0.0
 11
228.457805888446
 21
-36.331009020144
 31
0.0
  0
LINE
  5
27E
100
AcDbEntity
  8
0
  6
CONTINUOUS
 62
           7
100
AcDbLine
 10
228.457805888446
 20
-20.514020273429
 30
0.0
 11
228.457805888446
 21
-36.331009020144
 31
0.0
  0
LINE
  5
27F
100
AcDbEntity
  8
0
  6
CONTINUOUS
 62
           7
100
AcDbLine
 10
228.457805888446
 20
-36.331009020144
 30
0.0
 11
225.984573143031
 21
-37.484296389731
 31
0.0
  0
LINE
  5
280
100
AcDbEntity
  8
0
  6
CONTINUOUS
 62
           7
100
AcDbLine
 10
224.891109807909
 20
-58.34881975022
 30
0.0
 11
225.984573143031
 21
-37.484296389731
 31
0.0
  0
ARC
  5
281
100
AcDbEntity
  8
0
  6
CONTINUOUS
 62
           7
100
AcDbCircle
 10
224.092206180105
 20
-58.306950985225
 30
0.0
 40
0.8
100
AcDbArc
 50
279.999999999998
 51
356.999999999999
  0
LINE
  5
282
100
AcDbEntity
  8
0
  6
CONTINUOUS
 62
           7
100
AcDbLine
 10
217.157805888446
 20
-60.342014141186
 30
0.0
 11
224.231124722239
 21
-59.094797187635
 31
0.0
  0
LINE
  5
283
100
AcDbEntity
  8
0
  6
CONTINUOUS
 62
           7
100
AcDbLine
 10
217.157805888446
 20
-51.484296389731
 30
0.0
 11
217.157805888446
 21
-60.342014141186
 31
0.0
  0
LINE
  5
284
100
AcDbEntity
  8
0
  6
CONTINUOUS
 62
           7
100
AcDbLine
 10
219.957805888446
 20
-51.337554607738
 30
0.0
 11
217.157805888446
 21
-51.484296389731
 31
0.0
  0
LINE
  5
285
100
AcDbEntity
  8
0
  6
CONTINUOUS
 62
           7
100
AcDbLine
 10
219.957805888446
 20
-34.484296389731
 30
0.0
 11
219.957805888446
 21
-51.337554607738
 31
0.0
  0
LINE
  5
286
100
AcDbEntity
  8
0
  6
CONTINUOUS
 62
           7
100
AcDbLine
 10
222.412044446832
 20
-22.938011772107
 30
0.0
 11
219.957805888446
 21
-34.484296389731
 31
0.0
  0
ARC
  5
287
100
AcDbEntity
  8
0
  6
CONTINUOUS
 62
           7
100
AcDbCircle
 10
225.346487249033
 20
-23.56174684456
 30
0.0
 40
3.0
100
AcDbArc
 50
92.999999999999
 51
167.999999999996
  0
LINE
  5
288
100
AcDbEntity
  8
0
  6
CONTINUOUS
 62
           7
100
AcDbLine
 10
225.189479380304
 20
-20.565858240296
 30
0.0
 11
227.318206300079
 21
-20.454296389731
 31
0.0
  0
CIRCLE
  5
289
100
AcDbEntity
  8
0
  6
CONTINUOUS
 62
           7
100
AcDbCircle
 10
220.728206300078
 20
-55.484296389731
 30
0.0
 40
1.4
  0
LINE
  5
28A
100
AcDbEntity
  8
0
  6
CONTINUOUS
 62
           7
100
AcDbLine
 10
227.318206300079
 20
-20.454296389731
 30
0.0
 11
228.457805888446
 21
-20.514020273429
 31
0.0
  0
LINE
  5
28B
100
AcDbEntity
  8
0
  6
CONTINUOUS
 62
           7
100
AcDbLine
 10
642.74122950708
 20
82.921006968882
 30
0.0
 11
642.74122950708
 21
91.421006968882
 31
0.0
  0
LINE
  5
28C
100
AcDbEntity
  8
0
  6
CONTINUOUS
 62
           7
100
AcDbLine
 10
642.74122950708
 20
109.421006968882
 30
0.0
 11
642.74122950708
 21
117.921006968882
 31
0.0
  0
LINE
  5
28D
100
AcDbEntity
  8
0
  6
CONTINUOUS
 62
           7
100
AcDbLine
 10
642.741229507081
 20
162.921006968882
 30
0.0
 11
642.741229507081
 21
171.421006968882
 31
0.0
  0
LINE
  5
28E
100
AcDbEntity
  8
0
  6
CONTINUOUS
 62
           7
100
AcDbLine
 10
642.741229507081
 20
189.421006968882
 30
0.0
 11
642.741229507081
 21
197.921006968882
 31
0.0
  0
LINE
  5
28F
100
AcDbEntity
  8
0
  6
CONTINUOUS
 62
           7
100
AcDbLine
 10
636.061819233649
 20
82.921006968882
 30
0.0
 11
636.061819233649
 21
91.421006968882
 31
0.0
  0
LINE
  5
290
100
AcDbEntity
  8
0
  6
CONTINUOUS
 62
           7
100
AcDbLine
 10
636.061819233649
 20
91.421006968882
 30
0.0
 11
642.74122950708
 21
91.421006968882
 31
0.0
  0
LINE
  5
291
100
AcDbEntity
  8
0
  6
CONTINUOUS
 62
           7
100
AcDbLine
 10
636.061819233649
 20
82.921006968882
 30
0.0
 11
642.74122950708
 21
82.921006968882
 31
0.0
  0
LINE
  5
292
100
AcDbEntity
  8
0
  6
CONTINUOUS
 62
           7
100
AcDbLine
 10
636.061819233649
 20
109.421006968882
 30
0.0
 11
636.061819233649
 21
117.921006968882
 31
0.0
  0
LINE
  5
293
100
AcDbEntity
  8
0
  6
CONTINUOUS
 62
           7
100
AcDbLine
 10
636.061819233649
 20
117.921006968882
 30
0.0
 11
642.74122950708
 21
117.921006968882
 31
0.0
  0
LINE
  5
294
100
AcDbEntity
  8
0
  6
CONTINUOUS
 62
           7
100
AcDbLine
 10
636.061819233649
 20
109.421006968882
 30
0.0
 11
642.74122950708
 21
109.421006968882
 31
0.0
  0
LINE
  5
295
100
AcDbEntity
  8
0
  6
CONTINUOUS
 62
           7
100
AcDbLine
 10
636.061819233649
 20
171.421006968882
 30
0.0
 11
636.061819233649
 21
162.921006968882
 31
0.0
  0
LINE
  5
296
100
AcDbEntity
  8
0
  6
CONTINUOUS
 62
           7
100
AcDbLine
 10
636.061819233649
 20
171.421006968882
 30
0.0
 11
642.741229507081
 21
171.421006968882
 31
0.0
  0
LINE
  5
297
100
AcDbEntity
  8
0
  6
CONTINUOUS
 62
           7
100
AcDbLine
 10
636.061819233649
 20
162.921006968882
 30
0.0
 11
642.741229507081
 21
162.921006968882
 31
0.0
  0
LINE
  5
298
100
AcDbEntity
  8
0
  6
CONTINUOUS
 62
           7
100
AcDbLine
 10
636.061819233649
 20
197.921006968882
 30
0.0
 11
636.061819233649
 21
189.421006968882
 31
0.0
  0
LINE
  5
299
100
AcDbEntity
  8
0
  6
CONTINUOUS
 62
           7
100
AcDbLine
 10
636.061819233649
 20
197.921006968882
 30
0.0
 11
642.741229507081
 21
197.921006968882
 31
0.0
  0
LINE
  5
29A
100
AcDbEntity
  8
0
  6
CONTINUOUS
 62
           7
100
AcDbLine
 10
636.061819233649
 20
189.421006968882
 30
0.0
 11
642.741229507081
 21
189.421006968882
 31
0.0
  0
LINE
  5
29B
100
AcDbEntity
  8
0
  6
CONTINUOUS
 62
           7
100
AcDbLine
 10
635.250237621693
 20
82.921006968882
 30
0.0
 11
635.250237621693
 21
91.421006968882
 31
0.0
  0
LINE
  5
29C
100
AcDbEntity
  8
0
  6
CONTINUOUS
 62
           7
100
AcDbLine
 10
635.250237621693
 20
91.421006968882
 30
0.0
 11
636.061819233649
 21
91.421006968882
 31
0.0
  0
LINE
  5
29D
100
AcDbEntity
  8
0
  6
CONTINUOUS
 62
           7
100
AcDbLine
 10
635.250237621693
 20
82.921006968882
 30
0.0
 11
636.061819233649
 21
82.921006968882
 31
0.0
  0
LINE
  5
29E
100
AcDbEntity
  8
0
  6
CONTINUOUS
 62
           7
100
AcDbLine
 10
635.250237621693
 20
109.421006968882
 30
0.0
 11
635.250237621693
 21
117.921006968882
 31
0.0
  0
LINE
  5
29F
100
AcDbEntity
  8
0
  6
CONTINUOUS
 62
           7
100
AcDbLine
 10
635.250237621693
 20
117.921006968882
 30
0.0
 11
636.061819233649
 21
117.921006968882
 31
0.0
  0
LINE
  5
2A0
100
AcDbEntity
  8
0
  6
CONTINUOUS
 62
           7
100
AcDbLine
 10
635.250237621693
 20
109.421006968882
 30
0.0
 11
636.061819233649
 21
109.421006968882
 31
0.0
  0
LINE
  5
2A1
100
AcDbEntity
  8
0
  6
CONTINUOUS
 62
           7
100
AcDbLine
 10
635.250237621693
 20
171.421006968882
 30
0.0
 11
635.250237621693
 21
162.921006968882
 31
0.0
  0
LINE
  5
2A2
100
AcDbEntity
  8
0
  6
CONTINUOUS
 62
           7
100
AcDbLine
 10
635.250237621693
 20
171.421006968882
 30
0.0
 11
636.061819233649
 21
171.421006968882
 31
0.0
  0
LINE
  5
2A3
100
AcDbEntity
  8
0
  6
CONTINUOUS
 62
           7
100
AcDbLine
 10
635.250237621693
 20
162.921006968882
 30
0.0
 11
636.061819233649
 21
162.921006968882
 31
0.0
  0
LINE
  5
2A4
100
AcDbEntity
  8
0
  6
CONTINUOUS
 62
           7
100
AcDbLine
 10
635.250237621694
 20
197.921006968882
 30
0.0
 11
635.250237621693
 21
189.421006968882
 31
0.0
  0
LINE
  5
2A5
100
AcDbEntity
  8
0
  6
CONTINUOUS
 62
           7
100
AcDbLine
 10
635.250237621694
 20
197.921006968882
 30
0.0
 11
636.061819233649
 21
197.921006968882
 31
0.0
  0
LINE
  5
2A6
100
AcDbEntity
  8
0
  6
CONTINUOUS
 62
           7
100
AcDbLine
 10
635.250237621693
 20
189.421006968882
 30
0.0
 11
636.061819233649
 21
189.421006968882
 31
0.0
  0
LINE
  5
2A7
100
AcDbEntity
  8
0
  6
CONTINUOUS
 62
           7
100
AcDbLine
 10
482.828143053647
 20
130.421006968882
 30
0.0
 11
484.250237621693
 21
130.421006968882
 31
0.0
  0
LINE
  5
2A8
100
AcDbEntity
  8
0
  6
CONTINUOUS
 62
           7
100
AcDbLine
 10
482.828143053647
 20
150.421006968882
 30
0.0
 11
484.250237621693
 21
150.421006968882
 31
0.0
  0
LINE
  5
2A9
100
AcDbEntity
  8
0
  6
CONTINUOUS
 62
           7
100
AcDbLine
 10
484.250237621693
 20
150.421006968882
 30
0.0
 11
484.250237621694
 21
214.422377434128
 31
0.0
  0
ELLIPSE
  5
2AA
100
AcDbEntity
  8
0
  6
CONTINUOUS
 62
           7
100
AcDbEllipse
 10
485.251609967692
 20
214.419634622884
 30
0.0
 11
-0.7090462434350684
 21
0.7090462434351252
 31
0.0
210
0.0
220
0.0
230
1.0
 40
0.997264688634
 41
5.4991566716525675
 42
7.0672139427067124
  0
LINE
  5
2AB
100
AcDbEntity
  8
0
  6
CONTINUOUS
 62
           7
100
AcDbLine
 10
485.248867156448
 20
215.421006968882
 30
0.0
 11
633.251608086939
 21
215.421006968882
 31
0.0
  0
ELLIPSE
  5
2AC
100
AcDbEntity
  8
0
  6
CONTINUOUS
 62
           7
100
AcDbEllipse
 10
633.248865275696
 20
214.419634622884
 30
0.0
 11
0.7090462434349547
 21
0.7090462434350684
 31
0.0
210
0.0
220
0.0
230
1.0
 40
0.997264688634
 41
5.4991566716525684
 42
7.0672139427067
  0
LINE
  5
2AD
100
AcDbEntity
  8
0
  6
CONTINUOUS
 62
           7
100
AcDbLine
 10
634.250237621694
 20
214.422377434127
 30
0.0
 11
634.250237621694
 21
197.921006968882
 31
0.0
  0
LINE
  5
2AE
100
AcDbEntity
  8
0
  6
CONTINUOUS
 62
           7
100
AcDbLine
 10
634.250237621693
 20
189.421006968882
 30
0.0
 11
634.250237621693
 21
171.421006968882
 31
0.0
  0
LINE
  5
2AF
100
AcDbEntity
  8
0
  6
CONTINUOUS
 62
           7
100
AcDbLine
 10
634.250237621693
 20
162.921006968882
 30
0.0
 11
634.250237621693
 21
117.921006968882
 31
0.0
  0
LINE
  5
2B0
100
AcDbEntity
  8
0
  6
CONTINUOUS
 62
           7
100
AcDbLine
 10
634.250237621693
 20
91.421006968882
 30
0.0
 11
634.250237621693
 21
109.421006968882
 31
0.0
  0
LINE
  5
2B1
100
AcDbEntity
  8
0
  6
CONTINUOUS
 62
           7
100
AcDbLine
 10
634.250237621693
 20
82.921006968882
 30
0.0
 11
634.250237621693
 21
66.419636503636
 31
0.0
  0
ELLIPSE
  5
2B2
100
AcDbEntity
  8
0
  6
CONTINUOUS
 62
           7
100
AcDbEllipse
 10
633.248865275695
 20
66.42237931488
 30
0.0
 11
-0.7090462434350684
 21
0.7090462434350684
 31
0.0
210
0.0
220
0.0
230
1.0
 40
0.997264688634
 41
2.3575640180627508
 42
3.9256212891168776
  0
LINE
  5
2B3
100
AcDbEntity
  8
0
  6
CONTINUOUS
 62
           7
100
AcDbLine
 10
633.251608086939
 20
65.421006968882
 30
0.0
 11
485.248867156448
 21
65.421006968882
 31
0.0
  0
ELLIPSE
  5
2B4
100
AcDbEntity
  8
0
  6
CONTINUOUS
 62
           7
100
AcDbEllipse
 10
485.251609967691
 20
66.42237931488
 30
0.0
 11
0.7090462434350684
 21
0.7090462434350684
 31
0.0
210
0.0
220
0.0
230
1.0
 40
0.997264688634
 41
2.3575640180627708
 42
3.9256212891167159
  0
LINE
  5
2B5
100
AcDbEntity
  8
0
  6
CONTINUOUS
 62
           7
100
AcDbLine
 10
484.250237621693
 20
66.419636503637
 30
0.0
 11
484.250237621693
 21
90.421006968882
 31
0.0
  0
LINE
  5
2B6
100
AcDbEntity
  8
0
  6
CONTINUOUS
 62
           7
100
AcDbLine
 10
474.250237621693
 20
90.421006968882
 30
0.0
 11
484.250237621693
 21
90.421006968882
 31
0.0
  0
LINE
  5
2B7
100
AcDbEntity
  8
0
  6
CONTINUOUS
 62
           7
100
AcDbLine
 10
474.250237621693
 20
110.421006968882
 30
0.0
 11
474.250237621693
 21
90.421006968882
 31
0.0
  0
LINE
  5
2B8
100
AcDbEntity
  8
0
  6
CONTINUOUS
 62
           7
100
AcDbLine
 10
474.250237621693
 20
110.421006968882
 30
0.0
 11
484.250237621693
 21
110.421006968882
 31
0.0
  0
LINE
  5
2B9
100
AcDbEntity
  8
0
  6
CONTINUOUS
 62
           7
100
AcDbLine
 10
484.250237621693
 20
110.421006968882
 30
0.0
 11
484.250237621693
 21
130.421006968882
 31
0.0
  0
ARC
  5
2BA
100
AcDbEntity
  8
0
  6
CONTINUOUS
 62
           7
100
AcDbCircle
 10
485.750237621693
 20
66.921006968882
 30
0.0
 40
0.5
100
AcDbArc
 50
180.0
 51
270.0
  0
LINE
  5
2BB
100
AcDbEntity
  8
0
  6
CONTINUOUS
 62
           7
100
AcDbLine
 10
485.750237621693
 20
66.421006968882
 30
0.0
 11
632.750237621693
 21
66.421006968882
 31
0.0
  0
ARC
  5
2BC
100
AcDbEntity
  8
0
  6
CONTINUOUS
 62
           7
100
AcDbCircle
 10
632.750237621693
 20
66.921006968882
 30
0.0
 40
0.5
100
AcDbArc
 50
270.0
 51
360.0
  0
LINE
  5
2BD
100
AcDbEntity
  8
0
  6
CONTINUOUS
 62
           7
100
AcDbLine
 10
633.250237621693
 20
66.921006968882
 30
0.0
 11
633.250237621694
 21
213.921006968882
 31
0.0
  0
ARC
  5
2BE
100
AcDbEntity
  8
0
  6
CONTINUOUS
 62
           7
100
AcDbCircle
 10
632.750237621694
 20
213.921006968882
 30
0.0
 40
0.5
100
AcDbArc
 50
0.0
 51
89.999999999999
  0
LINE
  5
2BF
100
AcDbEntity
  8
0
  6
CONTINUOUS
 62
           7
100
AcDbLine
 10
632.750237621694
 20
214.421006968882
 30
0.0
 11
485.750237621694
 21
214.421006968882
 31
0.0
  0
ARC
  5
2C0
100
AcDbEntity
  8
0
  6
CONTINUOUS
 62
           7
100
AcDbCircle
 10
485.750237621694
 20
213.921006968882
 30
0.0
 40
0.5
100
AcDbArc
 50
90.0
 51
180.0
  0
LINE
  5
2C1
100
AcDbEntity
  8
0
  6
CONTINUOUS
 62
           7
100
AcDbLine
 10
485.250237621694
 20
213.921006968882
 30
0.0
 11
485.250237621693
 21
66.921006968882
 31
0.0
  0
CIRCLE
  5
2C2
100
AcDbEntity
  8
0
  6
CONTINUOUS
 62
           7
100
AcDbCircle
 10
480.250237621693
 20
100.421006968882
 30
0.0
 40
3.5
  0
LINE
  5
2C3
100
AcDbEntity
  8
0
  6
CONTINUOUS
 62
           7
100
AcDbLine
 10
634.250237621694
 20
197.921006968882
 30
0.0
 11
635.250237621694
 21
197.921006968882
 31
0.0
  0
LINE
  5
2C4
100
AcDbEntity
  8
0
  6
CONTINUOUS
 62
           7
100
AcDbLine
 10
634.250237621693
 20
189.421006968882
 30
0.0
 11
635.250237621693
 21
189.421006968882
 31
0.0
  0
LINE
  5
2C5
100
AcDbEntity
  8
0
  6
CONTINUOUS
 62
           7
100
AcDbLine
 10
634.250237621693
 20
171.421006968882
 30
0.0
 11
635.250237621693
 21
171.421006968882
 31
0.0
  0
LINE
  5
2C6
100
AcDbEntity
  8
0
  6
CONTINUOUS
 62
           7
100
AcDbLine
 10
634.250237621693
 20
162.921006968882
 30
0.0
 11
635.250237621693
 21
162.921006968882
 31
0.0
  0
LINE
  5
2C7
100
AcDbEntity
  8
0
  6
CONTINUOUS
 62
           7
100
AcDbLine
 10
634.250237621693
 20
117.921006968882
 30
0.0
 11
635.250237621693
 21
117.921006968882
 31
0.0
  0
LINE
  5
2C8
100
AcDbEntity
  8
0
  6
CONTINUOUS
 62
           7
100
AcDbLine
 10
634.250237621693
 20
109.421006968882
 30
0.0
 11
635.250237621693
 21
109.421006968882
 31
0.0
  0
LINE
  5
2C9
100
AcDbEntity
  8
0
  6
CONTINUOUS
 62
           7
100
AcDbLine
 10
634.250237621693
 20
91.421006968882
 30
0.0
 11
635.250237621693
 21
91.421006968882
 31
0.0
  0
LINE
  5
2CA
100
AcDbEntity
  8
0
  6
CONTINUOUS
 62
           7
100
AcDbLine
 10
634.250237621693
 20
82.921006968882
 30
0.0
 11
635.250237621693
 21
82.921006968882
 31
0.0
  0
LINE
  5
2CB
100
AcDbEntity
  8
0
  6
CONTINUOUS
 62
           7
100
AcDbLine
 10
485.480831850538
 20
66.921006968882
 30
0.0
 11
485.250237621693
 21
66.921006968882
 31
0.0
  0
ARC
  5
2CC
100
AcDbEntity
  8
0
  6
CONTINUOUS
 62
           7
100
AcDbCircle
 10
485.750237621693
 20
66.921006968882
 30
0.0
 40
0.269405771155
100
AcDbArc
 50
180.0
 51
270.0
  0
LINE
  5
2CD
100
AcDbEntity
  8
0
  6
CONTINUOUS
 62
           7
100
AcDbLine
 10
485.750237621693
 20
66.651601197728
 30
0.0
 11
485.750237621693
 21
66.421006968882
 31
0.0
  0
LINE
  5
2CE
100
AcDbEntity
  8
0
  6
CONTINUOUS
 62
           7
100
AcDbLine
 10
485.480831850539
 20
213.921006968882
 30
0.0
 11
485.250237621694
 21
213.921006968882
 31
0.0
  0
LINE
  5
2CF
100
AcDbEntity
  8
0
  6
CONTINUOUS
 62
           7
100
AcDbLine
 10
485.480831850539
 20
213.921006968882
 30
0.0
 11
485.480831850538
 21
66.921006968882
 31
0.0
  0
LINE
  5
2D0
100
AcDbEntity
  8
0
  6
CONTINUOUS
 62
           7
100
AcDbLine
 10
485.750237621693
 20
66.651601197728
 30
0.0
 11
632.750237621693
 21
66.651601197727
 31
0.0
  0
LINE
  5
2D1
100
AcDbEntity
  8
0
  6
CONTINUOUS
 62
           7
100
AcDbLine
 10
632.750237621693
 20
66.651601197727
 30
0.0
 11
632.750237621693
 21
66.421006968882
 31
0.0
  0
LINE
  5
2D2
100
AcDbEntity
  8
0
  6
CONTINUOUS
 62
           7
100
AcDbLine
 10
485.750237621694
 20
214.190412740037
 30
0.0
 11
485.750237621694
 21
214.421006968882
 31
0.0
  0
ARC
  5
2D3
100
AcDbEntity
  8
0
  6
CONTINUOUS
 62
           7
100
AcDbCircle
 10
485.750237621694
 20
213.921006968882
 30
0.0
 40
0.269405771155
100
AcDbArc
 50
90.0
 51
180.0
  0
LINE
  5
2D4
100
AcDbEntity
  8
0
  6
CONTINUOUS
 62
           7
100
AcDbLine
 10
632.750237621694
 20
214.190412740036
 30
0.0
 11
632.750237621694
 21
214.421006968882
 31
0.0
  0
LINE
  5
2D5
100
AcDbEntity
  8
0
  6
CONTINUOUS
 62
           7
100
AcDbLine
 10
632.750237621694
 20
214.190412740036
 30
0.0
 11
485.750237621694
 21
214.190412740037
 31
0.0
  0
ARC
  5
2D6
100
AcDbEntity
  8
0
  6
CONTINUOUS
 62
           7
100
AcDbCircle
 10
632.750237621693
 20
66.921006968882
 30
0.0
 40
0.269405771155
100
AcDbArc
 50
270.0
 51
359.999999999999
  0
LINE
  5
2D7
100
AcDbEntity
  8
0
  6
CONTINUOUS
 62
           7
100
AcDbLine
 10
633.019643392848
 20
66.921006968882
 30
0.0
 11
633.250237621693
 21
66.921006968882
 31
0.0
  0
LINE
  5
2D8
100
AcDbEntity
  8
0
  6
CONTINUOUS
 62
           7
100
AcDbLine
 10
633.019643392848
 20
66.921006968882
 30
0.0
 11
633.019643392848
 21
213.921006968882
 31
0.0
  0
LINE
  5
2D9
100
AcDbEntity
  8
0
  6
CONTINUOUS
 62
           7
100
AcDbLine
 10
633.019643392848
 20
213.921006968882
 30
0.0
 11
633.250237621694
 21
213.921006968882
 31
0.0
  0
LINE
  5
2DA
100
AcDbEntity
  8
0
  6
CONTINUOUS
 62
           7
100
AcDbLine
 10
634.515568006285
 20
91.421006968882
 30
0.0
 11
634.515568006285
 21
109.421006968882
 31
0.0
  0
LINE
  5
2DB
100
AcDbEntity
  8
0
  6
CONTINUOUS
 62
           7
100
AcDbLine
 10
634.515568006285
 20
189.421006968882
 30
0.0
 11
634.515568006285
 21
171.421006968882
 31
0.0
  0
ARC
  5
2DC
100
AcDbEntity
  8
0
  6
CONTINUOUS
 62
           7
100
AcDbCircle
 10
632.750237621694
 20
213.921006968882
 30
0.0
 40
0.269405771155
100
AcDbArc
 50
0.0
 51
89.999999999999
  0
LINE
  5
2DD
100
AcDbEntity
  8
0
  6
CONTINUOUS
 62
           7
100
AcDbLine
 10
638.002518733607
 20
91.421006968882
 30
0.0
 11
638.002518733607
 21
109.421006968882
 31
0.0
  0
LINE
  5
2DE
100
AcDbEntity
  8
0
  6
CONTINUOUS
 62
           7
100
AcDbLine
 10
637.044049464606
 20
91.421006968882
 30
0.0
 11
637.044049464607
 21
109.421006968882
 31
0.0
  0
LINE
  5
2DF
100
AcDbEntity
  8
0
  6
CONTINUOUS
 62
           7
100
AcDbLine
 10
639.187743260938
 20
91.421006968882
 30
0.0
 11
639.187743260938
 21
109.421006968882
 31
0.0
  0
LINE
  5
2E0
100
AcDbEntity
  8
0
  6
CONTINUOUS
 62
           7
100
AcDbLine
 10
637.044049464607
 20
189.421006968882
 30
0.0
 11
637.044049464607
 21
171.421006968882
 31
0.0
  0
LINE
  5
2E1
100
AcDbEntity
  8
0
  6
CONTINUOUS
 62
           7
100
AcDbLine
 10
638.002518733607
 20
189.421006968882
 30
0.0
 11
638.002518733607
 21
171.421006968882
 31
0.0
  0
LINE
  5
2E2
100
AcDbEntity
  8
0
  6
CONTINUOUS
 62
           7
100
AcDbLine
 10
639.187743260938
 20
171.421006968882
 30
0.0
 11
639.187743260939
 21
189.421006968882
 31
0.0
  0
ELLIPSE
  5
2E3
100
AcDbEntity
  8
0
  6
CONTINUOUS
 62
           7
100
AcDbEllipse
 10
628.518957219849
 20
71.152287370726
 30
0.0
 11
-0.3545231217174205
 21
0.3545231217175342
 31
0.0
210
0.0
220
0.0
230
1.0
 40
0.997264688634
 41
2.3575640180630546
 42
3.9256212891169806
  0
LINE
  5
2E4
100
AcDbEntity
  8
0
  6
CONTINUOUS
 62
           7
100
AcDbLine
 10
629.019643392848
 20
71.150915965105
 30
0.0
 11
629.019643392848
 21
209.691097972659
 31
0.0
  0
ELLIPSE
  5
2E5
100
AcDbEntity
  8
0
  6
CONTINUOUS
 62
           7
100
AcDbEllipse
 10
628.518957219849
 20
209.689726567038
 30
0.0
 11
0.3545231217174205
 21
0.3545231217175342
 31
0.0
210
0.0
220
0.0
230
1.0
 40
0.997264688634
 41
5.4991566716523677
 42
7.0672139427066263
  0
LINE
  5
2E6
100
AcDbEntity
  8
0
  6
CONTINUOUS
 62
           7
100
AcDbLine
 10
628.520328625471
 20
210.190412740036
 30
0.0
 11
489.980146617916
 21
210.190412740037
 31
0.0
  0
ELLIPSE
  5
2E7
100
AcDbEntity
  8
0
  6
CONTINUOUS
 62
           7
100
AcDbEllipse
 10
489.981518023538
 20
209.689726567038
 30
0.0
 11
-0.3545231217176479
 21
0.3545231217174774
 31
0.0
210
0.0
220
0.0
230
1.0
 40
0.997264688634
 41
5.4991566716520941
 42
7.0672139427066263
  0
LINE
  5
2E8
100
AcDbEntity
  8
0
  6
CONTINUOUS
 62
           7
100
AcDbLine
 10
489.480831850539
 20
209.69109797266
 30
0.0
 11
489.480831850538
 21
71.150915965105
 31
0.0
  0
ELLIPSE
  5
2E9
100
AcDbEntity
  8
0
  6
CONTINUOUS
 62
           7
100
AcDbEllipse
 10
489.981518023538
 20
71.152287370727
 30
0.0
 11
0.3545231217174205
 21
0.3545231217175626
 31
0.0
210
0.0
220
0.0
230
1.0
 40
0.997264688634
 41
2.357564018062503
 42
3.9256212891165254
  0
LINE
  5
2EA
100
AcDbEntity
  8
0
  6
CONTINUOUS
 62
           7
100
AcDbLine
 10
489.980146617916
 20
70.651601197728
 30
0.0
 11
628.52032862547
 21
70.651601197727
 31
0.0
  0
LINE
  5
2EB
100
AcDbEntity
  8
0
  6
CONTINUOUS
 62
           7
100
AcDbLine
 10
491.180284763497
 20
71.851739343309
 30
0.0
 11
489.980146617916
 21
70.651601197728
 31
0.0
  0
LINE
  5
2EC
100
AcDbEntity
  8
0
  6
CONTINUOUS
 62
           7
100
AcDbLine
 10
489.480831850538
 20
71.150915965105
 30
0.0
 11
490.68096999612
 21
72.351054110687
 31
0.0
  0
ELLIPSE
  5
2ED
100
AcDbEntity
  8
0
  6
CONTINUOUS
 62
           7
100
AcDbEllipse
 10
491.181656169119
 20
72.352425516308
 30
0.0
 11
0.3545231217174205
 21
0.3545231217175342
 31
0.0
210
0.0
220
0.0
230
1.0
 40
0.997264688634
 41
2.3575640180626065
 42
3.925621289116445
  0
LINE
  5
2EE
100
AcDbEntity
  8
0
  6
CONTINUOUS
 62
           7
100
AcDbLine
 10
490.680969996121
 20
208.490959827078
 30
0.0
 11
489.480831850539
 21
209.69109797266
 31
0.0
  0
LINE
  5
2EF
100
AcDbEntity
  8
0
  6
CONTINUOUS
 62
           7
100
AcDbLine
 10
490.680969996121
 20
208.490959827078
 30
0.0
 11
490.68096999612
 21
72.351054110687
 31
0.0
  0
LINE
  5
2F0
100
AcDbEntity
  8
0
  6
CONTINUOUS
 62
           7
100
AcDbLine
 10
491.180284763497
 20
71.851739343309
 30
0.0
 11
627.320190479889
 21
71.851739343309
 31
0.0
  0
LINE
  5
2F1
100
AcDbEntity
  8
0
  6
CONTINUOUS
 62
           7
100
AcDbLine
 10
628.52032862547
 20
70.651601197727
 30
0.0
 11
627.320190479889
 21
71.851739343309
 31
0.0
  0
LINE
  5
2F2
100
AcDbEntity
  8
0
  6
CONTINUOUS
 62
           7
100
AcDbLine
 10
489.980146617916
 20
210.190412740037
 30
0.0
 11
491.180284763498
 21
208.990274594455
 31
0.0
  0
ELLIPSE
  5
2F3
100
AcDbEntity
  8
0
  6
CONTINUOUS
 62
           7
100
AcDbEllipse
 10
491.181656169119
 20
208.489588421456
 30
0.0
 11
-0.3545231217176479
 21
0.3545231217175342
 31
0.0
210
0.0
220
0.0
230
1.0
 40
0.997264688634
 41
5.4991566716522531
 42
7.0672139427065117
  0
LINE
  5
2F4
100
AcDbEntity
  8
0
  6
CONTINUOUS
 62
           7
100
AcDbLine
 10
627.320190479889
 20
208.990274594455
 30
0.0
 11
628.520328625471
 21
210.190412740036
 31
0.0
  0
LINE
  5
2F5
100
AcDbEntity
  8
0
  6
CONTINUOUS
 62
           7
100
AcDbLine
 10
627.320190479889
 20
208.990274594455
 30
0.0
 11
491.180284763498
 21
208.990274594455
 31
0.0
  0
LINE
  5
2F6
100
AcDbEntity
  8
0
  6
CONTINUOUS
 62
           7
100
AcDbLine
 10
627.819505247266
 20
72.351054110686
 30
0.0
 11
629.019643392848
 21
71.150915965105
 31
0.0
  0
ELLIPSE
  5
2F7
100
AcDbEntity
  8
0
  6
CONTINUOUS
 62
           7
100
AcDbEllipse
 10
627.318819074267
 20
72.352425516308
 30
0.0
 11
-0.3545231217176479
 21
0.3545231217175342
 31
0.0
210
0.0
220
0.0
230
1.0
 40
0.997264688634
 41
2.3575640180624471
 42
3.9256212891167186
  0
LINE
  5
2F8
100
AcDbEntity
  8
0
  6
CONTINUOUS
 62
           7
100
AcDbLine
 10
627.819505247266
 20
72.351054110686
 30
0.0
 11
627.819505247266
 21
208.490959827077
 31
0.0
  0
LINE
  5
2F9
100
AcDbEntity
  8
0
  6
CONTINUOUS
 62
           7
100
AcDbLine
 10
629.019643392848
 20
209.691097972659
 30
0.0
 11
627.819505247266
 21
208.490959827077
 31
0.0
  0
ELLIPSE
  5
2FA
100
AcDbEntity
  8
0
  6
CONTINUOUS
 62
           7
100
AcDbEllipse
 10
627.318819074267
 20
208.489588421456
 30
0.0
 11
0.3545231217175342
 21
0.3545231217175342
 31
0.0
210
0.0
220
0.0
230
1.0
 40
0.997264688634
 41
5.499156671652381
 42
7.0672139427067062
  0
LINE
  5
2FB
100
AcDbEntity
  8
0
  6
CONTINUOUS
 62
           7
100
AcDbLine
 10
475.467742642014
 20
122.671006968883
 30
0.0
 11
475.467742642014
 21
157.671006968882
 31
0.0
  0
LINE
  5
2FC
100
AcDbEntity
  8
0
  6
CONTINUOUS
 62
           7
100
AcDbLine
 10
474.328143053647
 20
122.671006968883
 30
0.0
 11
474.328143053647
 21
157.671006968882
 31
0.0
  0
LINE
  5
2FD
100
AcDbEntity
  8
0
  6
CONTINUOUS
 62
           7
100
AcDbLine
 10
475.467742642014
 20
157.671006968882
 30
0.0
 11
474.328143053647
 21
157.671006968882
 31
0.0
  0
LINE
  5
2FE
100
AcDbEntity
  8
0
  6
CONTINUOUS
 62
           7
100
AcDbLine
 10
475.467742642014
 20
122.671006968883
 30
0.0
 11
474.328143053647
 21
122.671006968883
 31
0.0
  0
LINE
  5
2FF
100
AcDbEntity
  8
0
  6
CONTINUOUS
 62
           7
100
AcDbLine
 10
477.596469561789
 20
157.671006968882
 30
0.0
 11
475.467742642014
 21
157.671006968882
 31
0.0
  0
LINE
  5
300
100
AcDbEntity
  8
0
  6
CONTINUOUS
 62
           7
100
AcDbLine
 10
477.596469561788
 20
122.671006968882
 30
0.0
 11
477.596469561789
 21
157.671006968882
 31
0.0
  0
LINE
  5
301
100
AcDbEntity
  8
0
  6
CONTINUOUS
 62
           7
100
AcDbLine
 10
477.596469561788
 20
122.671006968882
 30
0.0
 11
475.467742642014
 21
122.671006968883
 31
0.0
  0
LINE
  5
302
100
AcDbEntity
  8
0
  6
CONTINUOUS
 62
           7
100
AcDbLine
 10
473.128143053647
 20
123.871006968882
 30
0.0
 11
473.128143053647
 21
156.471006968882
 31
0.0
  0
LINE
  5
303
100
AcDbEntity
  8
0
  6
CONTINUOUS
 62
           7
100
AcDbLine
 10
473.128143053647
 20
156.471006968882
 30
0.0
 11
474.328143053647
 21
157.671006968882
 31
0.0
  0
LINE
  5
304
100
AcDbEntity
  8
0
  6
CONTINUOUS
 62
           7
100
AcDbLine
 10
473.128143053647
 20
123.871006968882
 30
0.0
 11
474.328143053647
 21
122.671006968883
 31
0.0
  0
LINE
  5
305
100
AcDbEntity
  8
0
  6
CONTINUOUS
 62
           7
100
AcDbLine
 10
480.373904495261
 20
157.671006968882
 30
0.0
 11
480.373904495261
 21
122.671006968882
 31
0.0
  0
LINE
  5
306
100
AcDbEntity
  8
0
  6
CONTINUOUS
 62
           7
100
AcDbLine
 10
477.596469561789
 20
157.671006968882
 30
0.0
 11
480.373904495261
 21
157.671006968882
 31
0.0
  0
LINE
  5
307
100
AcDbEntity
  8
0
  6
CONTINUOUS
 62
           7
100
AcDbLine
 10
480.373904495261
 20
122.671006968882
 30
0.0
 11
477.596469561788
 21
122.671006968882
 31
0.0
  0
LINE
  5
308
100
AcDbEntity
  8
0
  6
CONTINUOUS
 62
           7
100
AcDbLine
 10
482.828143053647
 20
122.671006968882
 30
0.0
 11
482.828143053647
 21
157.671006968882
 31
0.0
  0
LINE
  5
309
100
AcDbEntity
  8
0
  6
CONTINUOUS
 62
           7
100
AcDbLine
 10
480.373904495261
 20
157.671006968882
 30
0.0
 11
482.828143053647
 21
157.671006968882
 31
0.0
  0
LINE
  5
30A
100
AcDbEntity
  8
0
  6
CONTINUOUS
 62
           7
100
AcDbLine
 10
480.373904495261
 20
122.671006968882
 30
0.0
 11
482.828143053647
 21
122.671006968882
 31
0.0
  0
LINE
  5
30B
100
AcDbEntity
  8
0
  6
CONTINUOUS
 62
           7
100
AcDbLine
 10
482.828143053647
 20
129.921006968882
 30
0.0
 11
484.250237621693
 21
129.921006968882
 31
0.0
  0
LINE
  5
30C
100
AcDbEntity
  8
0
  6
CONTINUOUS
 62
           7
100
AcDbLine
 10
482.828143053647
 20
122.671006968882
 30
0.0
 11
484.250237621693
 21
122.671006968882
 31
0.0
  0
LINE
  5
30D
100
AcDbEntity
  8
0
  6
CONTINUOUS
 62
           7
100
AcDbLine
 10
482.828143053647
 20
157.671006968882
 30
0.0
 11
484.250237621693
 21
157.671006968882
 31
0.0
  0
ENDSEC
  0
SECTION
  2
OBJECTS
  0
DICTIONARY
  5
C
100
AcDbDictionary
  3
ACAD_GROUP
350
D
  3
ACAD_MLINESTYLE
350
17
  3
ACDBVARIABLEDICTIONARY
350
312
  0
DICTIONARY
  5
D
102
{ACAD_REACTORS
330
C
102
}
100
AcDbDictionary
  0
DICTIONARY
  5
17
102
{ACAD_REACTORS
330
C
102
}
100
AcDbDictionary
  3
STANDARD
350
18
  0
MLINESTYLE
  5
18
102
{ACAD_REACTORS
330
17
102
}
100
AcDbMlineStyle
  2
Standard
 70
           0
  3

 62
         256
 51
90.0
 52
90.0
 71
           2
 49
0.5
 62
         256
  6
ByLayer
 49
-0.5
 62
         256
  6
ByLayer
  0
DICTIONARY
  5
19
102
{ACAD_REACTORS
330
C
102
}
100
AcDbDictionary
  0
DICTIONARY
  5
1A
102
{ACAD_REACTORS
330
C
102
}
100
AcDbDictionary
  3
MODEL
350
31B
  3
LAYOUT2
350
31D
  3
LAYOUT1
350
31C
  0
DICTIONARY
  5
312
100
AcDbDictionary
  3
DIMADEC
350
31E
  0
DICTIONARY
  5
316
102
{ACAD_REACTORS
330
C
102
}
100
AcDbDictionary
  0
DICTIONARYVAR
  5
31E
100
DictionaryVariables
280
           0
  1
0
  0
ENDSEC
  0
EOF

