  0
SECTION
  2
HEADER
  9
$ACADVER
  1
AC1014
  9
$ACADMAINTVER
 70
           0
  9
$DWGCODEPAGE
  3
ANSI_1252
  9
$INSBASE
 10
0.0
 20
0.0
 30
0.0
  9
$EXTMIN
 10
-125.792875131122
 20
-85.098094142262
 30
0.0
  9
$EXTMAX
 10
628.868112050297
 20
370.1506865416
 30
0.0
  9
$LIMMIN
 10
0.0
 20
0.0
  9
$LIMMAX
 10
0.0
 20
0.0
  9
$ORTHOMODE
 70
           0
  9
$REGENMODE
 70
           1
  9
$FILLMODE
 70
           1
  9
$QTEXTMODE
 70
           0
  9
$MIRRTEXT
 70
           1
  9
$DRAGMODE
 70
           2
  9
$LTSCALE
 40
1.0
  9
$OSMODE
 70
           0
  9
$ATTMODE
 70
           1
  9
$TEXTSIZE
 40
3.5
  9
$TRACEWID
 40
1.0
  9
$TEXTSTYLE
  7
STANDARD
  9
$CLAYER
  8
0
  9
$CELTYPE
  6
ByLayer
  9
$CECOLOR
 62
         256
  9
$CELTSCALE
 40
1.0
  9
$DELOBJ
 70
           1
  9
$DISPSILH
 70
           0
  9
$DIMSCALE
 40
1.0
  9
$DIMASZ
 40
6.0
  9
$DIMEXO
 40
1.0
  9
$DIMDLI
 40
3.75
  9
$DIMRND
 40
0.0
  9
$DIMDLE
 40
0.0
  9
$DIMEXE
 40
1.0
  9
$DIMTP
 40
0.0
  9
$DIMTM
 40
0.0
  9
$DIMTXT
 40
3.5
  9
$DIMCEN
 40
2.5
  9
$DIMTSZ
 40
0.0
  9
$DIMTOL
 70
           0
  9
$DIMLIM
 70
           0
  9
$DIMTIH
 70
           1
  9
$DIMTOH
 70
           1
  9
$DIMSE1
 70
           0
  9
$DIMSE2
 70
           0
  9
$DIMTAD
 70
           1
  9
$DIMZIN
 70
           0
  9
$DIMBLK
  1

  9
$DIMASO
 70
           1
  9
$DIMSHO
 70
           1
  9
$DIMPOST
  1

  9
$DIMAPOST
  1

  9
$DIMALT
 70
           0
  9
$DIMALTD
 70
           3
  9
$DIMALTF
 40
0.03937007874
  9
$DIMLFAC
 40
1.0
  9
$DIMTOFL
 70
           1
  9
$DIMTVP
 40
0.0
  9
$DIMTIX
 70
           0
  9
$DIMSOXD
 70
           0
  9
$DIMSAH
 70
           0
  9
$DIMBLK1
  1

  9
$DIMBLK2
  1

  9
$DIMSTYLE
  2
ISO-25
  9
$DIMCLRD
 70
           0
  9
$DIMCLRE
 70
           0
  9
$DIMCLRT
 70
           0
  9
$DIMTFAC
 40
1.0
  9
$DIMGAP
 40
1.524
  9
$DIMJUST
 70
           0
  9
$DIMSD1
 70
           0
  9
$DIMSD2
 70
           0
  9
$DIMTOLJ
 70
           0
  9
$DIMTZIN
 70
           0
  9
$DIMALTZ
 70
           0
  9
$DIMALTTZ
 70
           0
  9
$DIMFIT
 70
           3
  9
$DIMUPT
 70
           0
  9
$DIMUNIT
 70
           2
  9
$DIMDEC
 70
           2
  9
$DIMTDEC
 70
           2
  9
$DIMALTU
 70
           2
  9
$DIMALTTD
 70
           3
  9
$DIMTXSTY
  7
STANDARD
  9
$DIMAUNIT
 70
           0
  9
$LUNITS
 70
           2
  9
$LUPREC
 70
           2
  9
$SKETCHINC
 40
1.0
  9
$FILLETRAD
 40
10.0
  9
$AUNITS
 70
           0
  9
$AUPREC
 70
           0
  9
$MENU
  1
.
  9
$ELEVATION
 40
0.0
  9
$PELEVATION
 40
0.0
  9
$THICKNESS
 40
0.0
  9
$LIMCHECK
 70
           0
  9
$BLIPMODE
 70
           0
  9
$CHAMFERA
 40
10.0
  9
$CHAMFERB
 40
10.0
  9
$CHAMFERC
 40
20.0
  9
$CHAMFERD
 40
0.0
  9
$SKPOLY
 70
           0
  9
$TDCREATE
 40
2453815.446789005
  9
$TDUPDATE
 40
2453815.546325602
  9
$TDINDWG
 40
0.0023726505
  9
$TDUSRTIMER
 40
0.0023726505
  9
$USRTIMER
 70
           1
  9
$ANGBASE
 50
0.0
  9
$ANGDIR
 70
           0
  9
$PDMODE
 70
           0
  9
$PDSIZE
 40
-1.0
  9
$PLINEWID
 40
0.0
  9
$COORDS
 70
           0
  9
$SPLFRAME
 70
           0
  9
$SPLINETYPE
 70
           6
  9
$SPLINESEGS
 70
           8
  9
$ATTDIA
 70
           0
  9
$ATTREQ
 70
           0
  9
$HANDLING
 70
           1
  9
$HANDSEED
  5
46F
  9
$SURFTAB1
 70
           6
  9
$SURFTAB2
 70
           6
  9
$SURFTYPE
 70
           6
  9
$SURFU
 70
           6
  9
$SURFV
 70
           6
  9
$UCSNAME
  2

  9
$UCSORG
 10
0.0
 20
0.0
 30
0.0
  9
$UCSXDIR
 10
1.0
 20
0.0
 30
0.0
  9
$UCSYDIR
 10
0.0
 20
1.0
 30
0.0
  9
$PUCSNAME
  2

  9
$PUCSORG
 10
0.0
 20
0.0
 30
0.0
  9
$PUCSXDIR
 10
1.0
 20
0.0
 30
0.0
  9
$PUCSYDIR
 10
0.0
 20
1.0
 30
0.0
  9
$USERI1
 70
           0
  9
$USERI2
 70
           0
  9
$USERI3
 70
           0
  9
$USERI4
 70
           0
  9
$USERI5
 70
           0
  9
$USERR1
 40
0.0
  9
$USERR2
 40
0.0
  9
$USERR3
 40
0.0
  9
$USERR4
 40
0.0
  9
$USERR5
 40
0.0
  9
$WORLDVIEW
 70
           1
  9
$SHADEDGE
 70
           3
  9
$SHADEDIF
 70
          70
  9
$TILEMODE
 70
           1
  9
$MAXACTVP
 70
          64
  9
$PINSBASE
 10
0.0
 20
0.0
 30
0.0
  9
$PLIMCHECK
 70
           0
  9
$PEXTMIN
 10
1.000000000000E+20
 20
1.000000000000E+20
 30
1.000000000000E+20
  9
$PEXTMAX
 10
-1.000000000000E+20
 20
-1.000000000000E+20
 30
-1.000000000000E+20
  9
$PLIMMIN
 10
0.0
 20
0.0
  9
$PLIMMAX
 10
420.0
 20
297.0
  9
$UNITMODE
 70
           0
  9
$VISRETAIN
 70
           1
  9
$PLINEGEN
 70
           0
  9
$PSLTSCALE
 70
           1
  9
$TREEDEPTH
 70
        3020
  9
$PICKSTYLE
 70
           1
  9
$CMLSTYLE
  2
Standard
  9
$CMLJUST
 70
           0
  9
$CMLSCALE
 40
20.0
  9
$PROXYGRAPHICS
 70
           1
  9
$MEASUREMENT
 70
           1
  0
ENDSEC
  0
SECTION
  2
CLASSES
  0
CLASS
  1
ACDBDICTIONARYWDFLT
  2
AcDbDictionaryWithDefault
  3
"AutoCAD 2000"
 90
        0
280
           0
281
           0
  0
CLASS
  1
ACDBPLACEHOLDER
  2
AcDbPlaceHolder
  3
"AutoCAD 2000"
 90
        0
280
           0
281
           0
  0
CLASS
  1
LAYOUT
  2
AcDbLayout
  3
"AutoCAD 2000"
 90
        0
280
           0
281
           0
  0
CLASS
  1
LWPOLYLINE
  2
AcDbPolyline
  3
"AutoCAD"
 90
        0
280
           0
281
           1
  0
CLASS
  1
IMAGE
  2
AcDbRasterImage
  3
ISM
 90
      127
280
           0
281
           1
  0
CLASS
  1
OLE2FRAME
  2
AcDbOle2Frame
  3
""
 90
        0
280
           0
281
           1
  0
CLASS
  1
HATCH
  2
AcDbHatch
  3
"ACAD_SEDONA"
 90
        0
280
           0
281
           1
  0
CLASS
  1
DICTIONARYVAR
  2
AcDbDictionaryVar
  3
"AutoCAD"
 90
        0
280
           0
281
           0
  0
CLASS
  1
RASTERVARIABLES
  2
AcDbRasterVariables
  3
ISM
 90
        0
280
           0
281
           0
  0
CLASS
  1
IMAGEDEF
  2
AcDbRasterImageDef
  3
ISM
 90
        0
280
           0
281
           0
  0
CLASS
  1
IMAGEDEF_REACTOR
  2
AcDbRasterImageDefReactor
  3
ISM
 90
        1
280
           0
281
           0
  0
CLASS
  1
IDBUFFER
  2
AcDbIdBuffer
  3
"Acad"
 90
        0
280
           0
281
           0
  0
CLASS
  1
SPATIAL_FILTER
  2
AcDbSpatialFilter
  3
"Acad"
 90
        0
280
           0
281
           0
  0
CLASS
  1
XRECORD
  2
AcDbXrecord
  3
"<Built In>"
 90
        0
280
           0
281
           0
  0
CLASS
  1
SORTENTSTABLE
  2
AcDbSortentsTable
  3
"AutoCAD"
 90
        0
280
           0
281
           0
  0
CLASS
  1
LAYER_INDEX
  2
AcDbLayerIndex
  3
"Acad"
 90
        0
280
           0
281
           0
  0
CLASS
  1
SPATIAL_INDEX
  2
AcDbSpatialIndex
  3
"Acad"
 90
        0
280
           0
281
           0
  0
CLASS
  1
OBJECT_PTR
  2
CAseDLPNTableRecord
  3
"ASE-LPNTableRecord"
 90
        1
280
           0
281
           0
  0
CLASS
  1
PLOTSETTINGS
  2
AcDbPlotSettings
  3
"AutoCAD 2000"
 90
        0
280
           0
281
           0
  0
CLASS
  1
VBA_PROJECT
  2
AcDbVbaProject
  3
"acadvba"
 90
        0
280
           0
281
           0
  0
CLASS
  1
WIPEOUT
  2
AcDbWipeout
  3
WipeOut|AutoCAD Express Tool|expresstools@autodesk.com
 90
      127
280
           0
281
           1
  0
CLASS
  1
WIPEOUTVARIABLES
  2
AcDbWipeoutVariables
  3
WipeOut|AutoCAD Express Tool|expresstools@autodesk.com
 90
        0
280
           0
281
           0
  0
CLASS
  1
RTEXT
  2
RText
  3
RText|AutoCAD Express Tool|expresstools@autodesk.com
 90
        0
280
           0
281
           1
  0
CLASS
  1
ARCALIGNEDTEXT
  2
AcDbArcAlignedText
  3
ATEXT|AutoCAD Express Tool|expresstools@autodesk.com
 90
        0
280
           0
281
           1
  0
CLASS
  1
DIMASSOC
  2
AcDbDimAssoc
  3
AcDbDimAssoc|Product Desc:     AcDim ARX App For Dimension|Company:          Autodesk, Inc.|WEB Address:      www.autodesk.com
 90
        1
280
           0
281
           0
  0
ENDSEC
  0
SECTION
  2
TABLES
  0
TABLE
  2
VPORT
  5
8
100
AcDbSymbolTable
 70
           1
  0
VPORT
  5
29
100
AcDbSymbolTableRecord
100
AcDbViewportTableRecord
  2
*ACTIVE
 70
          64
 10
0.0
 20
0.0
 11
1.0
 21
1.0
 12
251.537618459588
 22
142.526296199669
 13
0.0
 23
0.0
 14
10.0
 24
10.0
 15
10.0
 25
10.0
 16
0.0
 26
0.0
 36
1.0
 17
0.0
 27
0.0
 37
0.0
 40
464.351131563167
 41
1.97297297285
 42
50.0
 43
0.0
 44
0.0
 50
0.0
 51
0.0
 71
           0
 72
        2000
 73
           1
 74
           3
 75
           0
 76
           0
 77
           0
 78
           0
  0
ENDTAB
  0
TABLE
  2
LTYPE
  5
5
100
AcDbSymbolTable
 70
           8
  0
LTYPE
  5
14
100
AcDbSymbolTableRecord
100
AcDbLinetypeTableRecord
  2
BYBLOCK
 70
          64
  3

 72
          65
 73
           0
 40
0.0
  0
LTYPE
  5
15
100
AcDbSymbolTableRecord
100
AcDbLinetypeTableRecord
  2
BYLAYER
 70
          64
  3

 72
          65
 73
           0
 40
0.0
  0
LTYPE
  5
16
100
AcDbSymbolTableRecord
100
AcDbLinetypeTableRecord
  2
CONTINUOUS
 70
          64
  3
Solid line
 72
          65
 73
           0
 40
0.0
  0
LTYPE
  5
2A
100
AcDbSymbolTableRecord
100
AcDbLinetypeTableRecord
  2
HIDDEN
 70
          64
  3
Hidden __ __ __ __ __ __ __ __ __ __ __ __ __ __
 72
          65
 73
           2
 40
1.905
 49
1.27
 74
           0
 49
-0.635
 74
           0
  0
LTYPE
  5
2B
100
AcDbSymbolTableRecord
100
AcDbLinetypeTableRecord
  2
PHANTOM
 70
          64
  3
Phantom ______  __  __  ______  __  __  ______
 72
          65
 73
           6
 40
12.7
 49
6.35
 74
           0
 49
-1.27
 74
           0
 49
1.27
 74
           0
 49
-1.27
 74
           0
 49
1.27
 74
           0
 49
-1.27
 74
           0
  0
LTYPE
  5
2C
100
AcDbSymbolTableRecord
100
AcDbLinetypeTableRecord
  2
CENTER
 70
          64
  3
Center ____ _ ____ _ ____ _ ____ _ ____ _ ____
 72
          65
 73
           4
 40
10.16
 49
6.35
 74
           0
 49
-1.27
 74
           0
 49
1.27
 74
           0
 49
-1.27
 74
           0
  0
LTYPE
  5
2D
100
AcDbSymbolTableRecord
100
AcDbLinetypeTableRecord
  2
CENTERX2
 70
          64
  3
Center (2x) ________  __  ________  __  _____
 72
          65
 73
           4
 40
20.32
 49
12.7
 74
           0
 49
-2.54
 74
           0
 49
2.54
 74
           0
 49
-2.54
 74
           0
  0
LTYPE
  5
2E
100
AcDbSymbolTableRecord
100
AcDbLinetypeTableRecord
  2
DOT2
 70
          64
  3
Dot (.5x) ........................................
 72
          65
 73
           2
 40
0.635
 49
0.0
 74
           0
 49
-0.635
 74
           0
  0
ENDTAB
  0
TABLE
  2
LAYER
  5
2
100
AcDbSymbolTable
 70
           2
  0
LAYER
  5
10
100
AcDbSymbolTableRecord
100
AcDbLayerTableRecord
  2
0
 70
          64
 62
           7
  6
CONTINUOUS
  0
LAYER
  5
461
100
AcDbSymbolTableRecord
100
AcDbLayerTableRecord
  2
DEFPOINTS
 70
           0
 62
           7
  6
CONTINUOUS
  0
ENDTAB
  0
TABLE
  2
STYLE
  5
3
100
AcDbSymbolTable
 70
           1
  0
STYLE
  5
11
100
AcDbSymbolTableRecord
100
AcDbTextStyleTableRecord
  2
STANDARD
 70
          64
 40
0.0
 41
1.0
 50
0.0
 71
           0
 42
2.5
  3
TXT
  4

  0
ENDTAB
  0
TABLE
  2
VIEW
  5
6
100
AcDbSymbolTable
 70
           0
  0
ENDTAB
  0
TABLE
  2
UCS
  5
7
100
AcDbSymbolTable
 70
           0
  0
ENDTAB
  0
TABLE
  2
APPID
  5
9
100
AcDbSymbolTable
 70
           1
  0
APPID
  5
12
100
AcDbSymbolTableRecord
100
AcDbRegAppTableRecord
  2
ACAD
 70
          64
  0
ENDTAB
  0
TABLE
  2
DIMSTYLE
  5
A
100
AcDbSymbolTable
 70
           1
  0
DIMSTYLE
105
27
100
AcDbSymbolTableRecord
100
AcDbDimStyleTableRecord
  2
ISO-25
 70
          64
  3

  4

  5

  6

  7

 40
1.0
 41
2.5
 42
0.625
 43
3.75
 44
1.25
 45
0.0
 46
0.0
 47
0.0
 48
0.0
 71
           0
 72
           0
 73
           0
 74
           0
 75
           0
 76
           0
 77
           1
 78
           8
140
2.5
141
2.5
142
0.0
143
0.03937007874
144
1.0
145
0.0
146
1.0
147
0.625
170
           0
171
           3
172
           1
173
           0
174
           0
175
           0
176
           0
177
           0
178
           0
270
           2
271
           2
272
           2
273
           2
274
           3
275
           0
280
           0
281
           0
282
           0
283
           0
284
           8
285
           0
286
           0
287
           3
288
           0
340
11
  0
ENDTAB
  0
TABLE
  2
BLOCK_RECORD
  5
1
100
AcDbSymbolTable
 70
           1
  0
BLOCK_RECORD
  5
1F
100
AcDbSymbolTableRecord
100
AcDbBlockTableRecord
  2
*MODEL_SPACE
  0
BLOCK_RECORD
  5
1B
100
AcDbSymbolTableRecord
100
AcDbBlockTableRecord
  2
*PAPER_SPACE
  0
ENDTAB
  0
ENDSEC
  0
SECTION
  2
BLOCKS
  0
BLOCK
  5
20
100
AcDbEntity
  8
0
100
AcDbBlockBegin
  2
*MODEL_SPACE
 70
           0
 10
0.0
 20
0.0
 30
0.0
  3
*MODEL_SPACE
  1

  0
ENDBLK
  5
21
100
AcDbEntity
  8
0
100
AcDbBlockEnd
  0
BLOCK
  5
1C
100
AcDbEntity
 67
           1
  8
0
100
AcDbBlockBegin
  2
*PAPER_SPACE
 70
           0
 10
0.0
 20
0.0
 30
0.0
  3
*PAPER_SPACE
  1

  0
ENDBLK
  5
1D
100
AcDbEntity
 67
           1
  8
0
100
AcDbBlockEnd
  0
ENDSEC
  0
SECTION
  2
ENTITIES
  0
LINE
  5
2F
100
AcDbEntity
  8
0
  6
CONTINUOUS
 62
           7
100
AcDbLine
 10
71.004350812922
 20
286.353491920636
 30
0.0
 11
71.004350812922
 21
284.353487867521
 31
0.0
  0
LINE
  5
30
100
AcDbEntity
  8
0
  6
CONTINUOUS
 62
           7
100
AcDbLine
 10
83.704353453407
 20
284.353487867521
 30
0.0
 11
83.704353453407
 21
286.353491920636
 31
0.0
  0
LINE
  5
31
100
AcDbEntity
  8
0
  6
CONTINUOUS
 62
           7
100
AcDbLine
 10
189.004355253468
 20
286.353491920636
 30
0.0
 11
189.004355253468
 21
284.353487867521
 31
0.0
  0
LINE
  5
32
100
AcDbEntity
  8
0
  6
CONTINUOUS
 62
           7
100
AcDbLine
 10
201.704357893953
 20
284.353487867521
 30
0.0
 11
201.704357893953
 21
286.353491920636
 31
0.0
  0
LINE
  5
33
100
AcDbEntity
  8
0
  6
CONTINUOUS
 62
           7
100
AcDbLine
 10
210.267228217611
 20
361.353490244256
 30
0.0
 11
210.354504318724
 21
366.353490132497
 31
0.0
  0
LINE
  5
34
100
AcDbEntity
  8
0
  6
CONTINUOUS
 62
           7
100
AcDbLine
 10
62.441480489264
 20
361.353490244256
 30
0.0
 11
210.267228217611
 21
361.353490244256
 31
0.0
  0
LINE
  5
35
100
AcDbEntity
  8
0
  6
CONTINUOUS
 62
           7
100
AcDbLine
 10
62.354204388151
 20
366.353490132497
 30
0.0
 11
62.441480489264
 21
361.353490244256
 31
0.0
  0
LINE
  5
36
100
AcDbEntity
  8
0
  6
CONTINUOUS
 62
           7
100
AcDbLine
 10
62.354204388151
 20
366.353490132497
 30
0.0
 11
210.354504318724
 21
366.353490132497
 31
0.0
  0
LINE
  5
37
100
AcDbEntity
  8
0
  6
CONTINUOUS
 62
           7
100
AcDbLine
 10
61.441627474318
 20
361.353490244256
 30
0.0
 11
61.354351373205
 21
366.353490132497
 31
0.0
  0
LINE
  5
38
100
AcDbEntity
  8
0
  6
CONTINUOUS
 62
           7
100
AcDbLine
 10
61.354351373205
 20
366.353490132497
 30
0.0
 11
62.354204388151
 21
366.353490132497
 31
0.0
  0
LINE
  5
39
100
AcDbEntity
  8
0
  6
CONTINUOUS
 62
           7
100
AcDbLine
 10
62.441480489264
 20
361.353490244256
 30
0.0
 11
61.441627474318
 21
361.353490244256
 31
0.0
  0
LINE
  5
3A
100
AcDbEntity
  8
0
  6
CONTINUOUS
 62
           7
100
AcDbLine
 10
211.35435733367
 20
366.353490132497
 30
0.0
 11
211.267081232557
 21
361.353490244256
 31
0.0
  0
LINE
  5
3B
100
AcDbEntity
  8
0
  6
CONTINUOUS
 62
           7
100
AcDbLine
 10
211.267081232557
 20
361.353490244256
 30
0.0
 11
210.267228217611
 21
361.353490244256
 31
0.0
  0
LINE
  5
3C
100
AcDbEntity
  8
0
  6
CONTINUOUS
 62
           7
100
AcDbLine
 10
210.354504318724
 20
366.353490132497
 30
0.0
 11
211.35435733367
 21
366.353490132497
 31
0.0
  0
LINE
  5
3D
100
AcDbEntity
  8
0
  6
CONTINUOUS
 62
           7
100
AcDbLine
 10
65.135290058146
 20
286.353491920636
 30
0.0
 11
62.516232164392
 21
361.353490244256
 31
0.0
  0
LINE
  5
3E
100
AcDbEntity
  8
0
  6
CONTINUOUS
 62
           7
100
AcDbLine
 10
63.515623243341
 20
361.353490244256
 30
0.0
 11
66.134681137095
 21
286.353491920636
 31
0.0
  0
LINE
  5
3F
100
AcDbEntity
  8
0
  6
CONTINUOUS
 62
           7
100
AcDbLine
 10
66.134681137095
 20
286.353491920636
 30
0.0
 11
65.135290058146
 21
286.353491920636
 31
0.0
  0
LINE
  5
40
100
AcDbEntity
  8
0
  6
CONTINUOUS
 62
           7
100
AcDbLine
 10
75.160474659691
 20
286.353491920636
 30
0.0
 11
74.392807813177
 21
361.353490244256
 31
0.0
  0
LINE
  5
41
100
AcDbEntity
  8
0
  6
CONTINUOUS
 62
           7
100
AcDbLine
 10
66.134681137095
 20
286.353491920636
 30
0.0
 11
75.160474659691
 21
286.353491920636
 31
0.0
  0
LINE
  5
42
100
AcDbEntity
  8
0
  6
CONTINUOUS
 62
           7
100
AcDbLine
 10
76.897398711929
 20
286.353491920636
 30
0.0
 11
74.818202437649
 21
361.353490244256
 31
0.0
  0
LINE
  5
43
100
AcDbEntity
  8
0
  6
CONTINUOUS
 62
           7
100
AcDbLine
 10
75.160474659691
 20
286.353491920636
 30
0.0
 11
76.897398711929
 21
286.353491920636
 31
0.0
  0
LINE
  5
44
100
AcDbEntity
  8
0
  6
CONTINUOUS
 62
           7
100
AcDbLine
 10
197.548234047184
 20
286.353491920636
 30
0.0
 11
198.315900893698
 21
361.353490244256
 31
0.0
  0
LINE
  5
45
100
AcDbEntity
  8
0
  6
CONTINUOUS
 62
           7
100
AcDbLine
 10
206.57402756978
 20
286.353491920636
 30
0.0
 11
209.193085463533
 21
361.353490244256
 31
0.0
  0
LINE
  5
46
100
AcDbEntity
  8
0
  6
CONTINUOUS
 62
           7
100
AcDbLine
 10
206.57402756978
 20
286.353491920636
 30
0.0
 11
197.548234047184
 21
286.353491920636
 31
0.0
  0
LINE
  5
47
100
AcDbEntity
  8
0
  6
CONTINUOUS
 62
           7
100
AcDbLine
 10
197.548234047184
 20
286.353491920636
 30
0.0
 11
195.811309994946
 21
286.353491920636
 31
0.0
  0
LINE
  5
48
100
AcDbEntity
  8
0
  6
CONTINUOUS
 62
           7
100
AcDbLine
 10
195.811309994946
 20
286.353491920636
 30
0.0
 11
197.890506269226
 21
361.353490244256
 31
0.0
  0
LINE
  5
49
100
AcDbEntity
  8
0
  6
CONTINUOUS
 62
           7
100
AcDbLine
 10
210.192476542482
 20
361.353490244256
 30
0.0
 11
207.573418648729
 21
286.353491920636
 31
0.0
  0
LINE
  5
4A
100
AcDbEntity
  8
0
  6
CONTINUOUS
 62
           7
100
AcDbLine
 10
207.573418648729
 20
286.353491920636
 30
0.0
 11
206.57402756978
 21
286.353491920636
 31
0.0
  0
LINE
  5
4B
100
AcDbEntity
  8
0
  6
CONTINUOUS
 62
           7
100
AcDbLine
 10
76.897398711929
 20
286.353491920636
 30
0.0
 11
195.811309994946
 21
286.353491920636
 31
0.0
  0
LINE
  5
4C
100
AcDbEntity
  8
0
  6
CONTINUOUS
 62
           7
100
AcDbLine
 10
92.191466273556
 20
285.153486508535
 30
0.0
 11
92.254352899084
 21
286.353491920636
 31
0.0
  0
LINE
  5
4D
100
AcDbEntity
  8
0
  6
CONTINUOUS
 62
           7
100
AcDbLine
 10
92.191466273556
 20
285.153486508535
 30
0.0
 11
90.817243935356
 21
285.153486508535
 31
0.0
  0
LINE
  5
4E
100
AcDbEntity
  8
0
  6
CONTINUOUS
 62
           7
100
AcDbLine
 10
90.817243935356
 20
285.153486508535
 30
0.0
 11
90.754353584538
 21
286.353491920636
 31
0.0
  0
LINE
  5
4F
100
AcDbEntity
  8
0
  6
CONTINUOUS
 62
           7
100
AcDbLine
 10
181.891464771519
 20
285.153486508535
 30
0.0
 11
181.954355122337
 21
286.353491920636
 31
0.0
  0
LINE
  5
50
100
AcDbEntity
  8
0
  6
CONTINUOUS
 62
           7
100
AcDbLine
 10
180.517242433319
 20
285.153486508535
 30
0.0
 11
181.891464771519
 21
285.153486508535
 31
0.0
  0
LINE
  5
51
100
AcDbEntity
  8
0
  6
CONTINUOUS
 62
           7
100
AcDbLine
 10
180.517242433319
 20
285.153486508535
 30
0.0
 11
180.454355807791
 21
286.353491920636
 31
0.0
  0
LINE
  5
52
100
AcDbEntity
  8
0
  6
CONTINUOUS
 62
           7
100
AcDbLine
 10
83.704353453407
 20
284.353487867521
 30
0.0
 11
71.004350812922
 21
284.353487867521
 31
0.0
  0
LINE
  5
53
100
AcDbEntity
  8
0
  6
CONTINUOUS
 62
           7
100
AcDbLine
 10
201.704357893953
 20
284.353487867521
 30
0.0
 11
189.004355253468
 21
284.353487867521
 31
0.0
  0
LINE
  5
54
100
AcDbEntity
  8
0
  6
CONTINUOUS
 62
           7
100
AcDbLine
 10
62.680286498556
 20
356.655665415929
 30
0.0
 11
57.267015011797
 21
359.781019597904
 31
0.0
  0
LINE
  5
55
100
AcDbEntity
  8
0
  6
CONTINUOUS
 62
           7
100
AcDbLine
 10
57.267015011797
 20
359.781019597904
 30
0.0
 11
56.430188150892
 21
362.904085753144
 31
0.0
  0
ARC
  5
56
100
AcDbEntity
  8
0
  6
CONTINUOUS
 62
           7
100
AcDbCircle
 10
56.36336246805
 20
366.653490132497
 30
0.0
 40
3.75
100
AcDbArc
 50
271.021106593134
 51
355.411434264212
  0
LINE
  5
57
100
AcDbEntity
  8
0
  6
CONTINUOUS
 62
           7
100
AcDbLine
 10
61.354351373205
 20
366.353490132497
 30
0.0
 11
60.101342530737
 21
366.353490132497
 31
0.0
  0
LINE
  5
58
100
AcDbEntity
  8
0
  6
CONTINUOUS
 62
           7
100
AcDbLine
 10
90.817243935356
 20
285.153486508535
 30
0.0
 11
83.704353453407
 21
285.153486508535
 31
0.0
  0
LINE
  5
59
100
AcDbEntity
  8
0
  6
CONTINUOUS
 62
           7
100
AcDbLine
 10
181.891464771519
 20
285.153486508535
 30
0.0
 11
189.004355253468
 21
285.153486508535
 31
0.0
  0
LINE
  5
5A
100
AcDbEntity
  8
0
  6
CONTINUOUS
 62
           7
100
AcDbLine
 10
221.354355247507
 20
366.353490132497
 30
0.0
 11
221.091886194239
 21
363.35349010642
 31
0.0
  0
LINE
  5
5B
100
AcDbEntity
  8
0
  6
CONTINUOUS
 62
           7
100
AcDbLine
 10
221.091886194239
 20
363.35349010642
 30
0.0
 11
211.267081232557
 21
361.353490244256
 31
0.0
  0
LINE
  5
5C
100
AcDbEntity
  8
0
  6
CONTINUOUS
 62
           7
100
AcDbLine
 10
211.35435733367
 20
366.353490132497
 30
0.0
 11
221.354355247507
 21
366.353490132497
 31
0.0
  0
CIRCLE
  5
5D
100
AcDbEntity
  8
0
  6
CONTINUOUS
 62
           7
100
AcDbCircle
 10
56.36336246805
 20
366.653490132497
 30
0.0
 40
1.0
  0
ARC
  5
5E
100
AcDbEntity
  8
0
  6
CONTINUOUS
 62
           7
100
AcDbCircle
 10
56.36336246805
 20
366.653490132497
 30
0.0
 40
3.5
100
AcDbArc
 50
42.13318323168
 51
270.000000000001
  0
LINE
  5
5F
100
AcDbEntity
  8
0
  6
CONTINUOUS
 62
           7
100
AcDbLine
 10
58.958915205488
 20
369.001487012611
 30
0.0
 11
61.354351373205
 21
366.353490132497
 31
0.0
  0
LINE
  5
60
100
AcDbEntity
  8
0
  6
CONTINUOUS
 62
           7
100
AcDbLine
 10
56.430188150892
 20
362.904085753144
 30
0.0
 11
56.363363893518
 21
363.153490213336
 31
0.0
  0
LINE
  5
61
100
AcDbEntity
  8
0
  6
CONTINUOUS
 62
           7
100
AcDbLine
 10
68.935101063738
 20
285.153486508535
 30
0.0
 11
68.872210712919
 21
286.353491920636
 31
0.0
  0
LINE
  5
62
100
AcDbEntity
  8
0
  6
CONTINUOUS
 62
           7
100
AcDbLine
 10
71.004350812921
 20
285.153486508535
 30
0.0
 11
68.935101063738
 21
285.153486508535
 31
0.0
  0
LINE
  5
63
100
AcDbEntity
  8
0
  6
CONTINUOUS
 62
           7
100
AcDbLine
 10
203.773607643137
 20
285.153486508535
 30
0.0
 11
203.836497993956
 21
286.353491920636
 31
0.0
  0
LINE
  5
64
100
AcDbEntity
  8
0
  6
CONTINUOUS
 62
           7
100
AcDbLine
 10
201.704357893953
 20
285.153486508535
 30
0.0
 11
203.773607643137
 21
285.153486508535
 31
0.0
  0
ARC
  5
65
100
AcDbEntity
  8
0
  6
CONTINUOUS
 62
           7
100
AcDbCircle
 10
214.267079028796
 20
361.353490132497
 30
0.0
 40
1.25
100
AcDbArc
 50
180.0
 51
40.109443696925
  0
LINE
  5
66
100
AcDbEntity
  8
0
  6
CONTINUOUS
 62
           7
100
AcDbLine
 10
213.017081053743
 20
361.353490244256
 30
0.0
 11
211.267081232557
 21
361.353490244256
 31
0.0
  0
LINE
  5
67
100
AcDbEntity
  8
0
  6
CONTINUOUS
 62
           7
100
AcDbLine
 10
52.863364251146
 20
195.667684412412
 30
0.0
 11
52.863364251146
 21
178.66768348854
 31
0.0
  0
LINE
  5
68
100
AcDbEntity
  8
0
  6
CONTINUOUS
 62
           7
100
AcDbLine
 10
52.863364251146
 20
115.667682475261
 30
0.0
 11
52.863364251146
 21
98.667681551389
 31
0.0
  0
LINE
  5
69
100
AcDbEntity
  8
0
  6
CONTINUOUS
 62
           7
100
AcDbLine
 10
215.517078669557
 20
137.167683205418
 30
0.0
 11
215.517078669557
 21
157.167682758384
 31
0.0
  0
LINE
  5
6A
100
AcDbEntity
  8
0
  6
CONTINUOUS
 62
           7
100
AcDbLine
 10
58.958915205488
 20
195.667684412412
 30
0.0
 11
58.958915205488
 21
178.66768348854
 31
0.0
  0
LINE
  5
6B
100
AcDbEntity
  8
0
  6
CONTINUOUS
 62
           7
100
AcDbLine
 10
58.958915205488
 20
178.66768348854
 30
0.0
 11
52.863364251146
 21
178.66768348854
 31
0.0
  0
LINE
  5
6C
100
AcDbEntity
  8
0
  6
CONTINUOUS
 62
           7
100
AcDbLine
 10
52.863364251146
 20
195.667684412412
 30
0.0
 11
58.958915205488
 21
195.667684412412
 31
0.0
  0
LINE
  5
6D
100
AcDbEntity
  8
0
  6
CONTINUOUS
 62
           7
100
AcDbLine
 10
52.863364251146
 20
98.667681551389
 30
0.0
 11
58.958915205488
 21
98.667681551389
 31
0.0
  0
LINE
  5
6E
100
AcDbEntity
  8
0
  6
CONTINUOUS
 62
           7
100
AcDbLine
 10
58.958915205488
 20
98.667681551389
 30
0.0
 11
58.958915205488
 21
115.667682475261
 31
0.0
  0
LINE
  5
6F
100
AcDbEntity
  8
0
  6
CONTINUOUS
 62
           7
100
AcDbLine
 10
58.958915205488
 20
115.667682475261
 30
0.0
 11
52.863364251146
 21
115.667682475261
 31
0.0
  0
LINE
  5
70
100
AcDbEntity
  8
0
  6
CONTINUOUS
 62
           7
100
AcDbLine
 10
61.354351373205
 20
195.667684412412
 30
0.0
 11
61.354351373205
 21
178.66768348854
 31
0.0
  0
LINE
  5
71
100
AcDbEntity
  8
0
  6
CONTINUOUS
 62
           7
100
AcDbLine
 10
58.958915205488
 20
178.66768348854
 30
0.0
 11
61.354351373205
 21
178.66768348854
 31
0.0
  0
LINE
  5
72
100
AcDbEntity
  8
0
  6
CONTINUOUS
 62
           7
100
AcDbLine
 10
58.958915205488
 20
195.667684412412
 30
0.0
 11
61.354351373205
 21
195.667684412412
 31
0.0
  0
LINE
  5
73
100
AcDbEntity
  8
0
  6
CONTINUOUS
 62
           7
100
AcDbLine
 10
61.354351373205
 20
98.667681551389
 30
0.0
 11
61.354351373205
 21
115.667682475261
 31
0.0
  0
LINE
  5
74
100
AcDbEntity
  8
0
  6
CONTINUOUS
 62
           7
100
AcDbLine
 10
58.958915205488
 20
98.667681551389
 30
0.0
 11
61.354351373205
 21
98.667681551389
 31
0.0
  0
LINE
  5
75
100
AcDbEntity
  8
0
  6
CONTINUOUS
 62
           7
100
AcDbLine
 10
58.958915205488
 20
115.667682475261
 30
0.0
 11
61.354351373205
 21
115.667682475261
 31
0.0
  0
ELLIPSE
  5
76
100
AcDbEntity
  8
0
  6
CONTINUOUS
 62
           7
100
AcDbEllipse
 10
207.853668180438
 20
75.6683691549
 30
0.0
 11
0.354523121717591
 21
-0.3545231217175342
 31
0.0
210
0.0
220
0.0
230
1.0
 40
0.997264688634
 41
5.4991566716525613
 42
7.0672139427065925
  0
LINE
  5
77
100
AcDbEntity
  8
0
  6
CONTINUOUS
 62
           7
100
AcDbLine
 10
208.354351253996
 20
75.666994190626
 30
0.0
 11
208.354351253995
 21
218.668371773176
 31
0.0
  0
ELLIPSE
  5
78
100
AcDbEntity
  8
0
  6
CONTINUOUS
 62
           7
100
AcDbEllipse
 10
207.853668180438
 20
218.666996808902
 30
0.0
 11
0.3545231217175342
 21
0.3545231217175342
 31
0.0
210
0.0
220
0.0
230
1.0
 40
0.997264688634
 41
5.4991566716525346
 42
7.0672139427065526
  0
LINE
  5
79
100
AcDbEntity
  8
0
  6
CONTINUOUS
 62
           7
100
AcDbLine
 10
207.855043144712
 20
219.167679882459
 30
0.0
 11
64.853665562162
 21
219.167679882459
 31
0.0
  0
ELLIPSE
  5
7A
100
AcDbEntity
  8
0
  6
CONTINUOUS
 62
           7
100
AcDbEllipse
 10
64.855040526436
 20
218.666996808902
 30
0.0
 11
0.3545231217175342
 21
-0.3545231217175342
 31
0.0
210
0.0
220
0.0
230
1.0
 40
0.997264688634
 41
2.3575640180627007
 42
3.9256212891168993
  0
LINE
  5
7B
100
AcDbEntity
  8
0
  6
CONTINUOUS
 62
           7
100
AcDbLine
 10
64.354357452878
 20
218.668371773175
 30
0.0
 11
64.354357452879
 21
75.666994190625
 31
0.0
  0
ELLIPSE
  5
7C
100
AcDbEntity
  8
0
  6
CONTINUOUS
 62
           7
100
AcDbEllipse
 10
64.855040526436
 20
75.668369154899
 30
0.0
 11
0.3545231217175626
 21
0.3545231217175058
 31
0.0
210
0.0
220
0.0
230
1.0
 40
0.997264688634
 41
2.3575640180628814
 42
3.9256212891169362
  0
LINE
  5
7D
100
AcDbEntity
  8
0
  6
CONTINUOUS
 62
           7
100
AcDbLine
 10
64.853665562162
 20
75.167686081342
 30
0.0
 11
207.855043144712
 21
75.167686081342
 31
0.0
  0
LINE
  5
7E
100
AcDbEntity
  8
0
  6
CONTINUOUS
 62
           7
100
AcDbLine
 10
60.101342530737
 20
115.667682475261
 30
0.0
 11
60.101342530737
 21
124.667682087831
 31
0.0
  0
LINE
  5
7F
100
AcDbEntity
  8
0
  6
CONTINUOUS
 62
           7
100
AcDbLine
 10
61.354351373205
 20
124.667682087831
 30
0.0
 11
60.101342530737
 21
124.667682087831
 31
0.0
  0
LINE
  5
80
100
AcDbEntity
  8
0
  6
CONTINUOUS
 62
           7
100
AcDbLine
 10
61.354351373205
 20
169.66768387597
 30
0.0
 11
61.354351373205
 21
124.667682087831
 31
0.0
  0
LINE
  5
81
100
AcDbEntity
  8
0
  6
CONTINUOUS
 62
           7
100
AcDbLine
 10
61.354351373205
 20
169.66768387597
 30
0.0
 11
60.101342530737
 21
169.66768387597
 31
0.0
  0
LINE
  5
82
100
AcDbEntity
  8
0
  6
CONTINUOUS
 62
           7
100
AcDbLine
 10
60.101342530737
 20
178.66768348854
 30
0.0
 11
60.101342530737
 21
169.66768387597
 31
0.0
  0
LINE
  5
83
100
AcDbEntity
  8
0
  6
CONTINUOUS
 62
           7
100
AcDbLine
 10
60.101342530737
 20
195.667684412412
 30
0.0
 11
60.101342530737
 21
204.667684024982
 31
0.0
  0
LINE
  5
84
100
AcDbEntity
  8
0
  6
CONTINUOUS
 62
           7
100
AcDbLine
 10
61.354351373205
 20
204.667684024982
 30
0.0
 11
60.101342530737
 21
204.667684024982
 31
0.0
  0
LINE
  5
85
100
AcDbEntity
  8
0
  6
CONTINUOUS
 62
           7
100
AcDbLine
 10
61.354351373205
 20
221.167832947187
 30
0.0
 11
61.354351373205
 21
204.667684024982
 31
0.0
  0
LINE
  5
86
100
AcDbEntity
  8
0
  6
CONTINUOUS
 62
           7
100
AcDbLine
 10
211.354357333669
 20
157.167682758384
 30
0.0
 11
211.354357333669
 21
221.167832947187
 31
0.0
  0
LINE
  5
87
100
AcDbEntity
  8
0
  6
CONTINUOUS
 62
           7
100
AcDbLine
 10
211.354357333669
 20
157.167682758384
 30
0.0
 11
211.354357333669
 21
137.167683205418
 31
0.0
  0
LINE
  5
88
100
AcDbEntity
  8
0
  6
CONTINUOUS
 62
           7
100
AcDbLine
 10
211.35435733367
 20
117.167683652453
 30
0.0
 11
211.354357333669
 21
137.167683205418
 31
0.0
  0
LINE
  5
89
100
AcDbEntity
  8
0
  6
CONTINUOUS
 62
           7
100
AcDbLine
 10
211.35435733367
 20
117.167683652453
 30
0.0
 11
221.354355247507
 21
117.167683652453
 31
0.0
  0
LINE
  5
8A
100
AcDbEntity
  8
0
  6
CONTINUOUS
 62
           7
100
AcDbLine
 10
221.354355247507
 20
117.167683652453
 30
0.0
 11
221.354355247507
 21
97.167682236843
 31
0.0
  0
LINE
  5
8B
100
AcDbEntity
  8
0
  6
CONTINUOUS
 62
           7
100
AcDbLine
 10
211.35435733367
 20
97.167682236843
 30
0.0
 11
221.354355247507
 21
97.167682236843
 31
0.0
  0
LINE
  5
8C
100
AcDbEntity
  8
0
  6
CONTINUOUS
 62
           7
100
AcDbLine
 10
211.35435733367
 20
73.167533016615
 30
0.0
 11
211.35435733367
 21
97.167682236843
 31
0.0
  0
ELLIPSE
  5
8D
100
AcDbEntity
  8
0
  6
CONTINUOUS
 62
           7
100
AcDbEllipse
 10
210.354202025394
 20
73.167835309945
 30
0.0
 11
0.707322189169588
 21
-0.7073221891695596
 31
0.0
210
0.0
220
0.0
230
1.0
 40
0.999695459882
 41
5.4979394370296966
 42
7.068431177329435
  0
LINE
  5
8E
100
AcDbEntity
  8
0
  6
CONTINUOUS
 62
           7
100
AcDbLine
 10
62.354204388151
 20
72.167680001668
 30
0.0
 11
210.354504318724
 21
72.167680001669
 31
0.0
  0
ELLIPSE
  5
8F
100
AcDbEntity
  8
0
  6
CONTINUOUS
 62
           7
100
AcDbEllipse
 10
62.354506681481
 20
73.167835309944
 30
0.0
 11
0.707322189169588
 21
0.7073221891695596
 31
0.0
210
0.0
220
0.0
230
1.0
 40
0.999695459882
 41
2.3563467834399487
 42
3.9268385237396921
  0
LINE
  5
90
100
AcDbEntity
  8
0
  6
CONTINUOUS
 62
           7
100
AcDbLine
 10
61.354351373205
 20
89.667681938819
 30
0.0
 11
61.354351373205
 21
73.167533016614
 31
0.0
  0
LINE
  5
91
100
AcDbEntity
  8
0
  6
CONTINUOUS
 62
           7
100
AcDbLine
 10
61.354351373205
 20
89.667681938819
 30
0.0
 11
60.101342530737
 21
89.667681938819
 31
0.0
  0
LINE
  5
92
100
AcDbEntity
  8
0
  6
CONTINUOUS
 62
           7
100
AcDbLine
 10
60.101342530737
 20
98.667681551389
 30
0.0
 11
60.101342530737
 21
89.667681938819
 31
0.0
  0
CIRCLE
  5
93
100
AcDbEntity
  8
0
  6
CONTINUOUS
 62
           7
100
AcDbCircle
 10
214.354354353437
 20
107.167682981901
 30
0.0
 40
3.5
  0
LINE
  5
94
100
AcDbEntity
  8
0
  6
CONTINUOUS
 62
           7
100
AcDbLine
 10
210.354504318723
 20
222.167685962133
 30
0.0
 11
62.354204388151
 21
222.167685962133
 31
0.0
  0
ELLIPSE
  5
95
100
AcDbEntity
  8
0
  6
CONTINUOUS
 62
           7
100
AcDbEllipse
 10
62.354506681481
 20
221.167530653857
 30
0.0
 11
0.707322189169588
 21
-0.7073221891695312
 31
0.0
210
0.0
220
0.0
230
1.0
 40
0.999695459882
 41
2.3563467834399083
 42
3.9268385237395833
  0
ELLIPSE
  5
96
100
AcDbEntity
  8
0
  6
CONTINUOUS
 62
           7
100
AcDbEllipse
 10
210.354202025393
 20
221.167530653857
 30
0.0
 11
0.707322189169588
 21
0.707322189169588
 31
0.0
210
0.0
220
0.0
230
1.0
 40
0.999695459882
 41
5.4979394370297845
 42
7.0684311773294164
  0
LINE
  5
97
100
AcDbEntity
  8
0
  6
CONTINUOUS
 62
           7
100
AcDbLine
 10
64.853665562162
 20
219.167679882459
 30
0.0
 11
64.984691472539
 21
219.036661422662
 31
0.0
  0
LINE
  5
98
100
AcDbEntity
  8
0
  6
CONTINUOUS
 62
           7
100
AcDbLine
 10
207.724017234334
 20
219.036661422663
 30
0.0
 11
207.855043144712
 21
219.167679882459
 31
0.0
  0
LINE
  5
99
100
AcDbEntity
  8
0
  6
CONTINUOUS
 62
           7
100
AcDbLine
 10
207.724017234334
 20
219.036661422663
 30
0.0
 11
64.984691472539
 21
219.036661422662
 31
0.0
  0
LINE
  5
9A
100
AcDbEntity
  8
0
  6
CONTINUOUS
 62
           7
100
AcDbLine
 10
208.354351253995
 20
218.668371773176
 30
0.0
 11
208.223332794199
 21
218.537345862798
 31
0.0
  0
ELLIPSE
  5
9B
100
AcDbEntity
  8
0
  6
CONTINUOUS
 62
           7
100
AcDbEllipse
 10
207.72264873223
 20
218.535977360694
 30
0.0
 11
0.3545231217175342
 21
0.354523121717591
 31
0.0
210
0.0
220
0.0
230
1.0
 40
0.997264688634
 41
5.4991566716523339
 42
7.0672139427065925
  0
LINE
  5
9C
100
AcDbEntity
  8
0
  6
CONTINUOUS
 62
           7
100
AcDbLine
 10
64.485375912675
 20
218.537345862798
 30
0.0
 11
64.354357452878
 21
218.668371773175
 31
0.0
  0
ELLIPSE
  5
9D
100
AcDbEntity
  8
0
  6
CONTINUOUS
 62
           7
100
AcDbEllipse
 10
64.986059974644
 20
218.535977360694
 30
0.0
 11
0.3545231217175626
 21
-0.3545231217175342
 31
0.0
210
0.0
220
0.0
230
1.0
 40
0.997264688634
 41
2.357564018062587
 42
3.9256212891169331
  0
LINE
  5
9E
100
AcDbEntity
  8
0
  6
CONTINUOUS
 62
           7
100
AcDbLine
 10
64.354357452879
 20
75.666994190625
 30
0.0
 11
64.485375912676
 21
75.798020101003
 31
0.0
  0
LINE
  5
9F
100
AcDbEntity
  8
0
  6
CONTINUOUS
 62
           7
100
AcDbLine
 10
64.485375912675
 20
218.537345862798
 30
0.0
 11
64.485375912676
 21
75.798020101003
 31
0.0
  0
LINE
  5
A0
100
AcDbEntity
  8
0
  6
CONTINUOUS
 62
           7
100
AcDbLine
 10
208.223332794199
 20
75.798020101003
 30
0.0
 11
208.354351253996
 21
75.666994190626
 31
0.0
  0
LINE
  5
A1
100
AcDbEntity
  8
0
  6
CONTINUOUS
 62
           7
100
AcDbLine
 10
208.223332794199
 20
75.798020101003
 30
0.0
 11
208.223332794199
 21
218.537345862798
 31
0.0
  0
LINE
  5
A2
100
AcDbEntity
  8
0
  6
CONTINUOUS
 62
           7
100
AcDbLine
 10
56.430188150892
 20
195.667684412412
 30
0.0
 11
56.430188150892
 21
204.667684024982
 31
0.0
  0
LINE
  5
A3
100
AcDbEntity
  8
0
  6
CONTINUOUS
 62
           7
100
AcDbLine
 10
60.101342530737
 20
204.667684024982
 30
0.0
 11
56.430188150892
 21
204.667684024982
 31
0.0
  0
LINE
  5
A4
100
AcDbEntity
  8
0
  6
CONTINUOUS
 62
           7
100
AcDbLine
 10
60.101342530737
 20
169.66768387597
 30
0.0
 11
56.430188150892
 21
169.66768387597
 31
0.0
  0
LINE
  5
A5
100
AcDbEntity
  8
0
  6
CONTINUOUS
 62
           7
100
AcDbLine
 10
56.430188150892
 20
178.66768348854
 30
0.0
 11
56.430188150892
 21
169.66768387597
 31
0.0
  0
LINE
  5
A6
100
AcDbEntity
  8
0
  6
CONTINUOUS
 62
           7
100
AcDbLine
 10
211.354357333669
 20
157.167682758384
 30
0.0
 11
215.185751350412
 21
157.167682758384
 31
0.0
  0
LINE
  5
A7
100
AcDbEntity
  8
0
  6
CONTINUOUS
 62
           7
100
AcDbLine
 10
215.185751350412
 20
157.167682758384
 30
0.0
 11
215.185751350412
 21
137.167683205418
 31
0.0
  0
LINE
  5
A8
100
AcDbEntity
  8
0
  6
CONTINUOUS
 62
           7
100
AcDbLine
 10
211.354357333669
 20
137.167683205418
 30
0.0
 11
215.185751350412
 21
137.167683205418
 31
0.0
  0
LINE
  5
A9
100
AcDbEntity
  8
0
  6
CONTINUOUS
 62
           7
100
AcDbLine
 10
60.101342530737
 20
124.667682087831
 30
0.0
 11
56.430188150892
 21
124.667682087831
 31
0.0
  0
LINE
  5
AA
100
AcDbEntity
  8
0
  6
CONTINUOUS
 62
           7
100
AcDbLine
 10
56.430188150892
 20
124.667682087831
 30
0.0
 11
56.430188150892
 21
115.667682475261
 31
0.0
  0
LINE
  5
AB
100
AcDbEntity
  8
0
  6
CONTINUOUS
 62
           7
100
AcDbLine
 10
56.430188150892
 20
89.667681938819
 30
0.0
 11
56.430188150892
 21
98.667681551389
 31
0.0
  0
LINE
  5
AC
100
AcDbEntity
  8
0
  6
CONTINUOUS
 62
           7
100
AcDbLine
 10
60.101342530737
 20
89.667681938819
 30
0.0
 11
56.430188150892
 21
89.667681938819
 31
0.0
  0
LINE
  5
AD
100
AcDbEntity
  8
0
  6
CONTINUOUS
 62
           7
100
AcDbLine
 10
207.855043144712
 20
75.167686081342
 30
0.0
 11
207.724017234335
 21
75.298704541139
 31
0.0
  0
ELLIPSE
  5
AE
100
AcDbEntity
  8
0
  6
CONTINUOUS
 62
           7
100
AcDbEllipse
 10
207.722648732231
 20
75.799388603108
 30
0.0
 11
0.3545231217174774
 21
-0.3545231217175342
 31
0.0
210
0.0
220
0.0
230
1.0
 40
0.997264688634
 41
5.4991566716525737
 42
7.0672139427066725
  0
LINE
  5
AF
100
AcDbEntity
  8
0
  6
CONTINUOUS
 62
           7
100
AcDbLine
 10
64.98469147254
 20
75.298704541139
 30
0.0
 11
64.853665562162
 21
75.167686081342
 31
0.0
  0
ELLIPSE
  5
B0
100
AcDbEntity
  8
0
  6
CONTINUOUS
 62
           7
100
AcDbEllipse
 10
64.986059974644
 20
75.799388603107
 30
0.0
 11
0.3545231217175342
 21
0.3545231217175626
 31
0.0
210
0.0
220
0.0
230
1.0
 40
0.997264688634
 41
2.3575640180627007
 42
3.9256212891169331
  0
LINE
  5
B1
100
AcDbEntity
  8
0
  6
CONTINUOUS
 62
           7
100
AcDbLine
 10
64.98469147254
 20
75.298704541139
 30
0.0
 11
207.724017234335
 21
75.298704541139
 31
0.0
  0
LINE
  5
B2
100
AcDbEntity
  8
0
  6
CONTINUOUS
 62
           7
100
AcDbLine
 10
65.814730854521
 20
98.397132343463
 30
0.0
 11
68.800178499708
 21
98.397132343463
 31
0.0
  0
LINE
  5
B3
100
AcDbEntity
  8
0
  6
CONTINUOUS
 62
           7
100
AcDbLine
 10
68.800178499708
 20
98.397132343463
 30
0.0
 11
68.800178499708
 21
100.342590696029
 31
0.0
  0
LINE
  5
B4
100
AcDbEntity
  8
0
  6
CONTINUOUS
 62
           7
100
AcDbLine
 10
68.800178499708
 20
100.342590696029
 30
0.0
 11
70.204538436422
 21
100.342590696029
 31
0.0
  0
LINE
  5
B5
100
AcDbEntity
  8
0
  6
CONTINUOUS
 62
           7
100
AcDbLine
 10
70.204538436422
 20
100.342590696029
 30
0.0
 11
70.204538436422
 21
96.992776132039
 31
0.0
  0
LINE
  5
B6
100
AcDbEntity
  8
0
  6
CONTINUOUS
 62
           7
100
AcDbLine
 10
70.204538436422
 20
96.992776132039
 30
0.0
 11
65.814730854521
 21
96.992776132039
 31
0.0
  0
LINE
  5
B7
100
AcDbEntity
  8
0
  6
CONTINUOUS
 62
           7
100
AcDbLine
 10
65.814730854521
 20
84.32305637639
 30
0.0
 11
65.814730854521
 21
96.992776132039
 31
0.0
  0
LINE
  5
B8
100
AcDbEntity
  8
0
  6
CONTINUOUS
 62
           7
100
AcDbLine
 10
65.430757732878
 20
83.939090705327
 30
0.0
 11
65.814730854521
 21
84.32305637639
 31
0.0
  0
LINE
  5
B9
100
AcDbEntity
  8
0
  6
CONTINUOUS
 62
           7
100
AcDbLine
 10
65.430757732878
 20
76.743781900815
 30
0.0
 11
65.430757732878
 21
83.939090705327
 31
0.0
  0
ELLIPSE
  5
BA
100
AcDbEntity
  8
0
  6
CONTINUOUS
 62
           7
100
AcDbEllipse
 10
65.931065006854
 20
76.744393635317
 30
0.0
 11
0.3539842722995843
 21
0.3539842722995843
 31
0.0
210
0.0
220
0.0
230
1.0
 40
0.998782765959
 41
2.3568034777780058
 42
3.9263818294018211
  0
LINE
  5
BB
100
AcDbEntity
  8
0
  6
CONTINUOUS
 62
           7
100
AcDbLine
 10
73.125762076864
 20
76.244086361341
 30
0.0
 11
65.930453272352
 21
76.244086361341
 31
0.0
  0
LINE
  5
BC
100
AcDbEntity
  8
0
  6
CONTINUOUS
 62
           7
100
AcDbLine
 10
73.509727747927
 20
76.628059482984
 30
0.0
 11
73.125762076864
 21
76.244086361341
 31
0.0
  0
LINE
  5
BD
100
AcDbEntity
  8
0
  6
CONTINUOUS
 62
           7
100
AcDbLine
 10
199.198980958948
 20
76.628059482984
 30
0.0
 11
73.509727747927
 21
76.628059482984
 31
0.0
  0
LINE
  5
BE
100
AcDbEntity
  8
0
  6
CONTINUOUS
 62
           7
100
AcDbLine
 10
199.198980958948
 20
76.628059482984
 30
0.0
 11
199.582946630011
 21
76.244086361341
 31
0.0
  0
LINE
  5
BF
100
AcDbEntity
  8
0
  6
CONTINUOUS
 62
           7
100
AcDbLine
 10
199.582946630011
 20
76.244086361341
 30
0.0
 11
206.778255434523
 21
76.244086361341
 31
0.0
  0
ELLIPSE
  5
C0
100
AcDbEntity
  8
0
  6
CONTINUOUS
 62
           7
100
AcDbEllipse
 10
206.777643700021
 20
76.744393635317
 30
0.0
 11
0.353984272299499
 21
-0.3539842722996127
 31
0.0
210
0.0
220
0.0
230
1.0
 40
0.998782765959
 41
5.4983961313678833
 42
7.0679744829914677
  0
LINE
  5
C1
100
AcDbEntity
  8
0
  6
CONTINUOUS
 62
           7
100
AcDbLine
 10
207.277950973997
 20
76.743781900816
 30
0.0
 11
207.277950973997
 21
83.939090705328
 31
0.0
  0
LINE
  5
C2
100
AcDbEntity
  8
0
  6
CONTINUOUS
 62
           7
100
AcDbLine
 10
207.277950973997
 20
83.939090705328
 30
0.0
 11
206.893977852354
 21
84.32305637639
 31
0.0
  0
LINE
  5
C3
100
AcDbEntity
  8
0
  6
CONTINUOUS
 62
           7
100
AcDbLine
 10
206.893977852354
 20
127.992773762755
 30
0.0
 11
206.893977852354
 21
84.32305637639
 31
0.0
  0
LINE
  5
C4
100
AcDbEntity
  8
0
  6
CONTINUOUS
 62
           7
100
AcDbLine
 10
206.893977852354
 20
127.992773762755
 30
0.0
 11
202.519071431646
 21
127.992773762755
 31
0.0
  0
LINE
  5
C5
100
AcDbEntity
  8
0
  6
CONTINUOUS
 62
           7
100
AcDbLine
 10
202.519071431646
 20
127.992773762755
 30
0.0
 11
202.519071431646
 21
131.342592052035
 31
0.0
  0
LINE
  5
C6
100
AcDbEntity
  8
0
  6
CONTINUOUS
 62
           7
100
AcDbLine
 10
203.92343136836
 20
131.342592052035
 30
0.0
 11
202.519071431646
 21
131.342592052035
 31
0.0
  0
LINE
  5
C7
100
AcDbEntity
  8
0
  6
CONTINUOUS
 62
           7
100
AcDbLine
 10
203.92343136836
 20
129.397133699469
 30
0.0
 11
203.92343136836
 21
131.342592052035
 31
0.0
  0
LINE
  5
C8
100
AcDbEntity
  8
0
  6
CONTINUOUS
 62
           7
100
AcDbLine
 10
206.893977852354
 20
129.397133699469
 30
0.0
 11
203.92343136836
 21
129.397133699469
 31
0.0
  0
LINE
  5
C9
100
AcDbEntity
  8
0
  6
CONTINUOUS
 62
           7
100
AcDbLine
 10
206.893977852354
 20
164.938232264333
 30
0.0
 11
206.893977852354
 21
129.397133699469
 31
0.0
  0
LINE
  5
CA
100
AcDbEntity
  8
0
  6
CONTINUOUS
 62
           7
100
AcDbLine
 10
206.893977852354
 20
164.938232264333
 30
0.0
 11
203.92343136836
 21
164.938232264333
 31
0.0
  0
LINE
  5
CB
100
AcDbEntity
  8
0
  6
CONTINUOUS
 62
           7
100
AcDbLine
 10
203.92343136836
 20
164.938232264333
 30
0.0
 11
203.92343136836
 21
162.992773911767
 31
0.0
  0
LINE
  5
CC
100
AcDbEntity
  8
0
  6
CONTINUOUS
 62
           7
100
AcDbLine
 10
203.92343136836
 20
162.992773911767
 30
0.0
 11
202.519071431646
 21
162.992773911767
 31
0.0
  0
LINE
  5
CD
100
AcDbEntity
  8
0
  6
CONTINUOUS
 62
           7
100
AcDbLine
 10
202.519071431646
 20
166.342592201047
 30
0.0
 11
202.519071431646
 21
162.992773911767
 31
0.0
  0
LINE
  5
CE
100
AcDbEntity
  8
0
  6
CONTINUOUS
 62
           7
100
AcDbLine
 10
206.893977852354
 20
166.342592201047
 30
0.0
 11
202.519071431646
 21
166.342592201047
 31
0.0
  0
LINE
  5
CF
100
AcDbEntity
  8
0
  6
CONTINUOUS
 62
           7
100
AcDbLine
 10
206.893977852354
 20
210.012309587412
 30
0.0
 11
206.893977852354
 21
166.342592201047
 31
0.0
  0
LINE
  5
D0
100
AcDbEntity
  8
0
  6
CONTINUOUS
 62
           7
100
AcDbLine
 10
207.277950973997
 20
210.396275258474
 30
0.0
 11
206.893977852354
 21
210.012309587412
 31
0.0
  0
LINE
  5
D1
100
AcDbEntity
  8
0
  6
CONTINUOUS
 62
           7
100
AcDbLine
 10
207.277950973997
 20
217.591584062986
 30
0.0
 11
207.277950973997
 21
210.396275258474
 31
0.0
  0
ELLIPSE
  5
D2
100
AcDbEntity
  8
0
  6
CONTINUOUS
 62
           7
100
AcDbEllipse
 10
206.777643700021
 20
217.590972328485
 30
0.0
 11
0.3539842722996127
 21
0.3539842722996127
 31
0.0
210
0.0
220
0.0
230
1.0
 40
0.998782765959
 41
5.4983961313676755
 42
7.0679744829915245
  0
LINE
  5
D3
100
AcDbEntity
  8
0
  6
CONTINUOUS
 62
           7
100
AcDbLine
 10
199.58294663001
 20
218.091279602461
 30
0.0
 11
206.778255434522
 21
218.091279602461
 31
0.0
  0
LINE
  5
D4
100
AcDbEntity
  8
0
  6
CONTINUOUS
 62
           7
100
AcDbLine
 10
199.198980958948
 20
217.707306480818
 30
0.0
 11
199.58294663001
 21
218.091279602461
 31
0.0
  0
LINE
  5
D5
100
AcDbEntity
  8
0
  6
CONTINUOUS
 62
           7
100
AcDbLine
 10
73.509727747926
 20
217.707306480817
 30
0.0
 11
199.198980958948
 21
217.707306480818
 31
0.0
  0
LINE
  5
D6
100
AcDbEntity
  8
0
  6
CONTINUOUS
 62
           7
100
AcDbLine
 10
73.509727747926
 20
217.707306480817
 30
0.0
 11
73.125762076864
 21
218.09127960246
 31
0.0
  0
LINE
  5
D7
100
AcDbEntity
  8
0
  6
CONTINUOUS
 62
           7
100
AcDbLine
 10
73.125762076864
 20
218.09127960246
 30
0.0
 11
65.930453272352
 21
218.09127960246
 31
0.0
  0
ELLIPSE
  5
D8
100
AcDbEntity
  8
0
  6
CONTINUOUS
 62
           7
100
AcDbEllipse
 10
65.931065006853
 20
217.590972328484
 30
0.0
 11
0.3539842722995843
 21
-0.3539842722996127
 31
0.0
210
0.0
220
0.0
230
1.0
 40
0.998782765959
 41
2.3568034777779121
 42
3.9263818294018251
  0
LINE
  5
D9
100
AcDbEntity
  8
0
  6
CONTINUOUS
 62
           7
100
AcDbLine
 10
65.430757732877
 20
217.591584062986
 30
0.0
 11
65.430757732877
 21
210.396275258474
 31
0.0
  0
LINE
  5
DA
100
AcDbEntity
  8
0
  6
CONTINUOUS
 62
           7
100
AcDbLine
 10
65.430757732877
 20
210.396275258474
 30
0.0
 11
65.81473085452
 21
210.012309587411
 31
0.0
  0
LINE
  5
DB
100
AcDbEntity
  8
0
  6
CONTINUOUS
 62
           7
100
AcDbLine
 10
65.81473085452
 20
197.342589831762
 30
0.0
 11
65.81473085452
 21
210.012309587411
 31
0.0
  0
LINE
  5
DC
100
AcDbEntity
  8
0
  6
CONTINUOUS
 62
           7
100
AcDbLine
 10
70.204538436422
 20
197.342589831762
 30
0.0
 11
65.81473085452
 21
197.342589831762
 31
0.0
  0
LINE
  5
DD
100
AcDbEntity
  8
0
  6
CONTINUOUS
 62
           7
100
AcDbLine
 10
70.204538436422
 20
193.992775267772
 30
0.0
 11
70.204538436422
 21
197.342589831762
 31
0.0
  0
LINE
  5
DE
100
AcDbEntity
  8
0
  6
CONTINUOUS
 62
           7
100
AcDbLine
 10
68.800178499708
 20
193.992775267772
 30
0.0
 11
70.204538436422
 21
193.992775267772
 31
0.0
  0
LINE
  5
DF
100
AcDbEntity
  8
0
  6
CONTINUOUS
 62
           7
100
AcDbLine
 10
68.800178499708
 20
195.938233620338
 30
0.0
 11
68.800178499708
 21
193.992775267772
 31
0.0
  0
LINE
  5
E0
100
AcDbEntity
  8
0
  6
CONTINUOUS
 62
           7
100
AcDbLine
 10
65.81473085452
 20
195.938233620338
 30
0.0
 11
68.800178499708
 21
195.938233620338
 31
0.0
  0
LINE
  5
E1
100
AcDbEntity
  8
0
  6
CONTINUOUS
 62
           7
100
AcDbLine
 10
65.814730854521
 20
160.397133192829
 30
0.0
 11
65.81473085452
 21
195.938233620338
 31
0.0
  0
LINE
  5
E2
100
AcDbEntity
  8
0
  6
CONTINUOUS
 62
           7
100
AcDbLine
 10
68.800178499708
 20
160.397133192829
 30
0.0
 11
65.814730854521
 21
160.397133192829
 31
0.0
  0
LINE
  5
E3
100
AcDbEntity
  8
0
  6
CONTINUOUS
 62
           7
100
AcDbLine
 10
68.800178499708
 20
162.342591545395
 30
0.0
 11
68.800178499708
 21
160.397133192829
 31
0.0
  0
LINE
  5
E4
100
AcDbEntity
  8
0
  6
CONTINUOUS
 62
           7
100
AcDbLine
 10
70.204538436422
 20
162.342591545395
 30
0.0
 11
68.800178499708
 21
162.342591545395
 31
0.0
  0
LINE
  5
E5
100
AcDbEntity
  8
0
  6
CONTINUOUS
 62
           7
100
AcDbLine
 10
70.204538436422
 20
158.992774187438
 30
0.0
 11
70.204538436422
 21
162.342591545395
 31
0.0
  0
LINE
  5
E6
100
AcDbEntity
  8
0
  6
CONTINUOUS
 62
           7
100
AcDbLine
 10
65.814730854521
 20
158.992774187438
 30
0.0
 11
70.204538436422
 21
158.992774187438
 31
0.0
  0
LINE
  5
E7
100
AcDbEntity
  8
0
  6
CONTINUOUS
 62
           7
100
AcDbLine
 10
65.814730854521
 20
135.342591776363
 30
0.0
 11
65.814730854521
 21
158.992774187438
 31
0.0
  0
LINE
  5
E8
100
AcDbEntity
  8
0
  6
CONTINUOUS
 62
           7
100
AcDbLine
 10
65.814730854521
 20
135.342591776363
 30
0.0
 11
70.204538436422
 21
135.342591776363
 31
0.0
  0
LINE
  5
E9
100
AcDbEntity
  8
0
  6
CONTINUOUS
 62
           7
100
AcDbLine
 10
70.204538436422
 20
135.342591776363
 30
0.0
 11
70.204538436422
 21
131.992774418406
 31
0.0
  0
LINE
  5
EA
100
AcDbEntity
  8
0
  6
CONTINUOUS
 62
           7
100
AcDbLine
 10
70.204538436422
 20
131.992774418406
 30
0.0
 11
68.800178499708
 21
131.992774418406
 31
0.0
  0
LINE
  5
EB
100
AcDbEntity
  8
0
  6
CONTINUOUS
 62
           7
100
AcDbLine
 10
68.800178499708
 20
131.992774418406
 30
0.0
 11
68.800178499708
 21
133.938232770972
 31
0.0
  0
LINE
  5
EC
100
AcDbEntity
  8
0
  6
CONTINUOUS
 62
           7
100
AcDbLine
 10
68.800178499708
 20
133.938232770972
 30
0.0
 11
65.814730854521
 21
133.938232770972
 31
0.0
  0
LINE
  5
ED
100
AcDbEntity
  8
0
  6
CONTINUOUS
 62
           7
100
AcDbLine
 10
65.814730854521
 20
98.397132343463
 30
0.0
 11
65.814730854521
 21
133.938232770972
 31
0.0
  0
LINE
  5
EE
100
AcDbEntity
  8
0
  6
CONTINUOUS
 62
           7
100
AcDbLine
 10
73.888310374507
 20
215.489678419046
 30
0.0
 11
73.125762076864
 21
218.09127960246
 31
0.0
  0
LINE
  5
EF
100
AcDbEntity
  8
0
  6
CONTINUOUS
 62
           7
100
AcDbLine
 10
68.532054455766
 20
215.489678419046
 30
0.0
 11
73.888310374507
 21
215.489678419046
 31
0.0
  0
LINE
  5
F0
100
AcDbEntity
  8
0
  6
CONTINUOUS
 62
           7
100
AcDbLine
 10
65.930453272352
 20
218.09127960246
 30
0.0
 11
68.532054455766
 21
215.489678419046
 31
0.0
  0
LINE
  5
F1
100
AcDbEntity
  8
0
  6
CONTINUOUS
 62
           7
100
AcDbLine
 10
68.032358916292
 20
214.989982879571
 30
0.0
 11
65.430757732877
 21
217.591584062986
 31
0.0
  0
ELLIPSE
  5
F2
100
AcDbEntity
  8
0
  6
CONTINUOUS
 62
           7
100
AcDbEllipse
 10
68.532662333988
 20
214.989375001349
 30
0.0
 11
0.3539842722996127
 21
-0.3539842722996127
 31
0.0
210
0.0
220
0.0
230
1.0
 40
0.998782765959
 41
2.3568034777778721
 42
3.9263818294017852
  0
LINE
  5
F3
100
AcDbEntity
  8
0
  6
CONTINUOUS
 62
           7
100
AcDbLine
 10
198.820398332367
 20
215.489678419046
 30
0.0
 11
199.58294663001
 21
218.091279602461
 31
0.0
  0
LINE
  5
F4
100
AcDbEntity
  8
0
  6
CONTINUOUS
 62
           7
100
AcDbLine
 10
204.176654251108
 20
215.489678419046
 30
0.0
 11
206.778255434522
 21
218.091279602461
 31
0.0
  0
LINE
  5
F5
100
AcDbEntity
  8
0
  6
CONTINUOUS
 62
           7
100
AcDbLine
 10
204.176654251108
 20
215.489678419046
 30
0.0
 11
198.820398332367
 21
215.489678419046
 31
0.0
  0
LINE
  5
F6
100
AcDbEntity
  8
0
  6
CONTINUOUS
 62
           7
100
AcDbLine
 10
207.277950973997
 20
217.591584062986
 30
0.0
 11
204.676349790582
 21
214.989982879572
 31
0.0
  0
ELLIPSE
  5
F7
100
AcDbEntity
  8
0
  6
CONTINUOUS
 62
           7
100
AcDbEllipse
 10
204.176046372885
 20
214.98937500135
 30
0.0
 11
0.3539842722995559
 21
0.3539842722995559
 31
0.0
210
0.0
220
0.0
230
1.0
 40
0.998782765959
 41
5.4983961313676826
 42
7.0679744829914037
  0
LINE
  5
F8
100
AcDbEntity
  8
0
  6
CONTINUOUS
 62
           7
100
AcDbLine
 10
75.575058491716
 20
213.802934027128
 30
0.0
 11
73.509727747926
 21
217.707306480817
 31
0.0
  0
LINE
  5
F9
100
AcDbEntity
  8
0
  6
CONTINUOUS
 62
           7
100
AcDbLine
 10
73.888310374507
 20
215.489678419046
 30
0.0
 11
75.575058491716
 21
213.802934027128
 31
0.0
  0
LINE
  5
FA
100
AcDbEntity
  8
0
  6
CONTINUOUS
 62
           7
100
AcDbLine
 10
198.820398332367
 20
215.489678419046
 30
0.0
 11
197.133650215158
 21
213.802934027128
 31
0.0
  0
LINE
  5
FB
100
AcDbEntity
  8
0
  6
CONTINUOUS
 62
           7
100
AcDbLine
 10
197.133650215158
 20
213.802934027128
 30
0.0
 11
199.198980958948
 21
217.707306480818
 31
0.0
  0
LINE
  5
FC
100
AcDbEntity
  8
0
  6
CONTINUOUS
 62
           7
100
AcDbLine
 10
204.676349790582
 20
209.633726960831
 30
0.0
 11
207.277950973997
 21
210.396275258474
 31
0.0
  0
LINE
  5
FD
100
AcDbEntity
  8
0
  6
CONTINUOUS
 62
           7
100
AcDbLine
 10
204.676349790582
 20
209.633726960831
 30
0.0
 11
204.676349790582
 21
214.989982879572
 31
0.0
  0
LINE
  5
FE
100
AcDbEntity
  8
0
  6
CONTINUOUS
 62
           7
100
AcDbLine
 10
197.133650215158
 20
213.802934027128
 30
0.0
 11
182.989602120409
 21
213.802934027128
 31
0.0
  0
LINE
  5
FF
100
AcDbEntity
  8
0
  6
CONTINUOUS
 62
           7
100
AcDbLine
 10
182.989341350088
 20
213.802665806227
 30
0.0
 11
182.989602120409
 21
213.802934027128
 31
0.0
  0
LINE
  5
100
100
AcDbEntity
  8
0
  6
CONTINUOUS
 62
           7
100
AcDbLine
 10
182.989341350088
 20
213.802665806227
 30
0.0
 11
89.719367356786
 21
213.802665806226
 31
0.0
  0
LINE
  5
101
100
AcDbEntity
  8
0
  6
CONTINUOUS
 62
           7
100
AcDbLine
 10
89.719367356786
 20
213.802665806226
 30
0.0
 11
89.719106586465
 21
213.802934027128
 31
0.0
  0
LINE
  5
102
100
AcDbEntity
  8
0
  6
CONTINUOUS
 62
           7
100
AcDbLine
 10
89.719106586465
 20
213.802934027128
 30
0.0
 11
75.575058491716
 21
213.802934027128
 31
0.0
  0
LINE
  5
103
100
AcDbEntity
  8
0
  6
CONTINUOUS
 62
           7
100
AcDbLine
 10
68.032358916292
 20
209.63372696083
 30
0.0
 11
65.430757732877
 21
210.396275258474
 31
0.0
  0
LINE
  5
104
100
AcDbEntity
  8
0
  6
CONTINUOUS
 62
           7
100
AcDbLine
 10
68.032358916292
 20
209.63372696083
 30
0.0
 11
68.032358916292
 21
214.989982879571
 31
0.0
  0
LINE
  5
105
100
AcDbEntity
  8
0
  6
CONTINUOUS
 62
           7
100
AcDbLine
 10
206.893977852354
 20
210.012309587412
 30
0.0
 11
202.989605398664
 21
207.946978843622
 31
0.0
  0
LINE
  5
106
100
AcDbEntity
  8
0
  6
CONTINUOUS
 62
           7
100
AcDbLine
 10
202.989605398664
 20
207.946978843622
 30
0.0
 11
204.676349790582
 21
209.633726960831
 31
0.0
  0
LINE
  5
107
100
AcDbEntity
  8
0
  6
CONTINUOUS
 62
           7
100
AcDbLine
 10
69.71910330821
 20
207.946978843622
 30
0.0
 11
68.032358916292
 21
209.63372696083
 31
0.0
  0
LINE
  5
108
100
AcDbEntity
  8
0
  6
CONTINUOUS
 62
           7
100
AcDbLine
 10
65.81473085452
 20
210.012309587411
 30
0.0
 11
69.71910330821
 21
207.946978843622
 31
0.0
  0
LINE
  5
109
100
AcDbEntity
  8
0
  6
CONTINUOUS
 62
           7
100
AcDbLine
 10
69.71910330821
 20
207.946978843622
 30
0.0
 11
69.71910330821
 21
197.667662388496
 31
0.0
  0
LINE
  5
10A
100
AcDbEntity
  8
0
  6
CONTINUOUS
 62
           7
100
AcDbLine
 10
69.71910330821
 20
197.667662388496
 30
0.0
 11
65.81473085452
 21
197.342589831762
 31
0.0
  0
LINE
  5
10B
100
AcDbEntity
  8
0
  6
CONTINUOUS
 62
           7
100
AcDbLine
 10
202.989605398664
 20
166.667661032491
 30
0.0
 11
202.989605398664
 21
207.946978843622
 31
0.0
  0
LINE
  5
10C
100
AcDbEntity
  8
0
  6
CONTINUOUS
 62
           7
100
AcDbLine
 10
206.893977852354
 20
166.342592201047
 30
0.0
 11
202.989605398664
 21
166.667661032491
 31
0.0
  0
LINE
  5
10D
100
AcDbEntity
  8
0
  6
CONTINUOUS
 62
           7
100
AcDbLine
 10
70.529607267866
 20
197.667662388496
 30
0.0
 11
69.71910330821
 21
197.667662388496
 31
0.0
  0
LINE
  5
10E
100
AcDbEntity
  8
0
  6
CONTINUOUS
 62
           7
100
AcDbLine
 10
70.529607267866
 20
197.667662388496
 30
0.0
 11
70.204538436422
 21
197.342589831762
 31
0.0
  0
LINE
  5
10F
100
AcDbEntity
  8
0
  6
CONTINUOUS
 62
           7
100
AcDbLine
 10
70.529607267866
 20
193.667706436328
 30
0.0
 11
70.529607267866
 21
197.667662388496
 31
0.0
  0
LINE
  5
110
100
AcDbEntity
  8
0
  6
CONTINUOUS
 62
           7
100
AcDbLine
 10
70.529607267866
 20
193.667706436328
 30
0.0
 11
70.204538436422
 21
193.992775267772
 31
0.0
  0
LINE
  5
111
100
AcDbEntity
  8
0
  6
CONTINUOUS
 62
           7
100
AcDbLine
 10
68.529625566492
 20
195.667684412412
 30
0.0
 11
68.800178499708
 21
195.938233620338
 31
0.0
  0
LINE
  5
112
100
AcDbEntity
  8
0
  6
CONTINUOUS
 62
           7
100
AcDbLine
 10
68.529625566492
 20
195.667684412412
 30
0.0
 11
67.554352016935
 21
195.667684412412
 31
0.0
  0
LINE
  5
113
100
AcDbEntity
  8
0
  6
CONTINUOUS
 62
           7
100
AcDbLine
 10
67.417224081049
 20
195.804812348298
 30
0.0
 11
67.554352016935
 21
195.667684412412
 31
0.0
  0
LINE
  5
114
100
AcDbEntity
  8
0
  6
CONTINUOUS
 62
           7
100
AcDbLine
 10
65.81473085452
 20
195.938233620338
 30
0.0
 11
67.417224081049
 21
195.804812348298
 31
0.0
  0
LINE
  5
115
100
AcDbEntity
  8
0
  6
CONTINUOUS
 62
           7
100
AcDbLine
 10
67.417224081049
 20
165.530553421788
 30
0.0
 11
67.417224081049
 21
160.530553533546
 31
0.0
  0
LINE
  5
116
100
AcDbEntity
  8
0
  6
CONTINUOUS
 62
           7
100
AcDbLine
 10
67.417224081049
 20
160.530553533546
 30
0.0
 11
65.814730854521
 21
160.397133192829
 31
0.0
  0
LINE
  5
117
100
AcDbEntity
  8
0
  6
CONTINUOUS
 62
           7
100
AcDbLine
 10
67.417224081049
 20
195.804812348298
 30
0.0
 11
67.417224081049
 21
190.80481339138
 31
0.0
  0
LINE
  5
118
100
AcDbEntity
  8
0
  6
CONTINUOUS
 62
           7
100
AcDbLine
 10
67.417224081049
 20
190.80481339138
 30
0.0
 11
69.064271779546
 21
189.157765692882
 31
0.0
  0
LINE
  5
119
100
AcDbEntity
  8
0
  6
CONTINUOUS
 62
           7
100
AcDbLine
 10
69.064271779546
 20
189.157765692882
 30
0.0
 11
69.064271779546
 21
193.722226059846
 31
0.0
  0
LINE
  5
11A
100
AcDbEntity
  8
0
  6
CONTINUOUS
 62
           7
100
AcDbLine
 10
69.064271779546
 20
193.722226059846
 30
0.0
 11
69.71910330821
 21
193.667706436328
 31
0.0
  0
LINE
  5
11B
100
AcDbEntity
  8
0
  6
CONTINUOUS
 62
           7
100
AcDbLine
 10
69.71910330821
 20
193.667706436328
 30
0.0
 11
69.71910330821
 21
162.667661308162
 31
0.0
  0
LINE
  5
11C
100
AcDbEntity
  8
0
  6
CONTINUOUS
 62
           7
100
AcDbLine
 10
69.71910330821
 20
162.667661308162
 30
0.0
 11
69.064271779546
 21
162.613140753321
 31
0.0
  0
LINE
  5
11D
100
AcDbEntity
  8
0
  6
CONTINUOUS
 62
           7
100
AcDbLine
 10
69.064271779546
 20
162.613140753321
 30
0.0
 11
69.064271779546
 21
167.177601120285
 31
0.0
  0
LINE
  5
11E
100
AcDbEntity
  8
0
  6
CONTINUOUS
 62
           7
100
AcDbLine
 10
69.064271779546
 20
167.177601120285
 30
0.0
 11
67.417224081049
 21
165.530553421788
 31
0.0
  0
LINE
  5
11F
100
AcDbEntity
  8
0
  6
CONTINUOUS
 62
           7
100
AcDbLine
 10
68.529625566492
 20
193.722226059846
 30
0.0
 11
68.800178499708
 21
193.992775267772
 31
0.0
  0
LINE
  5
120
100
AcDbEntity
  8
0
  6
CONTINUOUS
 62
           7
100
AcDbLine
 10
68.529625566492
 20
193.722226059846
 30
0.0
 11
68.529625566492
 21
195.667684412412
 31
0.0
  0
LINE
  5
121
100
AcDbEntity
  8
0
  6
CONTINUOUS
 62
           7
100
AcDbLine
 10
69.71910330821
 20
193.667706436328
 30
0.0
 11
70.529607267866
 21
193.667706436328
 31
0.0
  0
LINE
  5
122
100
AcDbEntity
  8
0
  6
CONTINUOUS
 62
           7
100
AcDbLine
 10
69.064271779546
 20
193.722226059846
 30
0.0
 11
68.529625566492
 21
193.722226059846
 31
0.0
  0
LINE
  5
123
100
AcDbEntity
  8
0
  6
CONTINUOUS
 62
           7
100
AcDbLine
 10
202.194002600202
 20
166.667661032491
 30
0.0
 11
202.519071431646
 21
166.342592201047
 31
0.0
  0
LINE
  5
124
100
AcDbEntity
  8
0
  6
CONTINUOUS
 62
           7
100
AcDbLine
 10
202.989605398664
 20
166.667661032491
 30
0.0
 11
202.194002600202
 21
166.667661032491
 31
0.0
  0
LINE
  5
125
100
AcDbEntity
  8
0
  6
CONTINUOUS
 62
           7
100
AcDbLine
 10
202.194002600202
 20
162.667705080323
 30
0.0
 11
202.519071431646
 21
162.992773911767
 31
0.0
  0
LINE
  5
126
100
AcDbEntity
  8
0
  6
CONTINUOUS
 62
           7
100
AcDbLine
 10
202.194002600202
 20
166.667661032491
 30
0.0
 11
202.194002600202
 21
162.667705080323
 31
0.0
  0
LINE
  5
127
100
AcDbEntity
  8
0
  6
CONTINUOUS
 62
           7
100
AcDbLine
 10
206.893977852354
 20
164.938232264333
 30
0.0
 11
205.291484625826
 21
164.804812854938
 31
0.0
  0
LINE
  5
128
100
AcDbEntity
  8
0
  6
CONTINUOUS
 62
           7
100
AcDbLine
 10
205.291484625826
 20
164.804812854938
 30
0.0
 11
205.154356689939
 21
164.667683056407
 31
0.0
  0
LINE
  5
129
100
AcDbEntity
  8
0
  6
CONTINUOUS
 62
           7
100
AcDbLine
 10
205.154356689939
 20
164.667683056407
 30
0.0
 11
204.193984301576
 21
164.667683056407
 31
0.0
  0
LINE
  5
12A
100
AcDbEntity
  8
0
  6
CONTINUOUS
 62
           7
100
AcDbLine
 10
204.193984301576
 20
164.667683056407
 30
0.0
 11
203.92343136836
 21
164.938232264333
 31
0.0
  0
LINE
  5
12B
100
AcDbEntity
  8
0
  6
CONTINUOUS
 62
           7
100
AcDbLine
 10
202.989605398664
 20
131.667660883479
 30
0.0
 11
202.989605398664
 21
162.667705080323
 31
0.0
  0
LINE
  5
12C
100
AcDbEntity
  8
0
  6
CONTINUOUS
 62
           7
100
AcDbLine
 10
203.644436927328
 20
162.722224703841
 30
0.0
 11
202.989605398664
 21
162.667705080323
 31
0.0
  0
LINE
  5
12D
100
AcDbEntity
  8
0
  6
CONTINUOUS
 62
           7
100
AcDbLine
 10
203.644436927328
 20
162.722224703841
 30
0.0
 11
203.644436927328
 21
158.157765268199
 31
0.0
  0
LINE
  5
12E
100
AcDbEntity
  8
0
  6
CONTINUOUS
 62
           7
100
AcDbLine
 10
205.291484625826
 20
159.804812035375
 30
0.0
 11
203.644436927328
 21
158.157765268199
 31
0.0
  0
LINE
  5
12F
100
AcDbEntity
  8
0
  6
CONTINUOUS
 62
           7
100
AcDbLine
 10
205.291484625826
 20
164.804812854938
 30
0.0
 11
205.291484625826
 21
159.804812035375
 31
0.0
  0
LINE
  5
130
100
AcDbEntity
  8
0
  6
CONTINUOUS
 62
           7
100
AcDbLine
 10
206.893977852354
 20
129.397133699469
 30
0.0
 11
205.291484625826
 21
129.530553108864
 31
0.0
  0
LINE
  5
131
100
AcDbEntity
  8
0
  6
CONTINUOUS
 62
           7
100
AcDbLine
 10
205.291484625826
 20
134.530553928428
 30
0.0
 11
205.291484625826
 21
129.530553108864
 31
0.0
  0
LINE
  5
132
100
AcDbEntity
  8
0
  6
CONTINUOUS
 62
           7
100
AcDbLine
 10
203.644436927328
 20
136.177600695603
 30
0.0
 11
205.291484625826
 21
134.530553928428
 31
0.0
  0
LINE
  5
133
100
AcDbEntity
  8
0
  6
CONTINUOUS
 62
           7
100
AcDbLine
 10
203.644436927328
 20
136.177600695603
 30
0.0
 11
203.644436927328
 21
131.613141259961
 31
0.0
  0
LINE
  5
134
100
AcDbEntity
  8
0
  6
CONTINUOUS
 62
           7
100
AcDbLine
 10
203.644436927328
 20
131.613141259961
 30
0.0
 11
202.989605398664
 21
131.667660883479
 31
0.0
  0
LINE
  5
135
100
AcDbEntity
  8
0
  6
CONTINUOUS
 62
           7
100
AcDbLine
 10
204.193984301576
 20
164.667683056407
 30
0.0
 11
204.193984301576
 21
162.722224703841
 31
0.0
  0
LINE
  5
136
100
AcDbEntity
  8
0
  6
CONTINUOUS
 62
           7
100
AcDbLine
 10
204.193984301576
 20
162.722224703841
 30
0.0
 11
203.92343136836
 21
162.992773911767
 31
0.0
  0
LINE
  5
137
100
AcDbEntity
  8
0
  6
CONTINUOUS
 62
           7
100
AcDbLine
 10
202.989605398664
 20
162.667705080323
 30
0.0
 11
202.194002600202
 21
162.667705080323
 31
0.0
  0
LINE
  5
138
100
AcDbEntity
  8
0
  6
CONTINUOUS
 62
           7
100
AcDbLine
 10
204.193984301576
 20
162.722224703841
 30
0.0
 11
203.644436927328
 21
162.722224703841
 31
0.0
  0
LINE
  5
139
100
AcDbEntity
  8
0
  6
CONTINUOUS
 62
           7
100
AcDbLine
 10
70.529607267866
 20
162.667661308162
 30
0.0
 11
70.204538436422
 21
162.342591545395
 31
0.0
  0
LINE
  5
13A
100
AcDbEntity
  8
0
  6
CONTINUOUS
 62
           7
100
AcDbLine
 10
68.529625566492
 20
162.613140753321
 30
0.0
 11
68.800178499708
 21
162.342591545395
 31
0.0
  0
LINE
  5
13B
100
AcDbEntity
  8
0
  6
CONTINUOUS
 62
           7
100
AcDbLine
 10
68.529625566492
 20
162.613140753321
 30
0.0
 11
69.064271779546
 21
162.613140753321
 31
0.0
  0
LINE
  5
13C
100
AcDbEntity
  8
0
  6
CONTINUOUS
 62
           7
100
AcDbLine
 10
70.529607267866
 20
162.667661308162
 30
0.0
 11
69.71910330821
 21
162.667661308162
 31
0.0
  0
LINE
  5
13D
100
AcDbEntity
  8
0
  6
CONTINUOUS
 62
           7
100
AcDbLine
 10
70.529607267866
 20
158.667704424672
 30
0.0
 11
70.529607267866
 21
162.667661308162
 31
0.0
  0
LINE
  5
13E
100
AcDbEntity
  8
0
  6
CONTINUOUS
 62
           7
100
AcDbLine
 10
70.529607267866
 20
158.667704424672
 30
0.0
 11
70.204538436422
 21
158.992774187438
 31
0.0
  0
LINE
  5
13F
100
AcDbEntity
  8
0
  6
CONTINUOUS
 62
           7
100
AcDbLine
 10
68.529625566492
 20
160.667683332078
 30
0.0
 11
68.800178499708
 21
160.397133192829
 31
0.0
  0
LINE
  5
140
100
AcDbEntity
  8
0
  6
CONTINUOUS
 62
           7
100
AcDbLine
 10
68.529625566492
 20
160.667683332078
 30
0.0
 11
68.529625566492
 21
162.613140753321
 31
0.0
  0
LINE
  5
141
100
AcDbEntity
  8
0
  6
CONTINUOUS
 62
           7
100
AcDbLine
 10
67.417224081049
 20
160.530553533546
 30
0.0
 11
67.554352016935
 21
160.667683332078
 31
0.0
  0
LINE
  5
142
100
AcDbEntity
  8
0
  6
CONTINUOUS
 62
           7
100
AcDbLine
 10
67.554352016935
 20
160.667683332078
 30
0.0
 11
68.529625566492
 21
160.667683332078
 31
0.0
  0
LINE
  5
143
100
AcDbEntity
  8
0
  6
CONTINUOUS
 62
           7
100
AcDbLine
 10
65.814730854521
 20
158.992774187438
 30
0.0
 11
69.71910330821
 21
158.667704424672
 31
0.0
  0
LINE
  5
144
100
AcDbEntity
  8
0
  6
CONTINUOUS
 62
           7
100
AcDbLine
 10
69.71910330821
 20
158.667704424672
 30
0.0
 11
69.71910330821
 21
135.66766153913
 31
0.0
  0
LINE
  5
145
100
AcDbEntity
  8
0
  6
CONTINUOUS
 62
           7
100
AcDbLine
 10
65.814730854521
 20
135.342591776363
 30
0.0
 11
69.71910330821
 21
135.66766153913
 31
0.0
  0
LINE
  5
146
100
AcDbEntity
  8
0
  6
CONTINUOUS
 62
           7
100
AcDbLine
 10
69.71910330821
 20
158.667704424672
 30
0.0
 11
70.529607267866
 21
158.667704424672
 31
0.0
  0
LINE
  5
147
100
AcDbEntity
  8
0
  6
CONTINUOUS
 62
           7
100
AcDbLine
 10
70.529607267866
 20
131.66770465564
 30
0.0
 11
70.204538436422
 21
131.992774418406
 31
0.0
  0
LINE
  5
148
100
AcDbEntity
  8
0
  6
CONTINUOUS
 62
           7
100
AcDbLine
 10
70.529607267866
 20
135.66766153913
 30
0.0
 11
70.204538436422
 21
135.342591776363
 31
0.0
  0
LINE
  5
149
100
AcDbEntity
  8
0
  6
CONTINUOUS
 62
           7
100
AcDbLine
 10
70.529607267866
 20
135.66766153913
 30
0.0
 11
70.529607267866
 21
131.66770465564
 31
0.0
  0
LINE
  5
14A
100
AcDbEntity
  8
0
  6
CONTINUOUS
 62
           7
100
AcDbLine
 10
69.71910330821
 20
135.66766153913
 30
0.0
 11
70.529607267866
 21
135.66766153913
 31
0.0
  0
LINE
  5
14B
100
AcDbEntity
  8
0
  6
CONTINUOUS
 62
           7
100
AcDbLine
 10
68.529625566492
 20
133.667682631723
 30
0.0
 11
68.800178499708
 21
133.938232770972
 31
0.0
  0
LINE
  5
14C
100
AcDbEntity
  8
0
  6
CONTINUOUS
 62
           7
100
AcDbLine
 10
67.554352016935
 20
133.667682631723
 30
0.0
 11
68.529625566492
 21
133.667682631723
 31
0.0
  0
LINE
  5
14D
100
AcDbEntity
  8
0
  6
CONTINUOUS
 62
           7
100
AcDbLine
 10
67.417224081049
 20
133.804812430255
 30
0.0
 11
67.554352016935
 21
133.667682631723
 31
0.0
  0
LINE
  5
14E
100
AcDbEntity
  8
0
  6
CONTINUOUS
 62
           7
100
AcDbLine
 10
67.417224081049
 20
133.804812430255
 30
0.0
 11
65.814730854521
 21
133.938232770972
 31
0.0
  0
LINE
  5
14F
100
AcDbEntity
  8
0
  6
CONTINUOUS
 62
           7
100
AcDbLine
 10
68.529625566492
 20
131.72222521048
 30
0.0
 11
68.800178499708
 21
131.992774418406
 31
0.0
  0
LINE
  5
150
100
AcDbEntity
  8
0
  6
CONTINUOUS
 62
           7
100
AcDbLine
 10
68.529625566492
 20
133.667682631723
 30
0.0
 11
68.529625566492
 21
131.72222521048
 31
0.0
  0
LINE
  5
151
100
AcDbEntity
  8
0
  6
CONTINUOUS
 62
           7
100
AcDbLine
 10
67.417224081049
 20
98.530553615503
 30
0.0
 11
67.417224081049
 21
103.530552572421
 31
0.0
  0
LINE
  5
152
100
AcDbEntity
  8
0
  6
CONTINUOUS
 62
           7
100
AcDbLine
 10
65.814730854521
 20
98.397132343463
 30
0.0
 11
67.417224081049
 21
98.530553615503
 31
0.0
  0
LINE
  5
153
100
AcDbEntity
  8
0
  6
CONTINUOUS
 62
           7
100
AcDbLine
 10
67.417224081049
 20
128.804812542014
 30
0.0
 11
67.417224081049
 21
133.804812430255
 31
0.0
  0
LINE
  5
154
100
AcDbEntity
  8
0
  6
CONTINUOUS
 62
           7
100
AcDbLine
 10
69.064271779547
 20
127.157764843516
 30
0.0
 11
67.417224081049
 21
128.804812542014
 31
0.0
  0
LINE
  5
155
100
AcDbEntity
  8
0
  6
CONTINUOUS
 62
           7
100
AcDbLine
 10
69.064271779547
 20
127.157764843516
 30
0.0
 11
69.064271779547
 21
131.72222521048
 31
0.0
  0
LINE
  5
156
100
AcDbEntity
  8
0
  6
CONTINUOUS
 62
           7
100
AcDbLine
 10
69.71910330821
 20
131.66770465564
 30
0.0
 11
69.064271779547
 21
131.72222521048
 31
0.0
  0
LINE
  5
157
100
AcDbEntity
  8
0
  6
CONTINUOUS
 62
           7
100
AcDbLine
 10
69.71910330821
 20
131.66770465564
 30
0.0
 11
69.71910330821
 21
100.667659527473
 31
0.0
  0
LINE
  5
158
100
AcDbEntity
  8
0
  6
CONTINUOUS
 62
           7
100
AcDbLine
 10
69.064271779547
 20
100.613139903955
 30
0.0
 11
69.71910330821
 21
100.667659527473
 31
0.0
  0
LINE
  5
159
100
AcDbEntity
  8
0
  6
CONTINUOUS
 62
           7
100
AcDbLine
 10
69.064271779547
 20
100.613139903955
 30
0.0
 11
69.064271779547
 21
105.177600270919
 31
0.0
  0
LINE
  5
15A
100
AcDbEntity
  8
0
  6
CONTINUOUS
 62
           7
100
AcDbLine
 10
67.417224081049
 20
103.530552572421
 30
0.0
 11
69.064271779547
 21
105.177600270919
 31
0.0
  0
LINE
  5
15B
100
AcDbEntity
  8
0
  6
CONTINUOUS
 62
           7
100
AcDbLine
 10
68.529625566492
 20
131.72222521048
 30
0.0
 11
69.064271779547
 21
131.72222521048
 31
0.0
  0
LINE
  5
15C
100
AcDbEntity
  8
0
  6
CONTINUOUS
 62
           7
100
AcDbLine
 10
70.529607267866
 20
131.66770465564
 30
0.0
 11
69.71910330821
 21
131.66770465564
 31
0.0
  0
LINE
  5
15D
100
AcDbEntity
  8
0
  6
CONTINUOUS
 62
           7
100
AcDbLine
 10
202.194002600202
 20
131.667660883479
 30
0.0
 11
202.519071431646
 21
131.342592052035
 31
0.0
  0
LINE
  5
15E
100
AcDbEntity
  8
0
  6
CONTINUOUS
 62
           7
100
AcDbLine
 10
202.989605398664
 20
131.667660883479
 30
0.0
 11
202.194002600202
 21
131.667660883479
 31
0.0
  0
LINE
  5
15F
100
AcDbEntity
  8
0
  6
CONTINUOUS
 62
           7
100
AcDbLine
 10
203.644436927328
 20
131.613141259961
 30
0.0
 11
204.193984301576
 21
131.613141259961
 31
0.0
  0
LINE
  5
160
100
AcDbEntity
  8
0
  6
CONTINUOUS
 62
           7
100
AcDbLine
 10
203.92343136836
 20
131.342592052035
 30
0.0
 11
204.193984301576
 21
131.613141259961
 31
0.0
  0
LINE
  5
161
100
AcDbEntity
  8
0
  6
CONTINUOUS
 62
           7
100
AcDbLine
 10
204.193984301576
 20
131.613141259961
 30
0.0
 11
204.193984301576
 21
129.667682907395
 31
0.0
  0
LINE
  5
162
100
AcDbEntity
  8
0
  6
CONTINUOUS
 62
           7
100
AcDbLine
 10
203.92343136836
 20
129.397133699469
 30
0.0
 11
204.193984301576
 21
129.667682907395
 31
0.0
  0
LINE
  5
163
100
AcDbEntity
  8
0
  6
CONTINUOUS
 62
           7
100
AcDbLine
 10
202.194002600202
 20
127.667704931312
 30
0.0
 11
202.519071431646
 21
127.992773762755
 31
0.0
  0
LINE
  5
164
100
AcDbEntity
  8
0
  6
CONTINUOUS
 62
           7
100
AcDbLine
 10
202.194002600202
 20
127.667704931312
 30
0.0
 11
202.194002600202
 21
131.667660883479
 31
0.0
  0
LINE
  5
165
100
AcDbEntity
  8
0
  6
CONTINUOUS
 62
           7
100
AcDbLine
 10
204.193984301576
 20
129.667682907395
 30
0.0
 11
205.154356689939
 21
129.667682907395
 31
0.0
  0
LINE
  5
166
100
AcDbEntity
  8
0
  6
CONTINUOUS
 62
           7
100
AcDbLine
 10
205.291484625826
 20
129.530553108864
 30
0.0
 11
205.154356689939
 21
129.667682907395
 31
0.0
  0
LINE
  5
167
100
AcDbEntity
  8
0
  6
CONTINUOUS
 62
           7
100
AcDbLine
 10
206.893977852354
 20
84.32305637639
 30
0.0
 11
202.989605398665
 21
86.38838712018
 31
0.0
  0
LINE
  5
168
100
AcDbEntity
  8
0
  6
CONTINUOUS
 62
           7
100
AcDbLine
 10
202.989605398665
 20
86.38838712018
 30
0.0
 11
202.989605398664
 21
127.667704931312
 31
0.0
  0
LINE
  5
169
100
AcDbEntity
  8
0
  6
CONTINUOUS
 62
           7
100
AcDbLine
 10
206.893977852354
 20
127.992773762755
 30
0.0
 11
202.989605398664
 21
127.667704931312
 31
0.0
  0
LINE
  5
16A
100
AcDbEntity
  8
0
  6
CONTINUOUS
 62
           7
100
AcDbLine
 10
202.989605398664
 20
127.667704931312
 30
0.0
 11
202.194002600202
 21
127.667704931312
 31
0.0
  0
LINE
  5
16B
100
AcDbEntity
  8
0
  6
CONTINUOUS
 62
           7
100
AcDbLine
 10
70.529607267866
 20
96.667703575305
 30
0.0
 11
70.204538436422
 21
96.992776132039
 31
0.0
  0
LINE
  5
16C
100
AcDbEntity
  8
0
  6
CONTINUOUS
 62
           7
100
AcDbLine
 10
70.529607267866
 20
100.667659527473
 30
0.0
 11
70.204538436422
 21
100.342590696029
 31
0.0
  0
LINE
  5
16D
100
AcDbEntity
  8
0
  6
CONTINUOUS
 62
           7
100
AcDbLine
 10
70.529607267866
 20
100.667659527473
 30
0.0
 11
70.529607267866
 21
96.667703575305
 31
0.0
  0
LINE
  5
16E
100
AcDbEntity
  8
0
  6
CONTINUOUS
 62
           7
100
AcDbLine
 10
69.71910330821
 20
100.667659527473
 30
0.0
 11
70.529607267866
 21
100.667659527473
 31
0.0
  0
LINE
  5
16F
100
AcDbEntity
  8
0
  6
CONTINUOUS
 62
           7
100
AcDbLine
 10
68.529625566492
 20
100.613139903955
 30
0.0
 11
68.800178499708
 21
100.342590696029
 31
0.0
  0
LINE
  5
170
100
AcDbEntity
  8
0
  6
CONTINUOUS
 62
           7
100
AcDbLine
 10
69.064271779547
 20
100.613139903955
 30
0.0
 11
68.529625566492
 21
100.613139903955
 31
0.0
  0
LINE
  5
171
100
AcDbEntity
  8
0
  6
CONTINUOUS
 62
           7
100
AcDbLine
 10
68.529625566492
 20
98.667681551389
 30
0.0
 11
68.800178499708
 21
98.397132343463
 31
0.0
  0
LINE
  5
172
100
AcDbEntity
  8
0
  6
CONTINUOUS
 62
           7
100
AcDbLine
 10
68.529625566492
 20
100.613139903955
 30
0.0
 11
68.529625566492
 21
98.667681551389
 31
0.0
  0
LINE
  5
173
100
AcDbEntity
  8
0
  6
CONTINUOUS
 62
           7
100
AcDbLine
 10
67.417224081049
 20
98.530553615503
 30
0.0
 11
67.554352016935
 21
98.667681551389
 31
0.0
  0
LINE
  5
174
100
AcDbEntity
  8
0
  6
CONTINUOUS
 62
           7
100
AcDbLine
 10
68.529625566492
 20
98.667681551389
 30
0.0
 11
67.554352016935
 21
98.667681551389
 31
0.0
  0
LINE
  5
175
100
AcDbEntity
  8
0
  6
CONTINUOUS
 62
           7
100
AcDbLine
 10
65.814730854521
 20
84.32305637639
 30
0.0
 11
69.71910330821
 21
86.38838712018
 31
0.0
  0
LINE
  5
176
100
AcDbEntity
  8
0
  6
CONTINUOUS
 62
           7
100
AcDbLine
 10
69.71910330821
 20
96.667703575305
 30
0.0
 11
65.814730854521
 21
96.992776132039
 31
0.0
  0
LINE
  5
177
100
AcDbEntity
  8
0
  6
CONTINUOUS
 62
           7
100
AcDbLine
 10
69.71910330821
 20
96.667703575305
 30
0.0
 11
69.71910330821
 21
86.38838712018
 31
0.0
  0
LINE
  5
178
100
AcDbEntity
  8
0
  6
CONTINUOUS
 62
           7
100
AcDbLine
 10
70.529607267866
 20
96.667703575305
 30
0.0
 11
69.71910330821
 21
96.667703575305
 31
0.0
  0
LINE
  5
179
100
AcDbEntity
  8
0
  6
CONTINUOUS
 62
           7
100
AcDbLine
 10
69.71910330821
 20
86.38838712018
 30
0.0
 11
68.032358916292
 21
84.701639002971
 31
0.0
  0
LINE
  5
17A
100
AcDbEntity
  8
0
  6
CONTINUOUS
 62
           7
100
AcDbLine
 10
68.032358916292
 20
84.701639002971
 30
0.0
 11
65.430757732878
 21
83.939090705327
 31
0.0
  0
LINE
  5
17B
100
AcDbEntity
  8
0
  6
CONTINUOUS
 62
           7
100
AcDbLine
 10
204.676349790583
 20
84.701639002972
 30
0.0
 11
207.277950973997
 21
83.939090705328
 31
0.0
  0
LINE
  5
17C
100
AcDbEntity
  8
0
  6
CONTINUOUS
 62
           7
100
AcDbLine
 10
202.989605398665
 20
86.38838712018
 30
0.0
 11
204.676349790583
 21
84.701639002972
 31
0.0
  0
LINE
  5
17D
100
AcDbEntity
  8
0
  6
CONTINUOUS
 62
           7
100
AcDbLine
 10
68.032358916292
 20
84.701639002971
 30
0.0
 11
68.032358916292
 21
79.34538308423
 31
0.0
  0
LINE
  5
17E
100
AcDbEntity
  8
0
  6
CONTINUOUS
 62
           7
100
AcDbLine
 10
65.430757732878
 20
76.743781900815
 30
0.0
 11
68.032358916292
 21
79.34538308423
 31
0.0
  0
LINE
  5
17F
100
AcDbEntity
  8
0
  6
CONTINUOUS
 62
           7
100
AcDbLine
 10
204.676349790583
 20
79.34538308423
 30
0.0
 11
207.277950973997
 21
76.743781900816
 31
0.0
  0
LINE
  5
180
100
AcDbEntity
  8
0
  6
CONTINUOUS
 62
           7
100
AcDbLine
 10
204.676349790583
 20
84.701639002972
 30
0.0
 11
204.676349790583
 21
79.34538308423
 31
0.0
  0
LINE
  5
181
100
AcDbEntity
  8
0
  6
CONTINUOUS
 62
           7
100
AcDbLine
 10
197.133650215159
 20
80.532431936674
 30
0.0
 11
199.198980958948
 21
76.628059482984
 31
0.0
  0
LINE
  5
182
100
AcDbEntity
  8
0
  6
CONTINUOUS
 62
           7
100
AcDbLine
 10
198.820398332367
 20
78.845687544756
 30
0.0
 11
197.133650215159
 21
80.532431936674
 31
0.0
  0
LINE
  5
183
100
AcDbEntity
  8
0
  6
CONTINUOUS
 62
           7
100
AcDbLine
 10
198.820398332367
 20
78.845687544756
 30
0.0
 11
199.582946630011
 21
76.244086361341
 31
0.0
  0
LINE
  5
184
100
AcDbEntity
  8
0
  6
CONTINUOUS
 62
           7
100
AcDbLine
 10
75.575058491716
 20
80.532431936674
 30
0.0
 11
73.509727747927
 21
76.628059482984
 31
0.0
  0
LINE
  5
185
100
AcDbEntity
  8
0
  6
CONTINUOUS
 62
           7
100
AcDbLine
 10
75.575058491716
 20
80.532431936674
 30
0.0
 11
89.719106586466
 21
80.532431936674
 31
0.0
  0
LINE
  5
186
100
AcDbEntity
  8
0
  6
CONTINUOUS
 62
           7
100
AcDbLine
 10
89.719367356787
 20
80.532700157575
 30
0.0
 11
89.719106586466
 21
80.532431936674
 31
0.0
  0
LINE
  5
187
100
AcDbEntity
  8
0
  6
CONTINUOUS
 62
           7
100
AcDbLine
 10
89.719367356787
 20
80.532700157575
 30
0.0
 11
182.989341350088
 21
80.532700157576
 31
0.0
  0
LINE
  5
188
100
AcDbEntity
  8
0
  6
CONTINUOUS
 62
           7
100
AcDbLine
 10
182.989341350088
 20
80.532700157576
 30
0.0
 11
182.989602120409
 21
80.532431936674
 31
0.0
  0
LINE
  5
189
100
AcDbEntity
  8
0
  6
CONTINUOUS
 62
           7
100
AcDbLine
 10
182.989602120409
 20
80.532431936674
 30
0.0
 11
197.133650215159
 21
80.532431936674
 31
0.0
  0
LINE
  5
18A
100
AcDbEntity
  8
0
  6
CONTINUOUS
 62
           7
100
AcDbLine
 10
73.888310374508
 20
78.845687544756
 30
0.0
 11
73.125762076864
 21
76.244086361341
 31
0.0
  0
LINE
  5
18B
100
AcDbEntity
  8
0
  6
CONTINUOUS
 62
           7
100
AcDbLine
 10
73.888310374508
 20
78.845687544756
 30
0.0
 11
75.575058491716
 21
80.532431936674
 31
0.0
  0
LINE
  5
18C
100
AcDbEntity
  8
0
  6
CONTINUOUS
 62
           7
100
AcDbLine
 10
206.778255434523
 20
76.244086361341
 30
0.0
 11
204.176654251108
 21
78.845687544756
 31
0.0
  0
ELLIPSE
  5
18D
100
AcDbEntity
  8
0
  6
CONTINUOUS
 62
           7
100
AcDbEllipse
 10
204.176046372886
 20
79.345990962453
 30
0.0
 11
0.3539842722996127
 21
-0.3539842722996127
 31
0.0
210
0.0
220
0.0
230
1.0
 40
0.998782765959
 41
5.4983961313678691
 42
7.0679744829914446
  0
LINE
  5
18E
100
AcDbEntity
  8
0
  6
CONTINUOUS
 62
           7
100
AcDbLine
 10
68.532054455767
 20
78.845687544755
 30
0.0
 11
65.930453272352
 21
76.244086361341
 31
0.0
  0
ELLIPSE
  5
18F
100
AcDbEntity
  8
0
  6
CONTINUOUS
 62
           7
100
AcDbEllipse
 10
68.532662333989
 20
79.345990962452
 30
0.0
 11
0.3539842722996127
 21
0.3539842722996127
 31
0.0
210
0.0
220
0.0
230
1.0
 40
0.998782765959
 41
2.356803477777889
 42
3.9263818294017683
  0
LINE
  5
190
100
AcDbEntity
  8
0
  6
CONTINUOUS
 62
           7
100
AcDbLine
 10
204.176654251108
 20
78.845687544756
 30
0.0
 11
198.820398332367
 21
78.845687544756
 31
0.0
  0
LINE
  5
191
100
AcDbEntity
  8
0
  6
CONTINUOUS
 62
           7
100
AcDbLine
 10
68.532054455767
 20
78.845687544755
 30
0.0
 11
73.888310374508
 21
78.845687544756
 31
0.0
  0
LINE
  5
192
100
AcDbEntity
  8
0
  6
CONTINUOUS
 62
           7
100
AcDbLine
 10
215.185751350412
 20
137.167683205418
 30
0.0
 11
215.517078669557
 21
137.167683205418
 31
0.0
  0
LINE
  5
193
100
AcDbEntity
  8
0
  6
CONTINUOUS
 62
           7
100
AcDbLine
 10
215.185751350412
 20
157.167682758384
 30
0.0
 11
215.517078669557
 21
157.167682758384
 31
0.0
  0
LINE
  5
194
100
AcDbEntity
  8
0
  6
CONTINUOUS
 62
           7
100
AcDbLine
 10
205.154356689939
 20
159.667683168166
 30
0.0
 11
205.154356689939
 21
164.667683056407
 31
0.0
  0
LINE
  5
195
100
AcDbEntity
  8
0
  6
CONTINUOUS
 62
           7
100
AcDbLine
 10
205.154356689939
 20
129.667682907395
 30
0.0
 11
205.154356689939
 21
134.667682795637
 31
0.0
  0
LINE
  5
196
100
AcDbEntity
  8
0
  6
CONTINUOUS
 62
           7
100
AcDbLine
 10
67.554352016935
 20
195.667684412412
 30
0.0
 11
67.554352016935
 21
190.667681730203
 31
0.0
  0
LINE
  5
197
100
AcDbEntity
  8
0
  6
CONTINUOUS
 62
           7
100
AcDbLine
 10
67.554352016935
 20
165.667683220319
 30
0.0
 11
67.554352016935
 21
160.667683332078
 31
0.0
  0
LINE
  5
198
100
AcDbEntity
  8
0
  6
CONTINUOUS
 62
           7
100
AcDbLine
 10
67.554352016935
 20
128.667682743482
 30
0.0
 11
67.554352016935
 21
133.667682631723
 31
0.0
  0
LINE
  5
199
100
AcDbEntity
  8
0
  6
CONTINUOUS
 62
           7
100
AcDbLine
 10
67.554352016935
 20
98.667681551389
 30
0.0
 11
67.554352016935
 21
103.667684233598
 31
0.0
  0
CIRCLE
  5
19A
100
AcDbEntity
  8
0
  6
CONTINUOUS
 62
           7
100
AcDbCircle
 10
77.354354353437
 20
206.167682981901
 30
0.0
 40
6.75
  0
CIRCLE
  5
19B
100
AcDbEntity
  8
0
  6
CONTINUOUS
 62
           7
100
AcDbCircle
 10
77.354354353437
 20
206.167682981901
 30
0.0
 40
5.743880369452
  0
CIRCLE
  5
19C
100
AcDbEntity
  8
0
  6
CONTINUOUS
 62
           7
100
AcDbCircle
 10
195.354354353437
 20
206.167682981901
 30
0.0
 40
6.75
  0
CIRCLE
  5
19D
100
AcDbEntity
  8
0
  6
CONTINUOUS
 62
           7
100
AcDbCircle
 10
195.354354353437
 20
206.167682981901
 30
0.0
 40
5.743880369452
  0
CIRCLE
  5
19E
100
AcDbEntity
  8
0
  6
CONTINUOUS
 62
           7
100
AcDbCircle
 10
77.354354353437
 20
88.167682981901
 30
0.0
 40
6.75
  0
CIRCLE
  5
19F
100
AcDbEntity
  8
0
  6
CONTINUOUS
 62
           7
100
AcDbCircle
 10
77.354354353437
 20
88.167682981901
 30
0.0
 40
5.743880369452
  0
CIRCLE
  5
1A0
100
AcDbEntity
  8
0
  6
CONTINUOUS
 62
           7
100
AcDbCircle
 10
195.354354353437
 20
88.167682981901
 30
0.0
 40
5.743880369452
  0
CIRCLE
  5
1A1
100
AcDbEntity
  8
0
  6
CONTINUOUS
 62
           7
100
AcDbCircle
 10
195.354354353437
 20
88.167682981901
 30
0.0
 40
6.75
  0
LWPOLYLINE
  5
1A2
100
AcDbEntity
  8
0
  6
CONTINUOUS
 62
           7
100
AcDbPolyline
 90
        3
 70
         128
 10
194.604353191147
 20
181.426324284487
 10
195.139338405618
 20
181.827470994406
 10
195.260082514772
 20
181.912068611794
  0
LINE
  5
1A3
100
AcDbEntity
  8
0
  6
CONTINUOUS
 62
           7
100
AcDbLine
 10
194.604353191147
 20
181.426324284487
 30
0.0
 11
194.604353191146
 21
185.667682773285
 31
0.0
  0
LINE
  5
1A4
100
AcDbEntity
  8
0
  6
CONTINUOUS
 62
           7
100
AcDbLine
 10
195.260082514772
 20
186.32341209691
 30
0.0
 11
194.604353191146
 21
185.667682773285
 31
0.0
  0
LINE
  5
1A5
100
AcDbEntity
  8
0
  6
CONTINUOUS
 62
           7
100
AcDbLine
 10
195.260082514772
 20
186.32341209691
 30
0.0
 11
195.260082514772
 21
181.912068611794
 31
0.0
  0
LINE
  5
1A6
100
AcDbEntity
  8
0
  6
CONTINUOUS
 62
           7
100
AcDbLine
 10
77.448626192102
 20
186.32341209691
 30
0.0
 11
78.104355515728
 21
185.667682773284
 31
0.0
  0
LINE
  5
1A7
100
AcDbEntity
  8
0
  6
CONTINUOUS
 62
           7
100
AcDbLine
 10
78.104355515728
 20
185.667682773284
 30
0.0
 11
78.104355515728
 21
181.426324284486
 31
0.0
  0
LINE
  5
1A8
100
AcDbEntity
  8
0
  6
CONTINUOUS
 62
           7
100
AcDbLine
 10
77.448626192102
 20
181.912068611793
 30
0.0
 11
78.104355515728
 21
181.426324284486
 31
0.0
  0
LINE
  5
1A9
100
AcDbEntity
  8
0
  6
CONTINUOUS
 62
           7
100
AcDbLine
 10
77.448626192102
 20
181.912068611793
 30
0.0
 11
77.448626192102
 21
186.32341209691
 31
0.0
  0
LINE
  5
1AA
100
AcDbEntity
  8
0
  6
CONTINUOUS
 62
           7
100
AcDbLine
 10
194.604353191147
 20
170.667682177238
 30
0.0
 11
194.604353191147
 21
174.909042528682
 31
0.0
  0
LINE
  5
1AB
100
AcDbEntity
  8
0
  6
CONTINUOUS
 62
           7
100
AcDbLine
 10
193.1043538766
 20
170.667682177238
 30
0.0
 11
194.604353191147
 21
170.667682177238
 31
0.0
  0
LINE
  5
1AC
100
AcDbEntity
  8
0
  6
CONTINUOUS
 62
           7
100
AcDbLine
 10
193.1043538766
 20
174.909042528682
 30
0.0
 11
193.1043538766
 21
170.667682177238
 31
0.0
  0
ARC
  5
1AD
100
AcDbEntity
  8
0
  6
CONTINUOUS
 62
           7
100
AcDbCircle
 10
193.854354353437
 20
178.167682981901
 30
0.0
 40
3.343835023556
100
AcDbArc
 50
102.961328807315
 51
257.038671192686
  0
LINE
  5
1AE
100
AcDbEntity
  8
0
  6
CONTINUOUS
 62
           7
100
AcDbLine
 10
193.1043538766
 20
185.667682773285
 30
0.0
 11
193.1043538766
 21
181.426324284487
 31
0.0
  0
LINE
  5
1AF
100
AcDbEntity
  8
0
  6
CONTINUOUS
 62
           7
100
AcDbLine
 10
194.604353191146
 20
185.667682773285
 30
0.0
 11
193.1043538766
 21
185.667682773285
 31
0.0
  0
ARC
  5
1B0
100
AcDbEntity
  8
0
  6
CONTINUOUS
 62
           7
100
AcDbCircle
 10
193.854354353437
 20
178.167682981901
 30
0.0
 40
3.343835023556
100
AcDbArc
 50
282.961328807315
 51
77.038671192687
  0
CIRCLE
  5
1B1
100
AcDbEntity
  8
0
  6
CONTINUOUS
 62
           7
100
AcDbCircle
 10
193.854354353437
 20
178.167682981901
 30
0.0
 40
2.0
  0
LINE
  5
1B2
100
AcDbEntity
  8
0
  6
CONTINUOUS
 62
           7
100
AcDbLine
 10
80.260080428609
 20
186.32341209691
 30
0.0
 11
79.604354830274
 21
185.667682773284
 31
0.0
  0
LINE
  5
1B3
100
AcDbEntity
  8
0
  6
CONTINUOUS
 62
           7
100
AcDbLine
 10
79.604354830274
 20
185.667682773284
 30
0.0
 11
78.104355515728
 21
185.667682773284
 31
0.0
  0
LINE
  5
1B4
100
AcDbEntity
  8
0
  6
CONTINUOUS
 62
           7
100
AcDbLine
 10
77.448626192102
 20
186.32341209691
 30
0.0
 11
80.260080428609
 21
186.32341209691
 31
0.0
  0
LINE
  5
1B5
100
AcDbEntity
  8
0
  6
CONTINUOUS
 62
           7
100
AcDbLine
 10
192.448628278265
 20
186.32341209691
 30
0.0
 11
193.1043538766
 21
185.667682773285
 31
0.0
  0
LINE
  5
1B6
100
AcDbEntity
  8
0
  6
CONTINUOUS
 62
           7
100
AcDbLine
 10
192.448628278265
 20
186.32341209691
 30
0.0
 11
195.260082514772
 21
186.32341209691
 31
0.0
  0
LINE
  5
1B7
100
AcDbEntity
  8
0
  6
CONTINUOUS
 62
           7
100
AcDbLine
 10
79.604354830274
 20
170.667682177238
 30
0.0
 11
79.604354830274
 21
174.909042528681
 31
0.0
  0
LINE
  5
1B8
100
AcDbEntity
  8
0
  6
CONTINUOUS
 62
           7
100
AcDbLine
 10
78.104355515728
 20
170.667682177238
 30
0.0
 11
79.604354830274
 21
170.667682177238
 31
0.0
  0
LINE
  5
1B9
100
AcDbEntity
  8
0
  6
CONTINUOUS
 62
           7
100
AcDbLine
 10
78.104355515728
 20
174.909042528681
 30
0.0
 11
78.104355515728
 21
170.667682177238
 31
0.0
  0
ARC
  5
1BA
100
AcDbEntity
  8
0
  6
CONTINUOUS
 62
           7
100
AcDbCircle
 10
78.854354353437
 20
178.167682981901
 30
0.0
 40
3.343835023556
100
AcDbArc
 50
102.961328807314
 51
257.038671192687
  0
LINE
  5
1BB
100
AcDbEntity
  8
0
  6
CONTINUOUS
 62
           7
100
AcDbLine
 10
79.604354830274
 20
181.426324284486
 30
0.0
 11
79.604354830274
 21
185.667682773284
 31
0.0
  0
ARC
  5
1BC
100
AcDbEntity
  8
0
  6
CONTINUOUS
 62
           7
100
AcDbCircle
 10
78.854354353437
 20
178.167682981901
 30
0.0
 40
3.343835023556
100
AcDbArc
 50
282.961328807315
 51
77.038671192686
  0
CIRCLE
  5
1BD
100
AcDbEntity
  8
0
  6
CONTINUOUS
 62
           7
100
AcDbCircle
 10
78.854354353437
 20
178.167682981901
 30
0.0
 40
2.0
  0
LINE
  5
1BE
100
AcDbEntity
  8
0
  6
CONTINUOUS
 62
           7
100
AcDbLine
 10
192.448628278265
 20
181.912068611794
 30
0.0
 11
193.1043538766
 21
181.426324284487
 31
0.0
  0
LINE
  5
1BF
100
AcDbEntity
  8
0
  6
CONTINUOUS
 62
           7
100
AcDbLine
 10
192.448628278265
 20
181.912068611794
 30
0.0
 11
192.448628278265
 21
186.32341209691
 31
0.0
  0
LWPOLYLINE
  5
1C0
100
AcDbEntity
  8
0
  6
CONTINUOUS
 62
           7
100
AcDbPolyline
 90
        3
 70
         128
 10
79.604354830274
 20
181.426324284486
 10
80.139336319456
 20
181.827470994405
 10
80.26008042861
 20
181.912068611793
  0
LINE
  5
1C1
100
AcDbEntity
  8
0
  6
CONTINUOUS
 62
           7
100
AcDbLine
 10
80.260080428609
 20
186.32341209691
 30
0.0
 11
80.26008042861
 21
181.912068611793
 31
0.0
  0
LWPOLYLINE
  5
1C2
100
AcDbEntity
  8
0
  6
CONTINUOUS
 62
           7
100
AcDbPolyline
 90
        3
 70
         128
 10
78.104355515728
 20
174.909042528681
 10
77.569370301256
 20
174.507893956117
 10
77.448626192102
 20
174.423296338729
  0
ARC
  5
1C3
100
AcDbEntity
  8
0
  6
CONTINUOUS
 62
           7
100
AcDbCircle
 10
78.854354353437
 20
178.167682981901
 30
0.0
 40
3.999562556682
100
AcDbArc
 50
110.577272872968
 51
249.422727127033
  0
LINE
  5
1C4
100
AcDbEntity
  8
0
  6
CONTINUOUS
 62
           7
100
AcDbLine
 10
80.26008042861
 20
174.423296338729
 30
0.0
 11
79.604354830274
 21
174.909042528681
 31
0.0
  0
ARC
  5
1C5
100
AcDbEntity
  8
0
  6
CONTINUOUS
 62
           7
100
AcDbCircle
 10
78.854354353437
 20
178.167682981901
 30
0.0
 40
3.999562556682
100
AcDbArc
 50
290.577272872969
 51
69.422727127033
  0
LWPOLYLINE
  5
1C6
100
AcDbEntity
  8
0
  6
CONTINUOUS
 62
           7
100
AcDbPolyline
 90
        3
 70
         128
 10
193.1043538766
 20
174.909042528682
 10
192.569372387418
 20
174.507893956118
 10
192.448628278265
 20
174.42329633873
  0
ARC
  5
1C7
100
AcDbEntity
  8
0
  6
CONTINUOUS
 62
           7
100
AcDbCircle
 10
193.854354353437
 20
178.167682981901
 30
0.0
 40
3.999562556682
100
AcDbArc
 50
110.577272872969
 51
249.422727127033
  0
LINE
  5
1C8
100
AcDbEntity
  8
0
  6
CONTINUOUS
 62
           7
100
AcDbLine
 10
195.260082514772
 20
174.42329633873
 30
0.0
 11
194.604353191147
 21
174.909042528682
 31
0.0
  0
ARC
  5
1C9
100
AcDbEntity
  8
0
  6
CONTINUOUS
 62
           7
100
AcDbCircle
 10
193.854354353437
 20
178.167682981901
 30
0.0
 40
3.999562556682
100
AcDbArc
 50
290.577272872968
 51
69.422727127033
  0
CIRCLE
  5
1CA
100
AcDbEntity
  8
0
  6
CONTINUOUS
 62
           7
100
AcDbCircle
 10
78.854354353437
 20
178.167682981901
 30
0.0
 40
1.986909698314
  0
CIRCLE
  5
1CB
100
AcDbEntity
  8
0
  6
CONTINUOUS
 62
           7
100
AcDbCircle
 10
193.854354353437
 20
178.167682981901
 30
0.0
 40
1.986909698314
  0
LINE
  5
1CC
100
AcDbEntity
  8
0
  6
CONTINUOUS
 62
           7
100
AcDbLine
 10
77.448626192102
 20
170.011954716258
 30
0.0
 11
78.104355515728
 21
170.667682177238
 31
0.0
  0
LINE
  5
1CD
100
AcDbEntity
  8
0
  6
CONTINUOUS
 62
           7
100
AcDbLine
 10
77.448626192102
 20
170.011954716258
 30
0.0
 11
77.448626192102
 21
174.423296338729
 31
0.0
  0
LINE
  5
1CE
100
AcDbEntity
  8
0
  6
CONTINUOUS
 62
           7
100
AcDbLine
 10
195.260082514772
 20
170.011954716258
 30
0.0
 11
194.604353191147
 21
170.667682177238
 31
0.0
  0
LINE
  5
1CF
100
AcDbEntity
  8
0
  6
CONTINUOUS
 62
           7
100
AcDbLine
 10
195.260082514772
 20
174.42329633873
 30
0.0
 11
195.260082514772
 21
170.011954716258
 31
0.0
  0
LINE
  5
1D0
100
AcDbEntity
  8
0
  6
CONTINUOUS
 62
           7
100
AcDbLine
 10
192.448628278265
 20
170.011954716258
 30
0.0
 11
193.1043538766
 21
170.667682177238
 31
0.0
  0
LINE
  5
1D1
100
AcDbEntity
  8
0
  6
CONTINUOUS
 62
           7
100
AcDbLine
 10
192.448628278265
 20
170.011954716258
 30
0.0
 11
192.448628278265
 21
174.42329633873
 31
0.0
  0
LINE
  5
1D2
100
AcDbEntity
  8
0
  6
CONTINUOUS
 62
           7
100
AcDbLine
 10
80.26008042861
 20
170.011954716258
 30
0.0
 11
79.604354830274
 21
170.667682177238
 31
0.0
  0
LINE
  5
1D3
100
AcDbEntity
  8
0
  6
CONTINUOUS
 62
           7
100
AcDbLine
 10
80.26008042861
 20
174.423296338729
 30
0.0
 11
80.26008042861
 21
170.011954716258
 31
0.0
  0
LINE
  5
1D4
100
AcDbEntity
  8
0
  6
CONTINUOUS
 62
           7
100
AcDbLine
 10
80.26008042861
 20
170.011954716258
 30
0.0
 11
77.448626192102
 21
170.011954716258
 31
0.0
  0
LINE
  5
1D5
100
AcDbEntity
  8
0
  6
CONTINUOUS
 62
           7
100
AcDbLine
 10
195.260082514772
 20
170.011954716258
 30
0.0
 11
192.448628278265
 21
170.011954716258
 31
0.0
  0
LINE
  5
1D6
100
AcDbEntity
  8
0
  6
CONTINUOUS
 62
           7
100
AcDbLine
 10
194.604353191147
 20
139.667683149539
 30
0.0
 11
194.604353191147
 21
143.909043268152
 31
0.0
  0
LINE
  5
1D7
100
AcDbEntity
  8
0
  6
CONTINUOUS
 62
           7
100
AcDbLine
 10
193.1043538766
 20
139.667683149539
 30
0.0
 11
194.604353191147
 21
139.667683149539
 31
0.0
  0
LINE
  5
1D8
100
AcDbEntity
  8
0
  6
CONTINUOUS
 62
           7
100
AcDbLine
 10
193.1043538766
 20
143.909043268152
 30
0.0
 11
193.1043538766
 21
139.667683149539
 31
0.0
  0
ARC
  5
1D9
100
AcDbEntity
  8
0
  6
CONTINUOUS
 62
           7
100
AcDbCircle
 10
193.854354353437
 20
147.167682981901
 30
0.0
 40
3.343835023556
100
AcDbArc
 50
102.961328807315
 51
257.038671192687
  0
LINE
  5
1DA
100
AcDbEntity
  8
0
  6
CONTINUOUS
 62
           7
100
AcDbLine
 10
193.1043538766
 20
154.667682814263
 30
0.0
 11
193.1043538766
 21
150.42632269565
 31
0.0
  0
LINE
  5
1DB
100
AcDbEntity
  8
0
  6
CONTINUOUS
 62
           7
100
AcDbLine
 10
194.604353191147
 20
154.667682814263
 30
0.0
 11
193.1043538766
 21
154.667682814263
 31
0.0
  0
LINE
  5
1DC
100
AcDbEntity
  8
0
  6
CONTINUOUS
 62
           7
100
AcDbLine
 10
194.604353191147
 20
150.42632269565
 30
0.0
 11
194.604353191147
 21
154.667682814263
 31
0.0
  0
ARC
  5
1DD
100
AcDbEntity
  8
0
  6
CONTINUOUS
 62
           7
100
AcDbCircle
 10
193.854354353437
 20
147.167682981901
 30
0.0
 40
3.343835023556
100
AcDbArc
 50
282.961328807315
 51
77.038671192687
  0
CIRCLE
  5
1DE
100
AcDbEntity
  8
0
  6
CONTINUOUS
 62
           7
100
AcDbCircle
 10
193.854354353437
 20
147.167682981901
 30
0.0
 40
2.0
  0
LINE
  5
1DF
100
AcDbEntity
  8
0
  6
CONTINUOUS
 62
           7
100
AcDbLine
 10
80.26008042861
 20
155.323410740904
 30
0.0
 11
79.604354830274
 21
154.667682814263
 31
0.0
  0
LINE
  5
1E0
100
AcDbEntity
  8
0
  6
CONTINUOUS
 62
           7
100
AcDbLine
 10
79.604354830274
 20
154.667682814263
 30
0.0
 11
78.104355515728
 21
154.667682814263
 31
0.0
  0
LINE
  5
1E1
100
AcDbEntity
  8
0
  6
CONTINUOUS
 62
           7
100
AcDbLine
 10
77.448626192102
 20
155.323410740904
 30
0.0
 11
78.104355515728
 21
154.667682814263
 31
0.0
  0
LINE
  5
1E2
100
AcDbEntity
  8
0
  6
CONTINUOUS
 62
           7
100
AcDbLine
 10
77.448626192102
 20
155.323410740904
 30
0.0
 11
80.26008042861
 21
155.323410740904
 31
0.0
  0
LINE
  5
1E3
100
AcDbEntity
  8
0
  6
CONTINUOUS
 62
           7
100
AcDbLine
 10
192.448628278265
 20
155.323410740905
 30
0.0
 11
193.1043538766
 21
154.667682814263
 31
0.0
  0
LINE
  5
1E4
100
AcDbEntity
  8
0
  6
CONTINUOUS
 62
           7
100
AcDbLine
 10
192.448628278265
 20
150.912069584094
 30
0.0
 11
193.1043538766
 21
150.42632269565
 31
0.0
  0
LINE
  5
1E5
100
AcDbEntity
  8
0
  6
CONTINUOUS
 62
           7
100
AcDbLine
 10
192.448628278265
 20
150.912069584094
 30
0.0
 11
192.448628278265
 21
155.323410740905
 31
0.0
  0
LINE
  5
1E6
100
AcDbEntity
  8
0
  6
CONTINUOUS
 62
           7
100
AcDbLine
 10
79.604354830274
 20
139.667683149539
 30
0.0
 11
79.604354830274
 21
143.909043268151
 31
0.0
  0
LINE
  5
1E7
100
AcDbEntity
  8
0
  6
CONTINUOUS
 62
           7
100
AcDbLine
 10
78.104355515728
 20
139.667683149539
 30
0.0
 11
79.604354830274
 21
139.667683149539
 31
0.0
  0
LINE
  5
1E8
100
AcDbEntity
  8
0
  6
CONTINUOUS
 62
           7
100
AcDbLine
 10
78.104355515728
 20
143.909043268151
 30
0.0
 11
78.104355515728
 21
139.667683149539
 31
0.0
  0
ARC
  5
1E9
100
AcDbEntity
  8
0
  6
CONTINUOUS
 62
           7
100
AcDbCircle
 10
78.854354353437
 20
147.167682981901
 30
0.0
 40
3.343835023556
100
AcDbArc
 50
102.961328807314
 51
257.038671192688
  0
LINE
  5
1EA
100
AcDbEntity
  8
0
  6
CONTINUOUS
 62
           7
100
AcDbLine
 10
78.104355515728
 20
154.667682814263
 30
0.0
 11
78.104355515728
 21
150.42632269565
 31
0.0
  0
LINE
  5
1EB
100
AcDbEntity
  8
0
  6
CONTINUOUS
 62
           7
100
AcDbLine
 10
79.604354830274
 20
150.42632269565
 30
0.0
 11
79.604354830274
 21
154.667682814263
 31
0.0
  0
ARC
  5
1EC
100
AcDbEntity
  8
0
  6
CONTINUOUS
 62
           7
100
AcDbCircle
 10
78.854354353437
 20
147.167682981901
 30
0.0
 40
3.343835023556
100
AcDbArc
 50
282.961328807315
 51
77.038671192686
  0
CIRCLE
  5
1ED
100
AcDbEntity
  8
0
  6
CONTINUOUS
 62
           7
100
AcDbCircle
 10
78.854354353437
 20
147.167682981901
 30
0.0
 40
2.0
  0
LINE
  5
1EE
100
AcDbEntity
  8
0
  6
CONTINUOUS
 62
           7
100
AcDbLine
 10
195.260082514772
 20
155.323410740905
 30
0.0
 11
194.604353191147
 21
154.667682814263
 31
0.0
  0
LINE
  5
1EF
100
AcDbEntity
  8
0
  6
CONTINUOUS
 62
           7
100
AcDbLine
 10
192.448628278265
 20
155.323410740905
 30
0.0
 11
195.260082514772
 21
155.323410740905
 31
0.0
  0
LWPOLYLINE
  5
1F0
100
AcDbEntity
  8
0
  6
CONTINUOUS
 62
           7
100
AcDbPolyline
 90
        3
 70
         128
 10
79.604354830274
 20
150.42632269565
 10
80.139336319456
 20
150.827471501045
 10
80.26008042861
 20
150.912069584094
  0
LINE
  5
1F1
100
AcDbEntity
  8
0
  6
CONTINUOUS
 62
           7
100
AcDbLine
 10
80.26008042861
 20
155.323410740904
 30
0.0
 11
80.26008042861
 21
150.912069584094
 31
0.0
  0
LWPOLYLINE
  5
1F2
100
AcDbEntity
  8
0
  6
CONTINUOUS
 62
           7
100
AcDbPolyline
 90
        3
 70
         128
 10
194.604353191147
 20
150.42632269565
 10
195.139338405618
 20
150.827471501045
 10
195.260082514772
 20
150.912069584094
  0
LINE
  5
1F3
100
AcDbEntity
  8
0
  6
CONTINUOUS
 62
           7
100
AcDbLine
 10
195.260082514772
 20
155.323410740905
 30
0.0
 11
195.260082514772
 21
150.912069584094
 31
0.0
  0
LINE
  5
1F4
100
AcDbEntity
  8
0
  6
CONTINUOUS
 62
           7
100
AcDbLine
 10
77.448626192102
 20
150.912069584094
 30
0.0
 11
78.104355515728
 21
150.42632269565
 31
0.0
  0
LINE
  5
1F5
100
AcDbEntity
  8
0
  6
CONTINUOUS
 62
           7
100
AcDbLine
 10
77.448626192102
 20
150.912069584094
 30
0.0
 11
77.448626192102
 21
155.323410740904
 31
0.0
  0
LINE
  5
1F6
100
AcDbEntity
  8
0
  6
CONTINUOUS
 62
           7
100
AcDbLine
 10
195.260082514772
 20
143.423296379708
 30
0.0
 11
194.604353191147
 21
143.909043268152
 31
0.0
  0
ARC
  5
1F7
100
AcDbEntity
  8
0
  6
CONTINUOUS
 62
           7
100
AcDbCircle
 10
193.854354353437
 20
147.167682981901
 30
0.0
 40
3.999562556682
100
AcDbArc
 50
290.577272872968
 51
69.422727127033
  0
CIRCLE
  5
1F8
100
AcDbEntity
  8
0
  6
CONTINUOUS
 62
           7
100
AcDbCircle
 10
78.854354353437
 20
147.167682981901
 30
0.0
 40
1.986909698314
  0
LINE
  5
1F9
100
AcDbEntity
  8
0
  6
CONTINUOUS
 62
           7
100
AcDbLine
 10
80.26008042861
 20
143.423296379708
 30
0.0
 11
79.604354830274
 21
143.909043268151
 31
0.0
  0
ARC
  5
1FA
100
AcDbEntity
  8
0
  6
CONTINUOUS
 62
           7
100
AcDbCircle
 10
78.854354353437
 20
147.167682981901
 30
0.0
 40
3.999562556682
100
AcDbArc
 50
290.577272872968
 51
69.422727127033
  0
CIRCLE
  5
1FB
100
AcDbEntity
  8
0
  6
CONTINUOUS
 62
           7
100
AcDbCircle
 10
193.854354353437
 20
147.167682981901
 30
0.0
 40
1.986909698314
  0
LWPOLYLINE
  5
1FC
100
AcDbEntity
  8
0
  6
CONTINUOUS
 62
           7
100
AcDbPolyline
 90
        3
 70
         128
 10
193.1043538766
 20
143.909043268152
 10
192.569372387419
 20
143.507894462757
 10
192.448628278265
 20
143.423296379708
  0
ARC
  5
1FD
100
AcDbEntity
  8
0
  6
CONTINUOUS
 62
           7
100
AcDbCircle
 10
193.854354353437
 20
147.167682981901
 30
0.0
 40
3.999562556682
100
AcDbArc
 50
110.577272872969
 51
249.422727127033
  0
LWPOLYLINE
  5
1FE
100
AcDbEntity
  8
0
  6
CONTINUOUS
 62
           7
100
AcDbPolyline
 90
        3
 70
         128
 10
78.104355515728
 20
143.909043268151
 10
77.569370301256
 20
143.507894462757
 10
77.448626192102
 20
143.423296379708
  0
ARC
  5
1FF
100
AcDbEntity
  8
0
  6
CONTINUOUS
 62
           7
100
AcDbCircle
 10
78.854354353437
 20
147.167682981901
 30
0.0
 40
3.999562556682
100
AcDbArc
 50
110.577272872967
 51
249.422727127034
  0
LINE
  5
200
100
AcDbEntity
  8
0
  6
CONTINUOUS
 62
           7
100
AcDbLine
 10
80.26008042861
 20
139.011955222897
 30
0.0
 11
79.604354830274
 21
139.667683149539
 31
0.0
  0
LINE
  5
201
100
AcDbEntity
  8
0
  6
CONTINUOUS
 62
           7
100
AcDbLine
 10
80.26008042861
 20
143.423296379708
 30
0.0
 11
80.26008042861
 21
139.011955222897
 31
0.0
  0
LINE
  5
202
100
AcDbEntity
  8
0
  6
CONTINUOUS
 62
           7
100
AcDbLine
 10
77.448626192102
 20
139.011955222897
 30
0.0
 11
78.104355515728
 21
139.667683149539
 31
0.0
  0
LINE
  5
203
100
AcDbEntity
  8
0
  6
CONTINUOUS
 62
           7
100
AcDbLine
 10
77.448626192102
 20
139.011955222897
 30
0.0
 11
77.448626192102
 21
143.423296379708
 31
0.0
  0
LINE
  5
204
100
AcDbEntity
  8
0
  6
CONTINUOUS
 62
           7
100
AcDbLine
 10
192.448628278265
 20
139.011955222898
 30
0.0
 11
193.1043538766
 21
139.667683149539
 31
0.0
  0
LINE
  5
205
100
AcDbEntity
  8
0
  6
CONTINUOUS
 62
           7
100
AcDbLine
 10
192.448628278265
 20
139.011955222898
 30
0.0
 11
192.448628278265
 21
143.423296379708
 31
0.0
  0
LINE
  5
206
100
AcDbEntity
  8
0
  6
CONTINUOUS
 62
           7
100
AcDbLine
 10
195.260082514772
 20
139.011955222898
 30
0.0
 11
194.604353191147
 21
139.667683149539
 31
0.0
  0
LINE
  5
207
100
AcDbEntity
  8
0
  6
CONTINUOUS
 62
           7
100
AcDbLine
 10
195.260082514772
 20
143.423296379708
 30
0.0
 11
195.260082514772
 21
139.011955222898
 31
0.0
  0
LINE
  5
208
100
AcDbEntity
  8
0
  6
CONTINUOUS
 62
           7
100
AcDbLine
 10
195.260082514772
 20
139.011955222898
 30
0.0
 11
192.448628278265
 21
139.011955222898
 31
0.0
  0
LINE
  5
209
100
AcDbEntity
  8
0
  6
CONTINUOUS
 62
           7
100
AcDbLine
 10
80.26008042861
 20
139.011955222897
 30
0.0
 11
77.448626192102
 21
139.011955222897
 31
0.0
  0
LINE
  5
20A
100
AcDbEntity
  8
0
  6
CONTINUOUS
 62
           7
100
AcDbLine
 10
80.26008042861
 20
124.323411247544
 30
0.0
 11
79.604354830274
 21
123.667683786563
 31
0.0
  0
LINE
  5
20B
100
AcDbEntity
  8
0
  6
CONTINUOUS
 62
           7
100
AcDbLine
 10
79.604354830274
 20
123.667683786563
 30
0.0
 11
78.104355515728
 21
123.667683786563
 31
0.0
  0
LINE
  5
20C
100
AcDbEntity
  8
0
  6
CONTINUOUS
 62
           7
100
AcDbLine
 10
77.448626192102
 20
124.323411247544
 30
0.0
 11
78.104355515728
 21
123.667683786563
 31
0.0
  0
LINE
  5
20D
100
AcDbEntity
  8
0
  6
CONTINUOUS
 62
           7
100
AcDbLine
 10
77.448626192102
 20
124.323411247544
 30
0.0
 11
80.26008042861
 21
124.323411247544
 31
0.0
  0
LINE
  5
20E
100
AcDbEntity
  8
0
  6
CONTINUOUS
 62
           7
100
AcDbLine
 10
78.104355515728
 20
123.667683786563
 30
0.0
 11
78.104355515728
 21
119.42632343512
 31
0.0
  0
LINE
  5
20F
100
AcDbEntity
  8
0
  6
CONTINUOUS
 62
           7
100
AcDbLine
 10
77.448626192102
 20
119.912069625072
 30
0.0
 11
78.104355515728
 21
119.42632343512
 31
0.0
  0
LINE
  5
210
100
AcDbEntity
  8
0
  6
CONTINUOUS
 62
           7
100
AcDbLine
 10
77.448626192102
 20
119.912069625072
 30
0.0
 11
77.448626192102
 21
124.323411247544
 31
0.0
  0
LWPOLYLINE
  5
211
100
AcDbEntity
  8
0
  6
CONTINUOUS
 62
           7
100
AcDbPolyline
 90
        3
 70
         128
 10
194.604353191147
 20
119.426323435121
 10
195.139338405619
 20
119.827472007685
 10
195.260082514772
 20
119.912069625072
  0
LINE
  5
212
100
AcDbEntity
  8
0
  6
CONTINUOUS
 62
           7
100
AcDbLine
 10
194.604353191147
 20
119.426323435121
 30
0.0
 11
194.604353191147
 21
123.667683786564
 31
0.0
  0
LINE
  5
213
100
AcDbEntity
  8
0
  6
CONTINUOUS
 62
           7
100
AcDbLine
 10
195.260082514772
 20
124.323411247544
 30
0.0
 11
194.604353191147
 21
123.667683786564
 31
0.0
  0
LINE
  5
214
100
AcDbEntity
  8
0
  6
CONTINUOUS
 62
           7
100
AcDbLine
 10
195.260082514772
 20
124.323411247544
 30
0.0
 11
195.260082514772
 21
119.912069625072
 31
0.0
  0
LINE
  5
215
100
AcDbEntity
  8
0
  6
CONTINUOUS
 62
           7
100
AcDbLine
 10
194.604353191147
 20
123.667683786564
 30
0.0
 11
193.1043538766
 21
123.667683786564
 31
0.0
  0
LINE
  5
216
100
AcDbEntity
  8
0
  6
CONTINUOUS
 62
           7
100
AcDbLine
 10
192.448628278265
 20
124.323411247544
 30
0.0
 11
193.1043538766
 21
123.667683786564
 31
0.0
  0
LINE
  5
217
100
AcDbEntity
  8
0
  6
CONTINUOUS
 62
           7
100
AcDbLine
 10
192.448628278265
 20
124.323411247544
 30
0.0
 11
195.260082514772
 21
124.323411247544
 31
0.0
  0
LINE
  5
218
100
AcDbEntity
  8
0
  6
CONTINUOUS
 62
           7
100
AcDbLine
 10
194.604353191147
 20
108.667683190517
 30
0.0
 11
194.604353191147
 21
112.909041679316
 31
0.0
  0
LINE
  5
219
100
AcDbEntity
  8
0
  6
CONTINUOUS
 62
           7
100
AcDbLine
 10
193.1043538766
 20
108.667683190517
 30
0.0
 11
194.604353191147
 21
108.667683190517
 31
0.0
  0
LINE
  5
21A
100
AcDbEntity
  8
0
  6
CONTINUOUS
 62
           7
100
AcDbLine
 10
193.1043538766
 20
112.909041679316
 30
0.0
 11
193.1043538766
 21
108.667683190517
 31
0.0
  0
ARC
  5
21B
100
AcDbEntity
  8
0
  6
CONTINUOUS
 62
           7
100
AcDbCircle
 10
193.854354353437
 20
116.167682981901
 30
0.0
 40
3.343835023556
100
AcDbArc
 50
102.961328807315
 51
257.038671192686
  0
LINE
  5
21C
100
AcDbEntity
  8
0
  6
CONTINUOUS
 62
           7
100
AcDbLine
 10
193.1043538766
 20
123.667683786564
 30
0.0
 11
193.1043538766
 21
119.426323435121
 31
0.0
  0
ARC
  5
21D
100
AcDbEntity
  8
0
  6
CONTINUOUS
 62
           7
100
AcDbCircle
 10
193.854354353437
 20
116.167682981901
 30
0.0
 40
3.343835023556
100
AcDbArc
 50
282.961328807314
 51
77.038671192687
  0
CIRCLE
  5
21E
100
AcDbEntity
  8
0
  6
CONTINUOUS
 62
           7
100
AcDbCircle
 10
193.854354353437
 20
116.167682981901
 30
0.0
 40
2.0
  0
LINE
  5
21F
100
AcDbEntity
  8
0
  6
CONTINUOUS
 62
           7
100
AcDbLine
 10
192.448628278265
 20
119.912069625072
 30
0.0
 11
193.1043538766
 21
119.426323435121
 31
0.0
  0
LINE
  5
220
100
AcDbEntity
  8
0
  6
CONTINUOUS
 62
           7
100
AcDbLine
 10
192.448628278265
 20
119.912069625072
 30
0.0
 11
192.448628278265
 21
124.323411247544
 31
0.0
  0
LINE
  5
221
100
AcDbEntity
  8
0
  6
CONTINUOUS
 62
           7
100
AcDbLine
 10
79.604354830275
 20
108.667683190517
 30
0.0
 11
79.604354830275
 21
112.909041679315
 31
0.0
  0
LINE
  5
222
100
AcDbEntity
  8
0
  6
CONTINUOUS
 62
           7
100
AcDbLine
 10
78.104355515728
 20
108.667683190517
 30
0.0
 11
79.604354830275
 21
108.667683190517
 31
0.0
  0
LINE
  5
223
100
AcDbEntity
  8
0
  6
CONTINUOUS
 62
           7
100
AcDbLine
 10
78.104355515728
 20
112.909041679315
 30
0.0
 11
78.104355515728
 21
108.667683190517
 31
0.0
  0
ARC
  5
224
100
AcDbEntity
  8
0
  6
CONTINUOUS
 62
           7
100
AcDbCircle
 10
78.854354353437
 20
116.167682981901
 30
0.0
 40
3.343835023556
100
AcDbArc
 50
102.961328807314
 51
257.038671192687
  0
LINE
  5
225
100
AcDbEntity
  8
0
  6
CONTINUOUS
 62
           7
100
AcDbLine
 10
79.604354830274
 20
119.42632343512
 30
0.0
 11
79.604354830274
 21
123.667683786563
 31
0.0
  0
ARC
  5
226
100
AcDbEntity
  8
0
  6
CONTINUOUS
 62
           7
100
AcDbCircle
 10
78.854354353437
 20
116.167682981901
 30
0.0
 40
3.343835023556
100
AcDbArc
 50
282.961328807315
 51
77.038671192687
  0
CIRCLE
  5
227
100
AcDbEntity
  8
0
  6
CONTINUOUS
 62
           7
100
AcDbCircle
 10
78.854354353437
 20
116.167682981901
 30
0.0
 40
2.0
  0
LWPOLYLINE
  5
228
100
AcDbEntity
  8
0
  6
CONTINUOUS
 62
           7
100
AcDbPolyline
 90
        3
 70
         128
 10
79.604354830274
 20
119.42632343512
 10
80.139336319456
 20
119.827472007684
 10
80.26008042861
 20
119.912069625072
  0
LINE
  5
229
100
AcDbEntity
  8
0
  6
CONTINUOUS
 62
           7
100
AcDbLine
 10
80.26008042861
 20
124.323411247544
 30
0.0
 11
80.26008042861
 21
119.912069625072
 31
0.0
  0
CIRCLE
  5
22A
100
AcDbEntity
  8
0
  6
CONTINUOUS
 62
           7
100
AcDbCircle
 10
193.854354353437
 20
116.167682981901
 30
0.0
 40
1.986909698314
  0
LINE
  5
22B
100
AcDbEntity
  8
0
  6
CONTINUOUS
 62
           7
100
AcDbLine
 10
195.260082514772
 20
112.423297352009
 30
0.0
 11
194.604353191147
 21
112.909041679316
 31
0.0
  0
ARC
  5
22C
100
AcDbEntity
  8
0
  6
CONTINUOUS
 62
           7
100
AcDbCircle
 10
193.854354353437
 20
116.167682981901
 30
0.0
 40
3.999562556682
100
AcDbArc
 50
290.577272872968
 51
69.422727127033
  0
LINE
  5
22D
100
AcDbEntity
  8
0
  6
CONTINUOUS
 62
           7
100
AcDbLine
 10
80.26008042861
 20
112.423297352008
 30
0.0
 11
79.604354830275
 21
112.909041679315
 31
0.0
  0
ARC
  5
22E
100
AcDbEntity
  8
0
  6
CONTINUOUS
 62
           7
100
AcDbCircle
 10
78.854354353437
 20
116.167682981901
 30
0.0
 40
3.999562556682
100
AcDbArc
 50
290.577272872969
 51
69.422727127033
  0
LWPOLYLINE
  5
22F
100
AcDbEntity
  8
0
  6
CONTINUOUS
 62
           7
100
AcDbPolyline
 90
        3
 70
         128
 10
193.1043538766
 20
112.909041679316
 10
192.569372387419
 20
112.507894969397
 10
192.448628278265
 20
112.423297352009
  0
ARC
  5
230
100
AcDbEntity
  8
0
  6
CONTINUOUS
 62
           7
100
AcDbCircle
 10
193.854354353437
 20
116.167682981901
 30
0.0
 40
3.999562556682
100
AcDbArc
 50
110.577272872968
 51
249.422727127033
  0
LWPOLYLINE
  5
231
100
AcDbEntity
  8
0
  6
CONTINUOUS
 62
           7
100
AcDbPolyline
 90
        3
 70
         128
 10
78.104355515728
 20
112.909041679315
 10
77.569370301256
 20
112.507894969396
 10
77.448626192102
 20
112.423297352008
  0
ARC
  5
232
100
AcDbEntity
  8
0
  6
CONTINUOUS
 62
           7
100
AcDbCircle
 10
78.854354353437
 20
116.167682981901
 30
0.0
 40
3.999562556682
100
AcDbArc
 50
110.577272872968
 51
249.422727127033
  0
CIRCLE
  5
233
100
AcDbEntity
  8
0
  6
CONTINUOUS
 62
           7
100
AcDbCircle
 10
78.854354353437
 20
116.167682981901
 30
0.0
 40
1.986909698314
  0
LINE
  5
234
100
AcDbEntity
  8
0
  6
CONTINUOUS
 62
           7
100
AcDbLine
 10
77.448626192102
 20
108.011953866891
 30
0.0
 11
78.104355515728
 21
108.667683190517
 31
0.0
  0
LINE
  5
235
100
AcDbEntity
  8
0
  6
CONTINUOUS
 62
           7
100
AcDbLine
 10
77.448626192102
 20
108.011953866891
 30
0.0
 11
77.448626192102
 21
112.423297352008
 31
0.0
  0
LINE
  5
236
100
AcDbEntity
  8
0
  6
CONTINUOUS
 62
           7
100
AcDbLine
 10
195.260082514772
 20
108.011953866892
 30
0.0
 11
194.604353191147
 21
108.667683190517
 31
0.0
  0
LINE
  5
237
100
AcDbEntity
  8
0
  6
CONTINUOUS
 62
           7
100
AcDbLine
 10
195.260082514772
 20
112.423297352009
 30
0.0
 11
195.260082514772
 21
108.011953866892
 31
0.0
  0
LINE
  5
238
100
AcDbEntity
  8
0
  6
CONTINUOUS
 62
           7
100
AcDbLine
 10
80.26008042861
 20
108.011953866891
 30
0.0
 11
79.604354830275
 21
108.667683190517
 31
0.0
  0
LINE
  5
239
100
AcDbEntity
  8
0
  6
CONTINUOUS
 62
           7
100
AcDbLine
 10
80.26008042861
 20
112.423297352008
 30
0.0
 11
80.26008042861
 21
108.011953866891
 31
0.0
  0
LINE
  5
23A
100
AcDbEntity
  8
0
  6
CONTINUOUS
 62
           7
100
AcDbLine
 10
192.448628278265
 20
108.011953866892
 30
0.0
 11
193.1043538766
 21
108.667683190517
 31
0.0
  0
LINE
  5
23B
100
AcDbEntity
  8
0
  6
CONTINUOUS
 62
           7
100
AcDbLine
 10
192.448628278265
 20
108.011953866892
 30
0.0
 11
192.448628278265
 21
112.423297352009
 31
0.0
  0
LINE
  5
23C
100
AcDbEntity
  8
0
  6
CONTINUOUS
 62
           7
100
AcDbLine
 10
80.26008042861
 20
108.011953866891
 30
0.0
 11
77.448626192102
 21
108.011953866891
 31
0.0
  0
LINE
  5
23D
100
AcDbEntity
  8
0
  6
CONTINUOUS
 62
           7
100
AcDbLine
 10
195.260082514772
 20
108.011953866892
 30
0.0
 11
192.448628278265
 21
108.011953866892
 31
0.0
  0
CIRCLE
  5
23E
100
AcDbEntity
  8
0
  6
CONTINUOUS
 62
           7
100
AcDbCircle
 10
78.854354353437
 20
178.167682981901
 30
0.0
 40
1.6
  0
CIRCLE
  5
23F
100
AcDbEntity
  8
0
  6
CONTINUOUS
 62
           7
100
AcDbCircle
 10
78.854354353437
 20
178.167682981901
 30
0.0
 40
1.569456544255
  0
CIRCLE
  5
240
100
AcDbEntity
  8
0
  6
CONTINUOUS
 62
           7
100
AcDbCircle
 10
193.854354353437
 20
178.167682981901
 30
0.0
 40
1.6
  0
CIRCLE
  5
241
100
AcDbEntity
  8
0
  6
CONTINUOUS
 62
           7
100
AcDbCircle
 10
193.854354353437
 20
178.167682981901
 30
0.0
 40
1.569456544255
  0
CIRCLE
  5
242
100
AcDbEntity
  8
0
  6
CONTINUOUS
 62
           7
100
AcDbCircle
 10
193.854354353437
 20
147.167682981901
 30
0.0
 40
1.6
  0
CIRCLE
  5
243
100
AcDbEntity
  8
0
  6
CONTINUOUS
 62
           7
100
AcDbCircle
 10
78.854354353437
 20
147.167682981901
 30
0.0
 40
1.6
  0
CIRCLE
  5
244
100
AcDbEntity
  8
0
  6
CONTINUOUS
 62
           7
100
AcDbCircle
 10
78.854354353437
 20
147.167682981901
 30
0.0
 40
1.569456544255
  0
CIRCLE
  5
245
100
AcDbEntity
  8
0
  6
CONTINUOUS
 62
           7
100
AcDbCircle
 10
193.854354353437
 20
147.167682981901
 30
0.0
 40
1.569456544255
  0
CIRCLE
  5
246
100
AcDbEntity
  8
0
  6
CONTINUOUS
 62
           7
100
AcDbCircle
 10
193.854354353437
 20
116.167682981901
 30
0.0
 40
1.6
  0
CIRCLE
  5
247
100
AcDbEntity
  8
0
  6
CONTINUOUS
 62
           7
100
AcDbCircle
 10
78.854354353437
 20
116.167682981901
 30
0.0
 40
1.6
  0
CIRCLE
  5
248
100
AcDbEntity
  8
0
  6
CONTINUOUS
 62
           7
100
AcDbCircle
 10
78.854354353437
 20
116.167682981901
 30
0.0
 40
1.569456544255
  0
CIRCLE
  5
249
100
AcDbEntity
  8
0
  6
CONTINUOUS
 62
           7
100
AcDbCircle
 10
193.854354353437
 20
116.167682981901
 30
0.0
 40
1.569456544255
  0
LINE
  5
24A
100
AcDbEntity
  8
0
  6
CONTINUOUS
 62
           7
100
AcDbLine
 10
103.30291199852
 20
162.06951752197
 30
0.0
 11
105.414395363817
 21
164.039243346862
 31
0.0
  0
LINE
  5
24B
100
AcDbEntity
  8
0
  6
CONTINUOUS
 62
           7
100
AcDbLine
 10
105.414395363817
 20
160.099791697077
 30
0.0
 11
103.30291199852
 21
162.06951752197
 31
0.0
  0
LINE
  5
24C
100
AcDbEntity
  8
0
  6
CONTINUOUS
 62
           7
100
AcDbLine
 10
105.414395363817
 20
157.969517036192
 30
0.0
 11
105.414395363817
 21
160.099791697077
 31
0.0
  0
LINE
  5
24D
100
AcDbEntity
  8
0
  6
CONTINUOUS
 62
           7
100
AcDbLine
 10
101.914395721445
 20
161.004379725866
 30
0.0
 11
105.414395363817
 21
157.969517036192
 31
0.0
  0
LINE
  5
24E
100
AcDbEntity
  8
0
  6
CONTINUOUS
 62
           7
100
AcDbLine
 10
98.414396079073
 20
157.969517036192
 30
0.0
 11
101.914395721445
 21
161.004379725866
 31
0.0
  0
LINE
  5
24F
100
AcDbEntity
  8
0
  6
CONTINUOUS
 62
           7
100
AcDbLine
 10
98.414396079073
 20
160.099791697077
 30
0.0
 11
98.414396079073
 21
157.969517036192
 31
0.0
  0
LINE
  5
250
100
AcDbEntity
  8
0
  6
CONTINUOUS
 62
           7
100
AcDbLine
 10
100.52587571908
 20
162.06951752197
 30
0.0
 11
98.414396079073
 21
160.099791697077
 31
0.0
  0
LINE
  5
251
100
AcDbEntity
  8
0
  6
CONTINUOUS
 62
           7
100
AcDbLine
 10
98.414396079073
 20
164.039243346862
 30
0.0
 11
100.52587571908
 21
162.06951752197
 31
0.0
  0
LINE
  5
252
100
AcDbEntity
  8
0
  6
CONTINUOUS
 62
           7
100
AcDbLine
 10
101.914395721445
 20
163.134655318074
 30
0.0
 11
98.414396079073
 21
166.169517076425
 31
0.0
  0
LINE
  5
253
100
AcDbEntity
  8
0
  6
CONTINUOUS
 62
           7
100
AcDbLine
 10
105.414395363817
 20
166.169517076425
 30
0.0
 11
101.914395721445
 21
163.134655318074
 31
0.0
  0
LINE
  5
254
100
AcDbEntity
  8
0
  6
CONTINUOUS
 62
           7
100
AcDbLine
 10
98.414396079073
 20
166.169517076425
 30
0.0
 11
98.414396079073
 21
164.039243346862
 31
0.0
  0
LINE
  5
255
100
AcDbEntity
  8
0
  6
CONTINUOUS
 62
           7
100
AcDbLine
 10
105.414395363817
 20
164.039243346862
 30
0.0
 11
105.414395363817
 21
166.169517076425
 31
0.0
  0
ARC
  5
256
100
AcDbEntity
  8
0
  6
CONTINUOUS
 62
           7
100
AcDbCircle
 10
103.351894768984
 20
152.512526911927
 30
0.0
 40
0.746990275896
100
AcDbArc
 50
270.0
 51
359.999999999999
  0
LINE
  5
257
100
AcDbEntity
  8
0
  6
CONTINUOUS
 62
           7
100
AcDbLine
 10
104.098883600721
 20
152.512526939474
 30
0.0
 11
104.098883600721
 21
155.666507183425
 31
0.0
  0
ARC
  5
258
100
AcDbEntity
  8
0
  6
CONTINUOUS
 62
           7
100
AcDbCircle
 10
103.351894768984
 20
155.66650746372
 30
0.0
 40
0.746990275896
100
AcDbArc
 50
0.0
 51
90.0
  0
LINE
  5
259
100
AcDbEntity
  8
0
  6
CONTINUOUS
 62
           7
100
AcDbLine
 10
103.351895840654
 20
156.41349773746
 30
0.0
 11
100.476895602236
 21
156.41349773746
 31
0.0
  0
ARC
  5
25A
100
AcDbEntity
  8
0
  6
CONTINUOUS
 62
           7
100
AcDbCircle
 10
100.476894768984
 20
155.66650746372
 30
0.0
 40
0.746990275896
100
AcDbArc
 50
90.0
 51
180.0
  0
LINE
  5
25B
100
AcDbEntity
  8
0
  6
CONTINUOUS
 62
           7
100
AcDbLine
 10
99.729904116878
 20
155.666507183425
 30
0.0
 11
99.729904116878
 21
152.512526939474
 31
0.0
  0
ARC
  5
25C
100
AcDbEntity
  8
0
  6
CONTINUOUS
 62
           7
100
AcDbCircle
 10
100.476894768984
 20
152.512526911927
 30
0.0
 40
0.746990275896
100
AcDbArc
 50
180.0
 51
269.999999999996
  0
LINE
  5
25D
100
AcDbEntity
  8
0
  6
CONTINUOUS
 62
           7
100
AcDbLine
 10
100.476895602236
 20
151.765536851101
 30
0.0
 11
103.351895840654
 21
151.765536851101
 31
0.0
  0
LINE
  5
25E
100
AcDbEntity
  8
0
  6
CONTINUOUS
 62
           7
100
AcDbLine
 10
100.414396406898
 20
150.234517277069
 30
0.0
 11
103.414395035991
 21
150.234517277069
 31
0.0
  0
ARC
  5
25F
100
AcDbEntity
  8
0
  6
CONTINUOUS
 62
           7
100
AcDbCircle
 10
100.414394768984
 20
152.234517187824
 30
0.0
 40
2.0
100
AcDbArc
 50
180.0
 51
270.000000000002
  0
LINE
  5
260
100
AcDbEntity
  8
0
  6
CONTINUOUS
 62
           7
100
AcDbLine
 10
98.414396079073
 20
155.944517216496
 30
0.0
 11
98.414396079073
 21
152.234517372064
 31
0.0
  0
ARC
  5
261
100
AcDbEntity
  8
0
  6
CONTINUOUS
 62
           7
100
AcDbCircle
 10
100.414394768984
 20
155.944517187824
 30
0.0
 40
2.0
100
AcDbArc
 50
90.0
 51
180.0
  0
ARC
  5
262
100
AcDbEntity
  8
0
  6
CONTINUOUS
 62
           7
100
AcDbCircle
 10
103.414394768984
 20
155.944517187824
 30
0.0
 40
2.0
100
AcDbArc
 50
0.0
 51
90.000000000002
  0
LINE
  5
263
100
AcDbEntity
  8
0
  6
CONTINUOUS
 62
           7
100
AcDbLine
 10
105.414395363817
 20
152.234517372064
 30
0.0
 11
105.414395363817
 21
155.944517216496
 31
0.0
  0
ARC
  5
264
100
AcDbEntity
  8
0
  6
CONTINUOUS
 62
           7
100
AcDbCircle
 10
103.414394768984
 20
152.234517187824
 30
0.0
 40
2.0
100
AcDbArc
 50
270.0
 51
359.999999999999
  0
LINE
  5
265
100
AcDbEntity
  8
0
  6
CONTINUOUS
 62
           7
100
AcDbLine
 10
103.414395035991
 20
157.944517544322
 30
0.0
 11
100.414396406898
 21
157.944517544322
 31
0.0
  0
LINE
  5
266
100
AcDbEntity
  8
0
  6
CONTINUOUS
 62
           7
100
AcDbLine
 10
102.539395125398
 20
142.44451733198
 30
0.0
 11
104.16439655591
 21
142.44451733198
 31
0.0
  0
LINE
  5
267
100
AcDbEntity
  8
0
  6
CONTINUOUS
 62
           7
100
AcDbLine
 10
104.16439655591
 20
142.44451733198
 30
0.0
 11
104.16439655591
 21
146.444517172724
 31
0.0
  0
ARC
  5
268
100
AcDbEntity
  8
0
  6
CONTINUOUS
 62
           7
100
AcDbCircle
 10
103.351894768984
 20
146.444517187824
 30
0.0
 40
0.8125
100
AcDbArc
 50
0.0
 51
180.0
  0
LINE
  5
269
100
AcDbEntity
  8
0
  6
CONTINUOUS
 62
           7
100
AcDbLine
 10
102.539395125398
 20
146.444517172724
 30
0.0
 11
102.539395125398
 21
142.44451733198
 31
0.0
  0
LINE
  5
26A
100
AcDbEntity
  8
0
  6
CONTINUOUS
 62
           7
100
AcDbLine
 10
105.414395363817
 20
140.694517045133
 30
0.0
 11
105.414395363817
 21
147.194517188338
 31
0.0
  0
LINE
  5
26B
100
AcDbEntity
  8
0
  6
CONTINUOUS
 62
           7
100
AcDbLine
 10
98.414396079073
 20
140.694517045133
 30
0.0
 11
105.414395363817
 21
140.694517045133
 31
0.0
  0
LINE
  5
26C
100
AcDbEntity
  8
0
  6
CONTINUOUS
 62
           7
100
AcDbLine
 10
98.414396079073
 20
147.194517188338
 30
0.0
 11
98.414396079073
 21
140.694517045133
 31
0.0
  0
ARC
  5
26D
100
AcDbEntity
  8
0
  6
CONTINUOUS
 62
           7
100
AcDbCircle
 10
100.476894768984
 20
146.444517187824
 30
0.0
 40
0.8125
100
AcDbArc
 50
0.0
 51
180.0
  0
LINE
  5
26E
100
AcDbEntity
  8
0
  6
CONTINUOUS
 62
           7
100
AcDbLine
 10
99.66439488698
 20
146.444517172724
 30
0.0
 11
99.66439488698
 21
142.44451733198
 31
0.0
  0
LINE
  5
26F
100
AcDbEntity
  8
0
  6
CONTINUOUS
 62
           7
100
AcDbLine
 10
99.66439488698
 20
142.44451733198
 30
0.0
 11
101.289396317491
 21
142.44451733198
 31
0.0
  0
LINE
  5
270
100
AcDbEntity
  8
0
  6
CONTINUOUS
 62
           7
100
AcDbLine
 10
101.289396317491
 20
142.44451733198
 30
0.0
 11
101.289396317491
 21
146.444517172724
 31
0.0
  0
ARC
  5
271
100
AcDbEntity
  8
0
  6
CONTINUOUS
 62
           7
100
AcDbCircle
 10
100.414394768984
 20
147.194517187824
 30
0.0
 40
2.0
100
AcDbArc
 50
41.409622109272
 51
180.0
  0
ARC
  5
272
100
AcDbEntity
  8
0
  6
CONTINUOUS
 62
           7
100
AcDbCircle
 10
103.414394768984
 20
147.194517187824
 30
0.0
 40
2.0
100
AcDbArc
 50
0.0
 51
138.590377890727
  0
LINE
  5
273
100
AcDbEntity
  8
0
  6
CONTINUOUS
 62
           7
100
AcDbLine
 10
98.414396079073
 20
139.444517305903
 30
0.0
 11
98.414396079073
 21
137.694517484717
 31
0.0
  0
LINE
  5
274
100
AcDbEntity
  8
0
  6
CONTINUOUS
 62
           7
100
AcDbLine
 10
105.414395363817
 20
139.444517305903
 30
0.0
 11
98.414396079073
 21
139.444517305903
 31
0.0
  0
LINE
  5
275
100
AcDbEntity
  8
0
  6
CONTINUOUS
 62
           7
100
AcDbLine
 10
105.414395363817
 20
137.694517484717
 30
0.0
 11
105.414395363817
 21
139.444517305903
 31
0.0
  0
LINE
  5
276
100
AcDbEntity
  8
0
  6
CONTINUOUS
 62
           7
100
AcDbLine
 10
98.414396079073
 20
137.694517484717
 30
0.0
 11
105.414395363817
 21
137.694517484717
 31
0.0
  0
LINE
  5
277
100
AcDbEntity
  8
0
  6
CONTINUOUS
 62
           7
100
AcDbLine
 10
102.539395125398
 20
135.694517156891
 30
0.0
 11
101.289396317491
 21
135.694517156891
 31
0.0
  0
LINE
  5
278
100
AcDbEntity
  8
0
  6
CONTINUOUS
 62
           7
100
AcDbLine
 10
105.414395363817
 20
130.694516337328
 30
0.0
 11
102.539395125399
 21
130.694516337328
 31
0.0
  0
LINE
  5
279
100
AcDbEntity
  8
0
  6
CONTINUOUS
 62
           7
100
AcDbLine
 10
105.414395363817
 20
128.944516516142
 30
0.0
 11
105.414395363817
 21
130.694516337328
 31
0.0
  0
LINE
  5
27A
100
AcDbEntity
  8
0
  6
CONTINUOUS
 62
           7
100
AcDbLine
 10
98.414396079073
 20
128.944516516142
 30
0.0
 11
105.414395363817
 21
128.944516516142
 31
0.0
  0
LINE
  5
27B
100
AcDbEntity
  8
0
  6
CONTINUOUS
 62
           7
100
AcDbLine
 10
98.414396079073
 20
136.444516814165
 30
0.0
 11
98.414396079073
 21
128.944516516142
 31
0.0
  0
LINE
  5
27C
100
AcDbEntity
  8
0
  6
CONTINUOUS
 62
           7
100
AcDbLine
 10
99.66439488698
 20
136.444516814165
 30
0.0
 11
98.414396079073
 21
136.444516814165
 31
0.0
  0
LINE
  5
27D
100
AcDbEntity
  8
0
  6
CONTINUOUS
 62
           7
100
AcDbLine
 10
101.289396317491
 20
130.694516337328
 30
0.0
 11
99.66439488698
 21
130.694516337328
 31
0.0
  0
LINE
  5
27E
100
AcDbEntity
  8
0
  6
CONTINUOUS
 62
           7
100
AcDbLine
 10
102.539395125399
 20
130.694516337328
 30
0.0
 11
102.539395125398
 21
135.694517156891
 31
0.0
  0
LINE
  5
27F
100
AcDbEntity
  8
0
  6
CONTINUOUS
 62
           7
100
AcDbLine
 10
101.289396317491
 20
135.694517156891
 30
0.0
 11
101.289396317491
 21
130.694516337328
 31
0.0
  0
LINE
  5
280
100
AcDbEntity
  8
0
  6
CONTINUOUS
 62
           7
100
AcDbLine
 10
99.66439488698
 20
130.694516337328
 30
0.0
 11
99.66439488698
 21
136.444516814165
 31
0.0
  0
LINE
  5
281
100
AcDbEntity
  8
0
  6
CONTINUOUS
 62
           7
100
AcDbLine
 10
89.719106586465
 20
213.802934027128
 30
0.0
 11
89.719106586466
 21
80.532431936674
 31
0.0
  0
LINE
  5
282
100
AcDbEntity
  8
0
  6
CONTINUOUS
 62
           7
100
AcDbLine
 10
89.719367356786
 20
213.802665806226
 30
0.0
 11
89.719367356787
 21
80.532700157575
 31
0.0
  0
LINE
  5
283
100
AcDbEntity
  8
0
  6
CONTINUOUS
 62
           7
100
AcDbLine
 10
182.989341350088
 20
80.532700157576
 30
0.0
 11
182.989341350088
 21
213.802665806227
 31
0.0
  0
LINE
  5
284
100
AcDbEntity
  8
0
  6
CONTINUOUS
 62
           7
100
AcDbLine
 10
182.989602120409
 20
80.532431936674
 30
0.0
 11
182.989602120409
 21
213.802934027128
 31
0.0
  0
LINE
  5
285
100
AcDbEntity
  8
0
  6
CONTINUOUS
 62
           7
100
AcDbLine
 10
201.704357893953
 20
-1.300899521298
 30
0.0
 11
201.704357893953
 21
0.699104531817
 31
0.0
  0
LINE
  5
286
100
AcDbEntity
  8
0
  6
CONTINUOUS
 62
           7
100
AcDbLine
 10
189.004355253467
 20
0.699104531817
 30
0.0
 11
189.004355253467
 21
-1.300899521298
 31
0.0
  0
LINE
  5
287
100
AcDbEntity
  8
0
  6
CONTINUOUS
 62
           7
100
AcDbLine
 10
83.704353453407
 20
-1.300899521298
 30
0.0
 11
83.704353453407
 21
0.699104531817
 31
0.0
  0
LINE
  5
288
100
AcDbEntity
  8
0
  6
CONTINUOUS
 62
           7
100
AcDbLine
 10
71.004350812921
 20
0.699104531817
 30
0.0
 11
71.004350812921
 21
-1.300899521298
 31
0.0
  0
LINE
  5
289
100
AcDbEntity
  8
0
  6
CONTINUOUS
 62
           7
100
AcDbLine
 10
211.267081232557
 20
-76.300897844918
 30
0.0
 11
211.354357333669
 21
-81.300897733159
 31
0.0
  0
LINE
  5
28A
100
AcDbEntity
  8
0
  6
CONTINUOUS
 62
           7
100
AcDbLine
 10
211.354357333669
 20
-81.300897733159
 30
0.0
 11
210.354504318723
 21
-81.300897733159
 31
0.0
  0
LINE
  5
28B
100
AcDbEntity
  8
0
  6
CONTINUOUS
 62
           7
100
AcDbLine
 10
210.354504318723
 20
-81.300897733159
 30
0.0
 11
210.267228217611
 21
-76.300897844918
 31
0.0
  0
LINE
  5
28C
100
AcDbEntity
  8
0
  6
CONTINUOUS
 62
           7
100
AcDbLine
 10
210.267228217611
 20
-76.300897844918
 30
0.0
 11
211.267081232557
 21
-76.300897844918
 31
0.0
  0
LINE
  5
28D
100
AcDbEntity
  8
0
  6
CONTINUOUS
 62
           7
100
AcDbLine
 10
62.441480489263
 20
-76.300897844918
 30
0.0
 11
62.354204388151
 21
-81.300897733159
 31
0.0
  0
LINE
  5
28E
100
AcDbEntity
  8
0
  6
CONTINUOUS
 62
           7
100
AcDbLine
 10
210.267228217611
 20
-76.300897844918
 30
0.0
 11
62.441480489263
 21
-76.300897844918
 31
0.0
  0
LINE
  5
28F
100
AcDbEntity
  8
0
  6
CONTINUOUS
 62
           7
100
AcDbLine
 10
210.354504318723
 20
-81.300897733159
 30
0.0
 11
62.354204388151
 21
-81.300897733159
 31
0.0
  0
LINE
  5
290
100
AcDbEntity
  8
0
  6
CONTINUOUS
 62
           7
100
AcDbLine
 10
61.354351373205
 20
-81.300897733159
 30
0.0
 11
61.441627474317
 21
-76.300897844918
 31
0.0
  0
LINE
  5
291
100
AcDbEntity
  8
0
  6
CONTINUOUS
 62
           7
100
AcDbLine
 10
61.441627474317
 20
-76.300897844918
 30
0.0
 11
62.441480489263
 21
-76.300897844918
 31
0.0
  0
LINE
  5
292
100
AcDbEntity
  8
0
  6
CONTINUOUS
 62
           7
100
AcDbLine
 10
62.354204388151
 20
-81.300897733159
 30
0.0
 11
61.354351373205
 21
-81.300897733159
 31
0.0
  0
LINE
  5
293
100
AcDbEntity
  8
0
  6
CONTINUOUS
 62
           7
100
AcDbLine
 10
207.573418648729
 20
-1.300899521298
 30
0.0
 11
210.192476542482
 21
-76.300897844918
 31
0.0
  0
LINE
  5
294
100
AcDbEntity
  8
0
  6
CONTINUOUS
 62
           7
100
AcDbLine
 10
209.193085463533
 20
-76.300897844918
 30
0.0
 11
206.57402756978
 21
-1.300899521298
 31
0.0
  0
LINE
  5
295
100
AcDbEntity
  8
0
  6
CONTINUOUS
 62
           7
100
AcDbLine
 10
206.57402756978
 20
-1.300899521298
 30
0.0
 11
207.573418648729
 21
-1.300899521298
 31
0.0
  0
LINE
  5
296
100
AcDbEntity
  8
0
  6
CONTINUOUS
 62
           7
100
AcDbLine
 10
197.548234047184
 20
-1.300899521298
 30
0.0
 11
198.315900893697
 21
-76.300897844918
 31
0.0
  0
LINE
  5
297
100
AcDbEntity
  8
0
  6
CONTINUOUS
 62
           7
100
AcDbLine
 10
206.57402756978
 20
-1.300899521298
 30
0.0
 11
197.548234047184
 21
-1.300899521298
 31
0.0
  0
LINE
  5
298
100
AcDbEntity
  8
0
  6
CONTINUOUS
 62
           7
100
AcDbLine
 10
195.811309994945
 20
-1.300899521298
 30
0.0
 11
197.890506269226
 21
-76.300897844918
 31
0.0
  0
LINE
  5
299
100
AcDbEntity
  8
0
  6
CONTINUOUS
 62
           7
100
AcDbLine
 10
197.548234047184
 20
-1.300899521298
 30
0.0
 11
195.811309994945
 21
-1.300899521298
 31
0.0
  0
LINE
  5
29A
100
AcDbEntity
  8
0
  6
CONTINUOUS
 62
           7
100
AcDbLine
 10
75.16047465969
 20
-1.300899521298
 30
0.0
 11
74.392807813177
 21
-76.300897844918
 31
0.0
  0
LINE
  5
29B
100
AcDbEntity
  8
0
  6
CONTINUOUS
 62
           7
100
AcDbLine
 10
66.134681137094
 20
-1.300899521298
 30
0.0
 11
63.515623243341
 21
-76.300897844918
 31
0.0
  0
LINE
  5
29C
100
AcDbEntity
  8
0
  6
CONTINUOUS
 62
           7
100
AcDbLine
 10
66.134681137094
 20
-1.300899521298
 30
0.0
 11
75.16047465969
 21
-1.300899521298
 31
0.0
  0
LINE
  5
29D
100
AcDbEntity
  8
0
  6
CONTINUOUS
 62
           7
100
AcDbLine
 10
75.16047465969
 20
-1.300899521298
 30
0.0
 11
76.897398711929
 21
-1.300899521298
 31
0.0
  0
LINE
  5
29E
100
AcDbEntity
  8
0
  6
CONTINUOUS
 62
           7
100
AcDbLine
 10
76.897398711929
 20
-1.300899521298
 30
0.0
 11
74.818202437648
 21
-76.300897844918
 31
0.0
  0
LINE
  5
29F
100
AcDbEntity
  8
0
  6
CONTINUOUS
 62
           7
100
AcDbLine
 10
62.516232164392
 20
-76.300897844918
 30
0.0
 11
65.135290058145
 21
-1.300899521298
 31
0.0
  0
LINE
  5
2A0
100
AcDbEntity
  8
0
  6
CONTINUOUS
 62
           7
100
AcDbLine
 10
65.135290058145
 20
-1.300899521298
 30
0.0
 11
66.134681137094
 21
-1.300899521298
 31
0.0
  0
LINE
  5
2A1
100
AcDbEntity
  8
0
  6
CONTINUOUS
 62
           7
100
AcDbLine
 10
195.811309994945
 20
-1.300899521298
 30
0.0
 11
76.897398711929
 21
-1.300899521298
 31
0.0
  0
LINE
  5
2A2
100
AcDbEntity
  8
0
  6
CONTINUOUS
 62
           7
100
AcDbLine
 10
180.517242433319
 20
-0.100894109197
 30
0.0
 11
181.891464771518
 21
-0.100894109197
 31
0.0
  0
LINE
  5
2A3
100
AcDbEntity
  8
0
  6
CONTINUOUS
 62
           7
100
AcDbLine
 10
181.891464771518
 20
-0.100894109197
 30
0.0
 11
181.954355122337
 21
-1.300899521298
 31
0.0
  0
LINE
  5
2A4
100
AcDbEntity
  8
0
  6
CONTINUOUS
 62
           7
100
AcDbLine
 10
180.517242433319
 20
-0.100894109197
 30
0.0
 11
180.45435580779
 21
-1.300899521298
 31
0.0
  0
LINE
  5
2A5
100
AcDbEntity
  8
0
  6
CONTINUOUS
 62
           7
100
AcDbLine
 10
90.817243935356
 20
-0.100894109197
 30
0.0
 11
90.754353584537
 21
-1.300899521298
 31
0.0
  0
LINE
  5
2A6
100
AcDbEntity
  8
0
  6
CONTINUOUS
 62
           7
100
AcDbLine
 10
92.191466273555
 20
-0.100894109197
 30
0.0
 11
90.817243935356
 21
-0.100894109197
 31
0.0
  0
LINE
  5
2A7
100
AcDbEntity
  8
0
  6
CONTINUOUS
 62
           7
100
AcDbLine
 10
92.191466273555
 20
-0.100894109197
 30
0.0
 11
92.254352899084
 21
-1.300899521298
 31
0.0
  0
LINE
  5
2A8
100
AcDbEntity
  8
0
  6
CONTINUOUS
 62
           7
100
AcDbLine
 10
189.004355253467
 20
0.699104531817
 30
0.0
 11
201.704357893953
 21
0.699104531817
 31
0.0
  0
LINE
  5
2A9
100
AcDbEntity
  8
0
  6
CONTINUOUS
 62
           7
100
AcDbLine
 10
71.004350812921
 20
0.699104531817
 30
0.0
 11
83.704353453407
 21
0.699104531817
 31
0.0
  0
LINE
  5
2AA
100
AcDbEntity
  8
0
  6
CONTINUOUS
 62
           7
100
AcDbLine
 10
57.267015011797
 20
-74.728427198566
 30
0.0
 11
56.430188150892
 21
-77.851493353806
 31
0.0
  0
LINE
  5
2AB
100
AcDbEntity
  8
0
  6
CONTINUOUS
 62
           7
100
AcDbLine
 10
62.680286498556
 20
-71.603073016591
 30
0.0
 11
57.267015011797
 21
-74.728427198566
 31
0.0
  0
ARC
  5
2AC
100
AcDbEntity
  8
0
  6
CONTINUOUS
 62
           7
100
AcDbCircle
 10
56.36336246805
 20
-81.600897733159
 30
0.0
 40
3.75
100
AcDbArc
 50
4.588565735786
 51
88.978893406867
  0
LINE
  5
2AD
100
AcDbEntity
  8
0
  6
CONTINUOUS
 62
           7
100
AcDbLine
 10
61.354351373205
 20
-81.300897733159
 30
0.0
 11
60.101342530737
 21
-81.300897733159
 31
0.0
  0
LINE
  5
2AE
100
AcDbEntity
  8
0
  6
CONTINUOUS
 62
           7
100
AcDbLine
 10
181.891464771518
 20
-0.100894109197
 30
0.0
 11
189.004355253467
 21
-0.100894109197
 31
0.0
  0
LINE
  5
2AF
100
AcDbEntity
  8
0
  6
CONTINUOUS
 62
           7
100
AcDbLine
 10
90.817243935356
 20
-0.100894109197
 30
0.0
 11
83.704353453407
 21
-0.100894109197
 31
0.0
  0
LINE
  5
2B0
100
AcDbEntity
  8
0
  6
CONTINUOUS
 62
           7
100
AcDbLine
 10
58.958915205488
 20
-83.948894613273
 30
0.0
 11
61.354351373205
 21
-81.300897733159
 31
0.0
  0
ARC
  5
2B1
100
AcDbEntity
  8
0
  6
CONTINUOUS
 62
           7
100
AcDbCircle
 10
56.36336246805
 20
-81.600897733159
 30
0.0
 40
3.5
100
AcDbArc
 50
90.0
 51
317.866816768321
  0
CIRCLE
  5
2B2
100
AcDbEntity
  8
0
  6
CONTINUOUS
 62
           7
100
AcDbCircle
 10
56.36336246805
 20
-81.600897733159
 30
0.0
 40
1.0
  0
LINE
  5
2B3
100
AcDbEntity
  8
0
  6
CONTINUOUS
 62
           7
100
AcDbLine
 10
56.430188150892
 20
-77.851493353806
 30
0.0
 11
56.363363893518
 21
-78.100897813998
 31
0.0
  0
LINE
  5
2B4
100
AcDbEntity
  8
0
  6
CONTINUOUS
 62
           7
100
AcDbLine
 10
203.773607643137
 20
-0.100894109197
 30
0.0
 11
203.836497993955
 21
-1.300899521298
 31
0.0
  0
LINE
  5
2B5
100
AcDbEntity
  8
0
  6
CONTINUOUS
 62
           7
100
AcDbLine
 10
201.704357893953
 20
-0.100894109197
 30
0.0
 11
203.773607643137
 21
-0.100894109197
 31
0.0
  0
LINE
  5
2B6
100
AcDbEntity
  8
0
  6
CONTINUOUS
 62
           7
100
AcDbLine
 10
68.935101063738
 20
-0.100894109197
 30
0.0
 11
68.872210712919
 21
-1.300899521298
 31
0.0
  0
LINE
  5
2B7
100
AcDbEntity
  8
0
  6
CONTINUOUS
 62
           7
100
AcDbLine
 10
71.004350812921
 20
-0.100894109197
 30
0.0
 11
68.935101063738
 21
-0.100894109197
 31
0.0
  0
ARC
  5
2B8
100
AcDbEntity
  8
0
  6
CONTINUOUS
 62
           7
100
AcDbCircle
 10
214.267079028796
 20
-76.300897733159
 30
0.0
 40
1.25
100
AcDbArc
 50
317.301972167977
 51
180.0
  0
LINE
  5
2B9
100
AcDbEntity
  8
0
  6
CONTINUOUS
 62
           7
100
AcDbLine
 10
211.354357333669
 20
-81.300897733159
 30
0.0
 11
215.185751350412
 21
-77.148565766252
 31
0.0
  0
LINE
  5
2BA
100
AcDbEntity
  8
0
  6
CONTINUOUS
 62
           7
100
AcDbLine
 10
213.017081053743
 20
-76.300897844917
 30
0.0
 11
211.267081232557
 21
-76.300897844917
 31
0.0
  0
LINE
  5
2BB
100
AcDbEntity
  8
0
  6
CONTINUOUS
 62
           7
100
AcDbLine
 10
221.091886194239
 20
-78.300897707081
 30
0.0
 11
215.223101110945
 21
-77.106209681219
 31
0.0
  0
LINE
  5
2BC
100
AcDbEntity
  8
0
  6
CONTINUOUS
 62
           7
100
AcDbLine
 10
221.354355247507
 20
-81.300897733158
 30
0.0
 11
221.091886194239
 21
-78.300897707081
 31
0.0
  0
LINE
  5
2BD
100
AcDbEntity
  8
0
  6
CONTINUOUS
 62
           7
100
AcDbLine
 10
211.35435733367
 20
-81.300897733158
 30
0.0
 11
221.354355247507
 21
-81.300897733158
 31
0.0
  0
LINE
  5
2BE
100
AcDbEntity
  8
0
  6
CONTINUOUS
 62
           7
100
AcDbLine
 10
395.369205170376
 20
178.66768348854
 30
0.0
 11
395.369205170376
 21
195.667684412412
 31
0.0
  0
LINE
  5
2BF
100
AcDbEntity
  8
0
  6
CONTINUOUS
 62
           7
100
AcDbLine
 10
395.369205170376
 20
98.667681551389
 30
0.0
 11
395.369205170376
 21
115.667682475261
 31
0.0
  0
LINE
  5
2C0
100
AcDbEntity
  8
0
  6
CONTINUOUS
 62
           7
100
AcDbLine
 10
311.56920689444
 20
212.517686522417
 30
0.0
 11
309.569202841324
 21
212.517686522417
 31
0.0
  0
LINE
  5
2C1
100
AcDbEntity
  8
0
  6
CONTINUOUS
 62
           7
100
AcDbLine
 10
309.569202841324
 20
199.817683881931
 30
0.0
 11
311.56920689444
 21
199.817683881931
 31
0.0
  0
LINE
  5
2C2
100
AcDbEntity
  8
0
  6
CONTINUOUS
 62
           7
100
AcDbLine
 10
311.56920689444
 20
94.517682081871
 30
0.0
 11
309.569202841324
 21
94.517682081871
 31
0.0
  0
LINE
  5
2C3
100
AcDbEntity
  8
0
  6
CONTINUOUS
 62
           7
100
AcDbLine
 10
309.569202841324
 20
81.817679441385
 30
0.0
 11
311.56920689444
 21
81.817679441385
 31
0.0
  0
LINE
  5
2C4
100
AcDbEntity
  8
0
  6
CONTINUOUS
 62
           7
100
AcDbLine
 10
388.36920518714
 20
195.667684412412
 30
0.0
 11
388.36920518714
 21
178.66768348854
 31
0.0
  0
LINE
  5
2C5
100
AcDbEntity
  8
0
  6
CONTINUOUS
 62
           7
100
AcDbLine
 10
395.369205170376
 20
178.66768348854
 30
0.0
 11
388.36920518714
 21
178.66768348854
 31
0.0
  0
LINE
  5
2C6
100
AcDbEntity
  8
0
  6
CONTINUOUS
 62
           7
100
AcDbLine
 10
388.36920518714
 20
195.667684412412
 30
0.0
 11
395.369205170376
 21
195.667684412412
 31
0.0
  0
LINE
  5
2C7
100
AcDbEntity
  8
0
  6
CONTINUOUS
 62
           7
100
AcDbLine
 10
388.36920518714
 20
98.667681551389
 30
0.0
 11
395.369205170376
 21
98.667681551389
 31
0.0
  0
LINE
  5
2C8
100
AcDbEntity
  8
0
  6
CONTINUOUS
 62
           7
100
AcDbLine
 10
388.36920518714
 20
98.667681551389
 30
0.0
 11
388.36920518714
 21
115.667682475261
 31
0.0
  0
LINE
  5
2C9
100
AcDbEntity
  8
0
  6
CONTINUOUS
 62
           7
100
AcDbLine
 10
395.369205170376
 20
115.667682475261
 30
0.0
 11
388.36920518714
 21
115.667682475261
 31
0.0
  0
LINE
  5
2CA
100
AcDbEntity
  8
0
  6
CONTINUOUS
 62
           7
100
AcDbLine
 10
384.996734571708
 20
169.66768387597
 30
0.0
 11
388.119800726948
 21
169.66768387597
 31
0.0
  0
LINE
  5
2CB
100
AcDbEntity
  8
0
  6
CONTINUOUS
 62
           7
100
AcDbLine
 10
384.996734571708
 20
204.667684024982
 30
0.0
 11
384.996734571708
 21
169.66768387597
 31
0.0
  0
LINE
  5
2CC
100
AcDbEntity
  8
0
  6
CONTINUOUS
 62
           7
100
AcDbLine
 10
384.996734571708
 20
204.667684024982
 30
0.0
 11
388.119800726948
 21
204.667684024982
 31
0.0
  0
LINE
  5
2CD
100
AcDbEntity
  8
0
  6
CONTINUOUS
 62
           7
100
AcDbLine
 10
388.119800726948
 20
195.667684412412
 30
0.0
 11
388.119800726948
 21
204.667684024982
 31
0.0
  0
LINE
  5
2CE
100
AcDbEntity
  8
0
  6
CONTINUOUS
 62
           7
100
AcDbLine
 10
388.119800726948
 20
178.66768348854
 30
0.0
 11
388.119800726948
 21
169.66768387597
 31
0.0
  0
LINE
  5
2CF
100
AcDbEntity
  8
0
  6
CONTINUOUS
 62
           7
100
AcDbLine
 10
388.36920518714
 20
178.66768348854
 30
0.0
 11
388.119800726948
 21
178.66768348854
 31
0.0
  0
LINE
  5
2D0
100
AcDbEntity
  8
0
  6
CONTINUOUS
 62
           7
100
AcDbLine
 10
388.119800726948
 20
195.667684412412
 30
0.0
 11
388.36920518714
 21
195.667684412412
 31
0.0
  0
LINE
  5
2D1
100
AcDbEntity
  8
0
  6
CONTINUOUS
 62
           7
100
AcDbLine
 10
388.119800726948
 20
89.667681938819
 30
0.0
 11
388.119800726948
 21
98.667681551389
 31
0.0
  0
LINE
  5
2D2
100
AcDbEntity
  8
0
  6
CONTINUOUS
 62
           7
100
AcDbLine
 10
384.996734571708
 20
89.667681938819
 30
0.0
 11
388.119800726948
 21
89.667681938819
 31
0.0
  0
LINE
  5
2D3
100
AcDbEntity
  8
0
  6
CONTINUOUS
 62
           7
100
AcDbLine
 10
384.996734571708
 20
89.667681938819
 30
0.0
 11
384.996734571708
 21
124.667682087831
 31
0.0
  0
LINE
  5
2D4
100
AcDbEntity
  8
0
  6
CONTINUOUS
 62
           7
100
AcDbLine
 10
384.996734571708
 20
124.667682087831
 30
0.0
 11
388.119800726948
 21
124.667682087831
 31
0.0
  0
LINE
  5
2D5
100
AcDbEntity
  8
0
  6
CONTINUOUS
 62
           7
100
AcDbLine
 10
388.119800726948
 20
124.667682087831
 30
0.0
 11
388.119800726948
 21
115.667682475261
 31
0.0
  0
LINE
  5
2D6
100
AcDbEntity
  8
0
  6
CONTINUOUS
 62
           7
100
AcDbLine
 10
388.119800726948
 20
98.667681551389
 30
0.0
 11
388.36920518714
 21
98.667681551389
 31
0.0
  0
LINE
  5
2D7
100
AcDbEntity
  8
0
  6
CONTINUOUS
 62
           7
100
AcDbLine
 10
388.36920518714
 20
115.667682475261
 30
0.0
 11
388.119800726948
 21
115.667682475261
 31
0.0
  0
LINE
  5
2D8
100
AcDbEntity
  8
0
  6
CONTINUOUS
 62
           7
100
AcDbLine
 10
391.569205106301
 20
195.667684412412
 30
0.0
 11
391.569205106301
 21
204.667684024982
 31
0.0
  0
LINE
  5
2D9
100
AcDbEntity
  8
0
  6
CONTINUOUS
 62
           7
100
AcDbLine
 10
391.569205106301
 20
204.667684024982
 30
0.0
 11
388.119800726948
 21
204.667684024982
 31
0.0
  0
LINE
  5
2DA
100
AcDbEntity
  8
0
  6
CONTINUOUS
 62
           7
100
AcDbLine
 10
391.569205106301
 20
178.66768348854
 30
0.0
 11
391.569205106301
 21
169.66768387597
 31
0.0
  0
LINE
  5
2DB
100
AcDbEntity
  8
0
  6
CONTINUOUS
 62
           7
100
AcDbLine
 10
391.569205106301
 20
169.66768387597
 30
0.0
 11
388.119800726948
 21
169.66768387597
 31
0.0
  0
LINE
  5
2DC
100
AcDbEntity
  8
0
  6
CONTINUOUS
 62
           7
100
AcDbLine
 10
391.569205106301
 20
115.667682475261
 30
0.0
 11
391.569205106301
 21
124.667682087831
 31
0.0
  0
LINE
  5
2DD
100
AcDbEntity
  8
0
  6
CONTINUOUS
 62
           7
100
AcDbLine
 10
391.569205106301
 20
124.667682087831
 30
0.0
 11
388.119800726948
 21
124.667682087831
 31
0.0
  0
LINE
  5
2DE
100
AcDbEntity
  8
0
  6
CONTINUOUS
 62
           7
100
AcDbLine
 10
391.569205106301
 20
98.667681551389
 30
0.0
 11
391.569205106301
 21
89.667681938819
 31
0.0
  0
LINE
  5
2DF
100
AcDbEntity
  8
0
  6
CONTINUOUS
 62
           7
100
AcDbLine
 10
391.569205106301
 20
89.667681938819
 30
0.0
 11
388.119800726948
 21
89.667681938819
 31
0.0
  0
LINE
  5
2E0
100
AcDbEntity
  8
0
  6
CONTINUOUS
 62
           7
100
AcDbLine
 10
381.569205329818
 20
204.667684024982
 30
0.0
 11
381.569205329818
 21
169.66768387597
 31
0.0
  0
LINE
  5
2E1
100
AcDbEntity
  8
0
  6
CONTINUOUS
 62
           7
100
AcDbLine
 10
381.569205329818
 20
169.66768387597
 30
0.0
 11
384.996734571708
 21
169.66768387597
 31
0.0
  0
LINE
  5
2E2
100
AcDbEntity
  8
0
  6
CONTINUOUS
 62
           7
100
AcDbLine
 10
381.569205329818
 20
204.667684024982
 30
0.0
 11
384.996734571708
 21
204.667684024982
 31
0.0
  0
LINE
  5
2E3
100
AcDbEntity
  8
0
  6
CONTINUOUS
 62
           7
100
AcDbLine
 10
381.569205329818
 20
89.667681938819
 30
0.0
 11
381.569205329818
 21
124.667682087831
 31
0.0
  0
LINE
  5
2E4
100
AcDbEntity
  8
0
  6
CONTINUOUS
 62
           7
100
AcDbLine
 10
381.569205329818
 20
89.667681938819
 30
0.0
 11
384.996734571708
 21
89.667681938819
 31
0.0
  0
LINE
  5
2E5
100
AcDbEntity
  8
0
  6
CONTINUOUS
 62
           7
100
AcDbLine
 10
381.569205329818
 20
124.667682087831
 30
0.0
 11
384.996734571708
 21
124.667682087831
 31
0.0
  0
LINE
  5
2E6
100
AcDbEntity
  8
0
  6
CONTINUOUS
 62
           7
100
AcDbLine
 10
386.56920521806
 20
221.080556846074
 30
0.0
 11
386.56920521806
 21
204.667684024982
 31
0.0
  0
LINE
  5
2E7
100
AcDbEntity
  8
0
  6
CONTINUOUS
 62
           7
100
AcDbLine
 10
391.569205106301
 20
221.167832947187
 30
0.0
 11
386.56920521806
 21
221.080556846074
 31
0.0
  0
LINE
  5
2E8
100
AcDbEntity
  8
0
  6
CONTINUOUS
 62
           7
100
AcDbLine
 10
391.569205106301
 20
221.167832947187
 30
0.0
 11
391.569205106301
 21
204.667684024982
 31
0.0
  0
LINE
  5
2E9
100
AcDbEntity
  8
0
  6
CONTINUOUS
 62
           7
100
AcDbLine
 10
386.56920521806
 20
222.08040986102
 30
0.0
 11
391.569205106301
 21
222.167685962133
 31
0.0
  0
LINE
  5
2EA
100
AcDbEntity
  8
0
  6
CONTINUOUS
 62
           7
100
AcDbLine
 10
386.56920521806
 20
221.080556846074
 30
0.0
 11
386.56920521806
 21
222.08040986102
 31
0.0
  0
LINE
  5
2EB
100
AcDbEntity
  8
0
  6
CONTINUOUS
 62
           7
100
AcDbLine
 10
391.569205106301
 20
222.167685962133
 30
0.0
 11
391.569205106301
 21
221.167832947187
 31
0.0
  0
LINE
  5
2EC
100
AcDbEntity
  8
0
  6
CONTINUOUS
 62
           7
100
AcDbLine
 10
386.56920521806
 20
169.66768387597
 30
0.0
 11
386.569205218059
 21
124.667682087831
 31
0.0
  0
LINE
  5
2ED
100
AcDbEntity
  8
0
  6
CONTINUOUS
 62
           7
100
AcDbLine
 10
391.569205106301
 20
169.66768387597
 30
0.0
 11
391.569205106301
 21
124.667682087831
 31
0.0
  0
LINE
  5
2EE
100
AcDbEntity
  8
0
  6
CONTINUOUS
 62
           7
100
AcDbLine
 10
386.569205218059
 20
73.254809117727
 30
0.0
 11
391.569205106301
 21
73.167533016614
 31
0.0
  0
LINE
  5
2EF
100
AcDbEntity
  8
0
  6
CONTINUOUS
 62
           7
100
AcDbLine
 10
386.569205218059
 20
89.667681938819
 30
0.0
 11
386.569205218059
 21
73.254809117727
 31
0.0
  0
LINE
  5
2F0
100
AcDbEntity
  8
0
  6
CONTINUOUS
 62
           7
100
AcDbLine
 10
391.569205106301
 20
89.667681938819
 30
0.0
 11
391.569205106301
 21
73.167533016614
 31
0.0
  0
LINE
  5
2F1
100
AcDbEntity
  8
0
  6
CONTINUOUS
 62
           7
100
AcDbLine
 10
391.569205106301
 20
72.167680001668
 30
0.0
 11
386.569205218059
 21
72.254956102781
 31
0.0
  0
LINE
  5
2F2
100
AcDbEntity
  8
0
  6
CONTINUOUS
 62
           7
100
AcDbLine
 10
386.569205218059
 20
72.254956102781
 30
0.0
 11
386.569205218059
 21
73.254809117727
 31
0.0
  0
LINE
  5
2F3
100
AcDbEntity
  8
0
  6
CONTINUOUS
 62
           7
100
AcDbLine
 10
391.569205106301
 20
73.167533016614
 30
0.0
 11
391.569205106301
 21
72.167680001668
 31
0.0
  0
LINE
  5
2F4
100
AcDbEntity
  8
0
  6
CONTINUOUS
 62
           7
100
AcDbLine
 10
311.56920689444
 20
218.386747277193
 30
0.0
 11
386.56920521806
 21
221.005805170945
 31
0.0
  0
LINE
  5
2F5
100
AcDbEntity
  8
0
  6
CONTINUOUS
 62
           7
100
AcDbLine
 10
386.56920521806
 20
220.006414091996
 30
0.0
 11
311.56920689444
 21
217.387356198244
 31
0.0
  0
LINE
  5
2F6
100
AcDbEntity
  8
0
  6
CONTINUOUS
 62
           7
100
AcDbLine
 10
311.56920689444
 20
217.387356198244
 30
0.0
 11
311.56920689444
 21
218.386747277193
 31
0.0
  0
LINE
  5
2F7
100
AcDbEntity
  8
0
  6
CONTINUOUS
 62
           7
100
AcDbLine
 10
311.56920689444
 20
208.361562675647
 30
0.0
 11
386.56920521806
 21
209.129229522161
 31
0.0
  0
LINE
  5
2F8
100
AcDbEntity
  8
0
  6
CONTINUOUS
 62
           7
100
AcDbLine
 10
311.56920689444
 20
208.361562675647
 30
0.0
 11
311.56920689444
 21
217.387356198244
 31
0.0
  0
LINE
  5
2F9
100
AcDbEntity
  8
0
  6
CONTINUOUS
 62
           7
100
AcDbLine
 10
311.56920689444
 20
206.624638623409
 30
0.0
 11
311.56920689444
 21
208.361562675647
 31
0.0
  0
LINE
  5
2FA
100
AcDbEntity
  8
0
  6
CONTINUOUS
 62
           7
100
AcDbLine
 10
386.56920521806
 20
208.703834897689
 30
0.0
 11
311.56920689444
 21
206.624638623409
 31
0.0
  0
LINE
  5
2FB
100
AcDbEntity
  8
0
  6
CONTINUOUS
 62
           7
100
AcDbLine
 10
311.56920689444
 20
85.973803288154
 30
0.0
 11
386.569205218059
 21
85.20613644164
 31
0.0
  0
LINE
  5
2FC
100
AcDbEntity
  8
0
  6
CONTINUOUS
 62
           7
100
AcDbLine
 10
311.56920689444
 20
87.710727340393
 30
0.0
 11
311.56920689444
 21
85.973803288154
 31
0.0
  0
LINE
  5
2FD
100
AcDbEntity
  8
0
  6
CONTINUOUS
 62
           7
100
AcDbLine
 10
386.569205218059
 20
85.631531066112
 30
0.0
 11
311.56920689444
 21
87.710727340393
 31
0.0
  0
LINE
  5
2FE
100
AcDbEntity
  8
0
  6
CONTINUOUS
 62
           7
100
AcDbLine
 10
311.56920689444
 20
76.948009765558
 30
0.0
 11
386.569205218059
 21
74.328951871804
 31
0.0
  0
LINE
  5
2FF
100
AcDbEntity
  8
0
  6
CONTINUOUS
 62
           7
100
AcDbLine
 10
311.56920689444
 20
85.973803288154
 30
0.0
 11
311.56920689444
 21
76.948009765558
 31
0.0
  0
LINE
  5
300
100
AcDbEntity
  8
0
  6
CONTINUOUS
 62
           7
100
AcDbLine
 10
386.569205218059
 20
73.329560792856
 30
0.0
 11
311.56920689444
 21
75.948618686609
 31
0.0
  0
LINE
  5
301
100
AcDbEntity
  8
0
  6
CONTINUOUS
 62
           7
100
AcDbLine
 10
311.56920689444
 20
75.948618686609
 30
0.0
 11
311.56920689444
 21
76.948009765558
 31
0.0
  0
LINE
  5
302
100
AcDbEntity
  8
0
  6
CONTINUOUS
 62
           7
100
AcDbLine
 10
311.56920689444
 20
206.624638623409
 30
0.0
 11
311.56920689444
 21
87.710727340393
 31
0.0
  0
LINE
  5
303
100
AcDbEntity
  8
0
  6
CONTINUOUS
 62
           7
100
AcDbLine
 10
310.369201482339
 20
191.330571061782
 30
0.0
 11
311.56920689444
 21
191.267684436254
 31
0.0
  0
LINE
  5
304
100
AcDbEntity
  8
0
  6
CONTINUOUS
 62
           7
100
AcDbLine
 10
310.369201482339
 20
192.704793399982
 30
0.0
 11
310.369201482339
 21
191.330571061782
 31
0.0
  0
LINE
  5
305
100
AcDbEntity
  8
0
  6
CONTINUOUS
 62
           7
100
AcDbLine
 10
310.369201482339
 20
192.704793399982
 30
0.0
 11
311.56920689444
 21
192.767683750801
 31
0.0
  0
LINE
  5
306
100
AcDbEntity
  8
0
  6
CONTINUOUS
 62
           7
100
AcDbLine
 10
310.369201482338
 20
101.630572563819
 30
0.0
 11
310.369201482338
 21
103.004794902019
 31
0.0
  0
LINE
  5
307
100
AcDbEntity
  8
0
  6
CONTINUOUS
 62
           7
100
AcDbLine
 10
310.369201482338
 20
103.004794902019
 30
0.0
 11
311.56920689444
 21
103.067681527547
 31
0.0
  0
LINE
  5
308
100
AcDbEntity
  8
0
  6
CONTINUOUS
 62
           7
100
AcDbLine
 10
310.369201482338
 20
101.630572563819
 30
0.0
 11
311.56920689444
 21
101.567682213001
 31
0.0
  0
LINE
  5
309
100
AcDbEntity
  8
0
  6
CONTINUOUS
 62
           7
100
AcDbLine
 10
309.569202841324
 20
206.167683339529
 30
0.0
 11
309.569202841324
 21
212.517686522417
 31
0.0
  0
LINE
  5
30A
100
AcDbEntity
  8
0
  6
CONTINUOUS
 62
           7
100
AcDbLine
 10
309.569202841324
 20
199.817683881931
 30
0.0
 11
309.569202841324
 21
206.167683339529
 31
0.0
  0
LINE
  5
30B
100
AcDbEntity
  8
0
  6
CONTINUOUS
 62
           7
100
AcDbLine
 10
309.569202841324
 20
88.167682624273
 30
0.0
 11
309.569202841324
 21
94.517682081871
 31
0.0
  0
LINE
  5
30C
100
AcDbEntity
  8
0
  6
CONTINUOUS
 62
           7
100
AcDbLine
 10
309.569202841324
 20
81.817679441385
 30
0.0
 11
309.569202841324
 21
88.167682624273
 31
0.0
  0
LINE
  5
30D
100
AcDbEntity
  8
0
  6
CONTINUOUS
 62
           7
100
AcDbLine
 10
310.369201482338
 20
199.817683881931
 30
0.0
 11
310.369201482338
 21
192.704793399982
 31
0.0
  0
LINE
  5
30E
100
AcDbEntity
  8
0
  6
CONTINUOUS
 62
           7
100
AcDbLine
 10
310.369201482338
 20
94.517682081871
 30
0.0
 11
310.369201482338
 21
101.63057256382
 31
0.0
  0
LINE
  5
30F
100
AcDbEntity
  8
0
  6
CONTINUOUS
 62
           7
100
AcDbLine
 10
310.369201482339
 20
214.5869362716
 30
0.0
 11
311.56920689444
 21
214.649826622419
 31
0.0
  0
LINE
  5
310
100
AcDbEntity
  8
0
  6
CONTINUOUS
 62
           7
100
AcDbLine
 10
310.369201482339
 20
214.5869362716
 30
0.0
 11
310.369201482339
 21
212.517686522417
 31
0.0
  0
LINE
  5
311
100
AcDbEntity
  8
0
  6
CONTINUOUS
 62
           7
100
AcDbLine
 10
310.369201482338
 20
79.748429692201
 30
0.0
 11
311.56920689444
 21
79.685539341383
 31
0.0
  0
LINE
  5
312
100
AcDbEntity
  8
0
  6
CONTINUOUS
 62
           7
100
AcDbLine
 10
310.369201482338
 20
79.748429692201
 30
0.0
 11
310.369201482338
 21
81.817679441385
 31
0.0
  0
LINE
  5
313
100
AcDbEntity
  8
0
  6
CONTINUOUS
 62
           7
100
AcDbLine
 10
-115.742874973915
 20
137.167683205418
 30
0.0
 11
-115.742874973915
 21
157.167682758384
 31
0.0
  0
LINE
  5
314
100
AcDbEntity
  8
0
  6
CONTINUOUS
 62
           7
100
AcDbLine
 10
-41.992876855186
 20
81.817679441385
 30
0.0
 11
-39.992872802071
 21
81.817679441385
 31
0.0
  0
LINE
  5
315
100
AcDbEntity
  8
0
  6
CONTINUOUS
 62
           7
100
AcDbLine
 10
-39.992872802071
 20
94.517682081871
 30
0.0
 11
-41.992876855187
 21
94.517682081871
 31
0.0
  0
LINE
  5
316
100
AcDbEntity
  8
0
  6
CONTINUOUS
 62
           7
100
AcDbLine
 10
-41.992876855187
 20
199.817683881931
 30
0.0
 11
-39.992872802071
 21
199.817683881931
 31
0.0
  0
LINE
  5
317
100
AcDbEntity
  8
0
  6
CONTINUOUS
 62
           7
100
AcDbLine
 10
-39.992872802071
 20
212.517686522417
 30
0.0
 11
-41.992876855187
 21
212.517686522417
 31
0.0
  0
LINE
  5
318
100
AcDbEntity
  8
0
  6
CONTINUOUS
 62
           7
100
AcDbLine
 10
-125.792875131122
 20
115.667682475261
 30
0.0
 11
-125.792875131122
 21
98.667681551389
 31
0.0
  0
LINE
  5
319
100
AcDbEntity
  8
0
  6
CONTINUOUS
 62
           7
100
AcDbLine
 10
-125.792875131122
 20
195.667684412412
 30
0.0
 11
-125.792875131122
 21
178.66768348854
 31
0.0
  0
LINE
  5
31A
100
AcDbEntity
  8
0
  6
CONTINUOUS
 62
           7
100
AcDbLine
 10
-121.992875067047
 20
117.167683652453
 30
0.0
 11
-118.99287504097
 21
117.167683652453
 31
0.0
  0
LINE
  5
31B
100
AcDbEntity
  8
0
  6
CONTINUOUS
 62
           7
100
AcDbLine
 10
-118.99287504097
 20
117.167683652453
 30
0.0
 11
-118.99287504097
 21
97.167682236843
 31
0.0
  0
LINE
  5
31C
100
AcDbEntity
  8
0
  6
CONTINUOUS
 62
           7
100
AcDbLine
 10
-121.992875067047
 20
97.167682236843
 30
0.0
 11
-118.99287504097
 21
97.167682236843
 31
0.0
  0
LINE
  5
31D
100
AcDbEntity
  8
0
  6
CONTINUOUS
 62
           7
100
AcDbLine
 10
-121.992875067047
 20
117.167683652453
 30
0.0
 11
-121.992875067047
 21
97.167682236843
 31
0.0
  0
LINE
  5
31E
100
AcDbEntity
  8
0
  6
CONTINUOUS
 62
           7
100
AcDbLine
 10
-116.992875178806
 20
117.167683652453
 30
0.0
 11
-116.992875178806
 21
108.816542065553
 31
0.0
  0
ELLIPSE
  5
31F
100
AcDbEntity
  8
0
  6
CONTINUOUS
 62
           7
100
AcDbEllipse
 10
-117.621340255463
 20
107.167682981901
 30
0.0
 11
-0.0000000000000142
 21
3.5
 31
0.0
210
0.0
220
0.0
230
1.0
 40
0.203566291416
 41
5.2029288271601386
 42
10.505034440788878
  0
LINE
  5
320
100
AcDbEntity
  8
0
  6
CONTINUOUS
 62
           7
100
AcDbLine
 10
-116.992875178806
 20
105.518825686388
 30
0.0
 11
-116.992875178806
 21
97.167682236843
 31
0.0
  0
LINE
  5
321
100
AcDbEntity
  8
0
  6
CONTINUOUS
 62
           7
100
AcDbLine
 10
-118.99287504097
 20
117.167683652453
 30
0.0
 11
-116.992875178806
 21
117.167683652453
 31
0.0
  0
LINE
  5
322
100
AcDbEntity
  8
0
  6
CONTINUOUS
 62
           7
100
AcDbLine
 10
-118.99287504097
 20
97.167682236843
 30
0.0
 11
-116.992875178806
 21
97.167682236843
 31
0.0
  0
LINE
  5
323
100
AcDbEntity
  8
0
  6
CONTINUOUS
 62
           7
100
AcDbLine
 10
-116.992875178806
 20
105.518825686388
 30
0.0
 11
-116.992875178806
 21
108.816542065553
 31
0.0
  0
LINE
  5
324
100
AcDbEntity
  8
0
  6
CONTINUOUS
 62
           7
100
AcDbLine
 10
-117.840543100141
 20
157.167682758384
 30
0.0
 11
-117.840543100141
 21
137.167683205418
 31
0.0
  0
LINE
  5
325
100
AcDbEntity
  8
0
  6
CONTINUOUS
 62
           7
100
AcDbLine
 10
-117.840543100141
 20
157.167682758384
 30
0.0
 11
-115.742874973915
 21
157.167682758384
 31
0.0
  0
LINE
  5
326
100
AcDbEntity
  8
0
  6
CONTINUOUS
 62
           7
100
AcDbLine
 10
-117.840543100141
 20
137.167683205418
 30
0.0
 11
-115.742874973915
 21
137.167683205418
 31
0.0
  0
LINE
  5
327
100
AcDbEntity
  8
0
  6
CONTINUOUS
 62
           7
100
AcDbLine
 10
-121.992875067047
 20
157.167682758384
 30
0.0
 11
-117.840543100141
 21
157.167682758384
 31
0.0
  0
LINE
  5
328
100
AcDbEntity
  8
0
  6
CONTINUOUS
 62
           7
100
AcDbLine
 10
-121.992875067047
 20
137.167683205418
 30
0.0
 11
-117.840543100141
 21
137.167683205418
 31
0.0
  0
LINE
  5
329
100
AcDbEntity
  8
0
  6
CONTINUOUS
 62
           7
100
AcDbLine
 10
-121.992875067047
 20
157.167682758384
 30
0.0
 11
-121.992875067047
 21
137.167683205418
 31
0.0
  0
LINE
  5
32A
100
AcDbEntity
  8
0
  6
CONTINUOUS
 62
           7
100
AcDbLine
 10
-121.992875067047
 20
73.167533016615
 30
0.0
 11
-116.992875178806
 21
73.254809117727
 31
0.0
  0
LINE
  5
32B
100
AcDbEntity
  8
0
  6
CONTINUOUS
 62
           7
100
AcDbLine
 10
-116.992875178806
 20
73.254809117727
 30
0.0
 11
-116.992875178806
 21
97.167682236843
 31
0.0
  0
LINE
  5
32C
100
AcDbEntity
  8
0
  6
CONTINUOUS
 62
           7
100
AcDbLine
 10
-121.992875067047
 20
73.167533016615
 30
0.0
 11
-121.992875067047
 21
97.167682236843
 31
0.0
  0
LINE
  5
32D
100
AcDbEntity
  8
0
  6
CONTINUOUS
 62
           7
100
AcDbLine
 10
-116.992875178806
 20
72.254956102781
 30
0.0
 11
-121.992875067047
 21
72.167680001669
 31
0.0
  0
LINE
  5
32E
100
AcDbEntity
  8
0
  6
CONTINUOUS
 62
           7
100
AcDbLine
 10
-116.992875178806
 20
73.254809117727
 30
0.0
 11
-116.992875178806
 21
72.254956102781
 31
0.0
  0
LINE
  5
32F
100
AcDbEntity
  8
0
  6
CONTINUOUS
 62
           7
100
AcDbLine
 10
-121.992875067047
 20
72.167680001669
 30
0.0
 11
-121.992875067047
 21
73.167533016615
 31
0.0
  0
LINE
  5
330
100
AcDbEntity
  8
0
  6
CONTINUOUS
 62
           7
100
AcDbLine
 10
-116.992875178806
 20
117.167683652453
 30
0.0
 11
-116.992875178806
 21
137.167683205418
 31
0.0
  0
LINE
  5
331
100
AcDbEntity
  8
0
  6
CONTINUOUS
 62
           7
100
AcDbLine
 10
-121.992875067047
 20
117.167683652453
 30
0.0
 11
-121.992875067047
 21
137.167683205418
 31
0.0
  0
LINE
  5
332
100
AcDbEntity
  8
0
  6
CONTINUOUS
 62
           7
100
AcDbLine
 10
-116.992875178806
 20
221.080556846075
 30
0.0
 11
-121.992875067048
 21
221.167832947187
 31
0.0
  0
LINE
  5
333
100
AcDbEntity
  8
0
  6
CONTINUOUS
 62
           7
100
AcDbLine
 10
-116.992875178806
 20
157.167682758384
 30
0.0
 11
-116.992875178806
 21
221.080556846075
 31
0.0
  0
LINE
  5
334
100
AcDbEntity
  8
0
  6
CONTINUOUS
 62
           7
100
AcDbLine
 10
-121.992875067047
 20
157.167682758384
 30
0.0
 11
-121.992875067048
 21
221.167832947187
 31
0.0
  0
LINE
  5
335
100
AcDbEntity
  8
0
  6
CONTINUOUS
 62
           7
100
AcDbLine
 10
-121.992875067048
 20
222.167685962133
 30
0.0
 11
-116.992875178806
 21
222.080409861021
 31
0.0
  0
LINE
  5
336
100
AcDbEntity
  8
0
  6
CONTINUOUS
 62
           7
100
AcDbLine
 10
-116.992875178806
 20
222.080409861021
 30
0.0
 11
-116.992875178806
 21
221.080556846075
 31
0.0
  0
LINE
  5
337
100
AcDbEntity
  8
0
  6
CONTINUOUS
 62
           7
100
AcDbLine
 10
-121.992875067048
 20
221.167832947187
 30
0.0
 11
-121.992875067048
 21
222.167685962133
 31
0.0
  0
LINE
  5
338
100
AcDbEntity
  8
0
  6
CONTINUOUS
 62
           7
100
AcDbLine
 10
-41.992876855187
 20
75.948618686609
 30
0.0
 11
-116.992875178806
 21
73.329560792856
 31
0.0
  0
LINE
  5
339
100
AcDbEntity
  8
0
  6
CONTINUOUS
 62
           7
100
AcDbLine
 10
-116.992875178806
 20
74.328951871805
 30
0.0
 11
-41.992876855187
 21
76.948009765558
 31
0.0
  0
LINE
  5
33A
100
AcDbEntity
  8
0
  6
CONTINUOUS
 62
           7
100
AcDbLine
 10
-41.992876855187
 20
76.948009765558
 30
0.0
 11
-41.992876855187
 21
75.948618686609
 31
0.0
  0
LINE
  5
33B
100
AcDbEntity
  8
0
  6
CONTINUOUS
 62
           7
100
AcDbLine
 10
-41.992876855187
 20
85.973803288155
 30
0.0
 11
-116.992875178806
 21
85.206136441641
 31
0.0
  0
LINE
  5
33C
100
AcDbEntity
  8
0
  6
CONTINUOUS
 62
           7
100
AcDbLine
 10
-41.992876855187
 20
85.973803288155
 30
0.0
 11
-41.992876855187
 21
76.948009765558
 31
0.0
  0
LINE
  5
33D
100
AcDbEntity
  8
0
  6
CONTINUOUS
 62
           7
100
AcDbLine
 10
-41.992876855187
 20
87.710727340393
 30
0.0
 11
-41.992876855187
 21
85.973803288155
 31
0.0
  0
LINE
  5
33E
100
AcDbEntity
  8
0
  6
CONTINUOUS
 62
           7
100
AcDbLine
 10
-116.992875178806
 20
85.631531066112
 30
0.0
 11
-41.992876855187
 21
87.710727340393
 31
0.0
  0
LINE
  5
33F
100
AcDbEntity
  8
0
  6
CONTINUOUS
 62
           7
100
AcDbLine
 10
-41.992876855187
 20
208.361562675648
 30
0.0
 11
-116.992875178806
 21
209.129229522161
 31
0.0
  0
LINE
  5
340
100
AcDbEntity
  8
0
  6
CONTINUOUS
 62
           7
100
AcDbLine
 10
-41.992876855187
 20
206.624638623409
 30
0.0
 11
-41.992876855187
 21
208.361562675648
 31
0.0
  0
LINE
  5
341
100
AcDbEntity
  8
0
  6
CONTINUOUS
 62
           7
100
AcDbLine
 10
-116.992875178806
 20
208.70383489769
 30
0.0
 11
-41.992876855187
 21
206.624638623409
 31
0.0
  0
LINE
  5
342
100
AcDbEntity
  8
0
  6
CONTINUOUS
 62
           7
100
AcDbLine
 10
-41.992876855187
 20
217.387356198244
 30
0.0
 11
-116.992875178806
 21
220.006414091997
 31
0.0
  0
LINE
  5
343
100
AcDbEntity
  8
0
  6
CONTINUOUS
 62
           7
100
AcDbLine
 10
-41.992876855187
 20
208.361562675648
 30
0.0
 11
-41.992876855187
 21
217.387356198244
 31
0.0
  0
LINE
  5
344
100
AcDbEntity
  8
0
  6
CONTINUOUS
 62
           7
100
AcDbLine
 10
-116.992875178806
 20
221.005805170946
 30
0.0
 11
-41.992876855187
 21
218.386747277193
 31
0.0
  0
LINE
  5
345
100
AcDbEntity
  8
0
  6
CONTINUOUS
 62
           7
100
AcDbLine
 10
-41.992876855187
 20
218.386747277193
 30
0.0
 11
-41.992876855187
 21
217.387356198244
 31
0.0
  0
LINE
  5
346
100
AcDbEntity
  8
0
  6
CONTINUOUS
 62
           7
100
AcDbLine
 10
-41.992876855187
 20
87.710727340393
 30
0.0
 11
-41.992876855187
 21
206.624638623409
 31
0.0
  0
LINE
  5
347
100
AcDbEntity
  8
0
  6
CONTINUOUS
 62
           7
100
AcDbLine
 10
-40.792871443085
 20
103.00479490202
 30
0.0
 11
-41.992876855187
 21
103.067681527548
 31
0.0
  0
LINE
  5
348
100
AcDbEntity
  8
0
  6
CONTINUOUS
 62
           7
100
AcDbLine
 10
-40.792871443085
 20
101.63057256382
 30
0.0
 11
-40.792871443085
 21
103.00479490202
 31
0.0
  0
LINE
  5
349
100
AcDbEntity
  8
0
  6
CONTINUOUS
 62
           7
100
AcDbLine
 10
-40.792871443085
 20
101.63057256382
 30
0.0
 11
-41.992876855187
 21
101.567682213001
 31
0.0
  0
LINE
  5
34A
100
AcDbEntity
  8
0
  6
CONTINUOUS
 62
           7
100
AcDbLine
 10
-40.792871443085
 20
192.704793399983
 30
0.0
 11
-40.792871443085
 21
191.330571061783
 31
0.0
  0
LINE
  5
34B
100
AcDbEntity
  8
0
  6
CONTINUOUS
 62
           7
100
AcDbLine
 10
-40.792871443085
 20
191.330571061783
 30
0.0
 11
-41.992876855187
 21
191.267684436255
 31
0.0
  0
LINE
  5
34C
100
AcDbEntity
  8
0
  6
CONTINUOUS
 62
           7
100
AcDbLine
 10
-40.792871443085
 20
192.704793399983
 30
0.0
 11
-41.992876855187
 21
192.767683750801
 31
0.0
  0
LINE
  5
34D
100
AcDbEntity
  8
0
  6
CONTINUOUS
 62
           7
100
AcDbLine
 10
-39.992872802071
 20
94.517682081871
 30
0.0
 11
-39.992872802071
 21
81.817679441385
 31
0.0
  0
LINE
  5
34E
100
AcDbEntity
  8
0
  6
CONTINUOUS
 62
           7
100
AcDbLine
 10
-39.992872802071
 20
212.517686522417
 30
0.0
 11
-39.992872802071
 21
199.817683881931
 31
0.0
  0
LINE
  5
34F
100
AcDbEntity
  8
0
  6
CONTINUOUS
 62
           7
100
AcDbLine
 10
-40.792871443085
 20
94.517682081871
 30
0.0
 11
-40.792871443085
 21
101.63057256382
 31
0.0
  0
LINE
  5
350
100
AcDbEntity
  8
0
  6
CONTINUOUS
 62
           7
100
AcDbLine
 10
-40.792871443085
 20
199.817683881931
 30
0.0
 11
-40.792871443085
 21
192.704793399982
 31
0.0
  0
LINE
  5
351
100
AcDbEntity
  8
0
  6
CONTINUOUS
 62
           7
100
AcDbLine
 10
-40.792871443085
 20
79.748429692202
 30
0.0
 11
-41.992876855186
 21
79.685539341383
 31
0.0
  0
LINE
  5
352
100
AcDbEntity
  8
0
  6
CONTINUOUS
 62
           7
100
AcDbLine
 10
-40.792871443085
 20
79.748429692202
 30
0.0
 11
-40.792871443085
 21
81.817679441385
 31
0.0
  0
LINE
  5
353
100
AcDbEntity
  8
0
  6
CONTINUOUS
 62
           7
100
AcDbLine
 10
-40.792871443085
 20
214.586936271601
 30
0.0
 11
-41.992876855187
 21
214.649826622419
 31
0.0
  0
LINE
  5
354
100
AcDbEntity
  8
0
  6
CONTINUOUS
 62
           7
100
AcDbLine
 10
-40.792871443085
 20
214.586936271601
 30
0.0
 11
-40.792871443085
 21
212.517686522417
 31
0.0
  0
LINE
  5
355
100
AcDbEntity
  8
0
  6
CONTINUOUS
 62
           7
100
AcDbLine
 10
-124.640871947161
 20
98.667681551389
 30
0.0
 11
-124.640871947161
 21
115.667682475261
 31
0.0
  0
LINE
  5
356
100
AcDbEntity
  8
0
  6
CONTINUOUS
 62
           7
100
AcDbLine
 10
-124.640871947161
 20
115.667682475261
 30
0.0
 11
-121.992875067047
 21
115.667682475261
 31
0.0
  0
LINE
  5
357
100
AcDbEntity
  8
0
  6
CONTINUOUS
 62
           7
100
AcDbLine
 10
-124.640871947161
 20
98.667681551389
 30
0.0
 11
-121.992875067047
 21
98.667681551389
 31
0.0
  0
LINE
  5
358
100
AcDbEntity
  8
0
  6
CONTINUOUS
 62
           7
100
AcDbLine
 10
-124.640871947161
 20
195.667684412412
 30
0.0
 11
-124.640871947161
 21
178.66768348854
 31
0.0
  0
LINE
  5
359
100
AcDbEntity
  8
0
  6
CONTINUOUS
 62
           7
100
AcDbLine
 10
-124.640871947161
 20
195.667684412412
 30
0.0
 11
-121.992875067047
 21
195.667684412412
 31
0.0
  0
LINE
  5
35A
100
AcDbEntity
  8
0
  6
CONTINUOUS
 62
           7
100
AcDbLine
 10
-124.640871947161
 20
178.66768348854
 30
0.0
 11
-121.992875067047
 21
178.66768348854
 31
0.0
  0
LINE
  5
35B
100
AcDbEntity
  8
0
  6
CONTINUOUS
 62
           7
100
AcDbLine
 10
-124.640871947161
 20
115.667682475261
 30
0.0
 11
-125.792875131122
 21
115.667682475261
 31
0.0
  0
LINE
  5
35C
100
AcDbEntity
  8
0
  6
CONTINUOUS
 62
           7
100
AcDbLine
 10
-125.792875131122
 20
98.667681551389
 30
0.0
 11
-124.640871947161
 21
98.667681551389
 31
0.0
  0
LINE
  5
35D
100
AcDbEntity
  8
0
  6
CONTINUOUS
 62
           7
100
AcDbLine
 10
-125.792875131122
 20
195.667684412412
 30
0.0
 11
-124.640871947161
 21
195.667684412412
 31
0.0
  0
LINE
  5
35E
100
AcDbEntity
  8
0
  6
CONTINUOUS
 62
           7
100
AcDbLine
 10
-124.640871947161
 20
178.66768348854
 30
0.0
 11
-125.792875131122
 21
178.66768348854
 31
0.0
  0
LINE
  5
35F
100
AcDbEntity
  8
0
  6
CONTINUOUS
 62
           7
100
AcDbLine
 10
466.214397631886
 20
157.167682758384
 30
0.0
 11
466.214397631886
 21
137.167683205418
 31
0.0
  0
LINE
  5
360
100
AcDbEntity
  8
0
  6
CONTINUOUS
 62
           7
100
AcDbLine
 10
628.868112050297
 20
98.667681551389
 30
0.0
 11
628.868112050297
 21
115.667682475261
 31
0.0
  0
LINE
  5
361
100
AcDbEntity
  8
0
  6
CONTINUOUS
 62
           7
100
AcDbLine
 10
628.868112050297
 20
178.66768348854
 30
0.0
 11
628.868112050297
 21
195.667684412412
 31
0.0
  0
CIRCLE
  5
362
100
AcDbEntity
  8
0
  6
CONTINUOUS
 62
           7
100
AcDbCircle
 10
486.377121948006
 20
88.167682981901
 30
0.0
 40
2.6
  0
CIRCLE
  5
363
100
AcDbEntity
  8
0
  6
CONTINUOUS
 62
           7
100
AcDbCircle
 10
486.377121948006
 20
88.167682981901
 30
0.0
 40
6.35
  0
CIRCLE
  5
364
100
AcDbEntity
  8
0
  6
CONTINUOUS
 62
           7
100
AcDbCircle
 10
486.377121948007
 20
206.167682981901
 30
0.0
 40
2.6
  0
CIRCLE
  5
365
100
AcDbEntity
  8
0
  6
CONTINUOUS
 62
           7
100
AcDbCircle
 10
486.377121948007
 20
206.167682981901
 30
0.0
 40
6.35
  0
CIRCLE
  5
366
100
AcDbEntity
  8
0
  6
CONTINUOUS
 62
           7
100
AcDbCircle
 10
604.377121948006
 20
88.167682981901
 30
0.0
 40
2.6
  0
CIRCLE
  5
367
100
AcDbEntity
  8
0
  6
CONTINUOUS
 62
           7
100
AcDbCircle
 10
604.377121948006
 20
88.167682981901
 30
0.0
 40
6.35
  0
CIRCLE
  5
368
100
AcDbEntity
  8
0
  6
CONTINUOUS
 62
           7
100
AcDbCircle
 10
604.377121948007
 20
206.167682981901
 30
0.0
 40
2.6
  0
CIRCLE
  5
369
100
AcDbEntity
  8
0
  6
CONTINUOUS
 62
           7
100
AcDbCircle
 10
604.377121948007
 20
206.167682981901
 30
0.0
 40
6.35
  0
LINE
  5
36A
100
AcDbEntity
  8
0
  6
CONTINUOUS
 62
           7
100
AcDbLine
 10
501.214233868125
 20
94.414931124859
 30
0.0
 11
492.624370090964
 21
103.00479490202
 31
0.0
  0
LINE
  5
36B
100
AcDbEntity
  8
0
  6
CONTINUOUS
 62
           7
100
AcDbLine
 10
501.214233868125
 20
79.748429692202
 30
0.0
 11
501.214233868125
 21
94.414931124859
 31
0.0
  0
LINE
  5
36C
100
AcDbEntity
  8
0
  6
CONTINUOUS
 62
           7
100
AcDbLine
 10
501.214233868125
 20
79.748429692202
 30
0.0
 11
499.840011529925
 21
79.748429692202
 31
0.0
  0
LINE
  5
36D
100
AcDbEntity
  8
0
  6
CONTINUOUS
 62
           7
100
AcDbLine
 10
499.840011529925
 20
79.748429692202
 30
0.0
 11
499.840011529925
 21
93.845710492544
 31
0.0
  0
LINE
  5
36E
100
AcDbEntity
  8
0
  6
CONTINUOUS
 62
           7
100
AcDbLine
 10
499.840011529925
 20
93.845710492544
 30
0.0
 11
492.055149458649
 21
101.63057256382
 31
0.0
  0
LINE
  5
36F
100
AcDbEntity
  8
0
  6
CONTINUOUS
 62
           7
100
AcDbLine
 10
492.055149458649
 20
101.63057256382
 30
0.0
 11
477.957868658307
 21
101.63057256382
 31
0.0
  0
LINE
  5
370
100
AcDbEntity
  8
0
  6
CONTINUOUS
 62
           7
100
AcDbLine
 10
477.957868658307
 20
101.63057256382
 30
0.0
 11
477.957868658307
 21
103.00479490202
 31
0.0
  0
LINE
  5
371
100
AcDbEntity
  8
0
  6
CONTINUOUS
 62
           7
100
AcDbLine
 10
492.624370090964
 20
103.00479490202
 30
0.0
 11
477.957868658307
 21
103.00479490202
 31
0.0
  0
LINE
  5
372
100
AcDbEntity
  8
0
  6
CONTINUOUS
 62
           7
100
AcDbLine
 10
477.957868658307
 20
101.63057256382
 30
0.0
 11
477.894978307488
 21
101.567682213001
 31
0.0
  0
LINE
  5
373
100
AcDbEntity
  8
0
  6
CONTINUOUS
 62
           7
100
AcDbLine
 10
492.055149458649
 20
101.63057256382
 30
0.0
 11
492.029098503592
 21
101.567682213001
 31
0.0
  0
LINE
  5
374
100
AcDbEntity
  8
0
  6
CONTINUOUS
 62
           7
100
AcDbLine
 10
492.029098503592
 20
101.567682213001
 30
0.0
 11
477.894978307488
 21
101.567682213001
 31
0.0
  0
LINE
  5
375
100
AcDbEntity
  8
0
  6
CONTINUOUS
 62
           7
100
AcDbLine
 10
492.624370090964
 20
103.00479490202
 30
0.0
 11
492.650421046021
 21
103.067681527548
 31
0.0
  0
LINE
  5
376
100
AcDbEntity
  8
0
  6
CONTINUOUS
 62
           7
100
AcDbLine
 10
477.957868658307
 20
103.00479490202
 30
0.0
 11
477.894978307488
 21
103.067681527548
 31
0.0
  0
LINE
  5
377
100
AcDbEntity
  8
0
  6
CONTINUOUS
 62
           7
100
AcDbLine
 10
492.650421046021
 20
103.067681527548
 30
0.0
 11
477.894978307488
 21
103.067681527548
 31
0.0
  0
LINE
  5
378
100
AcDbEntity
  8
0
  6
CONTINUOUS
 62
           7
100
AcDbLine
 10
477.894978307488
 20
101.567682213001
 30
0.0
 11
477.894978307488
 21
103.067681527548
 31
0.0
  0
LINE
  5
379
100
AcDbEntity
  8
0
  6
CONTINUOUS
 62
           7
100
AcDbLine
 10
499.840011529925
 20
93.845710492544
 30
0.0
 11
499.777121179106
 21
93.819659537487
 31
0.0
  0
LINE
  5
37A
100
AcDbEntity
  8
0
  6
CONTINUOUS
 62
           7
100
AcDbLine
 10
499.777121179106
 20
93.819659537487
 30
0.0
 11
492.029098503592
 21
101.567682213001
 31
0.0
  0
LINE
  5
37B
100
AcDbEntity
  8
0
  6
CONTINUOUS
 62
           7
100
AcDbLine
 10
499.840011529925
 20
79.748429692202
 30
0.0
 11
499.777121179106
 21
79.685539341383
 31
0.0
  0
LINE
  5
37C
100
AcDbEntity
  8
0
  6
CONTINUOUS
 62
           7
100
AcDbLine
 10
499.777121179106
 20
79.685539341383
 30
0.0
 11
499.777121179106
 21
93.819659537487
 31
0.0
  0
LINE
  5
37D
100
AcDbEntity
  8
0
  6
CONTINUOUS
 62
           7
100
AcDbLine
 10
501.214233868125
 20
79.748429692202
 30
0.0
 11
501.277120493653
 21
79.685539341383
 31
0.0
  0
LINE
  5
37E
100
AcDbEntity
  8
0
  6
CONTINUOUS
 62
           7
100
AcDbLine
 10
501.277120493653
 20
79.685539341383
 30
0.0
 11
499.777121179106
 21
79.685539341383
 31
0.0
  0
LINE
  5
37F
100
AcDbEntity
  8
0
  6
CONTINUOUS
 62
           7
100
AcDbLine
 10
501.214233868125
 20
94.414931124859
 30
0.0
 11
501.277120493653
 21
94.440982079916
 31
0.0
  0
LINE
  5
380
100
AcDbEntity
  8
0
  6
CONTINUOUS
 62
           7
100
AcDbLine
 10
501.277120493653
 20
94.440982079916
 30
0.0
 11
492.650421046021
 21
103.067681527548
 31
0.0
  0
LINE
  5
381
100
AcDbEntity
  8
0
  6
CONTINUOUS
 62
           7
100
AcDbLine
 10
501.277120493653
 20
79.685539341383
 30
0.0
 11
501.277120493653
 21
94.440982079916
 31
0.0
  0
LINE
  5
382
100
AcDbEntity
  8
0
  6
CONTINUOUS
 62
           7
100
AcDbLine
 10
477.957868658307
 20
192.704793399983
 30
0.0
 11
477.894978307488
 21
192.767683750801
 31
0.0
  0
LINE
  5
383
100
AcDbEntity
  8
0
  6
CONTINUOUS
 62
           7
100
AcDbLine
 10
477.957868658307
 20
192.704793399983
 30
0.0
 11
477.957868658307
 21
191.330571061783
 31
0.0
  0
LINE
  5
384
100
AcDbEntity
  8
0
  6
CONTINUOUS
 62
           7
100
AcDbLine
 10
477.957868658307
 20
191.330571061783
 30
0.0
 11
477.894978307488
 21
191.267684436255
 31
0.0
  0
LINE
  5
385
100
AcDbEntity
  8
0
  6
CONTINUOUS
 62
           7
100
AcDbLine
 10
477.894978307488
 20
192.767683750801
 30
0.0
 11
477.894978307488
 21
191.267684436255
 31
0.0
  0
LINE
  5
386
100
AcDbEntity
  8
0
  6
CONTINUOUS
 62
           7
100
AcDbLine
 10
492.05514945865
 20
192.704793399982
 30
0.0
 11
477.957868658307
 21
192.704793399983
 31
0.0
  0
LINE
  5
387
100
AcDbEntity
  8
0
  6
CONTINUOUS
 62
           7
100
AcDbLine
 10
499.840011529925
 20
200.489655471258
 30
0.0
 11
492.05514945865
 21
192.704793399982
 31
0.0
  0
LINE
  5
388
100
AcDbEntity
  8
0
  6
CONTINUOUS
 62
           7
100
AcDbLine
 10
499.840011529925
 20
214.586936271601
 30
0.0
 11
499.840011529925
 21
200.489655471258
 31
0.0
  0
LINE
  5
389
100
AcDbEntity
  8
0
  6
CONTINUOUS
 62
           7
100
AcDbLine
 10
501.214233868125
 20
214.586936271601
 30
0.0
 11
499.840011529925
 21
214.586936271601
 31
0.0
  0
LINE
  5
38A
100
AcDbEntity
  8
0
  6
CONTINUOUS
 62
           7
100
AcDbLine
 10
501.214233868125
 20
214.586936271601
 30
0.0
 11
501.214233868125
 21
199.920434838943
 31
0.0
  0
LINE
  5
38B
100
AcDbEntity
  8
0
  6
CONTINUOUS
 62
           7
100
AcDbLine
 10
501.214233868125
 20
199.920434838943
 30
0.0
 11
492.624370090964
 21
191.330571061783
 31
0.0
  0
LINE
  5
38C
100
AcDbEntity
  8
0
  6
CONTINUOUS
 62
           7
100
AcDbLine
 10
492.624370090964
 20
191.330571061783
 30
0.0
 11
477.957868658307
 21
191.330571061783
 31
0.0
  0
LINE
  5
38D
100
AcDbEntity
  8
0
  6
CONTINUOUS
 62
           7
100
AcDbLine
 10
492.624370090964
 20
191.330571061783
 30
0.0
 11
492.650421046022
 21
191.267684436255
 31
0.0
  0
LINE
  5
38E
100
AcDbEntity
  8
0
  6
CONTINUOUS
 62
           7
100
AcDbLine
 10
492.650421046022
 20
191.267684436255
 30
0.0
 11
477.894978307488
 21
191.267684436255
 31
0.0
  0
LINE
  5
38F
100
AcDbEntity
  8
0
  6
CONTINUOUS
 62
           7
100
AcDbLine
 10
492.05514945865
 20
192.704793399982
 30
0.0
 11
492.029098503593
 21
192.767683750801
 31
0.0
  0
LINE
  5
390
100
AcDbEntity
  8
0
  6
CONTINUOUS
 62
           7
100
AcDbLine
 10
492.029098503593
 20
192.767683750801
 30
0.0
 11
477.894978307488
 21
192.767683750801
 31
0.0
  0
LINE
  5
391
100
AcDbEntity
  8
0
  6
CONTINUOUS
 62
           7
100
AcDbLine
 10
501.214233868125
 20
199.920434838943
 30
0.0
 11
501.277120493653
 21
199.894383883886
 31
0.0
  0
LINE
  5
392
100
AcDbEntity
  8
0
  6
CONTINUOUS
 62
           7
100
AcDbLine
 10
501.277120493653
 20
199.894383883886
 30
0.0
 11
492.650421046022
 21
191.267684436255
 31
0.0
  0
LINE
  5
393
100
AcDbEntity
  8
0
  6
CONTINUOUS
 62
           7
100
AcDbLine
 10
499.840011529925
 20
200.489655471258
 30
0.0
 11
499.777121179107
 21
200.515706426315
 31
0.0
  0
LINE
  5
394
100
AcDbEntity
  8
0
  6
CONTINUOUS
 62
           7
100
AcDbLine
 10
499.777121179107
 20
200.515706426315
 30
0.0
 11
492.029098503593
 21
192.767683750801
 31
0.0
  0
LINE
  5
395
100
AcDbEntity
  8
0
  6
CONTINUOUS
 62
           7
100
AcDbLine
 10
499.840011529925
 20
214.586936271601
 30
0.0
 11
499.777121179107
 21
214.649826622419
 31
0.0
  0
LINE
  5
396
100
AcDbEntity
  8
0
  6
CONTINUOUS
 62
           7
100
AcDbLine
 10
499.777121179107
 20
214.649826622419
 30
0.0
 11
499.777121179107
 21
200.515706426315
 31
0.0
  0
LINE
  5
397
100
AcDbEntity
  8
0
  6
CONTINUOUS
 62
           7
100
AcDbLine
 10
501.214233868125
 20
214.586936271601
 30
0.0
 11
501.277120493653
 21
214.649826622419
 31
0.0
  0
LINE
  5
398
100
AcDbEntity
  8
0
  6
CONTINUOUS
 62
           7
100
AcDbLine
 10
501.277120493653
 20
214.649826622419
 30
0.0
 11
501.277120493653
 21
199.894383883886
 31
0.0
  0
LINE
  5
399
100
AcDbEntity
  8
0
  6
CONTINUOUS
 62
           7
100
AcDbLine
 10
501.277120493653
 20
214.649826622419
 30
0.0
 11
499.777121179107
 21
214.649826622419
 31
0.0
  0
LINE
  5
39A
100
AcDbEntity
  8
0
  6
CONTINUOUS
 62
           7
100
AcDbLine
 10
589.540010027888
 20
94.414931124859
 30
0.0
 11
589.47712340236
 21
94.440982079916
 31
0.0
  0
LINE
  5
39B
100
AcDbEntity
  8
0
  6
CONTINUOUS
 62
           7
100
AcDbLine
 10
589.540010027888
 20
79.748429692201
 30
0.0
 11
589.540010027888
 21
94.414931124859
 31
0.0
  0
LINE
  5
39C
100
AcDbEntity
  8
0
  6
CONTINUOUS
 62
           7
100
AcDbLine
 10
589.540010027888
 20
79.748429692201
 30
0.0
 11
589.47712340236
 21
79.685539341383
 31
0.0
  0
LINE
  5
39D
100
AcDbEntity
  8
0
  6
CONTINUOUS
 62
           7
100
AcDbLine
 10
589.47712340236
 20
79.685539341383
 30
0.0
 11
589.47712340236
 21
94.440982079916
 31
0.0
  0
LINE
  5
39E
100
AcDbEntity
  8
0
  6
CONTINUOUS
 62
           7
100
AcDbLine
 10
589.540010027888
 20
79.748429692201
 30
0.0
 11
590.914232366088
 21
79.748429692201
 31
0.0
  0
LINE
  5
39F
100
AcDbEntity
  8
0
  6
CONTINUOUS
 62
           7
100
AcDbLine
 10
590.914232366088
 20
79.748429692201
 30
0.0
 11
590.977122716906
 21
79.685539341383
 31
0.0
  0
LINE
  5
3A0
100
AcDbEntity
  8
0
  6
CONTINUOUS
 62
           7
100
AcDbLine
 10
589.47712340236
 20
79.685539341383
 30
0.0
 11
590.977122716906
 21
79.685539341383
 31
0.0
  0
LINE
  5
3A1
100
AcDbEntity
  8
0
  6
CONTINUOUS
 62
           7
100
AcDbLine
 10
612.796375237706
 20
101.630572563819
 30
0.0
 11
612.796375237706
 21
103.004794902019
 31
0.0
  0
LINE
  5
3A2
100
AcDbEntity
  8
0
  6
CONTINUOUS
 62
           7
100
AcDbLine
 10
598.699094437363
 20
101.63057256382
 30
0.0
 11
612.796375237706
 21
101.630572563819
 31
0.0
  0
LINE
  5
3A3
100
AcDbEntity
  8
0
  6
CONTINUOUS
 62
           7
100
AcDbLine
 10
590.914232366088
 20
93.845710492544
 30
0.0
 11
598.699094437363
 21
101.63057256382
 31
0.0
  0
LINE
  5
3A4
100
AcDbEntity
  8
0
  6
CONTINUOUS
 62
           7
100
AcDbLine
 10
590.914232366088
 20
79.748429692201
 30
0.0
 11
590.914232366088
 21
93.845710492544
 31
0.0
  0
LINE
  5
3A5
100
AcDbEntity
  8
0
  6
CONTINUOUS
 62
           7
100
AcDbLine
 10
589.540010027888
 20
94.414931124859
 30
0.0
 11
598.129873805049
 21
103.004794902019
 31
0.0
  0
LINE
  5
3A6
100
AcDbEntity
  8
0
  6
CONTINUOUS
 62
           7
100
AcDbLine
 10
598.129873805049
 20
103.004794902019
 30
0.0
 11
612.796375237706
 21
103.004794902019
 31
0.0
  0
LINE
  5
3A7
100
AcDbEntity
  8
0
  6
CONTINUOUS
 62
           7
100
AcDbLine
 10
590.914232366088
 20
93.845710492544
 30
0.0
 11
590.977122716906
 21
93.819659537487
 31
0.0
  0
LINE
  5
3A8
100
AcDbEntity
  8
0
  6
CONTINUOUS
 62
           7
100
AcDbLine
 10
590.977122716906
 20
79.685539341383
 30
0.0
 11
590.977122716906
 21
93.819659537487
 31
0.0
  0
LINE
  5
3A9
100
AcDbEntity
  8
0
  6
CONTINUOUS
 62
           7
100
AcDbLine
 10
598.129873805049
 20
103.004794902019
 30
0.0
 11
598.103822849992
 21
103.067681527547
 31
0.0
  0
LINE
  5
3AA
100
AcDbEntity
  8
0
  6
CONTINUOUS
 62
           7
100
AcDbLine
 10
589.47712340236
 20
94.440982079916
 30
0.0
 11
598.103822849992
 21
103.067681527547
 31
0.0
  0
LINE
  5
3AB
100
AcDbEntity
  8
0
  6
CONTINUOUS
 62
           7
100
AcDbLine
 10
598.699094437363
 20
101.63057256382
 30
0.0
 11
598.72514539242
 21
101.567682213001
 31
0.0
  0
LINE
  5
3AC
100
AcDbEntity
  8
0
  6
CONTINUOUS
 62
           7
100
AcDbLine
 10
590.977122716906
 20
93.819659537487
 30
0.0
 11
598.72514539242
 21
101.567682213001
 31
0.0
  0
LINE
  5
3AD
100
AcDbEntity
  8
0
  6
CONTINUOUS
 62
           7
100
AcDbLine
 10
612.796375237706
 20
101.630572563819
 30
0.0
 11
612.859265588525
 21
101.567682213001
 31
0.0
  0
LINE
  5
3AE
100
AcDbEntity
  8
0
  6
CONTINUOUS
 62
           7
100
AcDbLine
 10
598.72514539242
 20
101.567682213001
 30
0.0
 11
612.859265588525
 21
101.567682213001
 31
0.0
  0
LINE
  5
3AF
100
AcDbEntity
  8
0
  6
CONTINUOUS
 62
           7
100
AcDbLine
 10
612.796375237706
 20
103.004794902019
 30
0.0
 11
612.859265588525
 21
103.067681527547
 31
0.0
  0
LINE
  5
3B0
100
AcDbEntity
  8
0
  6
CONTINUOUS
 62
           7
100
AcDbLine
 10
598.103822849992
 20
103.067681527547
 30
0.0
 11
612.859265588525
 21
103.067681527547
 31
0.0
  0
LINE
  5
3B1
100
AcDbEntity
  8
0
  6
CONTINUOUS
 62
           7
100
AcDbLine
 10
612.859265588525
 20
101.567682213001
 30
0.0
 11
612.859265588525
 21
103.067681527547
 31
0.0
  0
LINE
  5
3B2
100
AcDbEntity
  8
0
  6
CONTINUOUS
 62
           7
100
AcDbLine
 10
589.540010027888
 20
199.920434838943
 30
0.0
 11
598.129873805049
 21
191.330571061782
 31
0.0
  0
LINE
  5
3B3
100
AcDbEntity
  8
0
  6
CONTINUOUS
 62
           7
100
AcDbLine
 10
589.540010027888
 20
214.5869362716
 30
0.0
 11
589.540010027888
 21
199.920434838943
 31
0.0
  0
LINE
  5
3B4
100
AcDbEntity
  8
0
  6
CONTINUOUS
 62
           7
100
AcDbLine
 10
589.540010027888
 20
214.5869362716
 30
0.0
 11
590.914232366088
 21
214.5869362716
 31
0.0
  0
LINE
  5
3B5
100
AcDbEntity
  8
0
  6
CONTINUOUS
 62
           7
100
AcDbLine
 10
590.914232366088
 20
214.5869362716
 30
0.0
 11
590.914232366088
 21
200.489655471258
 31
0.0
  0
LINE
  5
3B6
100
AcDbEntity
  8
0
  6
CONTINUOUS
 62
           7
100
AcDbLine
 10
590.914232366088
 20
200.489655471258
 30
0.0
 11
598.699094437364
 21
192.704793399982
 31
0.0
  0
LINE
  5
3B7
100
AcDbEntity
  8
0
  6
CONTINUOUS
 62
           7
100
AcDbLine
 10
598.699094437364
 20
192.704793399982
 30
0.0
 11
612.796375237706
 21
192.704793399982
 31
0.0
  0
LINE
  5
3B8
100
AcDbEntity
  8
0
  6
CONTINUOUS
 62
           7
100
AcDbLine
 10
612.796375237706
 20
192.704793399982
 30
0.0
 11
612.796375237706
 21
191.330571061782
 31
0.0
  0
LINE
  5
3B9
100
AcDbEntity
  8
0
  6
CONTINUOUS
 62
           7
100
AcDbLine
 10
598.129873805049
 20
191.330571061782
 30
0.0
 11
612.796375237706
 21
191.330571061782
 31
0.0
  0
LINE
  5
3BA
100
AcDbEntity
  8
0
  6
CONTINUOUS
 62
           7
100
AcDbLine
 10
589.540010027888
 20
199.920434838943
 30
0.0
 11
589.47712340236
 21
199.894383883886
 31
0.0
  0
LINE
  5
3BB
100
AcDbEntity
  8
0
  6
CONTINUOUS
 62
           7
100
AcDbLine
 10
598.129873805049
 20
191.330571061782
 30
0.0
 11
598.103822849992
 21
191.267684436254
 31
0.0
  0
LINE
  5
3BC
100
AcDbEntity
  8
0
  6
CONTINUOUS
 62
           7
100
AcDbLine
 10
589.47712340236
 20
199.894383883886
 30
0.0
 11
598.103822849992
 21
191.267684436254
 31
0.0
  0
LINE
  5
3BD
100
AcDbEntity
  8
0
  6
CONTINUOUS
 62
           7
100
AcDbLine
 10
598.699094437364
 20
192.704793399982
 30
0.0
 11
598.725145392421
 21
192.767683750801
 31
0.0
  0
LINE
  5
3BE
100
AcDbEntity
  8
0
  6
CONTINUOUS
 62
           7
100
AcDbLine
 10
590.914232366088
 20
200.489655471258
 30
0.0
 11
590.977122716907
 21
200.515706426315
 31
0.0
  0
LINE
  5
3BF
100
AcDbEntity
  8
0
  6
CONTINUOUS
 62
           7
100
AcDbLine
 10
590.977122716907
 20
200.515706426315
 30
0.0
 11
598.725145392421
 21
192.767683750801
 31
0.0
  0
LINE
  5
3C0
100
AcDbEntity
  8
0
  6
CONTINUOUS
 62
           7
100
AcDbLine
 10
589.540010027888
 20
214.5869362716
 30
0.0
 11
589.47712340236
 21
214.649826622419
 31
0.0
  0
LINE
  5
3C1
100
AcDbEntity
  8
0
  6
CONTINUOUS
 62
           7
100
AcDbLine
 10
589.47712340236
 20
214.649826622419
 30
0.0
 11
589.47712340236
 21
199.894383883886
 31
0.0
  0
LINE
  5
3C2
100
AcDbEntity
  8
0
  6
CONTINUOUS
 62
           7
100
AcDbLine
 10
590.914232366088
 20
214.5869362716
 30
0.0
 11
590.977122716907
 21
214.649826622419
 31
0.0
  0
LINE
  5
3C3
100
AcDbEntity
  8
0
  6
CONTINUOUS
 62
           7
100
AcDbLine
 10
590.977122716907
 20
214.649826622419
 30
0.0
 11
590.977122716907
 21
200.515706426315
 31
0.0
  0
LINE
  5
3C4
100
AcDbEntity
  8
0
  6
CONTINUOUS
 62
           7
100
AcDbLine
 10
612.796375237706
 20
192.704793399982
 30
0.0
 11
612.859265588525
 21
192.767683750801
 31
0.0
  0
LINE
  5
3C5
100
AcDbEntity
  8
0
  6
CONTINUOUS
 62
           7
100
AcDbLine
 10
598.725145392421
 20
192.767683750801
 30
0.0
 11
612.859265588525
 21
192.767683750801
 31
0.0
  0
LINE
  5
3C6
100
AcDbEntity
  8
0
  6
CONTINUOUS
 62
           7
100
AcDbLine
 10
612.796375237706
 20
191.330571061782
 30
0.0
 11
612.859265588525
 21
191.267684436254
 31
0.0
  0
LINE
  5
3C7
100
AcDbEntity
  8
0
  6
CONTINUOUS
 62
           7
100
AcDbLine
 10
598.103822849992
 20
191.267684436254
 30
0.0
 11
612.859265588525
 21
191.267684436254
 31
0.0
  0
LINE
  5
3C8
100
AcDbEntity
  8
0
  6
CONTINUOUS
 62
           7
100
AcDbLine
 10
589.47712340236
 20
214.649826622419
 30
0.0
 11
590.977122716907
 21
214.649826622419
 31
0.0
  0
LINE
  5
3C9
100
AcDbEntity
  8
0
  6
CONTINUOUS
 62
           7
100
AcDbLine
 10
612.859265588525
 20
192.767683750801
 30
0.0
 11
612.859265588525
 21
191.267684436254
 31
0.0
  0
LINE
  5
3CA
100
AcDbEntity
  8
0
  6
CONTINUOUS
 62
           7
100
AcDbLine
 10
484.18324225426
 20
75.948618686609
 30
0.0
 11
483.415575407745
 21
73.329560792856
 31
0.0
  0
LINE
  5
3CB
100
AcDbEntity
  8
0
  6
CONTINUOUS
 62
           7
100
AcDbLine
 10
483.415575407745
 20
73.329560792856
 30
0.0
 11
472.53839083791
 21
73.329560792856
 31
0.0
  0
LINE
  5
3CC
100
AcDbEntity
  8
0
  6
CONTINUOUS
 62
           7
100
AcDbLine
 10
475.157448731663
 20
75.948618686609
 30
0.0
 11
472.53839083791
 21
73.329560792856
 31
0.0
  0
LINE
  5
3CD
100
AcDbEntity
  8
0
  6
CONTINUOUS
 62
           7
100
AcDbLine
 10
475.157448731663
 20
75.948618686609
 30
0.0
 11
484.18324225426
 21
75.948618686609
 31
0.0
  0
ELLIPSE
  5
3CE
100
AcDbEntity
  8
0
  6
CONTINUOUS
 62
           7
100
AcDbEllipse
 10
472.539610664404
 20
74.3301716983
 30
0.0
 11
0.7079685445991117
 21
0.707968544599197
 31
0.0
210
0.0
220
0.0
230
1.0
 40
0.998782765959
 41
2.356803477777897
 42
3.9263818294014969
  0
LINE
  5
3CF
100
AcDbEntity
  8
0
  6
CONTINUOUS
 62
           7
100
AcDbLine
 10
471.538999758961
 20
74.328951871805
 30
0.0
 11
474.158057652714
 21
76.948009765558
 31
0.0
  0
ELLIPSE
  5
3D0
100
AcDbEntity
  8
0
  6
CONTINUOUS
 62
           7
100
AcDbEllipse
 10
475.158668376286
 20
76.949229410181
 30
0.0
 11
0.7079685445992254
 21
0.707968544599197
 31
0.0
210
0.0
220
0.0
230
1.0
 40
0.998782765959
 41
2.3568034777779276
 42
3.9263818294018549
  0
LINE
  5
3D1
100
AcDbEntity
  8
0
  6
CONTINUOUS
 62
           7
100
AcDbLine
 10
474.158057652714
 20
85.973803288155
 30
0.0
 11
471.538999758961
 21
85.206136441641
 31
0.0
  0
LINE
  5
3D2
100
AcDbEntity
  8
0
  6
CONTINUOUS
 62
           7
100
AcDbLine
 10
474.158057652714
 20
85.973803288155
 30
0.0
 11
474.158057652714
 21
76.948009765558
 31
0.0
  0
LINE
  5
3D3
100
AcDbEntity
  8
0
  6
CONTINUOUS
 62
           7
100
AcDbLine
 10
471.538999758961
 20
74.328951871805
 30
0.0
 11
471.538999758961
 21
85.206136441641
 31
0.0
  0
LINE
  5
3D4
100
AcDbEntity
  8
0
  6
CONTINUOUS
 62
           7
100
AcDbLine
 10
614.85926219106
 20
206.624638623409
 30
0.0
 11
616.596186243299
 21
208.361562675647
 31
0.0
  0
LINE
  5
3D5
100
AcDbEntity
  8
0
  6
CONTINUOUS
 62
           7
100
AcDbLine
 10
614.85926219106
 20
206.624638623409
 30
0.0
 11
614.85926219106
 21
87.710727340393
 31
0.0
  0
LINE
  5
3D6
100
AcDbEntity
  8
0
  6
CONTINUOUS
 62
           7
100
AcDbLine
 10
614.85926219106
 20
87.710727340393
 30
0.0
 11
616.596186243298
 21
85.973803288154
 31
0.0
  0
LINE
  5
3D7
100
AcDbEntity
  8
0
  6
CONTINUOUS
 62
           7
100
AcDbLine
 10
616.596186243298
 20
85.973803288154
 30
0.0
 11
616.596186243298
 21
76.948009765558
 31
0.0
  0
ELLIPSE
  5
3D8
100
AcDbEntity
  8
0
  6
CONTINUOUS
 62
           7
100
AcDbEllipse
 10
615.595575519727
 20
76.94922941018
 30
0.0
 11
0.7079685445991117
 21
-0.707968544599197
 31
0.0
210
0.0
220
0.0
230
1.0
 40
0.998782765959
 41
5.4983961313677225
 42
7.0679744829914837
  0
LINE
  5
3D9
100
AcDbEntity
  8
0
  6
CONTINUOUS
 62
           7
100
AcDbLine
 10
615.596795164349
 20
75.948618686609
 30
0.0
 11
606.571001641753
 21
75.948618686609
 31
0.0
  0
LINE
  5
3DA
100
AcDbEntity
  8
0
  6
CONTINUOUS
 62
           7
100
AcDbLine
 10
606.571001641753
 20
75.948618686609
 30
0.0
 11
604.834077589514
 21
77.685542738847
 31
0.0
  0
LINE
  5
3DB
100
AcDbEntity
  8
0
  6
CONTINUOUS
 62
           7
100
AcDbLine
 10
604.834077589514
 20
77.685542738847
 30
0.0
 11
485.920166306498
 21
77.685542738848
 31
0.0
  0
LINE
  5
3DC
100
AcDbEntity
  8
0
  6
CONTINUOUS
 62
           7
100
AcDbLine
 10
484.18324225426
 20
75.948618686609
 30
0.0
 11
485.920166306498
 21
77.685542738848
 31
0.0
  0
LINE
  5
3DD
100
AcDbEntity
  8
0
  6
CONTINUOUS
 62
           7
100
AcDbLine
 10
475.894981704953
 20
87.710727340393
 30
0.0
 11
474.158057652714
 21
85.973803288155
 31
0.0
  0
LINE
  5
3DE
100
AcDbEntity
  8
0
  6
CONTINUOUS
 62
           7
100
AcDbLine
 10
475.894981704953
 20
87.710727340393
 30
0.0
 11
475.894981704953
 21
206.624638623409
 31
0.0
  0
LINE
  5
3DF
100
AcDbEntity
  8
0
  6
CONTINUOUS
 62
           7
100
AcDbLine
 10
475.894981704953
 20
206.624638623409
 30
0.0
 11
474.158057652715
 21
208.361562675648
 31
0.0
  0
LINE
  5
3E0
100
AcDbEntity
  8
0
  6
CONTINUOUS
 62
           7
100
AcDbLine
 10
474.158057652715
 20
208.361562675648
 30
0.0
 11
474.158057652715
 21
217.387356198244
 31
0.0
  0
ELLIPSE
  5
3E1
100
AcDbEntity
  8
0
  6
CONTINUOUS
 62
           7
100
AcDbEllipse
 10
475.158668376287
 20
217.386136553622
 30
0.0
 11
0.7079685445992254
 21
-0.7079685445992254
 31
0.0
210
0.0
220
0.0
230
1.0
 40
0.998782765959
 41
2.3568034777779823
 42
3.9263818294017883
  0
LINE
  5
3E2
100
AcDbEntity
  8
0
  6
CONTINUOUS
 62
           7
100
AcDbLine
 10
475.157448731664
 20
218.386747277193
 30
0.0
 11
484.18324225426
 21
218.386747277193
 31
0.0
  0
LINE
  5
3E3
100
AcDbEntity
  8
0
  6
CONTINUOUS
 62
           7
100
AcDbLine
 10
484.18324225426
 20
218.386747277193
 30
0.0
 11
485.920166306499
 21
216.649823224955
 31
0.0
  0
LINE
  5
3E4
100
AcDbEntity
  8
0
  6
CONTINUOUS
 62
           7
100
AcDbLine
 10
485.920166306499
 20
216.649823224955
 30
0.0
 11
604.834077589515
 21
216.649823224954
 31
0.0
  0
LINE
  5
3E5
100
AcDbEntity
  8
0
  6
CONTINUOUS
 62
           7
100
AcDbLine
 10
606.571001641753
 20
218.386747277193
 30
0.0
 11
604.834077589515
 21
216.649823224954
 31
0.0
  0
LINE
  5
3E6
100
AcDbEntity
  8
0
  6
CONTINUOUS
 62
           7
100
AcDbLine
 10
615.59679516435
 20
218.386747277193
 30
0.0
 11
606.571001641753
 21
218.386747277193
 31
0.0
  0
ELLIPSE
  5
3E7
100
AcDbEntity
  8
0
  6
CONTINUOUS
 62
           7
100
AcDbEllipse
 10
615.595575519727
 20
217.386136553621
 30
0.0
 11
0.7079685445991117
 21
0.7079685445991686
 31
0.0
210
0.0
220
0.0
230
1.0
 40
0.998782765959
 41
5.4983961313676986
 42
7.0679744829914775
  0
LINE
  5
3E8
100
AcDbEntity
  8
0
  6
CONTINUOUS
 62
           7
100
AcDbLine
 10
616.596186243299
 20
208.361562675647
 30
0.0
 11
616.596186243299
 21
217.387356198244
 31
0.0
  0
LINE
  5
3E9
100
AcDbEntity
  8
0
  6
CONTINUOUS
 62
           7
100
AcDbLine
 10
471.538999758961
 20
85.206136441641
 30
0.0
 11
471.964398108723
 21
85.631531066112
 31
0.0
  0
LINE
  5
3EA
100
AcDbEntity
  8
0
  6
CONTINUOUS
 62
           7
100
AcDbLine
 10
471.964398108723
 20
85.631531066112
 30
0.0
 11
475.894981704953
 21
87.710727340393
 31
0.0
  0
LINE
  5
3EB
100
AcDbEntity
  8
0
  6
CONTINUOUS
 62
           7
100
AcDbLine
 10
471.964398108723
 20
208.70383489769
 30
0.0
 11
471.964398108723
 21
85.631531066112
 31
0.0
  0
LINE
  5
3EC
100
AcDbEntity
  8
0
  6
CONTINUOUS
 62
           7
100
AcDbLine
 10
471.964398108723
 20
208.70383489769
 30
0.0
 11
475.894981704953
 21
206.624638623409
 31
0.0
  0
LINE
  5
3ED
100
AcDbEntity
  8
0
  6
CONTINUOUS
 62
           7
100
AcDbLine
 10
483.840970032217
 20
73.754959142618
 30
0.0
 11
483.415575407745
 21
73.329560792856
 31
0.0
  0
LINE
  5
3EE
100
AcDbEntity
  8
0
  6
CONTINUOUS
 62
           7
100
AcDbLine
 10
485.920166306498
 20
77.685542738848
 30
0.0
 11
483.840970032217
 21
73.754959142618
 31
0.0
  0
LINE
  5
3EF
100
AcDbEntity
  8
0
  6
CONTINUOUS
 62
           7
100
AcDbLine
 10
483.840970032217
 20
73.754959142618
 30
0.0
 11
606.913273863794
 21
73.754959142618
 31
0.0
  0
LINE
  5
3F0
100
AcDbEntity
  8
0
  6
CONTINUOUS
 62
           7
100
AcDbLine
 10
604.834077589514
 20
77.685542738847
 30
0.0
 11
606.913273863794
 21
73.754959142618
 31
0.0
  0
LINE
  5
3F1
100
AcDbEntity
  8
0
  6
CONTINUOUS
 62
           7
100
AcDbLine
 10
474.158057652715
 20
208.361562675648
 30
0.0
 11
471.538999758961
 21
209.129229522161
 31
0.0
  0
LINE
  5
3F2
100
AcDbEntity
  8
0
  6
CONTINUOUS
 62
           7
100
AcDbLine
 10
471.538999758961
 20
220.006414091997
 30
0.0
 11
471.538999758961
 21
209.129229522161
 31
0.0
  0
LINE
  5
3F3
100
AcDbEntity
  8
0
  6
CONTINUOUS
 62
           7
100
AcDbLine
 10
474.158057652715
 20
217.387356198244
 30
0.0
 11
471.538999758961
 21
220.006414091997
 31
0.0
  0
LINE
  5
3F4
100
AcDbEntity
  8
0
  6
CONTINUOUS
 62
           7
100
AcDbLine
 10
471.538999758961
 20
209.129229522161
 30
0.0
 11
471.964398108723
 21
208.70383489769
 31
0.0
  0
ELLIPSE
  5
3F5
100
AcDbEntity
  8
0
  6
CONTINUOUS
 62
           7
100
AcDbEllipse
 10
472.539610664405
 20
220.005194265502
 30
0.0
 11
0.7079685445992254
 21
-0.7079685445991686
 31
0.0
210
0.0
220
0.0
230
1.0
 40
0.998782765959
 41
2.3568034777779827
 42
3.926381829401651
  0
LINE
  5
3F6
100
AcDbEntity
  8
0
  6
CONTINUOUS
 62
           7
100
AcDbLine
 10
472.53839083791
 20
221.005805170946
 30
0.0
 11
475.157448731664
 21
218.386747277193
 31
0.0
  0
LINE
  5
3F7
100
AcDbEntity
  8
0
  6
CONTINUOUS
 62
           7
100
AcDbLine
 10
484.18324225426
 20
218.386747277193
 30
0.0
 11
483.415575407746
 21
221.005805170946
 31
0.0
  0
LINE
  5
3F8
100
AcDbEntity
  8
0
  6
CONTINUOUS
 62
           7
100
AcDbLine
 10
483.415575407746
 20
221.005805170946
 30
0.0
 11
472.53839083791
 21
221.005805170946
 31
0.0
  0
LINE
  5
3F9
100
AcDbEntity
  8
0
  6
CONTINUOUS
 62
           7
100
AcDbLine
 10
483.840970032218
 20
220.580406821184
 30
0.0
 11
483.415575407746
 21
221.005805170946
 31
0.0
  0
LINE
  5
3FA
100
AcDbEntity
  8
0
  6
CONTINUOUS
 62
           7
100
AcDbLine
 10
485.920166306499
 20
216.649823224955
 30
0.0
 11
483.840970032218
 21
220.580406821184
 31
0.0
  0
LINE
  5
3FB
100
AcDbEntity
  8
0
  6
CONTINUOUS
 62
           7
100
AcDbLine
 10
606.913273863795
 20
220.580406821183
 30
0.0
 11
483.840970032218
 21
220.580406821184
 31
0.0
  0
LINE
  5
3FC
100
AcDbEntity
  8
0
  6
CONTINUOUS
 62
           7
100
AcDbLine
 10
604.834077589515
 20
216.649823224954
 30
0.0
 11
606.913273863795
 21
220.580406821183
 31
0.0
  0
LINE
  5
3FD
100
AcDbEntity
  8
0
  6
CONTINUOUS
 62
           7
100
AcDbLine
 10
606.571001641753
 20
75.948618686609
 30
0.0
 11
607.338668488266
 21
73.329560792856
 31
0.0
  0
LINE
  5
3FE
100
AcDbEntity
  8
0
  6
CONTINUOUS
 62
           7
100
AcDbLine
 10
606.913273863794
 20
73.754959142618
 30
0.0
 11
607.338668488266
 21
73.329560792856
 31
0.0
  0
LINE
  5
3FF
100
AcDbEntity
  8
0
  6
CONTINUOUS
 62
           7
100
AcDbLine
 10
618.215853058102
 20
73.329560792856
 30
0.0
 11
615.596795164349
 21
75.948618686609
 31
0.0
  0
LINE
  5
400
100
AcDbEntity
  8
0
  6
CONTINUOUS
 62
           7
100
AcDbLine
 10
607.338668488266
 20
73.329560792856
 30
0.0
 11
618.215853058102
 21
73.329560792856
 31
0.0
  0
LINE
  5
401
100
AcDbEntity
  8
0
  6
CONTINUOUS
 62
           7
100
AcDbLine
 10
616.596186243298
 20
76.948009765558
 30
0.0
 11
619.215244137051
 21
74.328951871804
 31
0.0
  0
ELLIPSE
  5
402
100
AcDbEntity
  8
0
  6
CONTINUOUS
 62
           7
100
AcDbEllipse
 10
618.214633231607
 20
74.330171698299
 30
0.0
 11
0.7079685445992254
 21
-0.707968544599197
 31
0.0
210
0.0
220
0.0
230
1.0
 40
0.998782765959
 41
5.4983961313677163
 42
7.0679744829913878
  0
LINE
  5
403
100
AcDbEntity
  8
0
  6
CONTINUOUS
 62
           7
100
AcDbLine
 10
616.596186243298
 20
85.973803288154
 30
0.0
 11
619.215244137051
 21
85.20613644164
 31
0.0
  0
LINE
  5
404
100
AcDbEntity
  8
0
  6
CONTINUOUS
 62
           7
100
AcDbLine
 10
619.215244137051
 20
74.328951871804
 30
0.0
 11
619.215244137051
 21
85.20613644164
 31
0.0
  0
LINE
  5
405
100
AcDbEntity
  8
0
  6
CONTINUOUS
 62
           7
100
AcDbLine
 10
618.789845787289
 20
85.631531066112
 30
0.0
 11
614.85926219106
 21
87.710727340393
 31
0.0
  0
LINE
  5
406
100
AcDbEntity
  8
0
  6
CONTINUOUS
 62
           7
100
AcDbLine
 10
619.215244137051
 20
85.20613644164
 30
0.0
 11
618.789845787289
 21
85.631531066112
 31
0.0
  0
LINE
  5
407
100
AcDbEntity
  8
0
  6
CONTINUOUS
 62
           7
100
AcDbLine
 10
618.789845787289
 20
208.703834897689
 30
0.0
 11
614.85926219106
 21
206.624638623409
 31
0.0
  0
LINE
  5
408
100
AcDbEntity
  8
0
  6
CONTINUOUS
 62
           7
100
AcDbLine
 10
618.789845787289
 20
204.667684024982
 30
0.0
 11
618.789845787289
 21
208.703834897689
 31
0.0
  0
LINE
  5
409
100
AcDbEntity
  8
0
  6
CONTINUOUS
 62
           7
100
AcDbLine
 10
618.527808867695
 20
204.667684024982
 30
0.0
 11
618.527808867695
 21
169.66768387597
 31
0.0
  0
LINE
  5
40A
100
AcDbEntity
  8
0
  6
CONTINUOUS
 62
           7
100
AcDbLine
 10
618.789845787289
 20
124.667682087831
 30
0.0
 11
618.789845787289
 21
169.66768387597
 31
0.0
  0
LINE
  5
40B
100
AcDbEntity
  8
0
  6
CONTINUOUS
 62
           7
100
AcDbLine
 10
618.527808867695
 20
89.667681938819
 30
0.0
 11
618.527808867695
 21
124.667682087831
 31
0.0
  0
LINE
  5
40C
100
AcDbEntity
  8
0
  6
CONTINUOUS
 62
           7
100
AcDbLine
 10
618.789845787289
 20
85.631531066112
 30
0.0
 11
618.789845787289
 21
89.667681938819
 31
0.0
  0
LINE
  5
40D
100
AcDbEntity
  8
0
  6
CONTINUOUS
 62
           7
100
AcDbLine
 10
606.913273863795
 20
220.580406821183
 30
0.0
 11
607.338668488267
 21
221.005805170945
 31
0.0
  0
LINE
  5
40E
100
AcDbEntity
  8
0
  6
CONTINUOUS
 62
           7
100
AcDbLine
 10
606.571001641753
 20
218.386747277193
 30
0.0
 11
607.338668488267
 21
221.005805170945
 31
0.0
  0
LINE
  5
40F
100
AcDbEntity
  8
0
  6
CONTINUOUS
 62
           7
100
AcDbLine
 10
607.338668488267
 20
221.005805170945
 30
0.0
 11
618.215853058102
 21
221.005805170945
 31
0.0
  0
LINE
  5
410
100
AcDbEntity
  8
0
  6
CONTINUOUS
 62
           7
100
AcDbLine
 10
615.59679516435
 20
218.386747277193
 30
0.0
 11
618.215853058102
 21
221.005805170945
 31
0.0
  0
LINE
  5
411
100
AcDbEntity
  8
0
  6
CONTINUOUS
 62
           7
100
AcDbLine
 10
616.596186243299
 20
208.361562675647
 30
0.0
 11
619.215244137051
 21
209.129229522161
 31
0.0
  0
LINE
  5
412
100
AcDbEntity
  8
0
  6
CONTINUOUS
 62
           7
100
AcDbLine
 10
619.215244137051
 20
209.129229522161
 30
0.0
 11
618.789845787289
 21
208.703834897689
 31
0.0
  0
LINE
  5
413
100
AcDbEntity
  8
0
  6
CONTINUOUS
 62
           7
100
AcDbLine
 10
619.215244137051
 20
220.006414091996
 30
0.0
 11
616.596186243299
 21
217.387356198244
 31
0.0
  0
LINE
  5
414
100
AcDbEntity
  8
0
  6
CONTINUOUS
 62
           7
100
AcDbLine
 10
619.215244137051
 20
220.006414091996
 30
0.0
 11
619.215244137051
 21
209.129229522161
 31
0.0
  0
ELLIPSE
  5
415
100
AcDbEntity
  8
0
  6
CONTINUOUS
 62
           7
100
AcDbEllipse
 10
618.214633231608
 20
220.005194265502
 30
0.0
 11
0.7079685445992254
 21
0.7079685445991686
 31
0.0
210
0.0
220
0.0
230
1.0
 40
0.998782765959
 41
5.4983961313677394
 42
7.0679744829914846
  0
LINE
  5
416
100
AcDbEntity
  8
0
  6
CONTINUOUS
 62
           7
100
AcDbLine
 10
624.464461289646
 20
89.667681938819
 30
0.0
 11
624.464461289646
 21
124.667682087831
 31
0.0
  0
LINE
  5
417
100
AcDbEntity
  8
0
  6
CONTINUOUS
 62
           7
100
AcDbLine
 10
618.527808867695
 20
89.667681938819
 30
0.0
 11
624.464461289646
 21
89.667681938819
 31
0.0
  0
LINE
  5
418
100
AcDbEntity
  8
0
  6
CONTINUOUS
 62
           7
100
AcDbLine
 10
618.527808867695
 20
124.667682087831
 30
0.0
 11
624.464461289646
 21
124.667682087831
 31
0.0
  0
LINE
  5
419
100
AcDbEntity
  8
0
  6
CONTINUOUS
 62
           7
100
AcDbLine
 10
618.527808867695
 20
204.667684024982
 30
0.0
 11
624.464461289647
 21
204.667684024982
 31
0.0
  0
LINE
  5
41A
100
AcDbEntity
  8
0
  6
CONTINUOUS
 62
           7
100
AcDbLine
 10
624.464461289647
 20
204.667684024982
 30
0.0
 11
624.464461289646
 21
169.66768387597
 31
0.0
  0
LINE
  5
41B
100
AcDbEntity
  8
0
  6
CONTINUOUS
 62
           7
100
AcDbLine
 10
618.527808867695
 20
169.66768387597
 30
0.0
 11
624.464461289646
 21
169.66768387597
 31
0.0
  0
LINE
  5
41C
100
AcDbEntity
  8
0
  6
CONTINUOUS
 62
           7
100
AcDbLine
 10
625.368112407925
 20
115.667682475261
 30
0.0
 11
625.301288150551
 21
115.667682475261
 31
0.0
  0
LINE
  5
41D
100
AcDbEntity
  8
0
  6
CONTINUOUS
 62
           7
100
AcDbLine
 10
625.368112407925
 20
98.667681551389
 30
0.0
 11
625.368112407925
 21
115.667682475261
 31
0.0
  0
LINE
  5
41E
100
AcDbEntity
  8
0
  6
CONTINUOUS
 62
           7
100
AcDbLine
 10
625.301288150551
 20
98.667681551389
 30
0.0
 11
625.368112407925
 21
98.667681551389
 31
0.0
  0
LINE
  5
41F
100
AcDbEntity
  8
0
  6
CONTINUOUS
 62
           7
100
AcDbLine
 10
625.301288150551
 20
89.667681938819
 30
0.0
 11
625.301288150551
 21
98.667681551389
 31
0.0
  0
LINE
  5
420
100
AcDbEntity
  8
0
  6
CONTINUOUS
 62
           7
100
AcDbLine
 10
625.301288150551
 20
124.667682087831
 30
0.0
 11
625.301288150551
 21
115.667682475261
 31
0.0
  0
LINE
  5
421
100
AcDbEntity
  8
0
  6
CONTINUOUS
 62
           7
100
AcDbLine
 10
624.464461289646
 20
124.667682087831
 30
0.0
 11
625.301288150551
 21
124.667682087831
 31
0.0
  0
LINE
  5
422
100
AcDbEntity
  8
0
  6
CONTINUOUS
 62
           7
100
AcDbLine
 10
624.464461289646
 20
89.667681938819
 30
0.0
 11
625.301288150551
 21
89.667681938819
 31
0.0
  0
LINE
  5
423
100
AcDbEntity
  8
0
  6
CONTINUOUS
 62
           7
100
AcDbLine
 10
625.301288150551
 20
195.667684412412
 30
0.0
 11
625.301288150551
 21
204.667684024982
 31
0.0
  0
LINE
  5
424
100
AcDbEntity
  8
0
  6
CONTINUOUS
 62
           7
100
AcDbLine
 10
625.301288150551
 20
195.667684412412
 30
0.0
 11
625.368112407925
 21
195.667684412412
 31
0.0
  0
LINE
  5
425
100
AcDbEntity
  8
0
  6
CONTINUOUS
 62
           7
100
AcDbLine
 10
625.368112407925
 20
195.667684412412
 30
0.0
 11
625.368112407925
 21
178.66768348854
 31
0.0
  0
LINE
  5
426
100
AcDbEntity
  8
0
  6
CONTINUOUS
 62
           7
100
AcDbLine
 10
625.368112407925
 20
178.66768348854
 30
0.0
 11
625.301288150551
 21
178.66768348854
 31
0.0
  0
LINE
  5
427
100
AcDbEntity
  8
0
  6
CONTINUOUS
 62
           7
100
AcDbLine
 10
625.301288150551
 20
178.66768348854
 30
0.0
 11
625.301288150551
 21
169.66768387597
 31
0.0
  0
LINE
  5
428
100
AcDbEntity
  8
0
  6
CONTINUOUS
 62
           7
100
AcDbLine
 10
624.464461289647
 20
204.667684024982
 30
0.0
 11
625.301288150551
 21
204.667684024982
 31
0.0
  0
LINE
  5
429
100
AcDbEntity
  8
0
  6
CONTINUOUS
 62
           7
100
AcDbLine
 10
624.464461289646
 20
169.66768387597
 30
0.0
 11
625.301288150551
 21
169.66768387597
 31
0.0
  0
LINE
  5
42A
100
AcDbEntity
  8
0
  6
CONTINUOUS
 62
           7
100
AcDbLine
 10
466.214397631886
 20
157.167682758384
 30
0.0
 11
468.7143952477
 21
157.167682758384
 31
0.0
  0
LINE
  5
42B
100
AcDbEntity
  8
0
  6
CONTINUOUS
 62
           7
100
AcDbLine
 10
468.7143952477
 20
157.167682758384
 30
0.0
 11
468.7143952477
 21
137.167683205418
 31
0.0
  0
LINE
  5
42C
100
AcDbEntity
  8
0
  6
CONTINUOUS
 62
           7
100
AcDbLine
 10
466.214397631886
 20
137.167683205418
 30
0.0
 11
468.7143952477
 21
137.167683205418
 31
0.0
  0
LINE
  5
42D
100
AcDbEntity
  8
0
  6
CONTINUOUS
 62
           7
100
AcDbLine
 10
470.464395068886
 20
117.167683652453
 30
0.0
 11
470.464395068886
 21
137.167683205418
 31
0.0
  0
LINE
  5
42E
100
AcDbEntity
  8
0
  6
CONTINUOUS
 62
           7
100
AcDbLine
 10
470.464395068886
 20
157.167682758384
 30
0.0
 11
470.464395068886
 21
221.080556846075
 31
0.0
  0
ELLIPSE
  5
42F
100
AcDbEntity
  8
0
  6
CONTINUOUS
 62
           7
100
AcDbEllipse
 10
471.464549600691
 20
221.080255329216
 30
0.0
 11
0.7073221891697585
 21
-0.707322189169588
 31
0.0
210
0.0
220
0.0
230
1.0
 40
0.999695459882
 41
2.3563467834397192
 42
3.9268385237396402
  0
LINE
  5
430
100
AcDbEntity
  8
0
  6
CONTINUOUS
 62
           7
100
AcDbLine
 10
471.464248083832
 20
222.080409861021
 30
0.0
 11
619.28999581218
 21
222.08040986102
 31
0.0
  0
ELLIPSE
  5
431
100
AcDbEntity
  8
0
  6
CONTINUOUS
 62
           7
100
AcDbEllipse
 10
619.289694295321
 20
221.080255329216
 30
0.0
 11
0.7073221891695312
 21
0.7073221891695312
 31
0.0
210
0.0
220
0.0
230
1.0
 40
0.999695459882
 41
5.4979394370297872
 42
7.0684311773295265
  0
LINE
  5
432
100
AcDbEntity
  8
0
  6
CONTINUOUS
 62
           7
100
AcDbLine
 10
620.289848827126
 20
221.080556846074
 30
0.0
 11
620.289848827126
 21
204.667684024982
 31
0.0
  0
LINE
  5
433
100
AcDbEntity
  8
0
  6
CONTINUOUS
 62
           7
100
AcDbLine
 10
620.289848827126
 20
89.667681938819
 30
0.0
 11
620.289848827126
 21
73.254809117727
 31
0.0
  0
ELLIPSE
  5
434
100
AcDbEntity
  8
0
  6
CONTINUOUS
 62
           7
100
AcDbEllipse
 10
619.289694295321
 20
73.255110634585
 30
0.0
 11
0.7073221891695312
 21
-0.7073221891695596
 31
0.0
210
0.0
220
0.0
230
1.0
 40
0.999695459882
 41
5.4979394370296033
 42
7.0684311773294954
  0
LINE
  5
435
100
AcDbEntity
  8
0
  6
CONTINUOUS
 62
           7
100
AcDbLine
 10
619.28999581218
 20
72.254956102781
 30
0.0
 11
471.464248083832
 21
72.254956102781
 31
0.0
  0
ELLIPSE
  5
436
100
AcDbEntity
  8
0
  6
CONTINUOUS
 62
           7
100
AcDbEllipse
 10
471.464549600691
 20
73.255110634586
 30
0.0
 11
0.7073221891696448
 21
0.7073221891695312
 31
0.0
210
0.0
220
0.0
230
1.0
 40
0.999695459882
 41
2.3563467834400269
 42
3.9268385237399039
  0
LINE
  5
437
100
AcDbEntity
  8
0
  6
CONTINUOUS
 62
           7
100
AcDbLine
 10
470.464395068886
 20
73.254809117727
 30
0.0
 11
470.464395068886
 21
97.167682236843
 31
0.0
  0
LINE
  5
438
100
AcDbEntity
  8
0
  6
CONTINUOUS
 62
           7
100
AcDbLine
 10
470.464395068886
 20
105.518825686388
 30
0.0
 11
470.464395068886
 21
97.167682236843
 31
0.0
  0
ARC
  5
439
100
AcDbEntity
  8
0
  6
CONTINUOUS
 62
           7
100
AcDbCircle
 10
467.377121948006
 20
107.167682981901
 30
0.0
 40
3.5
100
AcDbArc
 50
331.894137096774
 51
28.105862903227
  0
LINE
  5
43A
100
AcDbEntity
  8
0
  6
CONTINUOUS
 62
           7
100
AcDbLine
 10
470.464395068886
 20
117.167683652453
 30
0.0
 11
470.464395068886
 21
108.816542065553
 31
0.0
  0
LINE
  5
43B
100
AcDbEntity
  8
0
  6
CONTINUOUS
 62
           7
100
AcDbLine
 10
468.7143952477
 20
157.167682758384
 30
0.0
 11
470.464395068886
 21
157.167682758384
 31
0.0
  0
LINE
  5
43C
100
AcDbEntity
  8
0
  6
CONTINUOUS
 62
           7
100
AcDbLine
 10
468.7143952477
 20
137.167683205418
 30
0.0
 11
470.464395068886
 21
137.167683205418
 31
0.0
  0
LINE
  5
43D
100
AcDbEntity
  8
0
  6
CONTINUOUS
 62
           7
100
AcDbLine
 10
471.464248083832
 20
72.254956102781
 30
0.0
 11
471.37697198272
 21
72.167680001669
 31
0.0
  0
ELLIPSE
  5
43E
100
AcDbEntity
  8
0
  6
CONTINUOUS
 62
           7
100
AcDbEllipse
 10
471.37727427605
 20
73.167835309945
 30
0.0
 11
0.7073221891696448
 21
0.707322189169588
 31
0.0
210
0.0
220
0.0
230
1.0
 40
0.999695459882
 41
2.3563467834399785
 42
3.926838523739844
  0
LINE
  5
43F
100
AcDbEntity
  8
0
  6
CONTINUOUS
 62
           7
100
AcDbLine
 10
470.377118967774
 20
73.167533016615
 30
0.0
 11
470.464395068886
 21
73.254809117727
 31
0.0
  0
LINE
  5
440
100
AcDbEntity
  8
0
  6
CONTINUOUS
 62
           7
100
AcDbLine
 10
470.377118967774
 20
73.167533016615
 30
0.0
 11
470.377118967774
 21
97.167682236843
 31
0.0
  0
LINE
  5
441
100
AcDbEntity
  8
0
  6
CONTINUOUS
 62
           7
100
AcDbLine
 10
619.377271913292
 20
72.167680001668
 30
0.0
 11
619.28999581218
 21
72.254956102781
 31
0.0
  0
LINE
  5
442
100
AcDbEntity
  8
0
  6
CONTINUOUS
 62
           7
100
AcDbLine
 10
619.377271913292
 20
72.167680001668
 30
0.0
 11
471.37697198272
 21
72.167680001669
 31
0.0
  0
LINE
  5
443
100
AcDbEntity
  8
0
  6
CONTINUOUS
 62
           7
100
AcDbLine
 10
460.639590107205
 20
117.167683652453
 30
0.0
 11
460.639590107205
 21
97.167682236843
 31
0.0
  0
LINE
  5
444
100
AcDbEntity
  8
0
  6
CONTINUOUS
 62
           7
100
AcDbLine
 10
460.639590107205
 20
117.167683652453
 30
0.0
 11
470.464395068886
 21
117.167683652453
 31
0.0
  0
ARC
  5
445
100
AcDbEntity
  8
0
  6
CONTINUOUS
 62
           7
100
AcDbCircle
 10
467.377121948006
 20
107.167682981901
 30
0.0
 40
3.5
100
AcDbArc
 50
28.105862903226
 51
331.894137096774
  0
LINE
  5
446
100
AcDbEntity
  8
0
  6
CONTINUOUS
 62
           7
100
AcDbLine
 10
460.639590107205
 20
97.167682236843
 30
0.0
 11
470.464395068886
 21
97.167682236843
 31
0.0
  0
LINE
  5
447
100
AcDbEntity
  8
0
  6
CONTINUOUS
 62
           7
100
AcDbLine
 10
470.377118967774
 20
117.167683652453
 30
0.0
 11
470.377118967774
 21
137.167683205418
 31
0.0
  0
LINE
  5
448
100
AcDbEntity
  8
0
  6
CONTINUOUS
 62
           7
100
AcDbLine
 10
470.377118967774
 20
157.167682758384
 30
0.0
 11
470.377118967774
 21
221.167832947187
 31
0.0
  0
LINE
  5
449
100
AcDbEntity
  8
0
  6
CONTINUOUS
 62
           7
100
AcDbLine
 10
470.464395068886
 20
221.080556846075
 30
0.0
 11
470.377118967774
 21
221.167832947187
 31
0.0
  0
ELLIPSE
  5
44A
100
AcDbEntity
  8
0
  6
CONTINUOUS
 62
           7
100
AcDbEllipse
 10
471.37727427605
 20
221.167530653857
 30
0.0
 11
0.7073221891696448
 21
-0.707322189169588
 31
0.0
210
0.0
220
0.0
230
1.0
 40
0.999695459882
 41
2.3563467834398195
 42
3.9268385237396433
  0
LINE
  5
44B
100
AcDbEntity
  8
0
  6
CONTINUOUS
 62
           7
100
AcDbLine
 10
471.37697198272
 20
222.167685962133
 30
0.0
 11
471.464248083832
 21
222.080409861021
 31
0.0
  0
LINE
  5
44C
100
AcDbEntity
  8
0
  6
CONTINUOUS
 62
           7
100
AcDbLine
 10
619.28999581218
 20
222.08040986102
 30
0.0
 11
619.377271913292
 21
222.167685962133
 31
0.0
  0
LINE
  5
44D
100
AcDbEntity
  8
0
  6
CONTINUOUS
 62
           7
100
AcDbLine
 10
471.37697198272
 20
222.167685962133
 30
0.0
 11
619.377271913292
 21
222.167685962133
 31
0.0
  0
LINE
  5
44E
100
AcDbEntity
  8
0
  6
CONTINUOUS
 62
           7
100
AcDbLine
 10
620.289848827126
 20
73.254809117727
 30
0.0
 11
620.377124928238
 21
73.167533016614
 31
0.0
  0
ELLIPSE
  5
44F
100
AcDbEntity
  8
0
  6
CONTINUOUS
 62
           7
100
AcDbEllipse
 10
619.376969619962
 20
73.167835309944
 30
0.0
 11
0.7073221891695312
 21
-0.7073221891695596
 31
0.0
210
0.0
220
0.0
230
1.0
 40
0.999695459882
 41
5.4979394370296735
 42
7.0684311773294253
  0
LINE
  5
450
100
AcDbEntity
  8
0
  6
CONTINUOUS
 62
           7
100
AcDbLine
 10
620.377124928238
 20
89.667681938819
 30
0.0
 11
620.377124928238
 21
73.167533016614
 31
0.0
  0
LINE
  5
451
100
AcDbEntity
  8
0
  6
CONTINUOUS
 62
           7
100
AcDbLine
 10
620.289848827126
 20
169.66768387597
 30
0.0
 11
620.289848827126
 21
124.667682087831
 31
0.0
  0
LINE
  5
452
100
AcDbEntity
  8
0
  6
CONTINUOUS
 62
           7
100
AcDbLine
 10
620.377124928238
 20
169.66768387597
 30
0.0
 11
620.377124928238
 21
124.667682087831
 31
0.0
  0
LINE
  5
453
100
AcDbEntity
  8
0
  6
CONTINUOUS
 62
           7
100
AcDbLine
 10
620.377124928238
 20
221.167832947187
 30
0.0
 11
620.289848827126
 21
221.080556846074
 31
0.0
  0
LINE
  5
454
100
AcDbEntity
  8
0
  6
CONTINUOUS
 62
           7
100
AcDbLine
 10
620.377124928238
 20
221.167832947187
 30
0.0
 11
620.377124928238
 21
204.667684024982
 31
0.0
  0
ELLIPSE
  5
455
100
AcDbEntity
  8
0
  6
CONTINUOUS
 62
           7
100
AcDbEllipse
 10
619.376969619962
 20
221.167530653857
 30
0.0
 11
0.7073221891696448
 21
0.7073221891695312
 31
0.0
210
0.0
220
0.0
230
1.0
 40
0.999695459882
 41
5.4979394370298644
 42
7.0684311773294404
  0
LINE
  5
456
100
AcDbEntity
  8
0
  6
CONTINUOUS
 62
           7
100
AcDbLine
 10
628.868112050297
 20
115.667682475261
 30
0.0
 11
625.368112407925
 21
115.667682475261
 31
0.0
  0
LINE
  5
457
100
AcDbEntity
  8
0
  6
CONTINUOUS
 62
           7
100
AcDbLine
 10
625.368112407925
 20
98.667681551389
 30
0.0
 11
628.868112050297
 21
98.667681551389
 31
0.0
  0
LINE
  5
458
100
AcDbEntity
  8
0
  6
CONTINUOUS
 62
           7
100
AcDbLine
 10
625.368112407925
 20
195.667684412412
 30
0.0
 11
628.868112050297
 21
195.667684412412
 31
0.0
  0
LINE
  5
459
100
AcDbEntity
  8
0
  6
CONTINUOUS
 62
           7
100
AcDbLine
 10
628.868112050297
 20
178.66768348854
 30
0.0
 11
625.368112407925
 21
178.66768348854
 31
0.0
  0
LINE
  5
45A
100
AcDbEntity
  8
0
  6
CONTINUOUS
 62
           7
100
AcDbLine
 10
460.377121053936
 20
117.167683652453
 30
0.0
 11
460.377121053936
 21
97.167682236843
 31
0.0
  0
LINE
  5
45B
100
AcDbEntity
  8
0
  6
CONTINUOUS
 62
           7
100
AcDbLine
 10
460.377121053936
 20
117.167683652453
 30
0.0
 11
460.639590107205
 21
117.167683652453
 31
0.0
  0
LINE
  5
45C
100
AcDbEntity
  8
0
  6
CONTINUOUS
 62
           7
100
AcDbLine
 10
460.377121053936
 20
97.167682236843
 30
0.0
 11
460.639590107205
 21
97.167682236843
 31
0.0
  0
ENDSEC
  0
SECTION
  2
OBJECTS
  0
DICTIONARY
  5
C
100
AcDbDictionary
  3
ACAD_GROUP
350
D
  3
ACAD_MLINESTYLE
350
17
  3
ACDBVARIABLEDICTIONARY
350
462
  0
DICTIONARY
  5
D
102
{ACAD_REACTORS
330
C
102
}
100
AcDbDictionary
  0
DICTIONARY
  5
17
102
{ACAD_REACTORS
330
C
102
}
100
AcDbDictionary
  3
STANDARD
350
18
  0
MLINESTYLE
  5
18
102
{ACAD_REACTORS
330
17
102
}
100
AcDbMlineStyle
  2
Standard
 70
           0
  3

 62
         256
 51
90.0
 52
90.0
 71
           2
 49
0.5
 62
         256
  6
ByLayer
 49
-0.5
 62
         256
  6
ByLayer
  0
DICTIONARY
  5
19
102
{ACAD_REACTORS
330
C
102
}
100
AcDbDictionary
  0
DICTIONARY
  5
1A
102
{ACAD_REACTORS
330
C
102
}
100
AcDbDictionary
  3
MODEL
350
46B
  3
LAYOUT2
350
46D
  3
LAYOUT1
350
46C
  0
DICTIONARY
  5
462
100
AcDbDictionary
  3
DIMADEC
350
46E
  0
DICTIONARY
  5
466
102
{ACAD_REACTORS
330
C
102
}
100
AcDbDictionary
  0
DICTIONARYVAR
  5
46E
100
DictionaryVariables
280
           0
  1
0
  0
ENDSEC
  0
EOF

