  0
SECTION
  2
HEADER
  9
$ACADVER
  1
AC1009
  9
$INSBASE
 10
0.0
 20
0.0
 30
0.0
  9
$EXTMIN
 10
0.5130454210692808
 20
15.05608088312915
 30
-0.0000000000000001
  9
$EXTMAX
 10
417.54348262901658
 20
271.63749999999999
 30
0.0000000000000013
  9
$LIMMIN
 10
-0.5
 20
-0.5
  9
$LIMMAX
 10
5.0
 20
5.0
  9
$ORTHOMODE
 70
     1
  9
$REGENMODE
 70
     1
  9
$FILLMODE
 70
     1
  9
$QTEXTMODE
 70
     0
  9
$MIRRTEXT
 70
     1
  9
$DRAGMODE
 70
     2
  9
$LTSCALE
 40
1.0
  9
$OSMODE
 70
   759
  9
$ATTMODE
 70
     1
  9
$TEXTSIZE
 40
0.2
  9
$TRACEWID
 40
0.05
  9
$TEXTSTYLE
  7
STANDARD
  9
$CLAYER
  8
0
  9
$CELTYPE
  6
BYLAYER
  9
$CECOLOR
 62
   256
  9
$DIMSCALE
 40
1.0
  9
$DIMASZ
 40
0.18
  9
$DIMEXO
 40
0.0625
  9
$DIMDLI
 40
0.38
  9
$DIMRND
 40
0.0
  9
$DIMDLE
 40
0.0
  9
$DIMEXE
 40
0.18
  9
$DIMTP
 40
0.0
  9
$DIMTM
 40
0.0
  9
$DIMTXT
 40
0.18
  9
$DIMCEN
 40
0.09
  9
$DIMTSZ
 40
0.0
  9
$DIMTOL
 70
     0
  9
$DIMLIM
 70
     0
  9
$DIMTIH
 70
     1
  9
$DIMTOH
 70
     1
  9
$DIMSE1
 70
     0
  9
$DIMSE2
 70
     0
  9
$DIMTAD
 70
     0
  9
$DIMZIN
 70
     0
  9
$DIMBLK
  1

  9
$DIMASO
 70
     1
  9
$DIMSHO
 70
     1
  9
$DIMPOST
  1

  9
$DIMAPOST
  1

  9
$DIMALT
 70
     0
  9
$DIMALTD
 70
     2
  9
$DIMALTF
 40
25.399999999999999
  9
$DIMLFAC
 40
1.0
  9
$DIMTOFL
 70
     0
  9
$DIMTVP
 40
0.0
  9
$DIMTIX
 70
     0
  9
$DIMSOXD
 70
     0
  9
$DIMSAH
 70
     0
  9
$DIMBLK1
  1

  9
$DIMBLK2
  1

  9
$DIMSTYLE
  2
STANDARD
  9
$DIMCLRD
 70
     0
  9
$DIMCLRE
 70
     0
  9
$DIMCLRT
 70
     0
  9
$DIMTFAC
 40
1.0
  9
$DIMGAP
 40
0.09
  9
$LUNITS
 70
     2
  9
$LUPREC
 70
     4
  9
$SKETCHINC
 40
0.1
  9
$FILLETRAD
 40
0.0
  9
$AUNITS
 70
     0
  9
$AUPREC
 70
     0
  9
$MENU
  1
.
  9
$ELEVATION
 40
0.0
  9
$PELEVATION
 40
0.0
  9
$THICKNESS
 40
0.0
  9
$LIMCHECK
 70
     0
  9
$BLIPMODE
 70
     0
  9
$CHAMFERA
 40
0.5
  9
$CHAMFERB
 40
0.5
  9
$SKPOLY
 70
     0
  9
$TDCREATE
 40
2455147.447949213
  9
$TDUPDATE
 40
2455147.458190822
  9
$TDINDWG
 40
0.0096685185
  9
$TDUSRTIMER
 40
0.0096685185
  9
$USRTIMER
 70
     1
  9
$ANGBASE
 50
0.0
  9
$ANGDIR
 70
     0
  9
$PDMODE
 70
     0
  9
$PDSIZE
 40
0.0
  9
$PLINEWID
 40
0.0
  9
$COORDS
 70
     0
  9
$SPLFRAME
 70
     0
  9
$SPLINETYPE
 70
     6
  9
$SPLINESEGS
 70
     8
  9
$ATTDIA
 70
     0
  9
$ATTREQ
 70
     1
  9
$HANDLING
 70
     1
  9
$HANDSEED
  5
A2C
  9
$SURFTAB1
 70
     6
  9
$SURFTAB2
 70
     6
  9
$SURFTYPE
 70
     6
  9
$SURFU
 70
     6
  9
$SURFV
 70
     6
  9
$UCSNAME
  2

  9
$UCSORG
 10
0.0
 20
0.0
 30
0.0
  9
$UCSXDIR
 10
1.0
 20
0.0
 30
0.0
  9
$UCSYDIR
 10
0.0
 20
1.0
 30
0.0
  9
$PUCSNAME
  2

  9
$PUCSORG
 10
0.0
 20
0.0
 30
0.0
  9
$PUCSXDIR
 10
1.0
 20
0.0
 30
0.0
  9
$PUCSYDIR
 10
0.0
 20
1.0
 30
0.0
  9
$USERI1
 70
     0
  9
$USERI2
 70
     0
  9
$USERI3
 70
     0
  9
$USERI4
 70
     0
  9
$USERI5
 70
     0
  9
$USERR1
 40
0.0
  9
$USERR2
 40
0.0
  9
$USERR3
 40
0.0
  9
$USERR4
 40
0.0
  9
$USERR5
 40
2.5
  9
$WORLDVIEW
 70
     1
  9
$SHADEDGE
 70
     3
  9
$SHADEDIF
 70
    70
  9
$TILEMODE
 70
     1
  9
$MAXACTVP
 70
    64
  9
$PLIMCHECK
 70
     0
  9
$PEXTMIN
 10
-0.5
 20
-0.5
 30
-0.5
  9
$PEXTMAX
 10
5.0
 20
5.0
 30
5.0
  9
$PLIMMIN
 10
-0.5
 20
-0.5
  9
$PLIMMAX
 10
5.0
 20
5.0
  9
$UNITMODE
 70
     0
  9
$VISRETAIN
 70
     1
  9
$PLINEGEN
 70
     0
  9
$PSLTSCALE
 70
     1
  0
ENDSEC
  0
SECTION
  2
TABLES
  0
TABLE
  2
VPORT
 70
    20
  0
VPORT
  2
DUMMY
 70
     0
 10
0.0
 20
0.0
 11
1.0
 21
1.0
 12
10.42990654205607
 22
4.5
 13
0.0
 23
0.0
 14
0.5
 24
0.5
 15
0.5
 25
0.5
 16
0.0
 26
0.0
 36
1.0
 17
0.0
 27
0.0
 37
0.0
 40
9.0
 41
1.9729729728503289
 42
50.0
 43
0.0
 44
0.0
 50
0.0
 51
0.0
 71
     0
 72
   100
 73
     1
 74
     3
 75
     0
 76
     0
 77
     0
 78
     0
  0
VPORT
  2
L1
 70
     0
 10
0.0
 20
0.0
 11
1.0
 21
1.0
 12
207.5749113998134
 22
144.35321505374989
 13
0.0
 23
0.0
 14
0.5
 24
0.5
 15
0.5
 25
0.5
 16
0.0
 26
0.0
 36
1.0
 17
0.0
 27
0.0
 37
0.0
 40
254.0
 41
0.069908491163988
 42
50.0
 43
760.73112368993088
 44
-760.73112368993088
 50
0.0
 51
0.0
 71
     0
 72
   100
 73
     1
 74
     3
 75
     0
 76
     0
 77
     0
 78
     0
  0
VPORT
  2
L2
 70
     0
 10
0.0
 20
0.0
 11
0.5
 21
1.0
 12
0.0
 22
0.0
 13
0.0
 23
0.0
 14
0.5
 24
0.5
 15
0.5
 25
0.5
 16
0.0
 26
-1.0
 36
0.0
 17
0.0
 27
0.0
 37
0.0
 40
1319.822715367485
 41
0.0134538953973897
 42
50.0
 43
672.02083301040614
 44
-672.02083301040614
 50
0.0
 51
0.0
 71
     0
 72
   100
 73
     1
 74
     3
 75
     0
 76
     0
 77
     0
 78
     0
  0
VPORT
  2
L2
 70
     0
 10
0.5
 20
0.0
 11
1.0
 21
1.0
 12
0.0
 22
0.0
 13
0.0
 23
0.0
 14
0.5
 24
0.5
 15
0.5
 25
0.5
 16
1.0
 26
0.0
 36
0.0
 17
0.0
 27
0.0
 37
0.0
 40
1319.822715367485
 41
0.0134538953973897
 42
50.0
 43
672.02083301040614
 44
-672.02083301040614
 50
0.0
 51
0.0
 71
     0
 72
   100
 73
     1
 74
     3
 75
     0
 76
     0
 77
     0
 78
     0
  0
VPORT
  2
L3
 70
     0
 10
0.0
 20
0.5
 11
1.0
 21
1.0
 12
207.5749113998134
 22
144.35321505374989
 13
0.0
 23
0.0
 14
0.5
 24
0.5
 15
0.5
 25
0.5
 16
0.0
 26
0.0
 36
1.0
 17
0.0
 27
0.0
 37
0.0
 40
254.0
 41
0.069908491163988
 42
50.0
 43
760.73112368993088
 44
-760.73112368993088
 50
0.0
 51
0.0
 71
     0
 72
   100
 73
     1
 74
     3
 75
     0
 76
     0
 77
     0
 78
     0
  0
VPORT
  2
L3
 70
     0
 10
0.0
 20
0.0
 11
1.0
 21
0.5
 12
0.0
 22
0.0
 13
0.0
 23
0.0
 14
0.5
 24
0.5
 15
0.5
 25
0.5
 16
0.0
 26
-1.0
 36
0.0
 17
0.0
 27
0.0
 37
0.0
 40
1319.822715367485
 41
0.0134538953973897
 42
50.0
 43
672.02083301040614
 44
-672.02083301040614
 50
0.0
 51
0.0
 71
     0
 72
   100
 73
     1
 74
     3
 75
     0
 76
     0
 77
     0
 78
     0
  0
VPORT
  2
L4
 70
     0
 10
0.0
 20
0.5
 11
0.5
 21
1.0
 12
207.5749113998134
 22
144.35321505374989
 13
0.0
 23
0.0
 14
0.5
 24
0.5
 15
0.5
 25
0.5
 16
0.0
 26
0.0
 36
1.0
 17
0.0
 27
0.0
 37
0.0
 40
254.0
 41
0.069908491163988
 42
50.0
 43
760.73112368993088
 44
-760.73112368993088
 50
0.0
 51
0.0
 71
     0
 72
   100
 73
     1
 74
     3
 75
     0
 76
     0
 77
     0
 78
     0
  0
VPORT
  2
L4
 70
     0
 10
0.0
 20
0.0
 11
0.5
 21
0.5
 12
0.0
 22
0.0
 13
0.0
 23
0.0
 14
0.5
 24
0.5
 15
0.5
 25
0.5
 16
0.0
 26
-1.0
 36
0.0
 17
0.0
 27
0.0
 37
0.0
 40
1319.822715367485
 41
0.0134538953973897
 42
50.0
 43
672.02083301040614
 44
-672.02083301040614
 50
0.0
 51
0.0
 71
     0
 72
   100
 73
     1
 74
     3
 75
     0
 76
     0
 77
     0
 78
     0
  0
VPORT
  2
L4
 70
     0
 10
0.5
 20
0.0
 11
1.0
 21
0.5
 12
0.0
 22
0.0
 13
0.0
 23
0.0
 14
0.5
 24
0.5
 15
0.5
 25
0.5
 16
1.0
 26
0.0
 36
0.0
 17
0.0
 27
0.0
 37
0.0
 40
1319.822715367485
 41
0.0134538953973897
 42
50.0
 43
672.02083301040614
 44
-672.02083301040614
 50
0.0
 51
0.0
 71
     0
 72
   100
 73
     1
 74
     3
 75
     0
 76
     0
 77
     0
 78
     0
  0
VPORT
  2
L4
 70
     0
 10
0.5
 20
0.5
 11
1.0
 21
1.0
 12
0.0
 22
0.0
 13
0.0
 23
0.0
 14
0.5
 24
0.5
 15
0.5
 25
0.5
 16
0.577350269189626
 26
-0.577350269189626
 36
0.577350269189626
 17
0.0
 27
0.0
 37
0.0
 40
1285.020866083941
 41
0.0138182633638986
 42
50.0
 43
667.14140672557585
 44
-667.14140672557585
 50
0.0
 51
0.0
 71
     0
 72
   100
 73
     1
 74
     3
 75
     0
 76
     0
 77
     0
 78
     0
  0
VPORT
  2
L6
 70
     0
 10
0.0
 20
0.5
 11
0.3333333333333334
 21
1.0
 12
0.0
 22
0.0
 13
0.0
 23
0.0
 14
0.5
 24
0.5
 15
0.5
 25
0.5
 16
0.7188730927569436
 26
-0.5850486126764432
 36
0.3754192287502549
 17
0.0
 27
0.0
 37
0.0
 40
1357.434191666423
 41
0.0130811179390246
 42
50.0
 43
701.83947731888645
 44
-701.83947731888645
 50
0.0
 51
0.0
 71
     0
 72
   100
 73
     1
 74
     3
 75
     0
 76
     0
 77
     0
 78
     0
  0
VPORT
  2
L6
 70
     0
 10
0.0
 20
0.0
 11
0.3333333333333334
 21
0.5
 12
0.0
 22
0.0
 13
0.0
 23
0.0
 14
0.5
 24
0.5
 15
0.5
 25
0.5
 16
-1.0
 26
0.0
 36
0.0
 17
0.0
 27
0.0
 37
0.0
 40
1319.822715367485
 41
0.0134538953973897
 42
50.0
 43
672.02083301040614
 44
-672.02083301040614
 50
0.0
 51
0.0
 71
     0
 72
   100
 73
     1
 74
     3
 75
     0
 76
     0
 77
     0
 78
     0
  0
VPORT
  2
L6
 70
     0
 10
0.3333333333333334
 20
0.5
 11
0.6666666666666666
 21
1.0
 12
207.5749113998134
 22
144.35321505374989
 13
0.0
 23
0.0
 14
0.5
 24
0.5
 15
0.5
 25
0.5
 16
0.0
 26
0.0
 36
1.0
 17
0.0
 27
0.0
 37
0.0
 40
254.0
 41
0.069908491163988
 42
50.0
 43
760.73112368993088
 44
-760.73112368993088
 50
0.0
 51
0.0
 71
     0
 72
   100
 73
     1
 74
     3
 75
     0
 76
     0
 77
     0
 78
     0
  0
VPORT
  2
L6
 70
     0
 10
0.3333333333333334
 20
0.0
 11
0.6666666666666666
 21
0.5
 12
0.0
 22
0.0
 13
0.0
 23
0.0
 14
0.5
 24
0.5
 15
0.5
 25
0.5
 16
0.0
 26
-1.0
 36
0.0
 17
0.0
 27
0.0
 37
0.0
 40
1319.822715367485
 41
0.0134538953973897
 42
50.0
 43
672.02083301040614
 44
-672.02083301040614
 50
0.0
 51
0.0
 71
     0
 72
   100
 73
     1
 74
     3
 75
     0
 76
     0
 77
     0
 78
     0
  0
VPORT
  2
L6
 70
     0
 10
0.6666666666666666
 20
0.5
 11
1.0
 21
1.0
 12
0.0
 22
0.0
 13
0.0
 23
0.0
 14
0.5
 24
0.5
 15
0.5
 25
0.5
 16
0.577350269189626
 26
-0.577350269189626
 36
0.577350269189626
 17
0.0
 27
0.0
 37
0.0
 40
1285.020866083941
 41
0.0138182633638986
 42
50.0
 43
667.14140672557585
 44
-667.14140672557585
 50
0.0
 51
0.0
 71
     0
 72
   100
 73
     1
 74
     3
 75
     0
 76
     0
 77
     0
 78
     0
  0
VPORT
  2
L6
 70
     0
 10
0.6666666666666666
 20
0.0
 11
1.0
 21
0.5
 12
0.0
 22
0.0
 13
0.0
 23
0.0
 14
0.5
 24
0.5
 15
0.5
 25
0.5
 16
1.0
 26
0.0
 36
0.0
 17
0.0
 27
0.0
 37
0.0
 40
1319.822715367485
 41
0.0134538953973897
 42
50.0
 43
672.02083301040614
 44
-672.02083301040614
 50
0.0
 51
0.0
 71
     0
 72
   100
 73
     1
 74
     3
 75
     0
 76
     0
 77
     0
 78
     0
  0
VPORT
  2
*ACTIVE
 70
     0
 10
0.0
 20
0.0
 11
1.0
 21
1.0
 12
260.8683638634331
 22
128.03172858993321
 13
0.0
 23
0.0
 14
0.5
 24
0.5
 15
0.5
 25
0.5
 16
0.0
 26
0.0
 36
1.0
 17
0.0
 27
0.0
 37
0.0
 40
348.0567440098996
 41
1.978586723768736
 42
50.0
 43
760.73112368993088
 44
-760.73112368993088
 50
0.0
 51
0.0
 71
     0
 72
   100
 73
     1
 74
     3
 75
     0
 76
     0
 77
     0
 78
     0
  0
ENDTAB
  0
TABLE
  2
LTYPE
 70
     7
  0
LTYPE
  2
CONTINUOUS
 70
     0
  3
Solid line
 72
    65
 73
     0
 40
0.0
  0
LTYPE
  2
DASHED
 70
     0
  3
__ __ __ __ __ __ __ __ __
 72
    65
 73
     2
 40
0.75
 49
0.5
 49
-0.25
  0
LTYPE
  2
HIDDEN
 70
     0
  3
_ _ _ _ _ _ _ _ _ _ _ _ _ _ _
 72
    65
 73
     2
 40
0.5
 49
0.25
 49
-0.25
  0
LTYPE
  2
PHANTOM
 70
     0
  3
____ _ _ ____ _ _ _____ _ _ ____
 72
    65
 73
     6
 40
2.5
 49
1.25
 49
-0.25
 49
0.25
 49
-0.25
 49
0.25
 49
-0.25
  0
LTYPE
  2
CENTER
 70
     0
  3
____ _ ____ _ ____ _ ____
 72
    65
 73
     4
 40
2.0
 49
1.25
 49
-0.25
 49
0.25
 49
-0.25
  0
LTYPE
  2
DOT
 70
     0
  3
.........................
 72
    65
 73
     2
 40
0.25
 49
0.0
 49
-0.25
  0
LTYPE
  2
DASHDOT
 70
     0
  3
_._._._._._._._._._._._._._._._.
 72
    65
 73
     4
 40
1.0
 49
0.5
 49
-0.25
 49
0.0
 49
-0.25
  0
ENDTAB
  0
TABLE
  2
LAYER
 70
     2
  0
LAYER
  2
0
 70
     0
 62
     7
  6
CONTINUOUS
  0
LAYER
  2
16
 70
     0
 62
     7
  6
CONTINUOUS
  0
ENDTAB
  0
TABLE
  2
STYLE
 70
     1
  0
STYLE
  2
STANDARD
 70
     0
 40
0.0
 41
1.0
 50
0.0
 71
     0
 42
0.2
  3
txt
  4

  0
ENDTAB
  0
TABLE
  2
VIEW
 70
     8
  0
VIEW
  2
TOP
 70
     0
 40
254.0
 10
207.5749113998134
 20
144.35321505374989
 41
254.0
 11
0.0
 21
0.0
 31
1.0
 12
0.0
 22
0.0
 32
0.0
 42
50.0
 43
760.73112368993088
 44
-760.73112368993088
 50
0.0
 71
     0
  0
VIEW
  2
FRONT
 70
     0
 40
1319.822715367485
 10
0.0
 20
0.0
 41
254.0
 11
0.0
 21
-1.0
 31
0.0
 12
0.0
 22
0.0
 32
0.0
 42
50.0
 43
672.02083301040614
 44
-672.02083301040614
 50
0.0
 71
     0
  0
VIEW
  2
RIGHT
 70
     0
 40
1319.822715367485
 10
0.0
 20
0.0
 41
254.0
 11
1.0
 21
0.0
 31
0.0
 12
0.0
 22
0.0
 32
0.0
 42
50.0
 43
672.02083301040614
 44
-672.02083301040614
 50
0.0
 71
     0
  0
VIEW
  2
BACK
 70
     0
 40
1319.822715367485
 10
0.0
 20
0.0
 41
254.0
 11
0.0
 21
1.0
 31
0.0
 12
0.0
 22
0.0
 32
0.0
 42
50.0
 43
672.02083301040614
 44
-672.02083301040614
 50
0.0
 71
     0
  0
VIEW
  2
BOTTOM
 70
     0
 40
254.0
 10
0.0
 20
0.0
 41
254.0
 11
0.0
 21
0.0
 31
-1.0
 12
0.0
 22
0.0
 32
0.0
 42
50.0
 43
659.91135768374238
 44
-659.91135768374238
 50
180.0
 71
     0
  0
VIEW
  2
LEFT
 70
     0
 40
1319.822715367485
 10
0.0
 20
0.0
 41
254.0
 11
-1.0
 21
0.0
 31
0.0
 12
0.0
 22
0.0
 32
0.0
 42
50.0
 43
672.02083301040614
 44
-672.02083301040614
 50
0.0
 71
     0
  0
VIEW
  2
TFR-ISO
 70
     0
 40
1285.020866083941
 10
0.0
 20
0.0
 41
359.21024484276631
 11
0.577350269189626
 21
-0.577350269189626
 31
0.577350269189626
 12
0.0
 22
0.0
 32
0.0
 42
50.0
 43
667.14140672557585
 44
-667.14140672557585
 50
0.0
 71
     0
  0
VIEW
  2
TFR-TRI
 70
     0
 40
1357.434191666423
 10
0.0
 20
0.0
 41
357.33321002660279
 11
0.7188730927569436
 21
-0.5850486126764432
 31
0.3754192287502549
 12
0.0
 22
0.0
 32
0.0
 42
50.0
 43
701.83947731888645
 44
-701.83947731888645
 50
0.0
 71
     0
  0
ENDTAB
  0
TABLE
  2
UCS
 70
     0
  0
ENDTAB
  0
TABLE
  2
APPID
 70
     1
  0
APPID
  2
ACAD
 70
     0
  0
ENDTAB
  0
TABLE
  2
DIMSTYLE
 70
     1
  0
DIMSTYLE
  2
STANDARD
 70
     0
  3

  4

  5

  6

  7

 40
1.0
 41
0.18
 42
0.0625
 43
0.38
 44
0.18
 45
0.0
 46
0.0
 47
0.0
 48
0.0
140
0.18
141
0.09
142
0.0
143
25.399999999999999
144
1.0
145
0.0
146
1.0
147
0.09
 71
     0
 72
     0
 73
     1
 74
     1
 75
     0
 76
     0
 77
     0
 78
     0
170
     0
171
     2
172
     0
173
     0
174
     0
175
     0
176
     0
177
     0
178
     0
  0
ENDTAB
  0
ENDSEC
  0
SECTION
  2
BLOCKS
  0
BLOCK
  8
0
  2
$MODEL_SPACE
 70
     0
 10
0.0
 20
0.0
 30
0.0
  3
$MODEL_SPACE
  1

  0
ENDBLK
  5
21
  8
0
  0
BLOCK
 67
     1
  8
0
  2
$PAPER_SPACE
 70
     0
 10
0.0
 20
0.0
 30
0.0
  3
$PAPER_SPACE
  1

  0
ENDBLK
  5
1D
 67
     1
  8
0
  0
ENDSEC
  0
SECTION
  2
ENTITIES
  0
LINE
  5
30
  8
16
 62
     0
 10
223.61206351214571
 20
202.66205064928209
 30
0.0
 11
223.61206351214571
 21
202.48750000000001
 31
0.0
  0
LINE
  5
32
  8
16
 62
     0
 10
214.36116481070999
 20
66.48749999999994
 30
0.0
 11
213.98064439527491
 21
66.48749999999994
 31
0.0
  0
LINE
  5
33
  8
16
 62
     0
 10
223.61206351214571
 20
57.23660129856431
 30
0.0
 11
223.61206351214571
 21
56.856080883129167
 31
0.0
  0
LINE
  5
34
  8
16
 62
     0
 10
223.61206351214571
 20
215.31294935071779
 30
0.0
 11
223.61206351214571
 21
215.48750000000001
 31
0.0
  0
LINE
  5
35
  8
16
 62
     0
 10
375.3629622135814
 20
208.98750000000001
 30
0.0
 11
375.3629622135814
 21
66.48749999999994
 31
0.0
  0
LINE
  5
36
  8
16
 62
     0
 10
366.11206351214571
 20
57.236601298564317
 30
0.0
 11
223.61206351214571
 21
57.236601298564317
 31
0.0
  0
LINE
  5
37
  8
16
 62
     0
 10
214.36116481071011
 20
66.48749999999994
 30
0.0
 11
214.36116481071011
 21
208.98750000000001
 31
0.0
  0
LINE
  5
38
  8
16
 62
     0
 10
223.61206351214571
 20
218.23839870143561
 30
0.0
 11
366.11206351214571
 21
218.23839870143561
 31
0.0
  0
LINE
  5
39
  8
16
 62
     0
 10
215.88804509731631
 20
208.98750000000001
 30
0.0
 11
215.88804509731631
 21
66.48749999999994
 31
0.0
  0
LINE
  5
3A
  8
16
 62
     0
 10
223.61206351214571
 20
58.763481585170531
 30
0.0
 11
366.11206351214571
 21
58.763481585170531
 31
0.0
  0
LINE
  5
3B
  8
16
 62
     0
 10
373.83608192697523
 20
66.48749999999994
 30
0.0
 11
373.83608192697523
 21
208.98750000000001
 31
0.0
  0
LINE
  5
3C
  8
16
 62
     0
 10
366.11206351214571
 20
216.7115184148293
 30
0.0
 11
223.61206351214571
 21
216.7115184148293
 31
0.0
  0
LINE
  5
3D
  8
16
 62
     0
 10
366.11206351214571
 20
56.856080883129167
 30
0.0
 11
223.61206351214571
 21
56.856080883129167
 31
0.0
  0
LINE
  5
3E
  8
16
 62
     0
 10
366.11206351214571
 20
57.23660129856431
 30
0.0
 11
366.11206351214571
 21
56.856080883129167
 31
0.0
  0
LINE
  5
3F
  8
16
 62
     0
 10
375.3629622135814
 20
66.48749999999994
 30
0.0
 11
375.74348262901651
 21
66.48749999999994
 31
0.0
  0
LINE
  5
40
  8
16
 62
     0
 10
375.74348262901651
 20
208.98750000000001
 30
0.0
 11
375.74348262901651
 21
66.48749999999994
 31
0.0
  0
LINE
  5
41
  8
16
 62
     0
 10
375.3629622135814
 20
208.98750000000001
 30
0.0
 11
375.74348262901651
 21
208.98750000000001
 31
0.0
  0
LINE
  5
42
  8
16
 62
     0
 10
366.11206351214571
 20
218.23839870143561
 30
0.0
 11
366.11206351214571
 21
218.61891911687081
 31
0.0
  0
LINE
  5
43
  8
16
 62
     0
 10
223.61206351214571
 20
218.61891911687081
 30
0.0
 11
366.11206351214571
 21
218.61891911687081
 31
0.0
  0
LINE
  5
44
  8
16
 62
     0
 10
223.61206351214571
 20
218.23839870143561
 30
0.0
 11
223.61206351214571
 21
218.61891911687081
 31
0.0
  0
LINE
  5
45
  8
16
 62
     0
 10
214.36116481070999
 20
208.98750000000001
 30
0.0
 11
213.98064439527491
 21
208.98750000000001
 31
0.0
  0
LINE
  5
46
  8
16
 62
     0
 10
213.98064439527491
 20
66.48749999999994
 30
0.0
 11
213.98064439527491
 21
208.98750000000001
 31
0.0
  0
LINE
  5
47
  8
16
 62
     0
 10
223.61206351214571
 20
60.162050649282143
 30
0.0
 11
223.61206351214571
 21
59.987499999999947
 31
0.0
  0
LINE
  5
48
  8
16
 62
     0
 10
223.61206351214571
 20
72.812949350717787
 30
0.0
 11
223.61206351214571
 21
72.987499999999969
 31
0.0
  0
LINE
  5
49
  8
16
 62
     0
 10
366.11206351214571
 20
215.31294935071779
 30
0.0
 11
366.11206351214571
 21
215.48750000000001
 31
0.0
  0
LINE
  5
4A
  8
16
 62
     0
 10
366.11206351214571
 20
202.66205064928209
 30
0.0
 11
366.11206351214571
 21
202.48750000000001
 31
0.0
  0
LINE
  5
4B
  8
16
 62
     0
 10
366.11206351214571
 20
60.162050649282143
 30
0.0
 11
366.11206351214571
 21
59.987499999999947
 31
0.0
  0
LINE
  5
4C
  8
16
 62
     0
 10
366.11206351214571
 20
72.812949350717787
 30
0.0
 11
366.11206351214571
 21
72.987499999999969
 31
0.0
  0
LINE
  5
4D
  8
16
 62
     0
 10
223.61206351214571
 20
212.07754224543831
 30
0.0
 11
223.61206351214571
 21
212.13749999999999
 31
0.0
  0
LINE
  5
4E
  8
16
 62
     0
 10
223.61206351214571
 20
205.8974577545616
 30
0.0
 11
223.61206351214571
 21
205.83749999999989
 31
0.0
  0
LINE
  5
4F
  8
16
 62
     0
 10
366.11206351214571
 20
212.07754224543831
 30
0.0
 11
366.11206351214571
 21
212.13749999999999
 31
0.0
  0
LINE
  5
50
  8
16
 62
     0
 10
366.11206351214571
 20
205.8974577545616
 30
0.0
 11
366.11206351214571
 21
205.83749999999989
 31
0.0
  0
LINE
  5
51
  8
16
 62
     0
 10
366.11206351214571
 20
63.397457754561643
 30
0.0
 11
366.11206351214571
 21
63.337499999999963
 31
0.0
  0
LINE
  5
52
  8
16
 62
     0
 10
366.11206351214571
 20
69.577542245438281
 30
0.0
 11
366.11206351214571
 21
69.63749999999996
 31
0.0
  0
LINE
  5
53
  8
16
 62
     0
 10
223.61206351214571
 20
63.397457754561643
 30
0.0
 11
223.61206351214571
 21
63.337499999999963
 31
0.0
  0
LINE
  5
54
  8
16
 62
     0
 10
223.61206351214571
 20
69.577542245438281
 30
0.0
 11
223.61206351214571
 21
69.63749999999996
 31
0.0
  0
LINE
  5
55
  8
16
 62
     0
 10
223.61206351214571
 20
63.397457754561643
 30
0.0
 11
223.61206351214571
 21
63.737500000003081
 31
0.0
  0
LINE
  5
56
  8
16
 62
     0
 10
223.61206351214571
 20
69.577542245438281
 30
0.0
 11
223.61206351214571
 21
69.237499999996842
 31
0.0
  0
LINE
  5
57
  8
16
 62
     0
 10
366.11206351214571
 20
205.8974577545616
 30
0.0
 11
366.11206351214571
 21
206.23750000000311
 31
0.0
  0
LINE
  5
58
  8
16
 62
     0
 10
366.11206351214571
 20
212.07754224543831
 30
0.0
 11
366.11206351214571
 21
211.7374999999968
 31
0.0
  0
LINE
  5
59
  8
16
 62
     0
 10
366.11206351214571
 20
63.397457754561643
 30
0.0
 11
366.11206351214571
 21
63.737500000003081
 31
0.0
  0
LINE
  5
5A
  8
16
 62
     0
 10
366.11206351214571
 20
69.577542245438281
 30
0.0
 11
366.11206351214571
 21
69.237499999996842
 31
0.0
  0
LINE
  5
5B
  8
16
 62
     0
 10
223.61206351214571
 20
205.8974577545616
 30
0.0
 11
223.61206351214571
 21
206.23750000000311
 31
0.0
  0
LINE
  5
5C
  8
16
 62
     0
 10
223.61206351214571
 20
212.07754224543831
 30
0.0
 11
223.61206351214571
 21
211.7374999999968
 31
0.0
  0
LINE
  5
5D
  8
16
 62
     0
 10
223.61206351214571
 20
238.61891911687081
 30
0.0
 11
213.98064439527491
 21
238.61891911687081
 31
0.0
  0
LINE
  5
5E
  8
16
 62
     0
 10
214.36116481070999
 20
260.41891911687082
 30
0.0000000000000013
 11
213.98064439527491
 21
238.61891911687081
 31
0.0
  0
LINE
  5
5F
  8
16
 62
     0
 10
223.61206351214571
 20
260.41891911687082
 30
0.0000000000000013
 11
214.36116481070999
 21
260.41891911687082
 31
0.0000000000000013
  0
LINE
  5
60
  8
16
 62
     0
 10
223.61206351214571
 20
260.41891911687082
 30
0.0000000000000013
 11
223.61206351214571
 21
238.61891911687081
 31
0.0
  0
LINE
  5
61
  8
16
 62
     0
 10
366.11206351214582
 20
260.41891911687082
 30
0.0000000000000013
 11
366.11206351214582
 21
238.61891911687081
 31
0.0
  0
LINE
  5
62
  8
16
 62
     0
 10
375.3629622135814
 20
260.41891911687082
 30
0.0000000000000013
 11
366.11206351214582
 21
260.41891911687082
 31
0.0000000000000013
  0
LINE
  5
63
  8
16
 62
     0
 10
375.3629622135814
 20
260.41891911687082
 30
0.0000000000000013
 11
375.74348262901651
 21
238.61891911687081
 31
0.0
  0
LINE
  5
64
  8
16
 62
     0
 10
375.74348262901651
 20
238.61891911687081
 30
0.0
 11
366.11206351214582
 21
238.61891911687081
 31
0.0
  0
LINE
  5
65
  8
16
 62
     0
 10
366.11206351214582
 20
260.41891911687082
 30
0.0000000000000013
 11
223.61206351214571
 21
260.41891911687082
 31
0.0000000000000013
  0
LINE
  5
66
  8
16
 62
     0
 10
366.11206351214582
 20
238.61891911687081
 30
0.0
 11
223.61206351214571
 21
238.61891911687081
 31
0.0
  0
LINE
  5
67
  8
16
 62
     0
 10
417.54348262901658
 20
218.23839870143561
 30
0.0
 11
395.74348262901663
 21
218.61891911687081
 31
0.0
  0
LINE
  5
68
  8
16
 62
     0
 10
417.54348262901658
 20
57.23660129856431
 30
0.0
 11
395.74348262901663
 21
56.856080883129167
 31
0.0
  0
LINE
  5
69
  8
16
 62
     0
 10
395.74348262901663
 20
56.856080883129152
 30
0.0
 11
395.74348262901663
 21
66.48749999999994
 31
0.0
  0
LINE
  5
6A
  8
16
 62
     0
 10
417.54348262901658
 20
66.48749999999994
 30
0.0
 11
395.74348262901663
 21
66.48749999999994
 31
0.0
  0
LINE
  5
6B
  8
16
 62
     0
 10
417.54348262901658
 20
57.236601298564302
 30
0.0
 11
417.54348262901658
 21
66.48749999999994
 31
0.0
  0
LINE
  5
6C
  8
16
 62
     0
 10
417.54348262901658
 20
218.23839870143561
 30
0.0
 11
417.54348262901658
 21
208.98750000000001
 31
0.0
  0
LINE
  5
6D
  8
16
 62
     0
 10
417.54348262901658
 20
208.98750000000001
 30
0.0
 11
395.74348262901663
 21
208.98750000000001
 31
0.0
  0
LINE
  5
6E
  8
16
 62
     0
 10
395.74348262901663
 20
208.98750000000001
 30
0.0
 11
395.74348262901663
 21
218.61891911687081
 31
0.0
  0
LINE
  5
6F
  8
16
 62
     0
 10
417.54348262901658
 20
66.48749999999994
 30
0.0
 11
417.54348262901658
 21
208.98750000000001
 31
0.0
  0
LINE
  5
70
  8
16
 62
     0
 10
395.74348262901663
 20
66.48749999999994
 30
0.0
 11
395.74348262901663
 21
208.98750000000001
 31
0.0
  0
LINE
  5
71
  8
16
 62
     0
 10
194.0997643598177
 20
56.856080883129152
 30
0.0
 11
194.0997643598177
 21
66.48749999999994
 31
0.0
  0
LINE
  5
72
  8
16
 62
     0
 10
172.29976435981769
 20
57.23660129856431
 30
0.0
 11
194.0997643598177
 21
56.856080883129167
 31
0.0
  0
LINE
  5
73
  8
16
 62
     0
 10
172.29976435981769
 20
66.48749999999994
 30
0.0
 11
172.29976435981769
 21
57.236601298564302
 31
0.0
  0
LINE
  5
74
  8
16
 62
     0
 10
172.29976435981769
 20
66.48749999999994
 30
0.0
 11
194.0997643598177
 21
66.48749999999994
 31
0.0
  0
LINE
  5
75
  8
16
 62
     0
 10
194.0997643598177
 20
208.98750000000001
 30
0.0
 11
194.0997643598177
 21
66.48749999999994
 31
0.0
  0
LINE
  5
76
  8
16
 62
     0
 10
172.29976435981769
 20
208.98750000000001
 30
0.0
 11
172.29976435981769
 21
66.48749999999994
 31
0.0
  0
LINE
  5
77
  8
16
 62
     0
 10
172.29976435981769
 20
208.98750000000001
 30
0.0
 11
194.0997643598177
 21
208.98750000000001
 31
0.0
  0
LINE
  5
78
  8
16
 62
     0
 10
194.0997643598177
 20
218.61891911687081
 30
0.0
 11
194.0997643598177
 21
208.98750000000001
 31
0.0
  0
LINE
  5
79
  8
16
 62
     0
 10
172.29976435981769
 20
218.23839870143561
 30
0.0
 11
172.29976435981769
 21
208.98750000000001
 31
0.0
  0
LINE
  5
7A
  8
16
 62
     0
 10
172.29976435981769
 20
218.23839870143561
 30
0.0
 11
194.0997643598177
 21
218.61891911687081
 31
0.0
  0
LINE
  5
7B
  8
16
 62
     0
 10
154.63919674949381
 20
217.31891911687069
 30
0.0
 11
12.13919674949376
 21
217.31891911687069
 31
0.0
  0
LINE
  5
7C
  8
16
 62
     0
 10
3.8077776326229862
 20
208.98750000000001
 30
0.0
 11
3.8077776326229862
 21
66.48749999999994
 31
0.0
  0
LINE
  5
7D
  8
16
 62
     0
 10
12.13919674949376
 20
58.156080883129171
 30
0.0
 11
154.63919674949381
 21
58.156080883129171
 31
0.0
  0
LINE
  5
7E
  8
16
 62
     0
 10
162.9706158663646
 20
66.48749999999994
 30
0.0
 11
162.9706158663646
 21
208.98750000000001
 31
0.0
  0
LINE
  5
7F
  8
16
 62
     0
 10
3.3164290010651172
 20
66.48749999999994
 30
0.0
 11
3.3164290010651172
 21
208.98750000000001
 31
0.0
  0
LINE
  5
80
  8
16
 62
     0
 10
12.13919674949376
 20
217.8102677484286
 30
0.0
 11
154.63919674949381
 21
217.8102677484286
 31
0.0
  0
LINE
  5
81
  8
16
 62
     0
 10
163.46196449792239
 20
208.98750000000001
 30
0.0
 11
163.46196449792239
 21
66.48749999999994
 31
0.0
  0
LINE
  5
82
  8
16
 62
     0
 10
154.63919674949381
 20
57.664732251571309
 30
0.0
 11
12.13919674949376
 21
57.664732251571309
 31
0.0
  0
LINE
  5
83
  8
16
 62
     0
 10
12.13919674949376
 20
56.856080883129167
 30
0.0
 11
154.63919674949381
 21
56.856080883129167
 31
0.0
  0
LINE
  5
84
  8
16
 62
     0
 10
154.63919674949381
 20
218.61891911687081
 30
0.0
 11
12.13919674949376
 21
218.61891911687081
 31
0.0
  0
LINE
  5
85
  8
16
 62
     0
 10
164.27061586636461
 20
66.48749999999994
 30
0.0
 11
164.27061586636461
 21
208.98750000000001
 31
0.0
  0
LINE
  5
86
  8
16
 62
     0
 10
2.507777632622989
 20
208.98750000000001
 30
0.0
 11
2.507777632622989
 21
66.48749999999994
 31
0.0
  0
LINE
  5
87
  8
16
 62
     0
 10
154.63919674949381
 20
217.31891911687069
 30
0.0
 11
154.63919674949381
 21
217.28749999999999
 31
0.0
  0
LINE
  5
88
  8
16
 62
     0
 10
162.9706158663646
 20
208.98750000000001
 30
0.0
 11
162.93919674949379
 21
208.98750000000001
 31
0.0
  0
LINE
  5
89
  8
16
 62
     0
 10
162.93919674949379
 20
66.48749999999994
 30
0.0
 11
162.93919674949379
 21
208.98750000000001
 31
0.0
  0
LINE
  5
8A
  8
16
 62
     0
 10
162.9706158663646
 20
66.48749999999994
 30
0.0
 11
162.93919674949379
 21
66.48749999999994
 31
0.0
  0
LINE
  5
8B
  8
16
 62
     0
 10
12.13919674949376
 20
58.187499999999957
 30
0.0
 11
154.63919674949381
 21
58.187499999999957
 31
0.0
  0
LINE
  5
8C
  8
16
 62
     0
 10
154.63919674949381
 20
58.156080883129171
 30
0.0
 11
154.63919674949381
 21
58.187499999999957
 31
0.0
  0
LINE
  5
8D
  8
16
 62
     0
 10
12.13919674949376
 20
58.156080883129171
 30
0.0
 11
12.13919674949376
 21
58.187499999999957
 31
0.0
  0
LINE
  5
8E
  8
16
 62
     0
 10
154.63919674949381
 20
217.28749999999999
 30
0.0
 11
12.13919674949376
 21
217.28749999999999
 31
0.0
  0
LINE
  5
8F
  8
16
 62
     0
 10
12.13919674949376
 20
217.31891911687069
 30
0.0
 11
12.13919674949376
 21
217.28749999999999
 31
0.0
  0
LINE
  5
90
  8
16
 62
     0
 10
3.8077776326229862
 20
208.98750000000001
 30
0.0
 11
3.8391967494937802
 21
208.98750000000001
 31
0.0
  0
LINE
  5
91
  8
16
 62
     0
 10
3.8077776326229862
 20
66.48749999999994
 30
0.0
 11
3.8391967494937802
 21
66.48749999999994
 31
0.0
  0
LINE
  5
92
  8
16
 62
     0
 10
3.8391967494937802
 20
208.98750000000001
 30
0.0
 11
3.8391967494937802
 21
66.48749999999994
 31
0.0
  0
LINE
  5
97
  8
16
 62
     0
 10
142.7599157106423
 20
64.337499999999935
 30
0.0
 11
143.03919674949381
 21
64.337499999999935
 31
0.0
  0
LINE
  5
98
  8
16
 62
     0
 10
141.13919674949381
 20
62.71678103885138
 30
0.0
 11
141.13919674949381
 21
62.437499999999901
 31
0.0
  0
LINE
  5
9B
  8
16
 62
     0
 10
142.7599157106423
 20
82.787499999999966
 30
0.0
 11
142.7599157106423
 21
64.337499999999935
 31
0.0
  0
LINE
  5
9C
  8
16
 62
     0
 10
142.7599157106423
 20
82.787499999999966
 30
0.0
 11
143.03919674949381
 21
82.787499999999966
 31
0.0
  0
LINE
  5
9D
  8
16
 62
     0
 10
143.03919674949381
 20
64.33749999999992
 30
0.0
 11
143.03919674949381
 21
82.787499999999952
 31
0.0
  0
LINE
  5
9E
  8
16
 62
     0
 10
153.33919674949379
 20
93.366781038851428
 30
0.0
 11
153.33919674949379
 21
93.087499999999935
 31
0.0
  0
LINE
  5
9F
  8
16
 62
     0
 10
156.78919674949381
 20
93.366781038851428
 30
0.0
 11
153.33919674949371
 21
93.366781038851428
 31
0.0
  0
LINE
  5
A0
  8
16
 62
     0
 10
156.78919674949381
 20
93.366781038851428
 30
0.0
 11
156.78919674949381
 21
93.087499999999935
 31
0.0
  0
LINE
  5
A1
  8
16
 62
     0
 10
153.33919674949371
 20
93.087499999999935
 30
0.0
 11
156.78919674949381
 21
93.087499999999935
 31
0.0
  0
LINE
  5
A4
  8
16
 62
     0
 10
158.40991571064231
 20
180.4874999999999
 30
0.0
 11
158.40991571064231
 21
94.987499999999955
 31
0.0
  0
LINE
  5
A5
  8
16
 62
     0
 10
158.40991571064231
 20
180.4874999999999
 30
0.0
 11
158.68919674949379
 21
180.4874999999999
 31
0.0
  0
LINE
  5
A6
  8
16
 62
     0
 10
158.68919674949379
 20
94.98749999999994
 30
0.0
 11
158.68919674949379
 21
180.4874999999999
 31
0.0
  0
LINE
  5
A7
  8
16
 62
     0
 10
158.40991571064231
 20
94.987499999999955
 30
0.0
 11
158.68919674949379
 21
94.987499999999955
 31
0.0
  0
LINE
  5
A8
  8
16
 62
     0
 10
142.7599157106423
 20
192.68749999999989
 30
0.0
 11
143.03919674949381
 21
192.68749999999989
 31
0.0
  0
LINE
  5
A9
  8
16
 62
     0
 10
153.33919674949379
 20
182.10821896114851
 30
0.0
 11
153.33919674949379
 21
182.3874999999999
 31
0.0
  0
LINE
  5
AA
  8
16
 62
     0
 10
142.7599157106423
 20
211.1374999999999
 30
0.0
 11
142.7599157106423
 21
192.68749999999989
 31
0.0
  0
LINE
  5
AB
  8
16
 62
     0
 10
142.7599157106423
 20
211.1374999999999
 30
0.0
 11
143.03919674949381
 21
211.1374999999999
 31
0.0
  0
LINE
  5
AC
  8
16
 62
     0
 10
143.03919674949381
 20
192.68749999999989
 30
0.0
 11
143.03919674949381
 21
211.1374999999999
 31
0.0
  0
LINE
  5
AD
  8
16
 62
     0
 10
141.13919674949381
 20
212.75821896114849
 30
0.0
 11
141.13919674949381
 21
213.03749999999999
 31
0.0
  0
LINE
  5
AE
  8
16
 62
     0
 10
25.639196749493781
 20
212.75821896114849
 30
0.0
 11
141.13919674949381
 21
212.75821896114849
 31
0.0
  0
LINE
  5
AF
  8
16
 62
     0
 10
25.639196749493781
 20
212.75821896114849
 30
0.0
 11
25.639196749493781
 21
213.03749999999999
 31
0.0
  0
LINE
  5
B0
  8
16
 62
     0
 10
141.13919674949381
 20
213.03749999999999
 30
0.0
 11
25.639196749493792
 21
213.03749999999999
 31
0.0
  0
LINE
  5
B1
  8
16
 62
     0
 10
24.018477788345258
 20
211.1374999999999
 30
0.0
 11
23.739196749493779
 21
211.1374999999999
 31
0.0
  0
LINE
  5
B3
  8
16
 62
     0
 10
8.2289895853632942
 20
107.3874999999999
 30
0.0
 11
8.3684777883452721
 21
107.3874999999999
 31
0.0
  0
LINE
  5
B4
  8
16
 62
     0
 10
8.211534520435066
 20
94.987499999999955
 30
0.0
 11
8.211534520435066
 21
106.3874999999999
 31
0.0
  0
LINE
  5
B5
  8
16
 62
     0
 10
8.2115345204350518
 20
94.987499999999955
 30
0.0
 11
8.0891967494937642
 21
94.987499999999955
 31
0.0
  0
LINE
  5
B6
  8
16
 62
     0
 10
8.0891967494937518
 20
180.4874999999999
 30
0.0
 11
8.0891967494937642
 21
94.987499999999969
 31
0.0
  0
LINE
  5
B7
  8
16
 62
     0
 10
8.3684777883452455
 20
180.4874999999999
 30
0.0
 11
8.0891967494937642
 21
180.4874999999999
 31
0.0
  0
LINE
  5
B8
  8
16
 62
     0
 10
9.9891967494937859
 20
182.1082189611484
 30
0.0
 11
13.439196749493821
 21
182.10821896114851
 31
0.0
  0
LINE
  5
B9
  8
16
 62
     0
 10
9.9891967494937859
 20
182.1082189611484
 30
0.0
 11
9.9891967494937859
 21
182.3874999999999
 31
0.0
  0
LINE
  5
BA
  8
16
 62
     0
 10
13.439196749493799
 20
182.3874999999999
 30
0.0
 11
9.9891967494937859
 21
182.3874999999999
 31
0.0
  0
LINE
  5
BB
  8
16
 62
     0
 10
13.439196749493769
 20
182.10821896114851
 30
0.0
 11
13.439196749493769
 21
182.3874999999999
 31
0.0
  0
LINE
  5
BC
  8
16
 62
     0
 10
9.9891967494938001
 20
93.20983777094122
 30
0.0
 11
9.9891967494938001
 21
93.087499999999935
 31
0.0
  0
LINE
  5
BD
  8
16
 62
     0
 10
24.01847778834529
 20
64.337499999999935
 30
0.0
 11
24.01847778834528
 21
82.787499999999966
 31
0.0
  0
LINE
  5
BE
  8
16
 62
     0
 10
24.01847778834529
 20
64.337499999999935
 30
0.0
 11
23.739196749493811
 21
64.337499999999935
 31
0.0
  0
LINE
  5
BF
  8
16
 62
     0
 10
23.739196749493789
 20
82.787499999999966
 30
0.0
 11
23.7391967494938
 21
64.337499999999935
 31
0.0
  0
LINE
  5
C0
  8
16
 62
     0
 10
24.01847778834528
 20
82.787499999999966
 30
0.0
 11
23.739196749493789
 21
82.787499999999966
 31
0.0
  0
LINE
  5
C1
  8
16
 62
     0
 10
141.13919674949381
 20
62.716781038851401
 30
0.0
 11
25.63919674949382
 21
62.716781038851401
 31
0.0
  0
LINE
  5
C2
  8
16
 62
     0
 10
25.63919674949382
 20
62.437499999999901
 30
0.0
 11
141.13919674949381
 21
62.437499999999901
 31
0.0
  0
LINE
  5
C3
  8
16
 62
     0
 10
25.639196749493809
 20
62.71678103885138
 30
0.0
 11
25.639196749493809
 21
62.437499999999901
 31
0.0
  0
LINE
  5
D0
  8
16
 62
     0
 10
24.018477788345269
 20
192.68749999999989
 30
0.0
 11
23.739196749493779
 21
192.68749999999989
 31
0.0
  0
LINE
  5
D1
  8
16
 62
     0
 10
156.78919674949381
 20
182.10821896114851
 30
0.0
 11
156.78919674949381
 21
182.3874999999999
 31
0.0
  0
LINE
  5
D2
  8
16
 62
     0
 10
153.33919674949371
 20
182.10821896114851
 30
0.0
 11
156.78919674949381
 21
182.1082189611484
 31
0.0
  0
LINE
  5
D3
  8
16
 62
     0
 10
156.78919674949381
 20
182.3874999999999
 30
0.0
 11
153.33919674949371
 21
182.3874999999999
 31
0.0
  0
LINE
  5
D4
  8
16
 62
     0
 10
24.018477788345269
 20
192.68749999999989
 30
0.0
 11
24.018477788345269
 21
211.1374999999999
 31
0.0
  0
LINE
  5
D5
  8
16
 62
     0
 10
23.7391967494938
 20
211.1374999999999
 30
0.0
 11
23.7391967494938
 21
192.68749999999989
 31
0.0
  0
LINE
  5
D6
  8
16
 62
     0
 10
13.439196749493791
 20
93.20983777094122
 30
0.0
 11
9.9891967494938001
 21
93.209837770941249
 31
0.0
  0
LINE
  5
D7
  8
16
 62
     0
 10
13.439196749493791
 20
93.20983777094122
 30
0.0
 11
13.439196749493791
 21
93.087499999999935
 31
0.0
  0
LINE
  5
D8
  8
16
 62
     0
 10
9.9891967494937717
 20
93.087499999999935
 30
0.0
 11
13.439196749493821
 21
93.087499999999935
 31
0.0
  0
LINE
  5
D9
  8
16
 62
     0
 10
20.039196749493769
 20
91.490131720541939
 30
0.0
 11
19.73710753855401
 21
91.091802758487717
 31
0.0
  0
LINE
  5
DA
  8
16
 62
     0
 10
13.439196749493791
 20
93.709761618519423
 30
0.0
 11
13.439196749493791
 21
93.20983777094122
 31
0.0
  0
LINE
  5
DB
  8
16
 62
     0
 10
8.211534520435066
 20
106.3874999999999
 30
0.0
 11
8.7114583680132682
 21
106.3874999999999
 31
0.0
  0
LINE
  5
DC
  8
16
 62
     0
 10
8.7114583680132682
 20
106.3874999999999
 30
0.0
 11
8.7114583680132682
 21
94.987499999999955
 31
0.0
  0
LINE
  5
DD
  8
16
 62
     0
 10
8.7114583680132682
 20
94.987499999999955
 30
0.0
 11
8.211534520435066
 21
94.987499999999955
 31
0.0
  0
LINE
  5
DE
  8
16
 62
     0
 10
9.9891967494938001
 20
93.709761618519437
 30
0.0
 11
13.439196749493791
 21
93.709761618519423
 31
0.0
  0
LINE
  5
DF
  8
16
 62
     0
 10
9.9891967494938001
 20
93.709761618519437
 30
0.0
 11
9.9891967494938001
 21
93.20983777094122
 31
0.0
  0
LINE
  5
E0
  8
16
 62
     0
 10
20.539196749493801
 20
101.8874999999999
 30
0.0
 11
20.53919674949379
 21
90.656261031221774
 31
0.0
  0
LINE
  5
E1
  8
16
 62
     0
 10
20.03919674949379
 20
91.490131720541939
 30
0.0
 11
20.039196749493811
 21
101.8874999999999
 31
0.0
  0
LINE
  5
E2
  8
16
 62
     0
 10
20.539196749493801
 20
101.8874999999999
 30
0.0
 11
20.039196749493811
 21
101.8874999999999
 31
0.0
  0
LINE
  5
E3
  8
16
 62
     0
 10
15.53919674949379
 20
106.3874999999999
 30
0.0
 11
8.7114583680132682
 21
106.3874999999999
 31
0.0
  0
LINE
  5
E4
  8
16
 62
     0
 10
8.7289134329414662
 20
106.8874999999999
 30
0.0
 11
15.53919674949379
 21
106.8874999999999
 31
0.0
  0
LINE
  5
E5
  8
16
 62
     0
 10
15.53919674949379
 20
106.8874999999999
 30
0.0
 11
15.53919674949379
 21
106.3874999999999
 31
0.0
  0
LINE
  5
E6
  8
16
 62
     0
 10
15.53919674949379
 20
99.624844833229119
 30
0.0
 11
15.53919674949379
 21
99.546226867790736
 31
0.0
  0
LINE
  5
E7
  8
16
 62
     0
 10
15.53919674949379
 20
104.1501551667708
 30
0.0
 11
15.53919674949379
 21
104.2287731322092
 31
0.0
  0
LINE
  5
F0
  8
16
 62
     0
 10
27.139196749493799
 20
104.6874999999999
 30
0.0
 11
27.139196749493799
 21
102.08749999999991
 31
0.0
  0
LINE
  5
F1
  8
16
 62
     0
 10
27.539196749493811
 20
99.087499999999963
 30
0.0
 11
27.539196749493811
 21
104.6874999999999
 31
0.0
  0
LINE
  5
F2
  8
16
 62
     0
 10
27.139196749493799
 20
101.6874999999999
 30
0.0
 11
27.139196749493799
 21
99.087499999999963
 31
0.0
  0
LINE
  5
F3
  8
16
 62
     0
 10
24.739196749493789
 20
101.6874999999999
 30
0.0
 11
27.139196749493799
 21
101.6874999999999
 31
0.0
  0
LINE
  5
F4
  8
16
 62
     0
 10
27.139196749493799
 20
102.08749999999991
 30
0.0
 11
24.739196749493789
 21
102.08749999999991
 31
0.0
  0
LINE
  5
F5
  8
16
 62
     0
 10
28.439196749493789
 20
103.8874999999999
 30
0.0
 11
28.439196749493789
 21
99.88749999999996
 31
0.0
  0
LINE
  5
F6
  8
16
 62
     0
 10
28.83919674949378
 20
99.88749999999996
 30
0.0
 11
28.83919674949378
 21
103.8874999999999
 31
0.0
  0
LINE
  5
F7
  8
16
 62
     0
 10
29.7391967494938
 20
103.1874999999999
 30
0.0
 11
29.7391967494938
 21
100.58749999999991
 31
0.0
  0
LINE
  5
F8
  8
16
 62
     0
 10
30.139196749493809
 20
100.58749999999991
 30
0.0
 11
30.139196749493809
 21
103.1874999999999
 31
0.0
  0
LINE
  5
106
  8
16
 62
     0
 10
15.53919674949379
 20
104.1501551667708
 30
0.0
 11
15.53919674949379
 21
103.1501932437066
 31
0.0
  0
LINE
  5
107
  8
16
 62
     0
 10
15.53919674949379
 20
99.624844833229119
 30
0.0
 11
15.53919674949379
 21
100.6248067562933
 31
0.0
  0
LINE
  5
108
  8
16
 62
     0
 10
366.11206351214571
 20
36.856080883129167
 30
0.0
 11
375.74348262901651
 21
36.856080883129167
 31
0.0
  0
LINE
  5
109
  8
16
 62
     0
 10
375.3629622135814
 20
15.05608088312915
 30
0.0000000000000013
 11
375.74348262901651
 21
36.856080883129167
 31
0.0
  0
LINE
  5
10A
  8
16
 62
     0
 10
366.11206351214571
 20
15.05608088312915
 30
0.0000000000000013
 11
375.3629622135814
 21
15.05608088312915
 31
0.0000000000000013
  0
LINE
  5
10B
  8
16
 62
     0
 10
366.11206351214571
 20
15.05608088312915
 30
0.0000000000000013
 11
366.11206351214571
 21
36.856080883129167
 31
0.0
  0
LINE
  5
10C
  8
16
 62
     0
 10
223.61206351214571
 20
15.05608088312915
 30
0.0000000000000013
 11
223.61206351214571
 21
36.856080883129167
 31
0.0
  0
LINE
  5
10D
  8
16
 62
     0
 10
214.36116481070999
 20
15.05608088312915
 30
0.0000000000000013
 11
223.61206351214571
 21
15.05608088312915
 31
0.0000000000000013
  0
LINE
  5
10E
  8
16
 62
     0
 10
214.36116481070999
 20
15.05608088312915
 30
0.0000000000000013
 11
213.98064439527491
 21
36.856080883129167
 31
0.0
  0
LINE
  5
10F
  8
16
 62
     0
 10
213.98064439527491
 20
36.856080883129167
 30
0.0
 11
223.61206351214571
 21
36.856080883129167
 31
0.0
  0
LINE
  5
110
  8
16
 62
     0
 10
223.61206351214571
 20
15.05608088312915
 30
0.0000000000000013
 11
366.11206351214571
 21
15.05608088312915
 31
0.0000000000000013
  0
LINE
  5
111
  8
16
 62
     0
 10
223.61206351214571
 20
36.856080883129167
 30
0.0
 11
366.11206351214571
 21
36.856080883129167
 31
0.0
  0
ARC
  5
112
  8
16
 62
     0
 10
-366.11206351214571
 20
208.98750000000001
 30
0.0
 40
6.991348631557841
210
0.0
220
0.0
230
-1.0
 50
-90.0
 51
90.0
  0
ARC
  5
113
  8
16
 62
     0
 10
-366.11206351214571
 20
208.98750000000001
 30
0.0
 40
6.991348631557841
210
0.0
220
0.0
230
-1.0
 50
90.0
 51
270.0
  0
ARC
  5
114
  8
16
 62
     0
 10
-223.61206351214571
 20
66.48749999999994
 30
0.0
 40
9.6314191168707932
210
0.0
220
0.0
230
-1.0
 50
-90.0
 51
0.0
  0
ARC
  5
115
  8
16
 62
     0
 10
-223.61206351214571
 20
66.48749999999994
 30
0.0
 40
9.2508987014356432
210
0.0
220
0.0
230
-1.0
 50
-90.0
 51
0.0
  0
ARC
  5
116
  8
16
 62
     0
 10
223.61206351214571
 20
208.98750000000001
 30
0.0
 40
6.5000000000000053
 50
90.0
 51
270.0
  0
ARC
  5
117
  8
16
 62
     0
 10
-223.61206351214571
 20
208.98750000000001
 30
0.0
 40
6.325449350717828
210
0.0
220
0.0
230
-1.0
 50
-90.0
 51
90.0
  0
ARC
  5
118
  8
16
 62
     0
 10
366.11206351214571
 20
208.98750000000001
 30
0.0
 40
6.5000000000000053
 50
-90.0
 51
90.0
  0
ARC
  5
119
  8
16
 62
     0
 10
366.11206351214571
 20
208.98750000000001
 30
0.0
 40
6.5000000000000053
 50
90.0
 51
270.0
  0
ARC
  5
11A
  8
16
 62
     0
 10
-366.11206351214571
 20
66.48749999999994
 30
0.0
 40
9.2508987014356432
210
0.0
220
0.0
230
-1.0
 50
180.0
 51
270.0
  0
ARC
  5
11B
  8
16
 62
     0
 10
-223.61206351214571
 20
208.98750000000001
 30
0.0
 40
9.2508987014356432
210
0.0
220
0.0
230
-1.0
 50
0.0
 51
90.0
  0
ARC
  5
11C
  8
16
 62
     0
 10
-366.11206351214571
 20
208.98750000000001
 30
0.0
 40
9.2508987014356432
210
0.0
220
0.0
230
-1.0
 50
90.0
 51
180.0
  0
ARC
  5
11D
  8
16
 62
     0
 10
223.61206351214571
 20
208.98750000000001
 30
0.0
 40
7.7240184148294189
 50
90.0
 51
180.0
  0
ARC
  5
11E
  8
16
 62
     0
 10
223.61206351214571
 20
66.48749999999994
 30
0.0
 40
7.7240184148294189
 50
180.0
 51
270.0
  0
ARC
  5
11F
  8
16
 62
     0
 10
366.11206351214571
 20
66.48749999999994
 30
0.0
 40
7.7240184148294189
 50
-90.0
 51
0.0
  0
ARC
  5
120
  8
16
 62
     0
 10
366.11206351214571
 20
208.98750000000001
 30
0.0
 40
7.7240184148294189
 50
0.0
 51
90.0
  0
ARC
  5
121
  8
16
 62
     0
 10
-366.11206351214571
 20
66.48749999999994
 30
0.0
 40
9.6314191168707932
210
0.0
220
0.0
230
-1.0
 50
180.0
 51
270.0
  0
ARC
  5
122
  8
16
 62
     0
 10
-366.11206351214571
 20
208.98750000000001
 30
0.0
 40
9.6314191168707932
210
0.0
220
0.0
230
-1.0
 50
90.0
 51
180.0
  0
ARC
  5
123
  8
16
 62
     0
 10
-223.61206351214571
 20
208.98750000000001
 30
0.0
 40
9.6314191168707932
210
0.0
220
0.0
230
-1.0
 50
0.0
 51
90.0
  0
ARC
  5
124
  8
16
 62
     0
 10
223.61206351214571
 20
66.48749999999994
 30
0.0
 40
6.5000000000000053
 50
-90.0
 51
90.0
  0
ARC
  5
125
  8
16
 62
     0
 10
-223.61206351214571
 20
66.48749999999994
 30
0.0
 40
6.325449350717828
210
0.0
220
0.0
230
-1.0
 50
90.0
 51
270.0
  0
ARC
  5
126
  8
16
 62
     0
 10
-366.11206351214571
 20
66.487499999999969
 30
0.0
 40
6.991348631557841
210
0.0
220
0.0
230
-1.0
 50
90.0
 51
270.0
  0
ARC
  5
127
  8
16
 62
     0
 10
-366.11206351214571
 20
66.487499999999969
 30
0.0
 40
6.991348631557841
210
0.0
220
0.0
230
-1.0
 50
-90.0
 51
90.0
  0
ARC
  5
128
  8
16
 62
     0
 10
366.11206351214571
 20
66.48749999999994
 30
0.0
 40
6.5000000000000053
 50
-90.0
 51
90.0
  0
ARC
  5
129
  8
16
 62
     0
 10
366.11206351214571
 20
66.48749999999994
 30
0.0
 40
6.5000000000000053
 50
90.0
 51
270.0
  0
ARC
  5
12A
  8
16
 62
     0
 10
-366.11206351214571
 20
208.98750000000001
 30
0.0
 40
6.325449350717828
210
0.0
220
0.0
230
-1.0
 50
-90.0
 51
90.0
  0
ARC
  5
12B
  8
16
 62
     0
 10
-223.61206351214571
 20
208.98750000000001
 30
0.0
 40
6.991348631557841
210
0.0
220
0.0
230
-1.0
 50
90.0
 51
270.0
  0
ARC
  5
12C
  8
16
 62
     0
 10
-223.61206351214571
 20
208.98750000000001
 30
0.0
 40
6.991348631557841
210
0.0
220
0.0
230
-1.0
 50
-90.0
 51
90.0
  0
ARC
  5
12D
  8
16
 62
     0
 10
223.61206351214571
 20
208.98750000000001
 30
0.0
 40
6.5000000000000053
 50
-90.0
 51
90.0
  0
ARC
  5
12E
  8
16
 62
     0
 10
-223.61206351214571
 20
66.487499999999969
 30
0.0
 40
6.991348631557841
210
0.0
220
0.0
230
-1.0
 50
90.0
 51
270.0
  0
ARC
  5
12F
  8
16
 62
     0
 10
-223.61206351214571
 20
66.487499999999969
 30
0.0
 40
6.991348631557841
210
0.0
220
0.0
230
-1.0
 50
-90.0
 51
90.0
  0
ARC
  5
130
  8
16
 62
     0
 10
223.61206351214571
 20
66.48749999999994
 30
0.0
 40
6.5000000000000053
 50
90.0
 51
270.0
  0
ARC
  5
131
  8
16
 62
     0
 10
-366.11206351214571
 20
66.48749999999994
 30
0.0
 40
6.325449350717828
210
0.0
220
0.0
230
-1.0
 50
-90.0
 51
90.0
  0
ARC
  5
132
  8
16
 62
     0
 10
-223.61206351214571
 20
208.98750000000001
 30
0.0
 40
6.325449350717828
210
0.0
220
0.0
230
-1.0
 50
90.0
 51
270.0
  0
ARC
  5
133
  8
16
 62
     0
 10
-223.61206351214571
 20
66.48749999999994
 30
0.0
 40
6.325449350717828
210
0.0
220
0.0
230
-1.0
 50
-90.0
 51
90.0
  0
ARC
  5
134
  8
16
 62
     0
 10
-366.11206351214571
 20
66.48749999999994
 30
0.0
 40
6.325449350717828
210
0.0
220
0.0
230
-1.0
 50
90.0
 51
270.0
  0
ARC
  5
135
  8
16
 62
     0
 10
-366.11206351214571
 20
208.98750000000001
 30
0.0
 40
6.325449350717828
210
0.0
220
0.0
230
-1.0
 50
90.0
 51
270.0
  0
ARC
  5
136
  8
16
 62
     0
 10
223.61206351214571
 20
208.98750000000001
 30
0.0
 40
3.149999999999999
 50
-90.0
 51
90.0
  0
ARC
  5
137
  8
16
 62
     0
 10
-223.61206351214571
 20
208.98750000000001
 30
0.0
 40
3.0900422454383092
210
0.0
220
0.0
230
-1.0
 50
90.0
 51
270.0
  0
ARC
  5
138
  8
16
 62
     0
 10
223.61206351214571
 20
66.48749999999994
 30
0.0
 40
5.8341007191599763
 50
90.0
 51
270.0
  0
ARC
  5
139
  8
16
 62
     0
 10
223.61206351214571
 20
66.48749999999994
 30
0.0
 40
5.8341007191599763
 50
-90.0
 51
90.0
  0
ARC
  5
13A
  8
16
 62
     0
 10
-366.11206351214571
 20
66.48749999999994
 30
0.0
 40
3.6413486315578498
210
0.0
220
0.0
230
-1.0
 50
90.0
 51
270.0
  0
ARC
  5
13B
  8
16
 62
     0
 10
-366.11206351214571
 20
66.48749999999994
 30
0.0
 40
3.6413486315578498
210
0.0
220
0.0
230
-1.0
 50
-90.0
 51
90.0
  0
ARC
  5
13C
  8
16
 62
     0
 10
366.11206351214571
 20
66.487499999999969
 30
0.0
 40
3.149999999999999
 50
-90.0
 51
90.0
  0
ARC
  5
13D
  8
16
 62
     0
 10
366.11206351214571
 20
66.487499999999969
 30
0.0
 40
3.149999999999999
 50
90.0
 51
270.0
  0
ARC
  5
13E
  8
16
 62
     0
 10
366.11206351214571
 20
208.98750000000001
 30
0.0
 40
3.149999999999999
 50
-90.0
 51
90.0
  0
ARC
  5
13F
  8
16
 62
     0
 10
-366.11206351214571
 20
208.98750000000001
 30
0.0
 40
3.0900422454383092
210
0.0
220
0.0
230
-1.0
 50
90.0
 51
270.0
  0
ARC
  5
140
  8
16
 62
     0
 10
-223.61206351214571
 20
66.48749999999994
 30
0.0
 40
3.6413486315578498
210
0.0
220
0.0
230
-1.0
 50
90.0
 51
270.0
  0
ARC
  5
141
  8
16
 62
     0
 10
-223.61206351214571
 20
66.48749999999994
 30
0.0
 40
3.6413486315578498
210
0.0
220
0.0
230
-1.0
 50
-90.0
 51
90.0
  0
ARC
  5
142
  8
16
 62
     0
 10
223.61206351214571
 20
66.487499999999969
 30
0.0
 40
3.149999999999999
 50
-90.0
 51
90.0
  0
ARC
  5
143
  8
16
 62
     0
 10
223.61206351214571
 20
66.487499999999969
 30
0.0
 40
3.149999999999999
 50
90.0
 51
270.0
  0
ARC
  5
144
  8
16
 62
     0
 10
366.11206351214571
 20
66.48749999999994
 30
0.0
 40
5.8341007191599763
 50
90.0
 51
270.0
  0
ARC
  5
145
  8
16
 62
     0
 10
366.11206351214571
 20
66.48749999999994
 30
0.0
 40
5.8341007191599763
 50
-90.0
 51
90.0
  0
ARC
  5
146
  8
16
 62
     0
 10
-366.11206351214571
 20
66.487499999999969
 30
0.0
 40
3.0900422454383092
210
0.0
220
0.0
230
-1.0
 50
90.0
 51
270.0
  0
ARC
  5
147
  8
16
 62
     0
 10
-223.61206351214571
 20
208.98750000000001
 30
0.0
 40
3.6413486315578498
210
0.0
220
0.0
230
-1.0
 50
90.0
 51
270.0
  0
ARC
  5
148
  8
16
 62
     0
 10
-223.61206351214571
 20
208.98750000000001
 30
0.0
 40
3.6413486315578498
210
0.0
220
0.0
230
-1.0
 50
-90.0
 51
90.0
  0
ARC
  5
149
  8
16
 62
     0
 10
223.61206351214571
 20
208.98750000000001
 30
0.0
 40
3.149999999999999
 50
90.0
 51
270.0
  0
ARC
  5
14A
  8
16
 62
     0
 10
-223.61206351214571
 20
208.98750000000001
 30
0.0
 40
3.0900422454383092
210
0.0
220
0.0
230
-1.0
 50
-90.0
 51
90.0
  0
ARC
  5
14B
  8
16
 62
     0
 10
-223.61206351214571
 20
66.487499999999969
 30
0.0
 40
3.0900422454383092
210
0.0
220
0.0
230
-1.0
 50
-90.0
 51
90.0
  0
ARC
  5
14C
  8
16
 62
     0
 10
-366.11206351214571
 20
208.98750000000001
 30
0.0
 40
3.6413486315578498
210
0.0
220
0.0
230
-1.0
 50
90.0
 51
270.0
  0
ARC
  5
14D
  8
16
 62
     0
 10
-366.11206351214571
 20
208.98750000000001
 30
0.0
 40
3.6413486315578498
210
0.0
220
0.0
230
-1.0
 50
-90.0
 51
90.0
  0
ARC
  5
14E
  8
16
 62
     0
 10
366.11206351214571
 20
208.98750000000001
 30
0.0
 40
3.149999999999999
 50
90.0
 51
270.0
  0
ARC
  5
14F
  8
16
 62
     0
 10
366.11206351214571
 20
208.98750000000001
 30
0.0
 40
5.8341007191599763
 50
90.0
 51
270.0
  0
ARC
  5
150
  8
16
 62
     0
 10
366.11206351214571
 20
208.98750000000001
 30
0.0
 40
5.8341007191599763
 50
-90.0
 51
90.0
  0
ARC
  5
151
  8
16
 62
     0
 10
-366.11206351214571
 20
208.98750000000001
 30
0.0
 40
3.0900422454383092
210
0.0
220
0.0
230
-1.0
 50
-90.0
 51
90.0
  0
ARC
  5
152
  8
16
 62
     0
 10
-366.11206351214571
 20
66.487499999999969
 30
0.0
 40
3.0900422454383092
210
0.0
220
0.0
230
-1.0
 50
-90.0
 51
90.0
  0
ARC
  5
153
  8
16
 62
     0
 10
223.61206351214571
 20
208.98750000000001
 30
0.0
 40
5.8341007191599763
 50
-90.0
 51
90.0
  0
ARC
  5
154
  8
16
 62
     0
 10
223.61206351214571
 20
208.98750000000001
 30
0.0
 40
5.8341007191599763
 50
90.0
 51
270.0
  0
ARC
  5
155
  8
16
 62
     0
 10
-223.61206351214571
 20
66.487499999999969
 30
0.0
 40
3.0900422454383092
210
0.0
220
0.0
230
-1.0
 50
90.0
 51
270.0
  0
ARC
  5
156
  8
16
 62
     0
 10
-223.61206351214571
 20
66.487499999999969
 30
0.0
 40
2.7500000000000022
210
0.0
220
0.0
230
-1.0
 50
90.0
 51
270.0
  0
ARC
  5
157
  8
16
 62
     0
 10
-366.11206351214571
 20
208.98750000000001
 30
0.0
 40
2.7500000000000022
210
0.0
220
0.0
230
-1.0
 50
90.0
 51
270.0
  0
ARC
  5
158
  8
16
 62
     0
 10
-366.11206351214571
 20
208.98750000000001
 30
0.0
 40
2.7500000000000022
210
0.0
220
0.0
230
-1.0
 50
-90.0
 51
90.0
  0
ARC
  5
159
  8
16
 62
     0
 10
-223.61206351214571
 20
66.487499999999969
 30
0.0
 40
2.7500000000000022
210
0.0
220
0.0
230
-1.0
 50
-90.0
 51
90.0
  0
ARC
  5
15A
  8
16
 62
     0
 10
366.11206351214571
 20
66.487499999999969
 30
0.0
 40
2.7500000000000022
 50
90.0
 51
270.0
  0
ARC
  5
15B
  8
16
 62
     0
 10
223.61206351214571
 20
208.98750000000001
 30
0.0
 40
2.7500000000000022
 50
-90.0
 51
90.0
  0
ARC
  5
15C
  8
16
 62
     0
 10
223.61206351214571
 20
208.98750000000001
 30
0.0
 40
2.7500000000000022
 50
90.0
 51
270.0
  0
ARC
  5
15D
  8
16
 62
     0
 10
366.11206351214571
 20
66.487499999999969
 30
0.0
 40
2.7500000000000022
 50
-90.0
 51
90.0
  0
ARC
  5
15E
  8
16
 62
     0
 10
-141.13919674949381
 20
64.337499999999935
 30
0.0
 40
1.62071896114853
210
0.0
220
0.0
230
-1.0
 50
180.0
 51
270.0
  0
ARC
  5
160
  8
16
 62
     0
 10
12.13919674949376
 20
208.98750000000001
 30
0.0
 40
8.3314191168707943
 50
90.0
 51
180.0
  0
ARC
  5
161
  8
16
 62
     0
 10
12.13919674949376
 20
66.48749999999994
 30
0.0
 40
8.3314191168707943
 50
180.0
 51
270.0
  0
ARC
  5
162
  8
16
 62
     0
 10
154.63919674949381
 20
66.48749999999994
 30
0.0
 40
8.3314191168707943
 50
-90.0
 51
0.0
  0
ARC
  5
163
  8
16
 62
     0
 10
154.63919674949381
 20
208.98750000000001
 30
0.0
 40
8.3314191168707943
 50
0.0
 51
90.0
  0
ARC
  5
164
  8
16
 62
     0
 10
-12.13919674949376
 20
208.98750000000001
 30
0.0
 40
8.8227677484286335
210
0.0
220
0.0
230
-1.0
 50
0.0
 51
90.0
  0
ARC
  5
165
  8
16
 62
     0
 10
-154.63919674949381
 20
208.98750000000001
 30
0.0
 40
8.8227677484286335
210
0.0
220
0.0
230
-1.0
 50
90.0
 51
180.0
  0
ARC
  5
166
  8
16
 62
     0
 10
-154.63919674949381
 20
66.48749999999994
 30
0.0
 40
8.8227677484286335
210
0.0
220
0.0
230
-1.0
 50
180.0
 51
270.0
  0
ARC
  5
167
  8
16
 62
     0
 10
-12.13919674949376
 20
66.48749999999994
 30
0.0
 40
8.8227677484286335
210
0.0
220
0.0
230
-1.0
 50
-90.0
 51
0.0
  0
ARC
  5
168
  8
16
 62
     0
 10
12.13919674949376
 20
66.48749999999994
 30
0.0
 40
9.6314191168707932
 50
180.0
 51
270.0
  0
ARC
  5
169
  8
16
 62
     0
 10
154.63919674949381
 20
208.98750000000001
 30
0.0
 40
9.6314191168707932
 50
0.0
 51
90.0
  0
ARC
  5
16A
  8
16
 62
     0
 10
154.63919674949381
 20
66.48749999999994
 30
0.0
 40
9.6314191168707932
 50
-90.0
 51
0.0
  0
ARC
  5
16B
  8
16
 62
     0
 10
12.13919674949376
 20
208.98750000000001
 30
0.0
 40
9.6314191168707932
 50
90.0
 51
180.0
  0
ARC
  5
16C
  8
16
 62
     0
 10
154.63919674949381
 20
208.98750000000001
 30
0.0
 40
8.3000000000000025
 50
0.0
 51
90.0
  0
ARC
  5
16D
  8
16
 62
     0
 10
12.13919674949376
 20
208.98750000000001
 30
0.0
 40
8.3000000000000025
 50
90.0
 51
180.0
  0
ARC
  5
16E
  8
16
 62
     0
 10
154.63919674949381
 20
66.48749999999994
 30
0.0
 40
8.3000000000000025
 50
270.0
 51
360.0
  0
ARC
  5
16F
  8
16
 62
     0
 10
12.13919674949376
 20
66.48749999999994
 30
0.0
 40
8.3000000000000025
 50
180.0
 51
270.0
  0
ARC
  5
173
  8
16
 62
     0
 10
141.13919674949369
 20
64.337499999999963
 30
0.0
 40
1.9000000000000119
 50
-90.0
 51
0.0
  0
ARC
  5
176
  8
16
 62
     0
 10
153.33919674949379
 20
82.787499999999966
 30
0.0
 40
10.57928103885148
 50
90.0
 51
179.99999999999989
  0
ARC
  5
177
  8
16
 62
     0
 10
-153.33919674949379
 20
82.787499999999966
 30
0.0
 40
10.300000000000001
210
0.0
220
0.0
230
-1.0
 50
0.0
 51
90.0
  0
ARC
  5
17C
  8
16
 62
     0
 10
153.33919674949379
 20
192.68749999999989
 30
0.0
 40
10.57928103885148
 50
180.0
 51
269.99999999999977
  0
ARC
  5
17D
  8
16
 62
     0
 10
-153.33919674949379
 20
192.68749999999989
 30
0.0
 40
10.300000000000001
210
0.0
220
0.0
230
-1.0
 50
-89.999999999999758
 51
0.0
  0
ARC
  5
17E
  8
16
 62
     0
 10
-141.13919674949381
 20
211.1374999999999
 30
0.0
 40
1.62071896114853
210
0.0
220
0.0
230
-1.0
 50
90.0
 51
180.0
  0
ARC
  5
17F
  8
16
 62
     0
 10
141.13919674949381
 20
211.1374999999999
 30
0.0
 40
1.9000000000000119
 50
0.0
 51
90.0
  0
ARC
  5
180
  8
16
 62
     0
 10
-25.639196749493781
 20
211.1374999999999
 30
0.0
 40
1.62071896114853
210
0.0
220
0.0
230
-1.0
 50
0.0
 51
90.0
  0
ARC
  5
181
  8
16
 62
     0
 10
25.639196749493799
 20
211.1374999999999
 30
0.0
 40
1.9000000000000119
 50
90.0
 51
180.0
  0
ARC
  5
182
  8
16
 62
     0
 10
-9.9891967494937859
 20
180.4874999999999
 30
0.0
 40
1.6207189611485231
210
0.0
220
0.0
230
-1.0
 50
-0.0000000000002544
 51
90.0
  0
ARC
  5
183
  8
16
 62
     0
 10
9.9891967494937859
 20
180.4874999999999
 30
0.0
 40
1.900000000000005
 50
90.0
 51
180.0
  0
ARC
  5
184
  8
16
 62
     0
 10
-9.9891967494938001
 20
94.987499999999955
 30
0.0
 40
1.7776622290587221
210
0.0
220
0.0
230
-1.0
 50
-90.0
 51
0.0
  0
ARC
  5
185
  8
16
 62
     0
 10
9.9891967494938001
 20
94.987499999999955
 30
0.0
 40
1.900000000000005
 50
180.0
 51
269.9999999999996
  0
ARC
  5
196
  8
16
 62
     0
 10
12.13919674949376
 20
66.48749999999994
 30
0.0
 40
4.0000000000000027
 50
-90.0
 51
90.0
  0
ARC
  5
198
  8
16
 62
     0
 10
-154.63919674949381
 20
66.48749999999994
 30
0.0
 40
4.0000000000000027
210
0.0
220
0.0
230
-1.0
 50
90.0
 51
270.0
  0
ARC
  5
199
  8
16
 62
     0
 10
154.63919674949381
 20
208.98750000000001
 30
0.0
 40
4.0000000000000027
 50
90.0
 51
270.0
  0
ARC
  5
19A
  8
16
 62
     0
 10
-12.13919674949376
 20
208.98750000000001
 30
0.0
 40
4.0000000000000027
210
0.0
220
0.0
230
-1.0
 50
90.0
 51
270.0
  0
ARC
  5
19B
  8
16
 62
     0
 10
154.63919674949381
 20
208.98750000000001
 30
0.0
 40
4.0000000000000027
 50
-90.0
 51
90.0
  0
ARC
  5
19C
  8
16
 62
     0
 10
12.13919674949376
 20
66.48749999999994
 30
0.0
 40
4.0000000000000027
 50
90.0
 51
270.0
  0
ARC
  5
19D
  8
16
 62
     0
 10
-12.13919674949376
 20
208.98750000000001
 30
0.0
 40
4.0000000000000027
210
0.0
220
0.0
230
-1.0
 50
-90.0
 51
90.0
  0
ARC
  5
19E
  8
16
 62
     0
 10
-154.63919674949381
 20
66.48749999999994
 30
0.0
 40
4.0000000000000027
210
0.0
220
0.0
230
-1.0
 50
-90.0
 51
90.0
  0
ARC
  5
19F
  8
16
 62
     0
 10
-156.78919674949381
 20
94.987499999999955
 30
0.0
 40
1.6207189611485231
210
0.0
220
0.0
230
-1.0
 50
180.0
 51
270.0
  0
ARC
  5
1A0
  8
16
 62
     0
 10
156.78919674949381
 20
94.987499999999955
 30
0.0
 40
1.900000000000005
 50
-89.999999999999588
 51
0.0
  0
ARC
  5
1A1
  8
16
 62
     0
 10
13.439196749493769
 20
192.68749999999989
 30
0.0
 40
10.57928103885147
 50
-89.999999999999758
 51
0.0
  0
ARC
  5
1A2
  8
16
 62
     0
 10
-13.439196749493769
 20
192.68749999999989
 30
0.0
 40
10.29999999999999
210
0.0
220
0.0
230
-1.0
 50
180.00000000000011
 51
269.99999999999977
  0
ARC
  5
1A3
  8
16
 62
     0
 10
-156.78919674949381
 20
180.4874999999999
 30
0.0
 40
1.6207189611485231
210
0.0
220
0.0
230
-1.0
 50
90.0
 51
180.0
  0
ARC
  5
1A4
  8
16
 62
     0
 10
156.78919674949381
 20
180.4874999999999
 30
0.0
 40
1.900000000000005
 50
0.0
 51
90.0
  0
ARC
  5
1A5
  8
16
 62
     0
 10
-25.639196749493809
 20
64.337499999999935
 30
0.0
 40
1.62071896114853
210
0.0
220
0.0
230
-1.0
 50
-90.0
 51
0.0
  0
ARC
  5
1A6
  8
16
 62
     0
 10
25.63919674949382
 20
64.337499999999963
 30
0.0
 40
1.9000000000000119
 50
180.0
 51
270.0
  0
ARC
  5
1A8
  8
16
 62
     0
 10
-13.439196749493791
 20
82.787499999999966
 30
0.0
 40
10.300000000000001
210
0.0
220
0.0
230
-1.0
 50
90.0
 51
179.99999999999989
  0
ARC
  5
1A9
  8
16
 62
     0
 10
13.439196749493791
 20
82.787499999999966
 30
0.0
 40
10.422337770941271
 50
52.823637359938537
 51
90.0
  0
ARC
  5
1AA
  8
16
 62
     0
 10
13.439196749493791
 20
82.787499999999966
 30
0.0
 40
10.57928103885148
 50
0.0000000000000509
 51
46.688291913667179
  0
ARC
  5
1AB
  8
16
 62
     0
 10
12.13919674949379
 20
208.98750000000001
 30
0.0
 40
2.7500000000000022
 50
-90.0
 51
90.0
  0
ARC
  5
1AC
  8
16
 62
     0
 10
12.13919674949379
 20
208.98750000000001
 30
0.0
 40
2.7500000000000022
 50
90.0
 51
270.0
  0
ARC
  5
1AD
  8
16
 62
     0
 10
-154.63919674949381
 20
208.98750000000001
 30
0.0
 40
2.7500000000000022
210
0.0
220
0.0
230
-1.0
 50
-90.0
 51
90.0
  0
ARC
  5
1AE
  8
16
 62
     0
 10
-154.63919674949381
 20
208.98750000000001
 30
0.0
 40
2.7500000000000022
210
0.0
220
0.0
230
-1.0
 50
90.0
 51
270.0
  0
ARC
  5
1AF
  8
16
 62
     0
 10
-12.13919674949379
 20
66.487499999999969
 30
0.0
 40
2.7500000000000022
210
0.0
220
0.0
230
-1.0
 50
-90.0
 51
90.0
  0
ARC
  5
1B0
  8
16
 62
     0
 10
-12.13919674949379
 20
66.487499999999969
 30
0.0
 40
2.7500000000000022
210
0.0
220
0.0
230
-1.0
 50
90.0
 51
270.0
  0
ARC
  5
1B1
  8
16
 62
     0
 10
154.63919674949381
 20
66.487499999999969
 30
0.0
 40
2.7500000000000022
 50
90.0
 51
270.0
  0
ARC
  5
1B2
  8
16
 62
     0
 10
154.63919674949381
 20
66.487499999999969
 30
0.0
 40
2.7500000000000022
 50
-90.0
 51
90.0
  0
ARC
  5
1B3
  8
16
 62
     0
 10
-13.439196749493791
 20
82.787499999999966
 30
0.0
 40
10.922261618519469
210
0.0
220
0.0
230
-1.0
 50
90.0
 51
127.1763626400615
  0
ARC
  5
1B4
  8
16
 62
     0
 10
9.9891967494938001
 20
94.987499999999955
 30
0.0
 40
1.277738381480521
 50
180.0
 51
270.0
  0
ARC
  5
1B5
  8
16
 62
     0
 10
15.53919674949379
 20
101.8874999999999
 30
0.0
 40
2.649999999999999
 50
90.0
 51
270.0
  0
ARC
  5
1B6
  8
16
 62
     0
 10
15.53919674949379
 20
101.8874999999999
 30
0.0
 40
2.649999999999999
 50
-90.0
 51
90.0
  0
ARC
  5
1B7
  8
16
 62
     0
 10
15.53919674949379
 20
101.8874999999999
 30
0.0
 40
4.5000000000000027
 50
0.0
 51
90.0
  0
ARC
  5
1B8
  8
16
 62
     0
 10
-15.53919674949379
 20
101.8874999999999
 30
0.0
 40
5.0000000000000044
210
0.0
220
0.0
230
-1.0
 50
90.0
 51
180.0
  0
ARC
  5
1B9
  8
16
 62
     0
 10
-15.53919674949379
 20
101.8874999999999
 30
0.0
 40
2.3412731322092482
210
0.0
220
0.0
230
-1.0
 50
90.0
 51
270.0
  0
ARC
  5
1BA
  8
16
 62
     0
 10
-15.53919674949379
 20
101.8874999999999
 30
0.0
 40
2.2626551667708492
210
0.0
220
0.0
230
-1.0
 50
90.0
 51
270.0
  0
ARC
  5
1BB
  8
16
 62
     0
 10
-15.53919674949379
 20
101.8874999999999
 30
0.0
 40
2.3412731322092482
210
0.0
220
0.0
230
-1.0
 50
-90.0
 51
90.0
  0
ARC
  5
1BC
  8
16
 62
     0
 10
-15.53919674949379
 20
101.8874999999999
 30
0.0
 40
2.2626551667708492
210
0.0
220
0.0
230
-1.0
 50
-90.0
 51
90.0
  0
ARC
  5
1C5
  8
16
 62
     0
 10
27.339196749493802
 20
104.6875
 30
0.0
 40
0.1999999999999988
 50
90.0
 51
180.00000000000199
  0
ARC
  5
1C6
  8
16
 62
     0
 10
27.339196749493802
 20
104.6875
 30
0.0
 40
0.1999999999999988
 50
-0.0000000000019847
 51
90.0
  0
ARC
  5
1C7
  8
16
 62
     0
 10
27.339196749493802
 20
99.087499999999963
 30
0.0
 40
0.2000000000000057
 50
-180.0
 51
0.0
  0
ARC
  5
1C8
  8
16
 62
     0
 10
24.739196749493789
 20
101.8874999999999
 30
0.0
 40
0.1999999999999988
 50
90.0
 51
270.0
  0
ARC
  5
1C9
  8
16
 62
     0
 10
28.639196749493799
 20
99.88749999999996
 30
0.0
 40
0.1999999999999988
 50
-180.0
 51
0.0
  0
ARC
  5
1CA
  8
16
 62
     0
 10
28.639196749493799
 20
103.8874999999999
 30
0.0
 40
0.1999999999999988
 50
90.0
 51
180.00000000000389
  0
ARC
  5
1CB
  8
16
 62
     0
 10
28.639196749493799
 20
103.8874999999999
 30
0.0
 40
0.1999999999999988
 50
-0.0000000000039693
 51
90.0
  0
ARC
  5
1CC
  8
16
 62
     0
 10
27.539196749493811
 20
101.8874999999999
 30
0.0
 40
3.8999999999999999
 50
90.0
 51
270.0
  0
ARC
  5
1CD
  8
16
 62
     0
 10
27.539196749493811
 20
101.8874999999999
 30
0.0
 40
3.8999999999999999
 50
270.0
 51
450.0
  0
ARC
  5
1CE
  8
16
 62
     0
 10
27.539196749493801
 20
101.8874999999999
 30
0.0
 40
3.5000000000000031
 50
-90.0
 51
90.0
  0
ARC
  5
1CF
  8
16
 62
     0
 10
27.539196749493801
 20
101.8874999999999
 30
0.0
 40
3.5000000000000031
 50
90.0
 51
270.0
  0
ARC
  5
1D0
  8
16
 62
     0
 10
29.939196749493799
 20
103.1874999999999
 30
0.0
 40
0.1999999999999988
 50
0.0
 51
90.0
  0
ARC
  5
1D1
  8
16
 62
     0
 10
29.939196749493799
 20
100.58749999999991
 30
0.0
 40
0.1999999999999988
 50
-180.0
 51
0.0
  0
ARC
  5
1D2
  8
16
 62
     0
 10
29.939196749493799
 20
103.1874999999999
 30
0.0
 40
0.1999999999999988
 50
90.0
 51
180.0
  0
ARC
  5
1DF
  8
16
 62
     0
 10
15.53919674949379
 20
101.8874999999999
 30
0.0
 40
1.262693243706682
 50
90.0
 51
270.0
  0
ARC
  5
1E0
  8
16
 62
     0
 10
15.53919674949379
 20
101.8874999999999
 30
0.0
 40
1.262693243706682
 50
-90.0
 51
90.0
  0
POLYLINE
  5
1E1
  8
16
 62
     0
 10
8.2289895853632231
 20
107.3874999999999
 30
0.0
 66
     1
 70
     8
  0
VERTEX
  8
16
  5
23A
 10
8.22899
 20
107.387
 30
0.000000
  70
    32
  0
VERTEX
  8
16
  5
23B
 10
8.22903
 20
107.381
 30
0.000000
  70
    32
  0
VERTEX
  8
16
  5
23C
 10
8.22914
 20
107.375
 30
0.000000
  70
    32
  0
VERTEX
  8
16
  5
23D
 10
8.22933
 20
107.369
 30
0.000000
  70
    32
  0
VERTEX
  8
16
  5
23E
 10
8.22959
 20
107.363
 30
0.000000
  70
    32
  0
VERTEX
  8
16
  5
23F
 10
8.22993
 20
107.357
 30
0.000000
  70
    32
  0
VERTEX
  8
16
  5
240
 10
8.23034
 20
107.351
 30
0.000000
  70
    32
  0
VERTEX
  8
16
  5
241
 10
8.23083
 20
107.345
 30
0.000000
  70
    32
  0
VERTEX
  8
16
  5
242
 10
8.23140
 20
107.338
 30
0.000000
  70
    32
  0
VERTEX
  8
16
  5
243
 10
8.23204
 20
107.332
 30
0.000000
  70
    32
  0
VERTEX
  8
16
  5
244
 10
8.23275
 20
107.326
 30
0.000000
  70
    32
  0
VERTEX
  8
16
  5
245
 10
8.23354
 20
107.320
 30
0.000000
  70
    32
  0
VERTEX
  8
16
  5
246
 10
8.23440
 20
107.314
 30
0.000000
  70
    32
  0
VERTEX
  8
16
  5
247
 10
8.23534
 20
107.308
 30
0.000000
  70
    32
  0
VERTEX
  8
16
  5
248
 10
8.23635
 20
107.302
 30
0.000000
  70
    32
  0
VERTEX
  8
16
  5
249
 10
8.23744
 20
107.296
 30
0.000000
  70
    32
  0
VERTEX
  8
16
  5
24A
 10
8.23860
 20
107.290
 30
0.000000
  70
    32
  0
VERTEX
  8
16
  5
24B
 10
8.23983
 20
107.284
 30
0.000000
  70
    32
  0
VERTEX
  8
16
  5
24C
 10
8.24114
 20
107.278
 30
0.000000
  70
    32
  0
VERTEX
  8
16
  5
24D
 10
8.24252
 20
107.272
 30
0.000000
  70
    32
  0
VERTEX
  8
16
  5
24E
 10
8.24397
 20
107.266
 30
0.000000
  70
    32
  0
VERTEX
  8
16
  5
24F
 10
8.24550
 20
107.260
 30
0.000000
  70
    32
  0
VERTEX
  8
16
  5
250
 10
8.24710
 20
107.254
 30
0.000000
  70
    32
  0
VERTEX
  8
16
  5
251
 10
8.24877
 20
107.248
 30
0.000000
  70
    32
  0
VERTEX
  8
16
  5
252
 10
8.25052
 20
107.242
 30
0.000000
  70
    32
  0
VERTEX
  8
16
  5
253
 10
8.25233
 20
107.236
 30
0.000000
  70
    32
  0
VERTEX
  8
16
  5
254
 10
8.25422
 20
107.231
 30
0.000000
  70
    32
  0
VERTEX
  8
16
  5
255
 10
8.25618
 20
107.225
 30
0.000000
  70
    32
  0
VERTEX
  8
16
  5
256
 10
8.25821
 20
107.219
 30
0.000000
  70
    32
  0
VERTEX
  8
16
  5
257
 10
8.26032
 20
107.213
 30
0.000000
  70
    32
  0
VERTEX
  8
16
  5
258
 10
8.26249
 20
107.208
 30
0.000000
  70
    32
  0
VERTEX
  8
16
  5
259
 10
8.26473
 20
107.202
 30
0.000000
  70
    32
  0
VERTEX
  8
16
  5
25A
 10
8.26704
 20
107.196
 30
0.000000
  70
    32
  0
VERTEX
  8
16
  5
25B
 10
8.26943
 20
107.191
 30
0.000000
  70
    32
  0
VERTEX
  8
16
  5
25C
 10
8.27188
 20
107.185
 30
0.000000
  70
    32
  0
VERTEX
  8
16
  5
25D
 10
8.27440
 20
107.179
 30
0.000000
  70
    32
  0
VERTEX
  8
16
  5
25E
 10
8.27699
 20
107.174
 30
0.000000
  70
    32
  0
VERTEX
  8
16
  5
25F
 10
8.27964
 20
107.168
 30
0.000000
  70
    32
  0
VERTEX
  8
16
  5
260
 10
8.28237
 20
107.163
 30
0.000000
  70
    32
  0
VERTEX
  8
16
  5
261
 10
8.28516
 20
107.157
 30
0.000000
  70
    32
  0
VERTEX
  8
16
  5
262
 10
8.28802
 20
107.152
 30
0.000000
  70
    32
  0
VERTEX
  8
16
  5
263
 10
8.29095
 20
107.146
 30
0.000000
  70
    32
  0
VERTEX
  8
16
  5
264
 10
8.29394
 20
107.141
 30
0.000000
  70
    32
  0
VERTEX
  8
16
  5
265
 10
8.29699
 20
107.136
 30
0.000000
  70
    32
  0
VERTEX
  8
16
  5
266
 10
8.30011
 20
107.130
 30
0.000000
  70
    32
  0
VERTEX
  8
16
  5
267
 10
8.30330
 20
107.125
 30
0.000000
  70
    32
  0
VERTEX
  8
16
  5
268
 10
8.30655
 20
107.120
 30
0.000000
  70
    32
  0
VERTEX
  8
16
  5
269
 10
8.30986
 20
107.115
 30
0.000000
  70
    32
  0
VERTEX
  8
16
  5
26A
 10
8.31324
 20
107.110
 30
0.000000
  70
    32
  0
VERTEX
  8
16
  5
26B
 10
8.31668
 20
107.105
 30
0.000000
  70
    32
  0
VERTEX
  8
16
  5
26C
 10
8.32018
 20
107.100
 30
0.000000
  70
    32
  0
VERTEX
  8
16
  5
26D
 10
8.32375
 20
107.095
 30
0.000000
  70
    32
  0
VERTEX
  8
16
  5
26E
 10
8.32737
 20
107.090
 30
0.000000
  70
    32
  0
VERTEX
  8
16
  5
26F
 10
8.33106
 20
107.085
 30
0.000000
  70
    32
  0
VERTEX
  8
16
  5
270
 10
8.33480
 20
107.080
 30
0.000000
  70
    32
  0
VERTEX
  8
16
  5
271
 10
8.33860
 20
107.075
 30
0.000000
  70
    32
  0
VERTEX
  8
16
  5
272
 10
8.34247
 20
107.070
 30
0.000000
  70
    32
  0
VERTEX
  8
16
  5
273
 10
8.34639
 20
107.066
 30
0.000000
  70
    32
  0
VERTEX
  8
16
  5
274
 10
8.35037
 20
107.061
 30
0.000000
  70
    32
  0
VERTEX
  8
16
  5
275
 10
8.35440
 20
107.056
 30
0.000000
  70
    32
  0
VERTEX
  8
16
  5
276
 10
8.35849
 20
107.052
 30
0.000000
  70
    32
  0
VERTEX
  8
16
  5
277
 10
8.36264
 20
107.047
 30
0.000000
  70
    32
  0
VERTEX
  8
16
  5
278
 10
8.36685
 20
107.043
 30
0.000000
  70
    32
  0
VERTEX
  8
16
  5
279
 10
8.37110
 20
107.038
 30
0.000000
  70
    32
  0
VERTEX
  8
16
  5
27A
 10
8.37541
 20
107.034
 30
0.000000
  70
    32
  0
VERTEX
  8
16
  5
27B
 10
8.37978
 20
107.030
 30
0.000000
  70
    32
  0
VERTEX
  8
16
  5
27C
 10
8.38420
 20
107.025
 30
0.000000
  70
    32
  0
VERTEX
  8
16
  5
27D
 10
8.38866
 20
107.021
 30
0.000000
  70
    32
  0
VERTEX
  8
16
  5
27E
 10
8.39319
 20
107.017
 30
0.000000
  70
    32
  0
VERTEX
  8
16
  5
27F
 10
8.39776
 20
107.013
 30
0.000000
  70
    32
  0
VERTEX
  8
16
  5
280
 10
8.40238
 20
107.009
 30
0.000000
  70
    32
  0
VERTEX
  8
16
  5
281
 10
8.40705
 20
107.005
 30
0.000000
  70
    32
  0
VERTEX
  8
16
  5
282
 10
8.41177
 20
107.001
 30
0.000000
  70
    32
  0
VERTEX
  8
16
  5
283
 10
8.41653
 20
106.997
 30
0.000000
  70
    32
  0
VERTEX
  8
16
  5
284
 10
8.42134
 20
106.993
 30
0.000000
  70
    32
  0
VERTEX
  8
16
  5
285
 10
8.42620
 20
106.990
 30
0.000000
  70
    32
  0
VERTEX
  8
16
  5
286
 10
8.43111
 20
106.986
 30
0.000000
  70
    32
  0
VERTEX
  8
16
  5
287
 10
8.43606
 20
106.982
 30
0.000000
  70
    32
  0
VERTEX
  8
16
  5
288
 10
8.44105
 20
106.979
 30
0.000000
  70
    32
  0
VERTEX
  8
16
  5
289
 10
8.44609
 20
106.975
 30
0.000000
  70
    32
  0
VERTEX
  8
16
  5
28A
 10
8.45117
 20
106.972
 30
0.000000
  70
    32
  0
VERTEX
  8
16
  5
28B
 10
8.45629
 20
106.968
 30
0.000000
  70
    32
  0
VERTEX
  8
16
  5
28C
 10
8.46146
 20
106.965
 30
0.000000
  70
    32
  0
VERTEX
  8
16
  5
28D
 10
8.46666
 20
106.962
 30
0.000000
  70
    32
  0
VERTEX
  8
16
  5
28E
 10
8.47190
 20
106.959
 30
0.000000
  70
    32
  0
VERTEX
  8
16
  5
28F
 10
8.47718
 20
106.956
 30
0.000000
  70
    32
  0
VERTEX
  8
16
  5
290
 10
8.48250
 20
106.952
 30
0.000000
  70
    32
  0
VERTEX
  8
16
  5
291
 10
8.48786
 20
106.949
 30
0.000000
  70
    32
  0
VERTEX
  8
16
  5
292
 10
8.49325
 20
106.947
 30
0.000000
  70
    32
  0
VERTEX
  8
16
  5
293
 10
8.49868
 20
106.944
 30
0.000000
  70
    32
  0
VERTEX
  8
16
  5
294
 10
8.50414
 20
106.941
 30
0.000000
  70
    32
  0
VERTEX
  8
16
  5
295
 10
8.50964
 20
106.938
 30
0.000000
  70
    32
  0
VERTEX
  8
16
  5
296
 10
8.51517
 20
106.936
 30
0.000000
  70
    32
  0
VERTEX
  8
16
  5
297
 10
8.52073
 20
106.933
 30
0.000000
  70
    32
  0
VERTEX
  8
16
  5
298
 10
8.52632
 20
106.930
 30
0.000000
  70
    32
  0
VERTEX
  8
16
  5
299
 10
8.53195
 20
106.928
 30
0.000000
  70
    32
  0
VERTEX
  8
16
  5
29A
 10
8.53760
 20
106.926
 30
0.000000
  70
    32
  0
VERTEX
  8
16
  5
29B
 10
8.54328
 20
106.923
 30
0.000000
  70
    32
  0
VERTEX
  8
16
  5
29C
 10
8.54899
 20
106.921
 30
0.000000
  70
    32
  0
VERTEX
  8
16
  5
29D
 10
8.55473
 20
106.919
 30
0.000000
  70
    32
  0
VERTEX
  8
16
  5
29E
 10
8.56049
 20
106.917
 30
0.000000
  70
    32
  0
VERTEX
  8
16
  5
29F
 10
8.56628
 20
106.915
 30
0.000000
  70
    32
  0
VERTEX
  8
16
  5
2A0
 10
8.57210
 20
106.913
 30
0.000000
  70
    32
  0
VERTEX
  8
16
  5
2A1
 10
8.57793
 20
106.911
 30
0.000000
  70
    32
  0
VERTEX
  8
16
  5
2A2
 10
8.58379
 20
106.909
 30
0.000000
  70
    32
  0
VERTEX
  8
16
  5
2A3
 10
8.58967
 20
106.907
 30
0.000000
  70
    32
  0
VERTEX
  8
16
  5
2A4
 10
8.59558
 20
106.906
 30
0.000000
  70
    32
  0
VERTEX
  8
16
  5
2A5
 10
8.60150
 20
106.904
 30
0.000000
  70
    32
  0
VERTEX
  8
16
  5
2A6
 10
8.60744
 20
106.902
 30
0.000000
  70
    32
  0
VERTEX
  8
16
  5
2A7
 10
8.61340
 20
106.901
 30
0.000000
  70
    32
  0
VERTEX
  8
16
  5
2A8
 10
8.61938
 20
106.900
 30
0.000000
  70
    32
  0
VERTEX
  8
16
  5
2A9
 10
8.62537
 20
106.898
 30
0.000000
  70
    32
  0
VERTEX
  8
16
  5
2AA
 10
8.63138
 20
106.897
 30
0.000000
  70
    32
  0
VERTEX
  8
16
  5
2AB
 10
8.63741
 20
106.896
 30
0.000000
  70
    32
  0
VERTEX
  8
16
  5
2AC
 10
8.64345
 20
106.895
 30
0.000000
  70
    32
  0
VERTEX
  8
16
  5
2AD
 10
8.64950
 20
106.894
 30
0.000000
  70
    32
  0
VERTEX
  8
16
  5
2AE
 10
8.65556
 20
106.893
 30
0.000000
  70
    32
  0
VERTEX
  8
16
  5
2AF
 10
8.66163
 20
106.892
 30
0.000000
  70
    32
  0
VERTEX
  8
16
  5
2B0
 10
8.66772
 20
106.891
 30
0.000000
  70
    32
  0
VERTEX
  8
16
  5
2B1
 10
8.67381
 20
106.891
 30
0.000000
  70
    32
  0
VERTEX
  8
16
  5
2B2
 10
8.67991
 20
106.890
 30
0.000000
  70
    32
  0
VERTEX
  8
16
  5
2B3
 10
8.68602
 20
106.889
 30
0.000000
  70
    32
  0
VERTEX
  8
16
  5
2B4
 10
8.69214
 20
106.889
 30
0.000000
  70
    32
  0
VERTEX
  8
16
  5
2B5
 10
8.69826
 20
106.888
 30
0.000000
  70
    32
  0
VERTEX
  8
16
  5
2B6
 10
8.70438
 20
106.888
 30
0.000000
  70
    32
  0
VERTEX
  8
16
  5
2B7
 10
8.71051
 20
106.888
 30
0.000000
  70
    32
  0
VERTEX
  8
16
  5
2B8
 10
8.71664
 20
106.888
 30
0.000000
  70
    32
  0
VERTEX
  8
16
  5
2B9
 10
8.72278
 20
106.888
 30
0.000000
  70
    32
  0
VERTEX
  8
16
  5
2BA
 10
8.72891
 20
106.887
 30
0.000000
  70
    32
  0
SEQEND
  8
16
  5
2BB
  0
POLYLINE
  5
1E2
  8
16
 62
     0
 10
20.696252596163223
 20
90.48534841526002
 30
0.0
 66
     1
 70
     8
  0
VERTEX
  8
16
  5
2BC
 10
20.6963
 20
90.4853
 30
0.000000
  70
    32
  0
VERTEX
  8
16
  5
2BD
 10
20.6939
 20
90.4875
 30
0.000000
  70
    32
  0
VERTEX
  8
16
  5
2BE
 10
20.6916
 20
90.4897
 30
0.000000
  70
    32
  0
VERTEX
  8
16
  5
2BF
 10
20.6894
 20
90.4920
 30
0.000000
  70
    32
  0
VERTEX
  8
16
  5
2C0
 10
20.6871
 20
90.4942
 30
0.000000
  70
    32
  0
VERTEX
  8
16
  5
2C1
 10
20.6848
 20
90.4964
 30
0.000000
  70
    32
  0
VERTEX
  8
16
  5
2C2
 10
20.6826
 20
90.4987
 30
0.000000
  70
    32
  0
VERTEX
  8
16
  5
2C3
 10
20.6804
 20
90.5010
 30
0.000000
  70
    32
  0
VERTEX
  8
16
  5
2C4
 10
20.6782
 20
90.5033
 30
0.000000
  70
    32
  0
VERTEX
  8
16
  5
2C5
 10
20.6760
 20
90.5056
 30
0.000000
  70
    32
  0
VERTEX
  8
16
  5
2C6
 10
20.6738
 20
90.5079
 30
0.000000
  70
    32
  0
VERTEX
  8
16
  5
2C7
 10
20.6716
 20
90.5102
 30
0.000000
  70
    32
  0
VERTEX
  8
16
  5
2C8
 10
20.6695
 20
90.5126
 30
0.000000
  70
    32
  0
VERTEX
  8
16
  5
2C9
 10
20.6674
 20
90.5150
 30
0.000000
  70
    32
  0
VERTEX
  8
16
  5
2CA
 10
20.6652
 20
90.5173
 30
0.000000
  70
    32
  0
VERTEX
  8
16
  5
2CB
 10
20.6631
 20
90.5197
 30
0.000000
  70
    32
  0
VERTEX
  8
16
  5
2CC
 10
20.6610
 20
90.5221
 30
0.000000
  70
    32
  0
VERTEX
  8
16
  5
2CD
 10
20.6590
 20
90.5245
 30
0.000000
  70
    32
  0
VERTEX
  8
16
  5
2CE
 10
20.6569
 20
90.5270
 30
0.000000
  70
    32
  0
VERTEX
  8
16
  5
2CF
 10
20.6549
 20
90.5294
 30
0.000000
  70
    32
  0
VERTEX
  8
16
  5
2D0
 10
20.6528
 20
90.5319
 30
0.000000
  70
    32
  0
VERTEX
  8
16
  5
2D1
 10
20.6508
 20
90.5343
 30
0.000000
  70
    32
  0
VERTEX
  8
16
  5
2D2
 10
20.6488
 20
90.5368
 30
0.000000
  70
    32
  0
VERTEX
  8
16
  5
2D3
 10
20.6469
 20
90.5393
 30
0.000000
  70
    32
  0
VERTEX
  8
16
  5
2D4
 10
20.6449
 20
90.5418
 30
0.000000
  70
    32
  0
VERTEX
  8
16
  5
2D5
 10
20.6429
 20
90.5443
 30
0.000000
  70
    32
  0
VERTEX
  8
16
  5
2D6
 10
20.6410
 20
90.5469
 30
0.000000
  70
    32
  0
VERTEX
  8
16
  5
2D7
 10
20.6391
 20
90.5494
 30
0.000000
  70
    32
  0
VERTEX
  8
16
  5
2D8
 10
20.6372
 20
90.5519
 30
0.000000
  70
    32
  0
VERTEX
  8
16
  5
2D9
 10
20.6353
 20
90.5545
 30
0.000000
  70
    32
  0
VERTEX
  8
16
  5
2DA
 10
20.6334
 20
90.5571
 30
0.000000
  70
    32
  0
VERTEX
  8
16
  5
2DB
 10
20.6316
 20
90.5597
 30
0.000000
  70
    32
  0
VERTEX
  8
16
  5
2DC
 10
20.6298
 20
90.5623
 30
0.000000
  70
    32
  0
VERTEX
  8
16
  5
2DD
 10
20.6279
 20
90.5649
 30
0.000000
  70
    32
  0
VERTEX
  8
16
  5
2DE
 10
20.6261
 20
90.5675
 30
0.000000
  70
    32
  0
VERTEX
  8
16
  5
2DF
 10
20.6244
 20
90.5702
 30
0.000000
  70
    32
  0
VERTEX
  8
16
  5
2E0
 10
20.6226
 20
90.5728
 30
0.000000
  70
    32
  0
VERTEX
  8
16
  5
2E1
 10
20.6208
 20
90.5755
 30
0.000000
  70
    32
  0
VERTEX
  8
16
  5
2E2
 10
20.6191
 20
90.5781
 30
0.000000
  70
    32
  0
VERTEX
  8
16
  5
2E3
 10
20.6174
 20
90.5808
 30
0.000000
  70
    32
  0
VERTEX
  8
16
  5
2E4
 10
20.6157
 20
90.5835
 30
0.000000
  70
    32
  0
VERTEX
  8
16
  5
2E5
 10
20.6140
 20
90.5862
 30
0.000000
  70
    32
  0
VERTEX
  8
16
  5
2E6
 10
20.6124
 20
90.5889
 30
0.000000
  70
    32
  0
VERTEX
  8
16
  5
2E7
 10
20.6107
 20
90.5917
 30
0.000000
  70
    32
  0
VERTEX
  8
16
  5
2E8
 10
20.6091
 20
90.5944
 30
0.000000
  70
    32
  0
VERTEX
  8
16
  5
2E9
 10
20.6075
 20
90.5971
 30
0.000000
  70
    32
  0
VERTEX
  8
16
  5
2EA
 10
20.6059
 20
90.5999
 30
0.000000
  70
    32
  0
VERTEX
  8
16
  5
2EB
 10
20.6043
 20
90.6027
 30
0.000000
  70
    32
  0
VERTEX
  8
16
  5
2EC
 10
20.6027
 20
90.6054
 30
0.000000
  70
    32
  0
VERTEX
  8
16
  5
2ED
 10
20.6012
 20
90.6082
 30
0.000000
  70
    32
  0
VERTEX
  8
16
  5
2EE
 10
20.5997
 20
90.6110
 30
0.000000
  70
    32
  0
VERTEX
  8
16
  5
2EF
 10
20.5982
 20
90.6138
 30
0.000000
  70
    32
  0
VERTEX
  8
16
  5
2F0
 10
20.5967
 20
90.6166
 30
0.000000
  70
    32
  0
VERTEX
  8
16
  5
2F1
 10
20.5952
 20
90.6195
 30
0.000000
  70
    32
  0
VERTEX
  8
16
  5
2F2
 10
20.5938
 20
90.6223
 30
0.000000
  70
    32
  0
VERTEX
  8
16
  5
2F3
 10
20.5923
 20
90.6251
 30
0.000000
  70
    32
  0
VERTEX
  8
16
  5
2F4
 10
20.5909
 20
90.6280
 30
0.000000
  70
    32
  0
VERTEX
  8
16
  5
2F5
 10
20.5895
 20
90.6309
 30
0.000000
  70
    32
  0
VERTEX
  8
16
  5
2F6
 10
20.5881
 20
90.6337
 30
0.000000
  70
    32
  0
VERTEX
  8
16
  5
2F7
 10
20.5868
 20
90.6366
 30
0.000000
  70
    32
  0
VERTEX
  8
16
  5
2F8
 10
20.5854
 20
90.6395
 30
0.000000
  70
    32
  0
VERTEX
  8
16
  5
2F9
 10
20.5841
 20
90.6424
 30
0.000000
  70
    32
  0
VERTEX
  8
16
  5
2FA
 10
20.5828
 20
90.6453
 30
0.000000
  70
    32
  0
VERTEX
  8
16
  5
2FB
 10
20.5815
 20
90.6482
 30
0.000000
  70
    32
  0
VERTEX
  8
16
  5
2FC
 10
20.5803
 20
90.6511
 30
0.000000
  70
    32
  0
VERTEX
  8
16
  5
2FD
 10
20.5790
 20
90.6540
 30
0.000000
  70
    32
  0
VERTEX
  8
16
  5
2FE
 10
20.5778
 20
90.6570
 30
0.000000
  70
    32
  0
VERTEX
  8
16
  5
2FF
 10
20.5766
 20
90.6599
 30
0.000000
  70
    32
  0
VERTEX
  8
16
  5
300
 10
20.5754
 20
90.6629
 30
0.000000
  70
    32
  0
VERTEX
  8
16
  5
301
 10
20.5742
 20
90.6658
 30
0.000000
  70
    32
  0
VERTEX
  8
16
  5
302
 10
20.5730
 20
90.6688
 30
0.000000
  70
    32
  0
VERTEX
  8
16
  5
303
 10
20.5719
 20
90.6718
 30
0.000000
  70
    32
  0
VERTEX
  8
16
  5
304
 10
20.5708
 20
90.6748
 30
0.000000
  70
    32
  0
VERTEX
  8
16
  5
305
 10
20.5697
 20
90.6777
 30
0.000000
  70
    32
  0
VERTEX
  8
16
  5
306
 10
20.5686
 20
90.6807
 30
0.000000
  70
    32
  0
VERTEX
  8
16
  5
307
 10
20.5676
 20
90.6837
 30
0.000000
  70
    32
  0
VERTEX
  8
16
  5
308
 10
20.5665
 20
90.6868
 30
0.000000
  70
    32
  0
VERTEX
  8
16
  5
309
 10
20.5655
 20
90.6898
 30
0.000000
  70
    32
  0
VERTEX
  8
16
  5
30A
 10
20.5645
 20
90.6928
 30
0.000000
  70
    32
  0
VERTEX
  8
16
  5
30B
 10
20.5635
 20
90.6958
 30
0.000000
  70
    32
  0
VERTEX
  8
16
  5
30C
 10
20.5626
 20
90.6989
 30
0.000000
  70
    32
  0
VERTEX
  8
16
  5
30D
 10
20.5616
 20
90.7019
 30
0.000000
  70
    32
  0
VERTEX
  8
16
  5
30E
 10
20.5607
 20
90.7049
 30
0.000000
  70
    32
  0
VERTEX
  8
16
  5
30F
 10
20.5598
 20
90.7080
 30
0.000000
  70
    32
  0
VERTEX
  8
16
  5
310
 10
20.5589
 20
90.7111
 30
0.000000
  70
    32
  0
VERTEX
  8
16
  5
311
 10
20.5580
 20
90.7141
 30
0.000000
  70
    32
  0
VERTEX
  8
16
  5
312
 10
20.5572
 20
90.7172
 30
0.000000
  70
    32
  0
VERTEX
  8
16
  5
313
 10
20.5564
 20
90.7203
 30
0.000000
  70
    32
  0
VERTEX
  8
16
  5
314
 10
20.5555
 20
90.7233
 30
0.000000
  70
    32
  0
VERTEX
  8
16
  5
315
 10
20.5548
 20
90.7264
 30
0.000000
  70
    32
  0
VERTEX
  8
16
  5
316
 10
20.5540
 20
90.7295
 30
0.000000
  70
    32
  0
VERTEX
  8
16
  5
317
 10
20.5532
 20
90.7326
 30
0.000000
  70
    32
  0
VERTEX
  8
16
  5
318
 10
20.5525
 20
90.7357
 30
0.000000
  70
    32
  0
VERTEX
  8
16
  5
319
 10
20.5518
 20
90.7388
 30
0.000000
  70
    32
  0
VERTEX
  8
16
  5
31A
 10
20.5511
 20
90.7419
 30
0.000000
  70
    32
  0
VERTEX
  8
16
  5
31B
 10
20.5505
 20
90.7450
 30
0.000000
  70
    32
  0
VERTEX
  8
16
  5
31C
 10
20.5498
 20
90.7481
 30
0.000000
  70
    32
  0
VERTEX
  8
16
  5
31D
 10
20.5492
 20
90.7513
 30
0.000000
  70
    32
  0
VERTEX
  8
16
  5
31E
 10
20.5486
 20
90.7544
 30
0.000000
  70
    32
  0
VERTEX
  8
16
  5
31F
 10
20.5480
 20
90.7575
 30
0.000000
  70
    32
  0
VERTEX
  8
16
  5
320
 10
20.5474
 20
90.7607
 30
0.000000
  70
    32
  0
VERTEX
  8
16
  5
321
 10
20.5469
 20
90.7638
 30
0.000000
  70
    32
  0
VERTEX
  8
16
  5
322
 10
20.5463
 20
90.7669
 30
0.000000
  70
    32
  0
VERTEX
  8
16
  5
323
 10
20.5458
 20
90.7701
 30
0.000000
  70
    32
  0
VERTEX
  8
16
  5
324
 10
20.5453
 20
90.7732
 30
0.000000
  70
    32
  0
VERTEX
  8
16
  5
325
 10
20.5449
 20
90.7764
 30
0.000000
  70
    32
  0
VERTEX
  8
16
  5
326
 10
20.5444
 20
90.7795
 30
0.000000
  70
    32
  0
VERTEX
  8
16
  5
327
 10
20.5440
 20
90.7827
 30
0.000000
  70
    32
  0
VERTEX
  8
16
  5
328
 10
20.5436
 20
90.7858
 30
0.000000
  70
    32
  0
VERTEX
  8
16
  5
329
 10
20.5432
 20
90.7890
 30
0.000000
  70
    32
  0
VERTEX
  8
16
  5
32A
 10
20.5428
 20
90.7922
 30
0.000000
  70
    32
  0
VERTEX
  8
16
  5
32B
 10
20.5425
 20
90.7953
 30
0.000000
  70
    32
  0
VERTEX
  8
16
  5
32C
 10
20.5421
 20
90.7985
 30
0.000000
  70
    32
  0
VERTEX
  8
16
  5
32D
 10
20.5418
 20
90.8017
 30
0.000000
  70
    32
  0
VERTEX
  8
16
  5
32E
 10
20.5416
 20
90.8048
 30
0.000000
  70
    32
  0
VERTEX
  8
16
  5
32F
 10
20.5413
 20
90.8080
 30
0.000000
  70
    32
  0
VERTEX
  8
16
  5
330
 10
20.5410
 20
90.8112
 30
0.000000
  70
    32
  0
VERTEX
  8
16
  5
331
 10
20.5408
 20
90.8143
 30
0.000000
  70
    32
  0
VERTEX
  8
16
  5
332
 10
20.5406
 20
90.8175
 30
0.000000
  70
    32
  0
VERTEX
  8
16
  5
333
 10
20.5404
 20
90.8207
 30
0.000000
  70
    32
  0
VERTEX
  8
16
  5
334
 10
20.5403
 20
90.8239
 30
0.000000
  70
    32
  0
VERTEX
  8
16
  5
335
 10
20.5401
 20
90.8271
 30
0.000000
  70
    32
  0
VERTEX
  8
16
  5
336
 10
20.5400
 20
90.8302
 30
0.000000
  70
    32
  0
VERTEX
  8
16
  5
337
 10
20.5399
 20
90.8334
 30
0.000000
  70
    32
  0
VERTEX
  8
16
  5
338
 10
20.5398
 20
90.8366
 30
0.000000
  70
    32
  0
VERTEX
  8
16
  5
339
 10
20.5397
 20
90.8398
 30
0.000000
  70
    32
  0
VERTEX
  8
16
  5
33A
 10
20.5397
 20
90.8430
 30
0.000000
  70
    32
  0
VERTEX
  8
16
  5
33B
 10
20.5397
 20
90.8462
 30
0.000000
  70
    32
  0
VERTEX
  8
16
  5
33C
 10
20.5397
 20
90.8493
 30
0.000000
  70
    32
  0
SEQEND
  8
16
  5
33D
  0
POLYLINE
  5
1E3
  8
16
 62
     0
 10
8.8685539523672219
 20
106.8874999999999
 30
0.0
 66
     1
 70
     8
  0
VERTEX
  8
16
  5
33E
 10
8.86855
 20
106.887
 30
0.000000
  70
    32
  0
VERTEX
  8
16
  5
33F
 10
8.86242
 20
106.888
 30
0.000000
  70
    32
  0
VERTEX
  8
16
  5
340
 10
8.85628
 20
106.888
 30
0.000000
  70
    32
  0
VERTEX
  8
16
  5
341
 10
8.85015
 20
106.888
 30
0.000000
  70
    32
  0
VERTEX
  8
16
  5
342
 10
8.84402
 20
106.888
 30
0.000000
  70
    32
  0
VERTEX
  8
16
  5
343
 10
8.83789
 20
106.888
 30
0.000000
  70
    32
  0
VERTEX
  8
16
  5
344
 10
8.83177
 20
106.889
 30
0.000000
  70
    32
  0
VERTEX
  8
16
  5
345
 10
8.82565
 20
106.889
 30
0.000000
  70
    32
  0
VERTEX
  8
16
  5
346
 10
8.81954
 20
106.890
 30
0.000000
  70
    32
  0
VERTEX
  8
16
  5
347
 10
8.81343
 20
106.891
 30
0.000000
  70
    32
  0
VERTEX
  8
16
  5
348
 10
8.80734
 20
106.891
 30
0.000000
  70
    32
  0
VERTEX
  8
16
  5
349
 10
8.80125
 20
106.892
 30
0.000000
  70
    32
  0
VERTEX
  8
16
  5
34A
 10
8.79518
 20
106.893
 30
0.000000
  70
    32
  0
VERTEX
  8
16
  5
34B
 10
8.78911
 20
106.894
 30
0.000000
  70
    32
  0
VERTEX
  8
16
  5
34C
 10
8.78306
 20
106.895
 30
0.000000
  70
    32
  0
VERTEX
  8
16
  5
34D
 10
8.77702
 20
106.896
 30
0.000000
  70
    32
  0
VERTEX
  8
16
  5
34E
 10
8.77099
 20
106.897
 30
0.000000
  70
    32
  0
VERTEX
  8
16
  5
34F
 10
8.76498
 20
106.898
 30
0.000000
  70
    32
  0
VERTEX
  8
16
  5
350
 10
8.75899
 20
106.900
 30
0.000000
  70
    32
  0
VERTEX
  8
16
  5
351
 10
8.75301
 20
106.901
 30
0.000000
  70
    32
  0
VERTEX
  8
16
  5
352
 10
8.74705
 20
106.902
 30
0.000000
  70
    32
  0
VERTEX
  8
16
  5
353
 10
8.74110
 20
106.904
 30
0.000000
  70
    32
  0
VERTEX
  8
16
  5
354
 10
8.73518
 20
106.906
 30
0.000000
  70
    32
  0
VERTEX
  8
16
  5
355
 10
8.72927
 20
106.907
 30
0.000000
  70
    32
  0
VERTEX
  8
16
  5
356
 10
8.72339
 20
106.909
 30
0.000000
  70
    32
  0
VERTEX
  8
16
  5
357
 10
8.71753
 20
106.911
 30
0.000000
  70
    32
  0
VERTEX
  8
16
  5
358
 10
8.71169
 20
106.913
 30
0.000000
  70
    32
  0
VERTEX
  8
16
  5
359
 10
8.70587
 20
106.915
 30
0.000000
  70
    32
  0
VERTEX
  8
16
  5
35A
 10
8.70008
 20
106.917
 30
0.000000
  70
    32
  0
VERTEX
  8
16
  5
35B
 10
8.69432
 20
106.919
 30
0.000000
  70
    32
  0
VERTEX
  8
16
  5
35C
 10
8.68858
 20
106.921
 30
0.000000
  70
    32
  0
VERTEX
  8
16
  5
35D
 10
8.68287
 20
106.923
 30
0.000000
  70
    32
  0
VERTEX
  8
16
  5
35E
 10
8.67718
 20
106.926
 30
0.000000
  70
    32
  0
VERTEX
  8
16
  5
35F
 10
8.67153
 20
106.928
 30
0.000000
  70
    32
  0
VERTEX
  8
16
  5
360
 10
8.66590
 20
106.930
 30
0.000000
  70
    32
  0
VERTEX
  8
16
  5
361
 10
8.66031
 20
106.933
 30
0.000000
  70
    32
  0
VERTEX
  8
16
  5
362
 10
8.65474
 20
106.936
 30
0.000000
  70
    32
  0
VERTEX
  8
16
  5
363
 10
8.64921
 20
106.938
 30
0.000000
  70
    32
  0
VERTEX
  8
16
  5
364
 10
8.64371
 20
106.941
 30
0.000000
  70
    32
  0
VERTEX
  8
16
  5
365
 10
8.63825
 20
106.944
 30
0.000000
  70
    32
  0
VERTEX
  8
16
  5
366
 10
8.63282
 20
106.947
 30
0.000000
  70
    32
  0
VERTEX
  8
16
  5
367
 10
8.62743
 20
106.949
 30
0.000000
  70
    32
  0
VERTEX
  8
16
  5
368
 10
8.62207
 20
106.952
 30
0.000000
  70
    32
  0
VERTEX
  8
16
  5
369
 10
8.61675
 20
106.956
 30
0.000000
  70
    32
  0
VERTEX
  8
16
  5
36A
 10
8.61146
 20
106.959
 30
0.000000
  70
    32
  0
VERTEX
  8
16
  5
36B
 10
8.60622
 20
106.962
 30
0.000000
  70
    32
  0
VERTEX
  8
16
  5
36C
 10
8.60101
 20
106.965
 30
0.000000
  70
    32
  0
VERTEX
  8
16
  5
36D
 10
8.59585
 20
106.968
 30
0.000000
  70
    32
  0
VERTEX
  8
16
  5
36E
 10
8.59073
 20
106.972
 30
0.000000
  70
    32
  0
VERTEX
  8
16
  5
36F
 10
8.58564
 20
106.975
 30
0.000000
  70
    32
  0
VERTEX
  8
16
  5
370
 10
8.58061
 20
106.979
 30
0.000000
  70
    32
  0
VERTEX
  8
16
  5
371
 10
8.57561
 20
106.982
 30
0.000000
  70
    32
  0
VERTEX
  8
16
  5
372
 10
8.57066
 20
106.986
 30
0.000000
  70
    32
  0
VERTEX
  8
16
  5
373
 10
8.56575
 20
106.990
 30
0.000000
  70
    32
  0
VERTEX
  8
16
  5
374
 10
8.56089
 20
106.993
 30
0.000000
  70
    32
  0
VERTEX
  8
16
  5
375
 10
8.55608
 20
106.997
 30
0.000000
  70
    32
  0
VERTEX
  8
16
  5
376
 10
8.55131
 20
107.001
 30
0.000000
  70
    32
  0
VERTEX
  8
16
  5
377
 10
8.54659
 20
107.005
 30
0.000000
  70
    32
  0
VERTEX
  8
16
  5
378
 10
8.54192
 20
107.009
 30
0.000000
  70
    32
  0
VERTEX
  8
16
  5
379
 10
8.53730
 20
107.013
 30
0.000000
  70
    32
  0
VERTEX
  8
16
  5
37A
 10
8.53272
 20
107.017
 30
0.000000
  70
    32
  0
VERTEX
  8
16
  5
37B
 10
8.52820
 20
107.021
 30
0.000000
  70
    32
  0
VERTEX
  8
16
  5
37C
 10
8.52373
 20
107.025
 30
0.000000
  70
    32
  0
VERTEX
  8
16
  5
37D
 10
8.51931
 20
107.030
 30
0.000000
  70
    32
  0
VERTEX
  8
16
  5
37E
 10
8.51495
 20
107.034
 30
0.000000
  70
    32
  0
VERTEX
  8
16
  5
37F
 10
8.51063
 20
107.038
 30
0.000000
  70
    32
  0
VERTEX
  8
16
  5
380
 10
8.50638
 20
107.043
 30
0.000000
  70
    32
  0
VERTEX
  8
16
  5
381
 10
8.50217
 20
107.047
 30
0.000000
  70
    32
  0
VERTEX
  8
16
  5
382
 10
8.49802
 20
107.052
 30
0.000000
  70
    32
  0
VERTEX
  8
16
  5
383
 10
8.49393
 20
107.056
 30
0.000000
  70
    32
  0
VERTEX
  8
16
  5
384
 10
8.48989
 20
107.061
 30
0.000000
  70
    32
  0
VERTEX
  8
16
  5
385
 10
8.48591
 20
107.066
 30
0.000000
  70
    32
  0
VERTEX
  8
16
  5
386
 10
8.48199
 20
107.070
 30
0.000000
  70
    32
  0
VERTEX
  8
16
  5
387
 10
8.47813
 20
107.075
 30
0.000000
  70
    32
  0
VERTEX
  8
16
  5
388
 10
8.47432
 20
107.080
 30
0.000000
  70
    32
  0
VERTEX
  8
16
  5
389
 10
8.47057
 20
107.085
 30
0.000000
  70
    32
  0
VERTEX
  8
16
  5
38A
 10
8.46689
 20
107.090
 30
0.000000
  70
    32
  0
VERTEX
  8
16
  5
38B
 10
8.46326
 20
107.095
 30
0.000000
  70
    32
  0
VERTEX
  8
16
  5
38C
 10
8.45970
 20
107.100
 30
0.000000
  70
    32
  0
VERTEX
  8
16
  5
38D
 10
8.45620
 20
107.105
 30
0.000000
  70
    32
  0
VERTEX
  8
16
  5
38E
 10
8.45276
 20
107.110
 30
0.000000
  70
    32
  0
VERTEX
  8
16
  5
38F
 10
8.44938
 20
107.115
 30
0.000000
  70
    32
  0
VERTEX
  8
16
  5
390
 10
8.44606
 20
107.120
 30
0.000000
  70
    32
  0
VERTEX
  8
16
  5
391
 10
8.44281
 20
107.125
 30
0.000000
  70
    32
  0
VERTEX
  8
16
  5
392
 10
8.43962
 20
107.130
 30
0.000000
  70
    32
  0
VERTEX
  8
16
  5
393
 10
8.43650
 20
107.136
 30
0.000000
  70
    32
  0
VERTEX
  8
16
  5
394
 10
8.43344
 20
107.141
 30
0.000000
  70
    32
  0
VERTEX
  8
16
  5
395
 10
8.43045
 20
107.146
 30
0.000000
  70
    32
  0
VERTEX
  8
16
  5
396
 10
8.42753
 20
107.152
 30
0.000000
  70
    32
  0
VERTEX
  8
16
  5
397
 10
8.42467
 20
107.157
 30
0.000000
  70
    32
  0
VERTEX
  8
16
  5
398
 10
8.42187
 20
107.163
 30
0.000000
  70
    32
  0
VERTEX
  8
16
  5
399
 10
8.41915
 20
107.168
 30
0.000000
  70
    32
  0
VERTEX
  8
16
  5
39A
 10
8.41649
 20
107.174
 30
0.000000
  70
    32
  0
VERTEX
  8
16
  5
39B
 10
8.41390
 20
107.179
 30
0.000000
  70
    32
  0
VERTEX
  8
16
  5
39C
 10
8.41138
 20
107.185
 30
0.000000
  70
    32
  0
VERTEX
  8
16
  5
39D
 10
8.40893
 20
107.191
 30
0.000000
  70
    32
  0
VERTEX
  8
16
  5
39E
 10
8.40654
 20
107.196
 30
0.000000
  70
    32
  0
VERTEX
  8
16
  5
39F
 10
8.40423
 20
107.202
 30
0.000000
  70
    32
  0
VERTEX
  8
16
  5
3A0
 10
8.40199
 20
107.208
 30
0.000000
  70
    32
  0
VERTEX
  8
16
  5
3A1
 10
8.39981
 20
107.213
 30
0.000000
  70
    32
  0
VERTEX
  8
16
  5
3A2
 10
8.39771
 20
107.219
 30
0.000000
  70
    32
  0
VERTEX
  8
16
  5
3A3
 10
8.39568
 20
107.225
 30
0.000000
  70
    32
  0
VERTEX
  8
16
  5
3A4
 10
8.39372
 20
107.231
 30
0.000000
  70
    32
  0
VERTEX
  8
16
  5
3A5
 10
8.39183
 20
107.236
 30
0.000000
  70
    32
  0
VERTEX
  8
16
  5
3A6
 10
8.39001
 20
107.242
 30
0.000000
  70
    32
  0
VERTEX
  8
16
  5
3A7
 10
8.38827
 20
107.248
 30
0.000000
  70
    32
  0
VERTEX
  8
16
  5
3A8
 10
8.38659
 20
107.254
 30
0.000000
  70
    32
  0
VERTEX
  8
16
  5
3A9
 10
8.38499
 20
107.260
 30
0.000000
  70
    32
  0
VERTEX
  8
16
  5
3AA
 10
8.38346
 20
107.266
 30
0.000000
  70
    32
  0
VERTEX
  8
16
  5
3AB
 10
8.38201
 20
107.272
 30
0.000000
  70
    32
  0
VERTEX
  8
16
  5
3AC
 10
8.38063
 20
107.278
 30
0.000000
  70
    32
  0
VERTEX
  8
16
  5
3AD
 10
8.37932
 20
107.284
 30
0.000000
  70
    32
  0
VERTEX
  8
16
  5
3AE
 10
8.37809
 20
107.290
 30
0.000000
  70
    32
  0
VERTEX
  8
16
  5
3AF
 10
8.37693
 20
107.296
 30
0.000000
  70
    32
  0
VERTEX
  8
16
  5
3B0
 10
8.37584
 20
107.302
 30
0.000000
  70
    32
  0
VERTEX
  8
16
  5
3B1
 10
8.37483
 20
107.308
 30
0.000000
  70
    32
  0
VERTEX
  8
16
  5
3B2
 10
8.37389
 20
107.314
 30
0.000000
  70
    32
  0
VERTEX
  8
16
  5
3B3
 10
8.37303
 20
107.320
 30
0.000000
  70
    32
  0
VERTEX
  8
16
  5
3B4
 10
8.37224
 20
107.326
 30
0.000000
  70
    32
  0
VERTEX
  8
16
  5
3B5
 10
8.37152
 20
107.332
 30
0.000000
  70
    32
  0
VERTEX
  8
16
  5
3B6
 10
8.37089
 20
107.338
 30
0.000000
  70
    32
  0
VERTEX
  8
16
  5
3B7
 10
8.37032
 20
107.345
 30
0.000000
  70
    32
  0
VERTEX
  8
16
  5
3B8
 10
8.36983
 20
107.351
 30
0.000000
  70
    32
  0
VERTEX
  8
16
  5
3B9
 10
8.36942
 20
107.357
 30
0.000000
  70
    32
  0
VERTEX
  8
16
  5
3BA
 10
8.36908
 20
107.363
 30
0.000000
  70
    32
  0
VERTEX
  8
16
  5
3BB
 10
8.36882
 20
107.369
 30
0.000000
  70
    32
  0
VERTEX
  8
16
  5
3BC
 10
8.36863
 20
107.375
 30
0.000000
  70
    32
  0
VERTEX
  8
16
  5
3BD
 10
8.36852
 20
107.381
 30
0.000000
  70
    32
  0
VERTEX
  8
16
  5
3BE
 10
8.36848
 20
107.387
 30
0.000000
  70
    32
  0
SEQEND
  8
16
  5
3BF
  0
POLYLINE
  8
16
  5
3C0
  62
0
  66
     1
 10
0.000000
 20
0.000000
 30
0.000000
  70
     8
  0
VERTEX
  8
16
  5
3C1
 10
8.21153
 20
106.387
 30
0.000000
  70
    32
  0
VERTEX
  8
16
  5
3C2
 10
8.21153
 20
106.391
 30
0.000000
  70
    32
  0
VERTEX
  8
16
  5
3C3
 10
8.21153
 20
106.394
 30
0.000000
  70
    32
  0
VERTEX
  8
16
  5
3C4
 10
8.21154
 20
106.397
 30
0.000000
  70
    32
  0
VERTEX
  8
16
  5
3C5
 10
8.21154
 20
106.400
 30
0.000000
  70
    32
  0
VERTEX
  8
16
  5
3C6
 10
8.21154
 20
106.403
 30
0.000000
  70
    32
  0
VERTEX
  8
16
  5
3C7
 10
8.21154
 20
106.407
 30
0.000000
  70
    32
  0
VERTEX
  8
16
  5
3C8
 10
8.21154
 20
106.410
 30
0.000000
  70
    32
  0
VERTEX
  8
16
  5
3C9
 10
8.21154
 20
106.413
 30
0.000000
  70
    32
  0
VERTEX
  8
16
  5
3CA
 10
8.21154
 20
106.416
 30
0.000000
  70
    32
  0
VERTEX
  8
16
  5
3CB
 10
8.21154
 20
106.419
 30
0.000000
  70
    32
  0
VERTEX
  8
16
  5
3CC
 10
8.21155
 20
106.422
 30
0.000000
  70
    32
  0
VERTEX
  8
16
  5
3CD
 10
8.21155
 20
106.426
 30
0.000000
  70
    32
  0
VERTEX
  8
16
  5
3CE
 10
8.21155
 20
106.429
 30
0.000000
  70
    32
  0
VERTEX
  8
16
  5
3CF
 10
8.21155
 20
106.432
 30
0.000000
  70
    32
  0
VERTEX
  8
16
  5
3D0
 10
8.21155
 20
106.435
 30
0.000000
  70
    32
  0
VERTEX
  8
16
  5
3D1
 10
8.21156
 20
106.438
 30
0.000000
  70
    32
  0
VERTEX
  8
16
  5
3D2
 10
8.21156
 20
106.441
 30
0.000000
  70
    32
  0
VERTEX
  8
16
  5
3D3
 10
8.21156
 20
106.445
 30
0.000000
  70
    32
  0
VERTEX
  8
16
  5
3D4
 10
8.21157
 20
106.448
 30
0.000000
  70
    32
  0
VERTEX
  8
16
  5
3D5
 10
8.21157
 20
106.451
 30
0.000000
  70
    32
  0
VERTEX
  8
16
  5
3D6
 10
8.21157
 20
106.454
 30
0.000000
  70
    32
  0
VERTEX
  8
16
  5
3D7
 10
8.21158
 20
106.457
 30
0.000000
  70
    32
  0
VERTEX
  8
16
  5
3D8
 10
8.21158
 20
106.460
 30
0.000000
  70
    32
  0
VERTEX
  8
16
  5
3D9
 10
8.21158
 20
106.463
 30
0.000000
  70
    32
  0
VERTEX
  8
16
  5
3DA
 10
8.21159
 20
106.467
 30
0.000000
  70
    32
  0
VERTEX
  8
16
  5
3DB
 10
8.21159
 20
106.470
 30
0.000000
  70
    32
  0
VERTEX
  8
16
  5
3DC
 10
8.21160
 20
106.473
 30
0.000000
  70
    32
  0
VERTEX
  8
16
  5
3DD
 10
8.21160
 20
106.476
 30
0.000000
  70
    32
  0
VERTEX
  8
16
  5
3DE
 10
8.21161
 20
106.479
 30
0.000000
  70
    32
  0
VERTEX
  8
16
  5
3DF
 10
8.21161
 20
106.482
 30
0.000000
  70
    32
  0
VERTEX
  8
16
  5
3E0
 10
8.21162
 20
106.485
 30
0.000000
  70
    32
  0
VERTEX
  8
16
  5
3E1
 10
8.21162
 20
106.489
 30
0.000000
  70
    32
  0
VERTEX
  8
16
  5
3E2
 10
8.21163
 20
106.492
 30
0.000000
  70
    32
  0
VERTEX
  8
16
  5
3E3
 10
8.21163
 20
106.495
 30
0.000000
  70
    32
  0
VERTEX
  8
16
  5
3E4
 10
8.21164
 20
106.498
 30
0.000000
  70
    32
  0
VERTEX
  8
16
  5
3E5
 10
8.21165
 20
106.501
 30
0.000000
  70
    32
  0
VERTEX
  8
16
  5
3E6
 10
8.21165
 20
106.504
 30
0.000000
  70
    32
  0
VERTEX
  8
16
  5
3E7
 10
8.21166
 20
106.507
 30
0.000000
  70
    32
  0
VERTEX
  8
16
  5
3E8
 10
8.21167
 20
106.510
 30
0.000000
  70
    32
  0
VERTEX
  8
16
  5
3E9
 10
8.21167
 20
106.514
 30
0.000000
  70
    32
  0
VERTEX
  8
16
  5
3EA
 10
8.21168
 20
106.517
 30
0.000000
  70
    32
  0
VERTEX
  8
16
  5
3EB
 10
8.21169
 20
106.520
 30
0.000000
  70
    32
  0
VERTEX
  8
16
  5
3EC
 10
8.21169
 20
106.523
 30
0.000000
  70
    32
  0
VERTEX
  8
16
  5
3ED
 10
8.21170
 20
106.526
 30
0.000000
  70
    32
  0
VERTEX
  8
16
  5
3EE
 10
8.21171
 20
106.529
 30
0.000000
  70
    32
  0
VERTEX
  8
16
  5
3EF
 10
8.21172
 20
106.532
 30
0.000000
  70
    32
  0
VERTEX
  8
16
  5
3F0
 10
8.21172
 20
106.535
 30
0.000000
  70
    32
  0
VERTEX
  8
16
  5
3F1
 10
8.21173
 20
106.538
 30
0.000000
  70
    32
  0
VERTEX
  8
16
  5
3F2
 10
8.21174
 20
106.541
 30
0.000000
  70
    32
  0
VERTEX
  8
16
  5
3F3
 10
8.21175
 20
106.545
 30
0.000000
  70
    32
  0
VERTEX
  8
16
  5
3F4
 10
8.21176
 20
106.548
 30
0.000000
  70
    32
  0
VERTEX
  8
16
  5
3F5
 10
8.21177
 20
106.551
 30
0.000000
  70
    32
  0
VERTEX
  8
16
  5
3F6
 10
8.21178
 20
106.554
 30
0.000000
  70
    32
  0
VERTEX
  8
16
  5
3F7
 10
8.21179
 20
106.557
 30
0.000000
  70
    32
  0
VERTEX
  8
16
  5
3F8
 10
8.21179
 20
106.560
 30
0.000000
  70
    32
  0
VERTEX
  8
16
  5
3F9
 10
8.21180
 20
106.563
 30
0.000000
  70
    32
  0
VERTEX
  8
16
  5
3FA
 10
8.21181
 20
106.566
 30
0.000000
  70
    32
  0
VERTEX
  8
16
  5
3FB
 10
8.21182
 20
106.569
 30
0.000000
  70
    32
  0
VERTEX
  8
16
  5
3FC
 10
8.21183
 20
106.572
 30
0.000000
  70
    32
  0
VERTEX
  8
16
  5
3FD
 10
8.21184
 20
106.575
 30
0.000000
  70
    32
  0
VERTEX
  8
16
  5
3FE
 10
8.21185
 20
106.578
 30
0.000000
  70
    32
  0
VERTEX
  8
16
  5
3FF
 10
8.21186
 20
106.582
 30
0.000000
  70
    32
  0
VERTEX
  8
16
  5
400
 10
8.21188
 20
106.585
 30
0.000000
  70
    32
  0
VERTEX
  8
16
  5
401
 10
8.21189
 20
106.588
 30
0.000000
  70
    32
  0
VERTEX
  8
16
  5
402
 10
8.21190
 20
106.591
 30
0.000000
  70
    32
  0
VERTEX
  8
16
  5
403
 10
8.21191
 20
106.594
 30
0.000000
  70
    32
  0
VERTEX
  8
16
  5
404
 10
8.21192
 20
106.597
 30
0.000000
  70
    32
  0
VERTEX
  8
16
  5
405
 10
8.21193
 20
106.600
 30
0.000000
  70
    32
  0
VERTEX
  8
16
  5
406
 10
8.21194
 20
106.603
 30
0.000000
  70
    32
  0
VERTEX
  8
16
  5
407
 10
8.21195
 20
106.606
 30
0.000000
  70
    32
  0
VERTEX
  8
16
  5
408
 10
8.21197
 20
106.609
 30
0.000000
  70
    32
  0
VERTEX
  8
16
  5
409
 10
8.21198
 20
106.612
 30
0.000000
  70
    32
  0
VERTEX
  8
16
  5
40A
 10
8.21199
 20
106.615
 30
0.000000
  70
    32
  0
VERTEX
  8
16
  5
40B
 10
8.21200
 20
106.618
 30
0.000000
  70
    32
  0
VERTEX
  8
16
  5
40C
 10
8.21202
 20
106.621
 30
0.000000
  70
    32
  0
VERTEX
  8
16
  5
40D
 10
8.21203
 20
106.624
 30
0.000000
  70
    32
  0
VERTEX
  8
16
  5
40E
 10
8.21204
 20
106.627
 30
0.000000
  70
    32
  0
VERTEX
  8
16
  5
40F
 10
8.21206
 20
106.630
 30
0.000000
  70
    32
  0
VERTEX
  8
16
  5
410
 10
8.21207
 20
106.633
 30
0.000000
  70
    32
  0
VERTEX
  8
16
  5
411
 10
8.21208
 20
106.636
 30
0.000000
  70
    32
  0
VERTEX
  8
16
  5
412
 10
8.21210
 20
106.640
 30
0.000000
  70
    32
  0
VERTEX
  8
16
  5
413
 10
8.21211
 20
106.643
 30
0.000000
  70
    32
  0
VERTEX
  8
16
  5
414
 10
8.21212
 20
106.646
 30
0.000000
  70
    32
  0
VERTEX
  8
16
  5
415
 10
8.21214
 20
106.649
 30
0.000000
  70
    32
  0
VERTEX
  8
16
  5
416
 10
8.21215
 20
106.652
 30
0.000000
  70
    32
  0
VERTEX
  8
16
  5
417
 10
8.21217
 20
106.655
 30
0.000000
  70
    32
  0
VERTEX
  8
16
  5
418
 10
8.21218
 20
106.658
 30
0.000000
  70
    32
  0
VERTEX
  8
16
  5
419
 10
8.21220
 20
106.661
 30
0.000000
  70
    32
  0
VERTEX
  8
16
  5
41A
 10
8.21221
 20
106.664
 30
0.000000
  70
    32
  0
VERTEX
  8
16
  5
41B
 10
8.21223
 20
106.667
 30
0.000000
  70
    32
  0
VERTEX
  8
16
  5
41C
 10
8.21224
 20
106.670
 30
0.000000
  70
    32
  0
VERTEX
  8
16
  5
41D
 10
8.21226
 20
106.673
 30
0.000000
  70
    32
  0
VERTEX
  8
16
  5
41E
 10
8.21227
 20
106.676
 30
0.000000
  70
    32
  0
VERTEX
  8
16
  5
41F
 10
8.21229
 20
106.679
 30
0.000000
  70
    32
  0
VERTEX
  8
16
  5
420
 10
8.21231
 20
106.682
 30
0.000000
  70
    32
  0
VERTEX
  8
16
  5
421
 10
8.21232
 20
106.685
 30
0.000000
  70
    32
  0
VERTEX
  8
16
  5
422
 10
8.21234
 20
106.688
 30
0.000000
  70
    32
  0
VERTEX
  8
16
  5
423
 10
8.21236
 20
106.691
 30
0.000000
  70
    32
  0
VERTEX
  8
16
  5
424
 10
8.21237
 20
106.694
 30
0.000000
  70
    32
  0
VERTEX
  8
16
  5
425
 10
8.21239
 20
106.697
 30
0.000000
  70
    32
  0
VERTEX
  8
16
  5
426
 10
8.21241
 20
106.700
 30
0.000000
  70
    32
  0
VERTEX
  8
16
  5
427
 10
8.21242
 20
106.703
 30
0.000000
  70
    32
  0
VERTEX
  8
16
  5
428
 10
8.21244
 20
106.706
 30
0.000000
  70
    32
  0
VERTEX
  8
16
  5
429
 10
8.21246
 20
106.709
 30
0.000000
  70
    32
  0
VERTEX
  8
16
  5
42A
 10
8.21248
 20
106.712
 30
0.000000
  70
    32
  0
VERTEX
  8
16
  5
42B
 10
8.21250
 20
106.715
 30
0.000000
  70
    32
  0
VERTEX
  8
16
  5
42C
 10
8.21251
 20
106.718
 30
0.000000
  70
    32
  0
VERTEX
  8
16
  5
42D
 10
8.21253
 20
106.721
 30
0.000000
  70
    32
  0
VERTEX
  8
16
  5
42E
 10
8.21255
 20
106.724
 30
0.000000
  70
    32
  0
VERTEX
  8
16
  5
42F
 10
8.21257
 20
106.727
 30
0.000000
  70
    32
  0
VERTEX
  8
16
  5
430
 10
8.21259
 20
106.730
 30
0.000000
  70
    32
  0
VERTEX
  8
16
  5
431
 10
8.21261
 20
106.733
 30
0.000000
  70
    32
  0
VERTEX
  8
16
  5
432
 10
8.21263
 20
106.736
 30
0.000000
  70
    32
  0
VERTEX
  8
16
  5
433
 10
8.21265
 20
106.739
 30
0.000000
  70
    32
  0
VERTEX
  8
16
  5
434
 10
8.21267
 20
106.742
 30
0.000000
  70
    32
  0
VERTEX
  8
16
  5
435
 10
8.21268
 20
106.744
 30
0.000000
  70
    32
  0
VERTEX
  8
16
  5
436
 10
8.21270
 20
106.747
 30
0.000000
  70
    32
  0
VERTEX
  8
16
  5
437
 10
8.21272
 20
106.750
 30
0.000000
  70
    32
  0
VERTEX
  8
16
  5
438
 10
8.21274
 20
106.753
 30
0.000000
  70
    32
  0
VERTEX
  8
16
  5
439
 10
8.21277
 20
106.756
 30
0.000000
  70
    32
  0
VERTEX
  8
16
  5
43A
 10
8.21279
 20
106.760
 30
0.000000
  70
    32
  0
VERTEX
  8
16
  5
43B
 10
8.21281
 20
106.763
 30
0.000000
  70
    32
  0
VERTEX
  8
16
  5
43C
 10
8.21283
 20
106.766
 30
0.000000
  70
    32
  0
VERTEX
  8
16
  5
43D
 10
8.21285
 20
106.769
 30
0.000000
  70
    32
  0
VERTEX
  8
16
  5
43E
 10
8.21288
 20
106.772
 30
0.000000
  70
    32
  0
VERTEX
  8
16
  5
43F
 10
8.21290
 20
106.775
 30
0.000000
  70
    32
  0
VERTEX
  8
16
  5
440
 10
8.21292
 20
106.778
 30
0.000000
  70
    32
  0
VERTEX
  8
16
  5
441
 10
8.21294
 20
106.781
 30
0.000000
  70
    32
  0
VERTEX
  8
16
  5
442
 10
8.21297
 20
106.784
 30
0.000000
  70
    32
  0
VERTEX
  8
16
  5
443
 10
8.21299
 20
106.787
 30
0.000000
  70
    32
  0
VERTEX
  8
16
  5
444
 10
8.21301
 20
106.791
 30
0.000000
  70
    32
  0
VERTEX
  8
16
  5
445
 10
8.21304
 20
106.794
 30
0.000000
  70
    32
  0
VERTEX
  8
16
  5
446
 10
8.21306
 20
106.797
 30
0.000000
  70
    32
  0
VERTEX
  8
16
  5
447
 10
8.21309
 20
106.800
 30
0.000000
  70
    32
  0
VERTEX
  8
16
  5
448
 10
8.21311
 20
106.803
 30
0.000000
  70
    32
  0
VERTEX
  8
16
  5
449
 10
8.21314
 20
106.806
 30
0.000000
  70
    32
  0
VERTEX
  8
16
  5
44A
 10
8.21316
 20
106.809
 30
0.000000
  70
    32
  0
VERTEX
  8
16
  5
44B
 10
8.21318
 20
106.812
 30
0.000000
  70
    32
  0
VERTEX
  8
16
  5
44C
 10
8.21321
 20
106.815
 30
0.000000
  70
    32
  0
VERTEX
  8
16
  5
44D
 10
8.21324
 20
106.818
 30
0.000000
  70
    32
  0
VERTEX
  8
16
  5
44E
 10
8.21326
 20
106.821
 30
0.000000
  70
    32
  0
VERTEX
  8
16
  5
44F
 10
8.21329
 20
106.824
 30
0.000000
  70
    32
  0
VERTEX
  8
16
  5
450
 10
8.21331
 20
106.827
 30
0.000000
  70
    32
  0
VERTEX
  8
16
  5
451
 10
8.21334
 20
106.830
 30
0.000000
  70
    32
  0
VERTEX
  8
16
  5
452
 10
8.21336
 20
106.833
 30
0.000000
  70
    32
  0
VERTEX
  8
16
  5
453
 10
8.21339
 20
106.836
 30
0.000000
  70
    32
  0
VERTEX
  8
16
  5
454
 10
8.21342
 20
106.839
 30
0.000000
  70
    32
  0
VERTEX
  8
16
  5
455
 10
8.21344
 20
106.842
 30
0.000000
  70
    32
  0
VERTEX
  8
16
  5
456
 10
8.21347
 20
106.845
 30
0.000000
  70
    32
  0
VERTEX
  8
16
  5
457
 10
8.21350
 20
106.848
 30
0.000000
  70
    32
  0
VERTEX
  8
16
  5
458
 10
8.21352
 20
106.851
 30
0.000000
  70
    32
  0
VERTEX
  8
16
  5
459
 10
8.21355
 20
106.854
 30
0.000000
  70
    32
  0
VERTEX
  8
16
  5
45A
 10
8.21358
 20
106.857
 30
0.000000
  70
    32
  0
VERTEX
  8
16
  5
45B
 10
8.21361
 20
106.860
 30
0.000000
  70
    32
  0
VERTEX
  8
16
  5
45C
 10
8.21363
 20
106.863
 30
0.000000
  70
    32
  0
VERTEX
  8
16
  5
45D
 10
8.21366
 20
106.866
 30
0.000000
  70
    32
  0
VERTEX
  8
16
  5
45E
 10
8.21369
 20
106.869
 30
0.000000
  70
    32
  0
VERTEX
  8
16
  5
45F
 10
8.21372
 20
106.872
 30
0.000000
  70
    32
  0
VERTEX
  8
16
  5
460
 10
8.21375
 20
106.875
 30
0.000000
  70
    32
  0
VERTEX
  8
16
  5
461
 10
8.21378
 20
106.878
 30
0.000000
  70
    32
  0
VERTEX
  8
16
  5
462
 10
8.21381
 20
106.881
 30
0.000000
  70
    32
  0
VERTEX
  8
16
  5
463
 10
8.21384
 20
106.884
 30
0.000000
  70
    32
  0
VERTEX
  8
16
  5
464
 10
8.21386
 20
106.887
 30
0.000000
  70
    32
  0
VERTEX
  8
16
  5
465
 10
8.21389
 20
106.890
 30
0.000000
  70
    32
  0
VERTEX
  8
16
  5
466
 10
8.21392
 20
106.893
 30
0.000000
  70
    32
  0
VERTEX
  8
16
  5
467
 10
8.21395
 20
106.895
 30
0.000000
  70
    32
  0
VERTEX
  8
16
  5
468
 10
8.21398
 20
106.898
 30
0.000000
  70
    32
  0
VERTEX
  8
16
  5
469
 10
8.21401
 20
106.901
 30
0.000000
  70
    32
  0
VERTEX
  8
16
  5
46A
 10
8.21404
 20
106.904
 30
0.000000
  70
    32
  0
VERTEX
  8
16
  5
46B
 10
8.21408
 20
106.907
 30
0.000000
  70
    32
  0
VERTEX
  8
16
  5
46C
 10
8.21411
 20
106.910
 30
0.000000
  70
    32
  0
VERTEX
  8
16
  5
46D
 10
8.21414
 20
106.913
 30
0.000000
  70
    32
  0
VERTEX
  8
16
  5
46E
 10
8.21417
 20
106.916
 30
0.000000
  70
    32
  0
VERTEX
  8
16
  5
46F
 10
8.21420
 20
106.919
 30
0.000000
  70
    32
  0
VERTEX
  8
16
  5
470
 10
8.21423
 20
106.921
 30
0.000000
  70
    32
  0
VERTEX
  8
16
  5
471
 10
8.21426
 20
106.924
 30
0.000000
  70
    32
  0
VERTEX
  8
16
  5
472
 10
8.21430
 20
106.927
 30
0.000000
  70
    32
  0
VERTEX
  8
16
  5
473
 10
8.21433
 20
106.930
 30
0.000000
  70
    32
  0
VERTEX
  8
16
  5
474
 10
8.21436
 20
106.933
 30
0.000000
  70
    32
  0
VERTEX
  8
16
  5
475
 10
8.21439
 20
106.936
 30
0.000000
  70
    32
  0
VERTEX
  8
16
  5
476
 10
8.21443
 20
106.939
 30
0.000000
  70
    32
  0
VERTEX
  8
16
  5
477
 10
8.21446
 20
106.942
 30
0.000000
  70
    32
  0
VERTEX
  8
16
  5
478
 10
8.21449
 20
106.944
 30
0.000000
  70
    32
  0
VERTEX
  8
16
  5
479
 10
8.21453
 20
106.947
 30
0.000000
  70
    32
  0
VERTEX
  8
16
  5
47A
 10
8.21456
 20
106.950
 30
0.000000
  70
    32
  0
VERTEX
  8
16
  5
47B
 10
8.21459
 20
106.953
 30
0.000000
  70
    32
  0
VERTEX
  8
16
  5
47C
 10
8.21463
 20
106.956
 30
0.000000
  70
    32
  0
VERTEX
  8
16
  5
47D
 10
8.21466
 20
106.959
 30
0.000000
  70
    32
  0
VERTEX
  8
16
  5
47E
 10
8.21470
 20
106.961
 30
0.000000
  70
    32
  0
VERTEX
  8
16
  5
47F
 10
8.21473
 20
106.964
 30
0.000000
  70
    32
  0
VERTEX
  8
16
  5
480
 10
8.21476
 20
106.967
 30
0.000000
  70
    32
  0
VERTEX
  8
16
  5
481
 10
8.21480
 20
106.970
 30
0.000000
  70
    32
  0
VERTEX
  8
16
  5
482
 10
8.21483
 20
106.973
 30
0.000000
  70
    32
  0
VERTEX
  8
16
  5
483
 10
8.21487
 20
106.975
 30
0.000000
  70
    32
  0
VERTEX
  8
16
  5
484
 10
8.21490
 20
106.978
 30
0.000000
  70
    32
  0
VERTEX
  8
16
  5
485
 10
8.21494
 20
106.981
 30
0.000000
  70
    32
  0
VERTEX
  8
16
  5
486
 10
8.21498
 20
106.984
 30
0.000000
  70
    32
  0
VERTEX
  8
16
  5
487
 10
8.21501
 20
106.986
 30
0.000000
  70
    32
  0
VERTEX
  8
16
  5
488
 10
8.21505
 20
106.989
 30
0.000000
  70
    32
  0
VERTEX
  8
16
  5
489
 10
8.21508
 20
106.992
 30
0.000000
  70
    32
  0
VERTEX
  8
16
  5
48A
 10
8.21512
 20
106.995
 30
0.000000
  70
    32
  0
VERTEX
  8
16
  5
48B
 10
8.21516
 20
106.997
 30
0.000000
  70
    32
  0
VERTEX
  8
16
  5
48C
 10
8.21519
 20
107.000
 30
0.000000
  70
    32
  0
VERTEX
  8
16
  5
48D
 10
8.21523
 20
107.003
 30
0.000000
  70
    32
  0
VERTEX
  8
16
  5
48E
 10
8.21527
 20
107.006
 30
0.000000
  70
    32
  0
VERTEX
  8
16
  5
48F
 10
8.21530
 20
107.008
 30
0.000000
  70
    32
  0
VERTEX
  8
16
  5
490
 10
8.21534
 20
107.011
 30
0.000000
  70
    32
  0
VERTEX
  8
16
  5
491
 10
8.21538
 20
107.014
 30
0.000000
  70
    32
  0
VERTEX
  8
16
  5
492
 10
8.21542
 20
107.016
 30
0.000000
  70
    32
  0
VERTEX
  8
16
  5
493
 10
8.21545
 20
107.019
 30
0.000000
  70
    32
  0
VERTEX
  8
16
  5
494
 10
8.21549
 20
107.022
 30
0.000000
  70
    32
  0
VERTEX
  8
16
  5
495
 10
8.21553
 20
107.024
 30
0.000000
  70
    32
  0
VERTEX
  8
16
  5
496
 10
8.21557
 20
107.027
 30
0.000000
  70
    32
  0
VERTEX
  8
16
  5
497
 10
8.21561
 20
107.030
 30
0.000000
  70
    32
  0
VERTEX
  8
16
  5
498
 10
8.21565
 20
107.032
 30
0.000000
  70
    32
  0
VERTEX
  8
16
  5
499
 10
8.21569
 20
107.035
 30
0.000000
  70
    32
  0
VERTEX
  8
16
  5
49A
 10
8.21572
 20
107.037
 30
0.000000
  70
    32
  0
VERTEX
  8
16
  5
49B
 10
8.21576
 20
107.040
 30
0.000000
  70
    32
  0
VERTEX
  8
16
  5
49C
 10
8.21580
 20
107.043
 30
0.000000
  70
    32
  0
VERTEX
  8
16
  5
49D
 10
8.21584
 20
107.045
 30
0.000000
  70
    32
  0
VERTEX
  8
16
  5
49E
 10
8.21588
 20
107.048
 30
0.000000
  70
    32
  0
VERTEX
  8
16
  5
49F
 10
8.21592
 20
107.050
 30
0.000000
  70
    32
  0
VERTEX
  8
16
  5
4A0
 10
8.21596
 20
107.053
 30
0.000000
  70
    32
  0
VERTEX
  8
16
  5
4A1
 10
8.21600
 20
107.056
 30
0.000000
  70
    32
  0
VERTEX
  8
16
  5
4A2
 10
8.21604
 20
107.058
 30
0.000000
  70
    32
  0
VERTEX
  8
16
  5
4A3
 10
8.21608
 20
107.061
 30
0.000000
  70
    32
  0
VERTEX
  8
16
  5
4A4
 10
8.21612
 20
107.063
 30
0.000000
  70
    32
  0
VERTEX
  8
16
  5
4A5
 10
8.21616
 20
107.066
 30
0.000000
  70
    32
  0
VERTEX
  8
16
  5
4A6
 10
8.21621
 20
107.068
 30
0.000000
  70
    32
  0
VERTEX
  8
16
  5
4A7
 10
8.21625
 20
107.071
 30
0.000000
  70
    32
  0
VERTEX
  8
16
  5
4A8
 10
8.21629
 20
107.073
 30
0.000000
  70
    32
  0
VERTEX
  8
16
  5
4A9
 10
8.21633
 20
107.076
 30
0.000000
  70
    32
  0
VERTEX
  8
16
  5
4AA
 10
8.21637
 20
107.078
 30
0.000000
  70
    32
  0
VERTEX
  8
16
  5
4AB
 10
8.21641
 20
107.081
 30
0.000000
  70
    32
  0
VERTEX
  8
16
  5
4AC
 10
8.21646
 20
107.083
 30
0.000000
  70
    32
  0
VERTEX
  8
16
  5
4AD
 10
8.21650
 20
107.086
 30
0.000000
  70
    32
  0
VERTEX
  8
16
  5
4AE
 10
8.21654
 20
107.088
 30
0.000000
  70
    32
  0
VERTEX
  8
16
  5
4AF
 10
8.21658
 20
107.091
 30
0.000000
  70
    32
  0
VERTEX
  8
16
  5
4B0
 10
8.21663
 20
107.093
 30
0.000000
  70
    32
  0
VERTEX
  8
16
  5
4B1
 10
8.21667
 20
107.096
 30
0.000000
  70
    32
  0
VERTEX
  8
16
  5
4B2
 10
8.21671
 20
107.098
 30
0.000000
  70
    32
  0
VERTEX
  8
16
  5
4B3
 10
8.21675
 20
107.101
 30
0.000000
  70
    32
  0
VERTEX
  8
16
  5
4B4
 10
8.21680
 20
107.103
 30
0.000000
  70
    32
  0
VERTEX
  8
16
  5
4B5
 10
8.21684
 20
107.105
 30
0.000000
  70
    32
  0
VERTEX
  8
16
  5
4B6
 10
8.21688
 20
107.108
 30
0.000000
  70
    32
  0
VERTEX
  8
16
  5
4B7
 10
8.21693
 20
107.110
 30
0.000000
  70
    32
  0
VERTEX
  8
16
  5
4B8
 10
8.21697
 20
107.113
 30
0.000000
  70
    32
  0
VERTEX
  8
16
  5
4B9
 10
8.21701
 20
107.115
 30
0.000000
  70
    32
  0
VERTEX
  8
16
  5
4BA
 10
8.21706
 20
107.117
 30
0.000000
  70
    32
  0
VERTEX
  8
16
  5
4BB
 10
8.21710
 20
107.120
 30
0.000000
  70
    32
  0
VERTEX
  8
16
  5
4BC
 10
8.21714
 20
107.122
 30
0.000000
  70
    32
  0
VERTEX
  8
16
  5
4BD
 10
8.21719
 20
107.124
 30
0.000000
  70
    32
  0
VERTEX
  8
16
  5
4BE
 10
8.21723
 20
107.127
 30
0.000000
  70
    32
  0
VERTEX
  8
16
  5
4BF
 10
8.21728
 20
107.129
 30
0.000000
  70
    32
  0
VERTEX
  8
16
  5
4C0
 10
8.21732
 20
107.131
 30
0.000000
  70
    32
  0
VERTEX
  8
16
  5
4C1
 10
8.21737
 20
107.134
 30
0.000000
  70
    32
  0
VERTEX
  8
16
  5
4C2
 10
8.21741
 20
107.136
 30
0.000000
  70
    32
  0
VERTEX
  8
16
  5
4C3
 10
8.21746
 20
107.138
 30
0.000000
  70
    32
  0
VERTEX
  8
16
  5
4C4
 10
8.21750
 20
107.140
 30
0.000000
  70
    32
  0
VERTEX
  8
16
  5
4C5
 10
8.21755
 20
107.143
 30
0.000000
  70
    32
  0
VERTEX
  8
16
  5
4C6
 10
8.21759
 20
107.145
 30
0.000000
  70
    32
  0
VERTEX
  8
16
  5
4C7
 10
8.21764
 20
107.147
 30
0.000000
  70
    32
  0
VERTEX
  8
16
  5
4C8
 10
8.21768
 20
107.149
 30
0.000000
  70
    32
  0
VERTEX
  8
16
  5
4C9
 10
8.21773
 20
107.152
 30
0.000000
  70
    32
  0
VERTEX
  8
16
  5
4CA
 10
8.21777
 20
107.154
 30
0.000000
  70
    32
  0
VERTEX
  8
16
  5
4CB
 10
8.21782
 20
107.156
 30
0.000000
  70
    32
  0
VERTEX
  8
16
  5
4CC
 10
8.21787
 20
107.158
 30
0.000000
  70
    32
  0
VERTEX
  8
16
  5
4CD
 10
8.21791
 20
107.160
 30
0.000000
  70
    32
  0
VERTEX
  8
16
  5
4CE
 10
8.21796
 20
107.163
 30
0.000000
  70
    32
  0
VERTEX
  8
16
  5
4CF
 10
8.21801
 20
107.165
 30
0.000000
  70
    32
  0
VERTEX
  8
16
  5
4D0
 10
8.21805
 20
107.167
 30
0.000000
  70
    32
  0
VERTEX
  8
16
  5
4D1
 10
8.21810
 20
107.169
 30
0.000000
  70
    32
  0
VERTEX
  8
16
  5
4D2
 10
8.21815
 20
107.171
 30
0.000000
  70
    32
  0
VERTEX
  8
16
  5
4D3
 10
8.21819
 20
107.173
 30
0.000000
  70
    32
  0
VERTEX
  8
16
  5
4D4
 10
8.21824
 20
107.175
 30
0.000000
  70
    32
  0
VERTEX
  8
16
  5
4D5
 10
8.21829
 20
107.178
 30
0.000000
  70
    32
  0
VERTEX
  8
16
  5
4D6
 10
8.21834
 20
107.180
 30
0.000000
  70
    32
  0
VERTEX
  8
16
  5
4D7
 10
8.21838
 20
107.182
 30
0.000000
  70
    32
  0
VERTEX
  8
16
  5
4D8
 10
8.21843
 20
107.184
 30
0.000000
  70
    32
  0
VERTEX
  8
16
  5
4D9
 10
8.21848
 20
107.186
 30
0.000000
  70
    32
  0
VERTEX
  8
16
  5
4DA
 10
8.21853
 20
107.188
 30
0.000000
  70
    32
  0
VERTEX
  8
16
  5
4DB
 10
8.21858
 20
107.190
 30
0.000000
  70
    32
  0
VERTEX
  8
16
  5
4DC
 10
8.21863
 20
107.192
 30
0.000000
  70
    32
  0
VERTEX
  8
16
  5
4DD
 10
8.21867
 20
107.194
 30
0.000000
  70
    32
  0
VERTEX
  8
16
  5
4DE
 10
8.21872
 20
107.196
 30
0.000000
  70
    32
  0
VERTEX
  8
16
  5
4DF
 10
8.21877
 20
107.198
 30
0.000000
  70
    32
  0
VERTEX
  8
16
  5
4E0
 10
8.21882
 20
107.200
 30
0.000000
  70
    32
  0
VERTEX
  8
16
  5
4E1
 10
8.21887
 20
107.202
 30
0.000000
  70
    32
  0
VERTEX
  8
16
  5
4E2
 10
8.21892
 20
107.204
 30
0.000000
  70
    32
  0
VERTEX
  8
16
  5
4E3
 10
8.21897
 20
107.206
 30
0.000000
  70
    32
  0
VERTEX
  8
16
  5
4E4
 10
8.21902
 20
107.208
 30
0.000000
  70
    32
  0
VERTEX
  8
16
  5
4E5
 10
8.21907
 20
107.210
 30
0.000000
  70
    32
  0
VERTEX
  8
16
  5
4E6
 10
8.21912
 20
107.212
 30
0.000000
  70
    32
  0
VERTEX
  8
16
  5
4E7
 10
8.21917
 20
107.214
 30
0.000000
  70
    32
  0
VERTEX
  8
16
  5
4E8
 10
8.21922
 20
107.216
 30
0.000000
  70
    32
  0
VERTEX
  8
16
  5
4E9
 10
8.21927
 20
107.218
 30
0.000000
  70
    32
  0
VERTEX
  8
16
  5
4EA
 10
8.21932
 20
107.220
 30
0.000000
  70
    32
  0
VERTEX
  8
16
  5
4EB
 10
8.21937
 20
107.222
 30
0.000000
  70
    32
  0
VERTEX
  8
16
  5
4EC
 10
8.21942
 20
107.224
 30
0.000000
  70
    32
  0
VERTEX
  8
16
  5
4ED
 10
8.21947
 20
107.226
 30
0.000000
  70
    32
  0
VERTEX
  8
16
  5
4EE
 10
8.21952
 20
107.227
 30
0.000000
  70
    32
  0
VERTEX
  8
16
  5
4EF
 10
8.21957
 20
107.229
 30
0.000000
  70
    32
  0
VERTEX
  8
16
  5
4F0
 10
8.21962
 20
107.231
 30
0.000000
  70
    32
  0
VERTEX
  8
16
  5
4F1
 10
8.21967
 20
107.233
 30
0.000000
  70
    32
  0
VERTEX
  8
16
  5
4F2
 10
8.21972
 20
107.235
 30
0.000000
  70
    32
  0
VERTEX
  8
16
  5
4F3
 10
8.21977
 20
107.237
 30
0.000000
  70
    32
  0
VERTEX
  8
16
  5
4F4
 10
8.21982
 20
107.238
 30
0.000000
  70
    32
  0
VERTEX
  8
16
  5
4F5
 10
8.21987
 20
107.240
 30
0.000000
  70
    32
  0
VERTEX
  8
16
  5
4F6
 10
8.21992
 20
107.242
 30
0.000000
  70
    32
  0
VERTEX
  8
16
  5
4F7
 10
8.21997
 20
107.244
 30
0.000000
  70
    32
  0
VERTEX
  8
16
  5
4F8
 10
8.22002
 20
107.245
 30
0.000000
  70
    32
  0
VERTEX
  8
16
  5
4F9
 10
8.22007
 20
107.247
 30
0.000000
  70
    32
  0
VERTEX
  8
16
  5
4FA
 10
8.22012
 20
107.249
 30
0.000000
  70
    32
  0
VERTEX
  8
16
  5
4FB
 10
8.22017
 20
107.250
 30
0.000000
  70
    32
  0
VERTEX
  8
16
  5
4FC
 10
8.22022
 20
107.252
 30
0.000000
  70
    32
  0
VERTEX
  8
16
  5
4FD
 10
8.22027
 20
107.254
 30
0.000000
  70
    32
  0
VERTEX
  8
16
  5
4FE
 10
8.22032
 20
107.255
 30
0.000000
  70
    32
  0
VERTEX
  8
16
  5
4FF
 10
8.22037
 20
107.257
 30
0.000000
  70
    32
  0
VERTEX
  8
16
  5
500
 10
8.22042
 20
107.259
 30
0.000000
  70
    32
  0
VERTEX
  8
16
  5
501
 10
8.22047
 20
107.260
 30
0.000000
  70
    32
  0
VERTEX
  8
16
  5
502
 10
8.22053
 20
107.262
 30
0.000000
  70
    32
  0
VERTEX
  8
16
  5
503
 10
8.22058
 20
107.264
 30
0.000000
  70
    32
  0
VERTEX
  8
16
  5
504
 10
8.22063
 20
107.265
 30
0.000000
  70
    32
  0
VERTEX
  8
16
  5
505
 10
8.22068
 20
107.267
 30
0.000000
  70
    32
  0
VERTEX
  8
16
  5
506
 10
8.22073
 20
107.269
 30
0.000000
  70
    32
  0
VERTEX
  8
16
  5
507
 10
8.22078
 20
107.270
 30
0.000000
  70
    32
  0
VERTEX
  8
16
  5
508
 10
8.22084
 20
107.272
 30
0.000000
  70
    32
  0
VERTEX
  8
16
  5
509
 10
8.22089
 20
107.273
 30
0.000000
  70
    32
  0
VERTEX
  8
16
  5
50A
 10
8.22094
 20
107.275
 30
0.000000
  70
    32
  0
VERTEX
  8
16
  5
50B
 10
8.22099
 20
107.276
 30
0.000000
  70
    32
  0
VERTEX
  8
16
  5
50C
 10
8.22104
 20
107.278
 30
0.000000
  70
    32
  0
VERTEX
  8
16
  5
50D
 10
8.22110
 20
107.279
 30
0.000000
  70
    32
  0
VERTEX
  8
16
  5
50E
 10
8.22115
 20
107.281
 30
0.000000
  70
    32
  0
VERTEX
  8
16
  5
50F
 10
8.22120
 20
107.282
 30
0.000000
  70
    32
  0
VERTEX
  8
16
  5
510
 10
8.22125
 20
107.284
 30
0.000000
  70
    32
  0
VERTEX
  8
16
  5
511
 10
8.22131
 20
107.285
 30
0.000000
  70
    32
  0
VERTEX
  8
16
  5
512
 10
8.22136
 20
107.287
 30
0.000000
  70
    32
  0
VERTEX
  8
16
  5
513
 10
8.22141
 20
107.288
 30
0.000000
  70
    32
  0
VERTEX
  8
16
  5
514
 10
8.22147
 20
107.290
 30
0.000000
  70
    32
  0
VERTEX
  8
16
  5
515
 10
8.22152
 20
107.291
 30
0.000000
  70
    32
  0
VERTEX
  8
16
  5
516
 10
8.22157
 20
107.293
 30
0.000000
  70
    32
  0
VERTEX
  8
16
  5
517
 10
8.22163
 20
107.294
 30
0.000000
  70
    32
  0
VERTEX
  8
16
  5
518
 10
8.22168
 20
107.296
 30
0.000000
  70
    32
  0
VERTEX
  8
16
  5
519
 10
8.22173
 20
107.297
 30
0.000000
  70
    32
  0
VERTEX
  8
16
  5
51A
 10
8.22179
 20
107.298
 30
0.000000
  70
    32
  0
VERTEX
  8
16
  5
51B
 10
8.22184
 20
107.300
 30
0.000000
  70
    32
  0
VERTEX
  8
16
  5
51C
 10
8.22190
 20
107.301
 30
0.000000
  70
    32
  0
VERTEX
  8
16
  5
51D
 10
8.22195
 20
107.303
 30
0.000000
  70
    32
  0
VERTEX
  8
16
  5
51E
 10
8.22200
 20
107.304
 30
0.000000
  70
    32
  0
VERTEX
  8
16
  5
51F
 10
8.22206
 20
107.305
 30
0.000000
  70
    32
  0
VERTEX
  8
16
  5
520
 10
8.22211
 20
107.307
 30
0.000000
  70
    32
  0
VERTEX
  8
16
  5
521
 10
8.22217
 20
107.308
 30
0.000000
  70
    32
  0
VERTEX
  8
16
  5
522
 10
8.22222
 20
107.309
 30
0.000000
  70
    32
  0
VERTEX
  8
16
  5
523
 10
8.22228
 20
107.311
 30
0.000000
  70
    32
  0
VERTEX
  8
16
  5
524
 10
8.22233
 20
107.312
 30
0.000000
  70
    32
  0
VERTEX
  8
16
  5
525
 10
8.22239
 20
107.313
 30
0.000000
  70
    32
  0
VERTEX
  8
16
  5
526
 10
8.22244
 20
107.314
 30
0.000000
  70
    32
  0
VERTEX
  8
16
  5
527
 10
8.22250
 20
107.316
 30
0.000000
  70
    32
  0
VERTEX
  8
16
  5
528
 10
8.22255
 20
107.317
 30
0.000000
  70
    32
  0
VERTEX
  8
16
  5
529
 10
8.22260
 20
107.318
 30
0.000000
  70
    32
  0
VERTEX
  8
16
  5
52A
 10
8.22266
 20
107.319
 30
0.000000
  70
    32
  0
VERTEX
  8
16
  5
52B
 10
8.22271
 20
107.321
 30
0.000000
  70
    32
  0
VERTEX
  8
16
  5
52C
 10
8.22276
 20
107.322
 30
0.000000
  70
    32
  0
VERTEX
  8
16
  5
52D
 10
8.22281
 20
107.323
 30
0.000000
  70
    32
  0
VERTEX
  8
16
  5
52E
 10
8.22287
 20
107.324
 30
0.000000
  70
    32
  0
VERTEX
  8
16
  5
52F
 10
8.22292
 20
107.325
 30
0.000000
  70
    32
  0
VERTEX
  8
16
  5
530
 10
8.22297
 20
107.326
 30
0.000000
  70
    32
  0
VERTEX
  8
16
  5
531
 10
8.22303
 20
107.327
 30
0.000000
  70
    32
  0
VERTEX
  8
16
  5
532
 10
8.22308
 20
107.328
 30
0.000000
  70
    32
  0
VERTEX
  8
16
  5
533
 10
8.22313
 20
107.330
 30
0.000000
  70
    32
  0
VERTEX
  8
16
  5
534
 10
8.22318
 20
107.331
 30
0.000000
  70
    32
  0
VERTEX
  8
16
  5
535
 10
8.22324
 20
107.332
 30
0.000000
  70
    32
  0
VERTEX
  8
16
  5
536
 10
8.22329
 20
107.333
 30
0.000000
  70
    32
  0
VERTEX
  8
16
  5
537
 10
8.22334
 20
107.334
 30
0.000000
  70
    32
  0
VERTEX
  8
16
  5
538
 10
8.22340
 20
107.335
 30
0.000000
  70
    32
  0
VERTEX
  8
16
  5
539
 10
8.22345
 20
107.336
 30
0.000000
  70
    32
  0
VERTEX
  8
16
  5
53A
 10
8.22350
 20
107.337
 30
0.000000
  70
    32
  0
VERTEX
  8
16
  5
53B
 10
8.22356
 20
107.338
 30
0.000000
  70
    32
  0
VERTEX
  8
16
  5
53C
 10
8.22361
 20
107.339
 30
0.000000
  70
    32
  0
VERTEX
  8
16
  5
53D
 10
8.22367
 20
107.340
 30
0.000000
  70
    32
  0
VERTEX
  8
16
  5
53E
 10
8.22372
 20
107.341
 30
0.000000
  70
    32
  0
VERTEX
  8
16
  5
53F
 10
8.22377
 20
107.342
 30
0.000000
  70
    32
  0
VERTEX
  8
16
  5
540
 10
8.22383
 20
107.343
 30
0.000000
  70
    32
  0
VERTEX
  8
16
  5
541
 10
8.22388
 20
107.344
 30
0.000000
  70
    32
  0
VERTEX
  8
16
  5
542
 10
8.22394
 20
107.345
 30
0.000000
  70
    32
  0
VERTEX
  8
16
  5
543
 10
8.22399
 20
107.346
 30
0.000000
  70
    32
  0
VERTEX
  8
16
  5
544
 10
8.22404
 20
107.347
 30
0.000000
  70
    32
  0
VERTEX
  8
16
  5
545
 10
8.22410
 20
107.347
 30
0.000000
  70
    32
  0
VERTEX
  8
16
  5
546
 10
8.22415
 20
107.348
 30
0.000000
  70
    32
  0
VERTEX
  8
16
  5
547
 10
8.22421
 20
107.349
 30
0.000000
  70
    32
  0
VERTEX
  8
16
  5
548
 10
8.22426
 20
107.350
 30
0.000000
  70
    32
  0
VERTEX
  8
16
  5
549
 10
8.22431
 20
107.351
 30
0.000000
  70
    32
  0
VERTEX
  8
16
  5
54A
 10
8.22437
 20
107.352
 30
0.000000
  70
    32
  0
VERTEX
  8
16
  5
54B
 10
8.22442
 20
107.353
 30
0.000000
  70
    32
  0
VERTEX
  8
16
  5
54C
 10
8.22448
 20
107.354
 30
0.000000
  70
    32
  0
VERTEX
  8
16
  5
54D
 10
8.22453
 20
107.354
 30
0.000000
  70
    32
  0
VERTEX
  8
16
  5
54E
 10
8.22459
 20
107.355
 30
0.000000
  70
    32
  0
VERTEX
  8
16
  5
54F
 10
8.22464
 20
107.356
 30
0.000000
  70
    32
  0
VERTEX
  8
16
  5
550
 10
8.22470
 20
107.357
 30
0.000000
  70
    32
  0
VERTEX
  8
16
  5
551
 10
8.22475
 20
107.358
 30
0.000000
  70
    32
  0
VERTEX
  8
16
  5
552
 10
8.22481
 20
107.358
 30
0.000000
  70
    32
  0
VERTEX
  8
16
  5
553
 10
8.22486
 20
107.359
 30
0.000000
  70
    32
  0
VERTEX
  8
16
  5
554
 10
8.22492
 20
107.360
 30
0.000000
  70
    32
  0
VERTEX
  8
16
  5
555
 10
8.22497
 20
107.361
 30
0.000000
  70
    32
  0
VERTEX
  8
16
  5
556
 10
8.22503
 20
107.361
 30
0.000000
  70
    32
  0
VERTEX
  8
16
  5
557
 10
8.22508
 20
107.362
 30
0.000000
  70
    32
  0
VERTEX
  8
16
  5
558
 10
8.22514
 20
107.363
 30
0.000000
  70
    32
  0
VERTEX
  8
16
  5
559
 10
8.22519
 20
107.364
 30
0.000000
  70
    32
  0
VERTEX
  8
16
  5
55A
 10
8.22525
 20
107.364
 30
0.000000
  70
    32
  0
VERTEX
  8
16
  5
55B
 10
8.22530
 20
107.365
 30
0.000000
  70
    32
  0
VERTEX
  8
16
  5
55C
 10
8.22536
 20
107.366
 30
0.000000
  70
    32
  0
VERTEX
  8
16
  5
55D
 10
8.22542
 20
107.366
 30
0.000000
  70
    32
  0
VERTEX
  8
16
  5
55E
 10
8.22547
 20
107.367
 30
0.000000
  70
    32
  0
VERTEX
  8
16
  5
55F
 10
8.22553
 20
107.368
 30
0.000000
  70
    32
  0
VERTEX
  8
16
  5
560
 10
8.22558
 20
107.368
 30
0.000000
  70
    32
  0
VERTEX
  8
16
  5
561
 10
8.22564
 20
107.369
 30
0.000000
  70
    32
  0
VERTEX
  8
16
  5
562
 10
8.22569
 20
107.370
 30
0.000000
  70
    32
  0
VERTEX
  8
16
  5
563
 10
8.22575
 20
107.370
 30
0.000000
  70
    32
  0
VERTEX
  8
16
  5
564
 10
8.22581
 20
107.371
 30
0.000000
  70
    32
  0
VERTEX
  8
16
  5
565
 10
8.22577
 20
107.371
 30
0.000000
  70
    32
  0
VERTEX
  8
16
  5
566
 10
8.22572
 20
107.372
 30
0.000000
  70
    32
  0
VERTEX
  8
16
  5
567
 10
8.22568
 20
107.373
 30
0.000000
  70
    32
  0
VERTEX
  8
16
  5
568
 10
8.22565
 20
107.373
 30
0.000000
  70
    32
  0
VERTEX
  8
16
  5
569
 10
8.22561
 20
107.374
 30
0.000000
  70
    32
  0
VERTEX
  8
16
  5
56A
 10
8.22558
 20
107.374
 30
0.000000
  70
    32
  0
VERTEX
  8
16
  5
56B
 10
8.22556
 20
107.375
 30
0.000000
  70
    32
  0
VERTEX
  8
16
  5
56C
 10
8.22554
 20
107.375
 30
0.000000
  70
    32
  0
VERTEX
  8
16
  5
56D
 10
8.22553
 20
107.376
 30
0.000000
  70
    32
  0
VERTEX
  8
16
  5
56E
 10
8.22551
 20
107.376
 30
0.000000
  70
    32
  0
VERTEX
  8
16
  5
56F
 10
8.22551
 20
107.377
 30
0.000000
  70
    32
  0
VERTEX
  8
16
  5
570
 10
8.22550
 20
107.377
 30
0.000000
  70
    32
  0
VERTEX
  8
16
  5
571
 10
8.22551
 20
107.378
 30
0.000000
  70
    32
  0
VERTEX
  8
16
  5
572
 10
8.22551
 20
107.378
 30
0.000000
  70
    32
  0
VERTEX
  8
16
  5
573
 10
8.22552
 20
107.379
 30
0.000000
  70
    32
  0
VERTEX
  8
16
  5
574
 10
8.22554
 20
107.379
 30
0.000000
  70
    32
  0
VERTEX
  8
16
  5
575
 10
8.22556
 20
107.380
 30
0.000000
  70
    32
  0
VERTEX
  8
16
  5
576
 10
8.22558
 20
107.380
 30
0.000000
  70
    32
  0
VERTEX
  8
16
  5
577
 10
8.22561
 20
107.381
 30
0.000000
  70
    32
  0
VERTEX
  8
16
  5
578
 10
8.22564
 20
107.381
 30
0.000000
  70
    32
  0
VERTEX
  8
16
  5
579
 10
8.22568
 20
107.381
 30
0.000000
  70
    32
  0
VERTEX
  8
16
  5
57A
 10
8.22572
 20
107.382
 30
0.000000
  70
    32
  0
VERTEX
  8
16
  5
57B
 10
8.22576
 20
107.382
 30
0.000000
  70
    32
  0
VERTEX
  8
16
  5
57C
 10
8.22581
 20
107.383
 30
0.000000
  70
    32
  0
VERTEX
  8
16
  5
57D
 10
8.22587
 20
107.383
 30
0.000000
  70
    32
  0
VERTEX
  8
16
  5
57E
 10
8.22592
 20
107.383
 30
0.000000
  70
    32
  0
VERTEX
  8
16
  5
57F
 10
8.22599
 20
107.384
 30
0.000000
  70
    32
  0
VERTEX
  8
16
  5
580
 10
8.22605
 20
107.384
 30
0.000000
  70
    32
  0
VERTEX
  8
16
  5
581
 10
8.22613
 20
107.384
 30
0.000000
  70
    32
  0
VERTEX
  8
16
  5
582
 10
8.22620
 20
107.384
 30
0.000000
  70
    32
  0
VERTEX
  8
16
  5
583
 10
8.22628
 20
107.385
 30
0.000000
  70
    32
  0
VERTEX
  8
16
  5
584
 10
8.22636
 20
107.385
 30
0.000000
  70
    32
  0
VERTEX
  8
16
  5
585
 10
8.22645
 20
107.385
 30
0.000000
  70
    32
  0
VERTEX
  8
16
  5
586
 10
8.22655
 20
107.385
 30
0.000000
  70
    32
  0
VERTEX
  8
16
  5
587
 10
8.22664
 20
107.386
 30
0.000000
  70
    32
  0
VERTEX
  8
16
  5
588
 10
8.22674
 20
107.386
 30
0.000000
  70
    32
  0
VERTEX
  8
16
  5
589
 10
8.22685
 20
107.386
 30
0.000000
  70
    32
  0
VERTEX
  8
16
  5
58A
 10
8.22696
 20
107.386
 30
0.000000
  70
    32
  0
VERTEX
  8
16
  5
58B
 10
8.22707
 20
107.386
 30
0.000000
  70
    32
  0
VERTEX
  8
16
  5
58C
 10
8.22719
 20
107.387
 30
0.000000
  70
    32
  0
VERTEX
  8
16
  5
58D
 10
8.22732
 20
107.387
 30
0.000000
  70
    32
  0
VERTEX
  8
16
  5
58E
 10
8.22744
 20
107.387
 30
0.000000
  70
    32
  0
VERTEX
  8
16
  5
58F
 10
8.22757
 20
107.387
 30
0.000000
  70
    32
  0
VERTEX
  8
16
  5
590
 10
8.22771
 20
107.387
 30
0.000000
  70
    32
  0
VERTEX
  8
16
  5
591
 10
8.22785
 20
107.387
 30
0.000000
  70
    32
  0
VERTEX
  8
16
  5
592
 10
8.22800
 20
107.387
 30
0.000000
  70
    32
  0
VERTEX
  8
16
  5
593
 10
8.22814
 20
107.387
 30
0.000000
  70
    32
  0
VERTEX
  8
16
  5
594
 10
8.22830
 20
107.388
 30
0.000000
  70
    32
  0
VERTEX
  8
16
  5
595
 10
8.22846
 20
107.388
 30
0.000000
  70
    32
  0
VERTEX
  8
16
  5
596
 10
8.22862
 20
107.388
 30
0.000000
  70
    32
  0
VERTEX
  8
16
  5
597
 10
8.22878
 20
107.388
 30
0.000000
  70
    32
  0
VERTEX
  8
16
  5
598
 10
8.22895
 20
107.388
 30
0.000000
  70
    32
  0
VERTEX
  8
16
  5
599
 10
8.22913
 20
107.388
 30
0.000000
  70
    32
  0
VERTEX
  8
16
  5
59A
 10
8.22931
 20
107.388
 30
0.000000
  70
    32
  0
VERTEX
  8
16
  5
59B
 10
8.22949
 20
107.388
 30
0.000000
  70
    32
  0
VERTEX
  8
16
  5
59C
 10
8.22968
 20
107.388
 30
0.000000
  70
    32
  0
VERTEX
  8
16
  5
59D
 10
8.22987
 20
107.388
 30
0.000000
  70
    32
  0
VERTEX
  8
16
  5
59E
 10
8.23007
 20
107.388
 30
0.000000
  70
    32
  0
VERTEX
  8
16
  5
59F
 10
8.23027
 20
107.388
 30
0.000000
  70
    32
  0
VERTEX
  8
16
  5
5A0
 10
8.23047
 20
107.387
 30
0.000000
  70
    32
  0
SEQEND
  8
16
  5
5A1
  0
POLYLINE
  8
16
  5
5A2
  62
0
  66
     1
 10
0.000000
 20
0.000000
 30
0.000000
  70
     8
  0
VERTEX
  8
16
  5
5A3
 10
20.6919
 20
90.2967
 30
0.000000
  70
    32
  0
VERTEX
  8
16
  5
5A4
 10
20.6914
 20
90.2969
 30
0.000000
  70
    32
  0
VERTEX
  8
16
  5
5A5
 10
20.6910
 20
90.2972
 30
0.000000
  70
    32
  0
VERTEX
  8
16
  5
5A6
 10
20.6906
 20
90.2975
 30
0.000000
  70
    32
  0
VERTEX
  8
16
  5
5A7
 10
20.6901
 20
90.2977
 30
0.000000
  70
    32
  0
VERTEX
  8
16
  5
5A8
 10
20.6896
 20
90.2980
 30
0.000000
  70
    32
  0
VERTEX
  8
16
  5
5A9
 10
20.6892
 20
90.2983
 30
0.000000
  70
    32
  0
VERTEX
  8
16
  5
5AA
 10
20.6887
 20
90.2986
 30
0.000000
  70
    32
  0
VERTEX
  8
16
  5
5AB
 10
20.6882
 20
90.2989
 30
0.000000
  70
    32
  0
VERTEX
  8
16
  5
5AC
 10
20.6877
 20
90.2992
 30
0.000000
  70
    32
  0
VERTEX
  8
16
  5
5AD
 10
20.6872
 20
90.2996
 30
0.000000
  70
    32
  0
VERTEX
  8
16
  5
5AE
 10
20.6866
 20
90.2999
 30
0.000000
  70
    32
  0
VERTEX
  8
16
  5
5AF
 10
20.6861
 20
90.3003
 30
0.000000
  70
    32
  0
VERTEX
  8
16
  5
5B0
 10
20.6855
 20
90.3007
 30
0.000000
  70
    32
  0
VERTEX
  8
16
  5
5B1
 10
20.6849
 20
90.3011
 30
0.000000
  70
    32
  0
VERTEX
  8
16
  5
5B2
 10
20.6843
 20
90.3015
 30
0.000000
  70
    32
  0
VERTEX
  8
16
  5
5B3
 10
20.6836
 20
90.3020
 30
0.000000
  70
    32
  0
VERTEX
  8
16
  5
5B4
 10
20.6830
 20
90.3024
 30
0.000000
  70
    32
  0
VERTEX
  8
16
  5
5B5
 10
20.6823
 20
90.3030
 30
0.000000
  70
    32
  0
VERTEX
  8
16
  5
5B6
 10
20.6815
 20
90.3035
 30
0.000000
  70
    32
  0
VERTEX
  8
16
  5
5B7
 10
20.6808
 20
90.3041
 30
0.000000
  70
    32
  0
VERTEX
  8
16
  5
5B8
 10
20.6800
 20
90.3047
 30
0.000000
  70
    32
  0
VERTEX
  8
16
  5
5B9
 10
20.6792
 20
90.3053
 30
0.000000
  70
    32
  0
VERTEX
  8
16
  5
5BA
 10
20.6783
 20
90.3060
 30
0.000000
  70
    32
  0
VERTEX
  8
16
  5
5BB
 10
20.6774
 20
90.3067
 30
0.000000
  70
    32
  0
VERTEX
  8
16
  5
5BC
 10
20.6764
 20
90.3074
 30
0.000000
  70
    32
  0
VERTEX
  8
16
  5
5BD
 10
20.6754
 20
90.3082
 30
0.000000
  70
    32
  0
VERTEX
  8
16
  5
5BE
 10
20.6744
 20
90.3090
 30
0.000000
  70
    32
  0
VERTEX
  8
16
  5
5BF
 10
20.6733
 20
90.3099
 30
0.000000
  70
    32
  0
VERTEX
  8
16
  5
5C0
 10
20.6722
 20
90.3108
 30
0.000000
  70
    32
  0
VERTEX
  8
16
  5
5C1
 10
20.6710
 20
90.3118
 30
0.000000
  70
    32
  0
VERTEX
  8
16
  5
5C2
 10
20.6698
 20
90.3128
 30
0.000000
  70
    32
  0
VERTEX
  8
16
  5
5C3
 10
20.6685
 20
90.3139
 30
0.000000
  70
    32
  0
VERTEX
  8
16
  5
5C4
 10
20.6672
 20
90.3150
 30
0.000000
  70
    32
  0
VERTEX
  8
16
  5
5C5
 10
20.6658
 20
90.3162
 30
0.000000
  70
    32
  0
VERTEX
  8
16
  5
5C6
 10
20.6644
 20
90.3174
 30
0.000000
  70
    32
  0
VERTEX
  8
16
  5
5C7
 10
20.6629
 20
90.3187
 30
0.000000
  70
    32
  0
VERTEX
  8
16
  5
5C8
 10
20.6613
 20
90.3200
 30
0.000000
  70
    32
  0
VERTEX
  8
16
  5
5C9
 10
20.6598
 20
90.3213
 30
0.000000
  70
    32
  0
VERTEX
  8
16
  5
5CA
 10
20.6581
 20
90.3228
 30
0.000000
  70
    32
  0
VERTEX
  8
16
  5
5CB
 10
20.6564
 20
90.3242
 30
0.000000
  70
    32
  0
VERTEX
  8
16
  5
5CC
 10
20.6547
 20
90.3257
 30
0.000000
  70
    32
  0
VERTEX
  8
16
  5
5CD
 10
20.6529
 20
90.3273
 30
0.000000
  70
    32
  0
VERTEX
  8
16
  5
5CE
 10
20.6511
 20
90.3289
 30
0.000000
  70
    32
  0
VERTEX
  8
16
  5
5CF
 10
20.6492
 20
90.3305
 30
0.000000
  70
    32
  0
VERTEX
  8
16
  5
5D0
 10
20.6473
 20
90.3322
 30
0.000000
  70
    32
  0
VERTEX
  8
16
  5
5D1
 10
20.6453
 20
90.3339
 30
0.000000
  70
    32
  0
VERTEX
  8
16
  5
5D2
 10
20.6433
 20
90.3357
 30
0.000000
  70
    32
  0
VERTEX
  8
16
  5
5D3
 10
20.6412
 20
90.3375
 30
0.000000
  70
    32
  0
VERTEX
  8
16
  5
5D4
 10
20.6391
 20
90.3393
 30
0.000000
  70
    32
  0
VERTEX
  8
16
  5
5D5
 10
20.6370
 20
90.3412
 30
0.000000
  70
    32
  0
VERTEX
  8
16
  5
5D6
 10
20.6348
 20
90.3431
 30
0.000000
  70
    32
  0
VERTEX
  8
16
  5
5D7
 10
20.6326
 20
90.3451
 30
0.000000
  70
    32
  0
VERTEX
  8
16
  5
5D8
 10
20.6303
 20
90.3471
 30
0.000000
  70
    32
  0
VERTEX
  8
16
  5
5D9
 10
20.6280
 20
90.3492
 30
0.000000
  70
    32
  0
VERTEX
  8
16
  5
5DA
 10
20.6257
 20
90.3512
 30
0.000000
  70
    32
  0
VERTEX
  8
16
  5
5DB
 10
20.6233
 20
90.3533
 30
0.000000
  70
    32
  0
VERTEX
  8
16
  5
5DC
 10
20.6209
 20
90.3555
 30
0.000000
  70
    32
  0
VERTEX
  8
16
  5
5DD
 10
20.6185
 20
90.3577
 30
0.000000
  70
    32
  0
VERTEX
  8
16
  5
5DE
 10
20.6160
 20
90.3599
 30
0.000000
  70
    32
  0
VERTEX
  8
16
  5
5DF
 10
20.6135
 20
90.3621
 30
0.000000
  70
    32
  0
VERTEX
  8
16
  5
5E0
 10
20.6109
 20
90.3644
 30
0.000000
  70
    32
  0
VERTEX
  8
16
  5
5E1
 10
20.6083
 20
90.3667
 30
0.000000
  70
    32
  0
VERTEX
  8
16
  5
5E2
 10
20.6057
 20
90.3690
 30
0.000000
  70
    32
  0
VERTEX
  8
16
  5
5E3
 10
20.6030
 20
90.3714
 30
0.000000
  70
    32
  0
VERTEX
  8
16
  5
5E4
 10
20.6004
 20
90.3738
 30
0.000000
  70
    32
  0
VERTEX
  8
16
  5
5E5
 10
20.5976
 20
90.3762
 30
0.000000
  70
    32
  0
VERTEX
  8
16
  5
5E6
 10
20.5949
 20
90.3786
 30
0.000000
  70
    32
  0
VERTEX
  8
16
  5
5E7
 10
20.5921
 20
90.3811
 30
0.000000
  70
    32
  0
VERTEX
  8
16
  5
5E8
 10
20.5893
 20
90.3836
 30
0.000000
  70
    32
  0
VERTEX
  8
16
  5
5E9
 10
20.5865
 20
90.3862
 30
0.000000
  70
    32
  0
VERTEX
  8
16
  5
5EA
 10
20.5836
 20
90.3887
 30
0.000000
  70
    32
  0
VERTEX
  8
16
  5
5EB
 10
20.5807
 20
90.3913
 30
0.000000
  70
    32
  0
VERTEX
  8
16
  5
5EC
 10
20.5778
 20
90.3939
 30
0.000000
  70
    32
  0
VERTEX
  8
16
  5
5ED
 10
20.5748
 20
90.3966
 30
0.000000
  70
    32
  0
VERTEX
  8
16
  5
5EE
 10
20.5718
 20
90.3992
 30
0.000000
  70
    32
  0
VERTEX
  8
16
  5
5EF
 10
20.5688
 20
90.4019
 30
0.000000
  70
    32
  0
VERTEX
  8
16
  5
5F0
 10
20.5657
 20
90.4046
 30
0.000000
  70
    32
  0
VERTEX
  8
16
  5
5F1
 10
20.5627
 20
90.4074
 30
0.000000
  70
    32
  0
VERTEX
  8
16
  5
5F2
 10
20.5595
 20
90.4101
 30
0.000000
  70
    32
  0
VERTEX
  8
16
  5
5F3
 10
20.5564
 20
90.4129
 30
0.000000
  70
    32
  0
VERTEX
  8
16
  5
5F4
 10
20.5533
 20
90.4157
 30
0.000000
  70
    32
  0
VERTEX
  8
16
  5
5F5
 10
20.5501
 20
90.4186
 30
0.000000
  70
    32
  0
VERTEX
  8
16
  5
5F6
 10
20.5468
 20
90.4214
 30
0.000000
  70
    32
  0
VERTEX
  8
16
  5
5F7
 10
20.5436
 20
90.4243
 30
0.000000
  70
    32
  0
VERTEX
  8
16
  5
5F8
 10
20.5403
 20
90.4273
 30
0.000000
  70
    32
  0
VERTEX
  8
16
  5
5F9
 10
20.5370
 20
90.4302
 30
0.000000
  70
    32
  0
VERTEX
  8
16
  5
5FA
 10
20.5337
 20
90.4331
 30
0.000000
  70
    32
  0
VERTEX
  8
16
  5
5FB
 10
20.5303
 20
90.4361
 30
0.000000
  70
    32
  0
VERTEX
  8
16
  5
5FC
 10
20.5270
 20
90.4391
 30
0.000000
  70
    32
  0
VERTEX
  8
16
  5
5FD
 10
20.5236
 20
90.4422
 30
0.000000
  70
    32
  0
VERTEX
  8
16
  5
5FE
 10
20.5201
 20
90.4452
 30
0.000000
  70
    32
  0
VERTEX
  8
16
  5
5FF
 10
20.5167
 20
90.4483
 30
0.000000
  70
    32
  0
VERTEX
  8
16
  5
600
 10
20.5132
 20
90.4514
 30
0.000000
  70
    32
  0
VERTEX
  8
16
  5
601
 10
20.5097
 20
90.4545
 30
0.000000
  70
    32
  0
VERTEX
  8
16
  5
602
 10
20.5062
 20
90.4576
 30
0.000000
  70
    32
  0
VERTEX
  8
16
  5
603
 10
20.5026
 20
90.4608
 30
0.000000
  70
    32
  0
VERTEX
  8
16
  5
604
 10
20.4990
 20
90.4639
 30
0.000000
  70
    32
  0
VERTEX
  8
16
  5
605
 10
20.4954
 20
90.4671
 30
0.000000
  70
    32
  0
VERTEX
  8
16
  5
606
 10
20.4918
 20
90.4704
 30
0.000000
  70
    32
  0
VERTEX
  8
16
  5
607
 10
20.4881
 20
90.4736
 30
0.000000
  70
    32
  0
VERTEX
  8
16
  5
608
 10
20.4844
 20
90.4768
 30
0.000000
  70
    32
  0
VERTEX
  8
16
  5
609
 10
20.4807
 20
90.4801
 30
0.000000
  70
    32
  0
VERTEX
  8
16
  5
60A
 10
20.4770
 20
90.4834
 30
0.000000
  70
    32
  0
VERTEX
  8
16
  5
60B
 10
20.4733
 20
90.4867
 30
0.000000
  70
    32
  0
VERTEX
  8
16
  5
60C
 10
20.4695
 20
90.4901
 30
0.000000
  70
    32
  0
VERTEX
  8
16
  5
60D
 10
20.4657
 20
90.4934
 30
0.000000
  70
    32
  0
VERTEX
  8
16
  5
60E
 10
20.4619
 20
90.4968
 30
0.000000
  70
    32
  0
VERTEX
  8
16
  5
60F
 10
20.4580
 20
90.5002
 30
0.000000
  70
    32
  0
VERTEX
  8
16
  5
610
 10
20.4542
 20
90.5036
 30
0.000000
  70
    32
  0
VERTEX
  8
16
  5
611
 10
20.4503
 20
90.5070
 30
0.000000
  70
    32
  0
VERTEX
  8
16
  5
612
 10
20.4464
 20
90.5104
 30
0.000000
  70
    32
  0
VERTEX
  8
16
  5
613
 10
20.4425
 20
90.5139
 30
0.000000
  70
    32
  0
VERTEX
  8
16
  5
614
 10
20.4385
 20
90.5173
 30
0.000000
  70
    32
  0
VERTEX
  8
16
  5
615
 10
20.4346
 20
90.5208
 30
0.000000
  70
    32
  0
VERTEX
  8
16
  5
616
 10
20.4306
 20
90.5243
 30
0.000000
  70
    32
  0
VERTEX
  8
16
  5
617
 10
20.4266
 20
90.5279
 30
0.000000
  70
    32
  0
VERTEX
  8
16
  5
618
 10
20.4225
 20
90.5314
 30
0.000000
  70
    32
  0
VERTEX
  8
16
  5
619
 10
20.4185
 20
90.5349
 30
0.000000
  70
    32
  0
VERTEX
  8
16
  5
61A
 10
20.4144
 20
90.5385
 30
0.000000
  70
    32
  0
VERTEX
  8
16
  5
61B
 10
20.4103
 20
90.5421
 30
0.000000
  70
    32
  0
VERTEX
  8
16
  5
61C
 10
20.4062
 20
90.5457
 30
0.000000
  70
    32
  0
VERTEX
  8
16
  5
61D
 10
20.4021
 20
90.5493
 30
0.000000
  70
    32
  0
VERTEX
  8
16
  5
61E
 10
20.3980
 20
90.5529
 30
0.000000
  70
    32
  0
VERTEX
  8
16
  5
61F
 10
20.3938
 20
90.5566
 30
0.000000
  70
    32
  0
VERTEX
  8
16
  5
620
 10
20.3896
 20
90.5602
 30
0.000000
  70
    32
  0
VERTEX
  8
16
  5
621
 10
20.3854
 20
90.5639
 30
0.000000
  70
    32
  0
VERTEX
  8
16
  5
622
 10
20.3812
 20
90.5675
 30
0.000000
  70
    32
  0
VERTEX
  8
16
  5
623
 10
20.3770
 20
90.5712
 30
0.000000
  70
    32
  0
VERTEX
  8
16
  5
624
 10
20.3727
 20
90.5749
 30
0.000000
  70
    32
  0
VERTEX
  8
16
  5
625
 10
20.3684
 20
90.5787
 30
0.000000
  70
    32
  0
VERTEX
  8
16
  5
626
 10
20.3641
 20
90.5824
 30
0.000000
  70
    32
  0
VERTEX
  8
16
  5
627
 10
20.3598
 20
90.5861
 30
0.000000
  70
    32
  0
VERTEX
  8
16
  5
628
 10
20.3555
 20
90.5899
 30
0.000000
  70
    32
  0
VERTEX
  8
16
  5
629
 10
20.3512
 20
90.5936
 30
0.000000
  70
    32
  0
VERTEX
  8
16
  5
62A
 10
20.3468
 20
90.5974
 30
0.000000
  70
    32
  0
VERTEX
  8
16
  5
62B
 10
20.3424
 20
90.6012
 30
0.000000
  70
    32
  0
VERTEX
  8
16
  5
62C
 10
20.3381
 20
90.6050
 30
0.000000
  70
    32
  0
VERTEX
  8
16
  5
62D
 10
20.3337
 20
90.6088
 30
0.000000
  70
    32
  0
VERTEX
  8
16
  5
62E
 10
20.3292
 20
90.6126
 30
0.000000
  70
    32
  0
VERTEX
  8
16
  5
62F
 10
20.3248
 20
90.6164
 30
0.000000
  70
    32
  0
VERTEX
  8
16
  5
630
 10
20.3203
 20
90.6203
 30
0.000000
  70
    32
  0
VERTEX
  8
16
  5
631
 10
20.3159
 20
90.6241
 30
0.000000
  70
    32
  0
VERTEX
  8
16
  5
632
 10
20.3114
 20
90.6280
 30
0.000000
  70
    32
  0
VERTEX
  8
16
  5
633
 10
20.3069
 20
90.6319
 30
0.000000
  70
    32
  0
VERTEX
  8
16
  5
634
 10
20.3023
 20
90.6358
 30
0.000000
  70
    32
  0
VERTEX
  8
16
  5
635
 10
20.2978
 20
90.6396
 30
0.000000
  70
    32
  0
VERTEX
  8
16
  5
636
 10
20.2933
 20
90.6435
 30
0.000000
  70
    32
  0
VERTEX
  8
16
  5
637
 10
20.2887
 20
90.6475
 30
0.000000
  70
    32
  0
VERTEX
  8
16
  5
638
 10
20.2841
 20
90.6514
 30
0.000000
  70
    32
  0
VERTEX
  8
16
  5
639
 10
20.2795
 20
90.6553
 30
0.000000
  70
    32
  0
VERTEX
  8
16
  5
63A
 10
20.2749
 20
90.6592
 30
0.000000
  70
    32
  0
VERTEX
  8
16
  5
63B
 10
20.2703
 20
90.6632
 30
0.000000
  70
    32
  0
VERTEX
  8
16
  5
63C
 10
20.2656
 20
90.6672
 30
0.000000
  70
    32
  0
VERTEX
  8
16
  5
63D
 10
20.2610
 20
90.6711
 30
0.000000
  70
    32
  0
VERTEX
  8
16
  5
63E
 10
20.2563
 20
90.6751
 30
0.000000
  70
    32
  0
VERTEX
  8
16
  5
63F
 10
20.2516
 20
90.6791
 30
0.000000
  70
    32
  0
VERTEX
  8
16
  5
640
 10
20.2469
 20
90.6831
 30
0.000000
  70
    32
  0
VERTEX
  8
16
  5
641
 10
20.2422
 20
90.6871
 30
0.000000
  70
    32
  0
VERTEX
  8
16
  5
642
 10
20.2375
 20
90.6911
 30
0.000000
  70
    32
  0
VERTEX
  8
16
  5
643
 10
20.2327
 20
90.6951
 30
0.000000
  70
    32
  0
VERTEX
  8
16
  5
644
 10
20.2280
 20
90.6991
 30
0.000000
  70
    32
  0
VERTEX
  8
16
  5
645
 10
20.2232
 20
90.7031
 30
0.000000
  70
    32
  0
VERTEX
  8
16
  5
646
 10
20.2184
 20
90.7071
 30
0.000000
  70
    32
  0
VERTEX
  8
16
  5
647
 10
20.2136
 20
90.7112
 30
0.000000
  70
    32
  0
VERTEX
  8
16
  5
648
 10
20.2088
 20
90.7152
 30
0.000000
  70
    32
  0
VERTEX
  8
16
  5
649
 10
20.2040
 20
90.7193
 30
0.000000
  70
    32
  0
VERTEX
  8
16
  5
64A
 10
20.1992
 20
90.7233
 30
0.000000
  70
    32
  0
VERTEX
  8
16
  5
64B
 10
20.1943
 20
90.7274
 30
0.000000
  70
    32
  0
VERTEX
  8
16
  5
64C
 10
20.1894
 20
90.7315
 30
0.000000
  70
    32
  0
VERTEX
  8
16
  5
64D
 10
20.1846
 20
90.7356
 30
0.000000
  70
    32
  0
VERTEX
  8
16
  5
64E
 10
20.1797
 20
90.7396
 30
0.000000
  70
    32
  0
VERTEX
  8
16
  5
64F
 10
20.1748
 20
90.7437
 30
0.000000
  70
    32
  0
VERTEX
  8
16
  5
650
 10
20.1699
 20
90.7478
 30
0.000000
  70
    32
  0
VERTEX
  8
16
  5
651
 10
20.1649
 20
90.7519
 30
0.000000
  70
    32
  0
VERTEX
  8
16
  5
652
 10
20.1600
 20
90.7560
 30
0.000000
  70
    32
  0
VERTEX
  8
16
  5
653
 10
20.1550
 20
90.7601
 30
0.000000
  70
    32
  0
VERTEX
  8
16
  5
654
 10
20.1501
 20
90.7643
 30
0.000000
  70
    32
  0
VERTEX
  8
16
  5
655
 10
20.1451
 20
90.7684
 30
0.000000
  70
    32
  0
VERTEX
  8
16
  5
656
 10
20.1401
 20
90.7725
 30
0.000000
  70
    32
  0
VERTEX
  8
16
  5
657
 10
20.1351
 20
90.7766
 30
0.000000
  70
    32
  0
VERTEX
  8
16
  5
658
 10
20.1301
 20
90.7808
 30
0.000000
  70
    32
  0
VERTEX
  8
16
  5
659
 10
20.1251
 20
90.7849
 30
0.000000
  70
    32
  0
VERTEX
  8
16
  5
65A
 10
20.1200
 20
90.7890
 30
0.000000
  70
    32
  0
VERTEX
  8
16
  5
65B
 10
20.1150
 20
90.7932
 30
0.000000
  70
    32
  0
VERTEX
  8
16
  5
65C
 10
20.1099
 20
90.7973
 30
0.000000
  70
    32
  0
VERTEX
  8
16
  5
65D
 10
20.1049
 20
90.8015
 30
0.000000
  70
    32
  0
VERTEX
  8
16
  5
65E
 10
20.0998
 20
90.8056
 30
0.000000
  70
    32
  0
VERTEX
  8
16
  5
65F
 10
20.0947
 20
90.8098
 30
0.000000
  70
    32
  0
VERTEX
  8
16
  5
660
 10
20.0896
 20
90.8139
 30
0.000000
  70
    32
  0
VERTEX
  8
16
  5
661
 10
20.0845
 20
90.8181
 30
0.000000
  70
    32
  0
VERTEX
  8
16
  5
662
 10
20.0794
 20
90.8223
 30
0.000000
  70
    32
  0
VERTEX
  8
16
  5
663
 10
20.0742
 20
90.8264
 30
0.000000
  70
    32
  0
VERTEX
  8
16
  5
664
 10
20.0691
 20
90.8306
 30
0.000000
  70
    32
  0
VERTEX
  8
16
  5
665
 10
20.0639
 20
90.8348
 30
0.000000
  70
    32
  0
VERTEX
  8
16
  5
666
 10
20.0588
 20
90.8389
 30
0.000000
  70
    32
  0
VERTEX
  8
16
  5
667
 10
20.0536
 20
90.8431
 30
0.000000
  70
    32
  0
VERTEX
  8
16
  5
668
 10
20.0484
 20
90.8473
 30
0.000000
  70
    32
  0
VERTEX
  8
16
  5
669
 10
20.0432
 20
90.8515
 30
0.000000
  70
    32
  0
VERTEX
  8
16
  5
66A
 10
20.0380
 20
90.8556
 30
0.000000
  70
    32
  0
VERTEX
  8
16
  5
66B
 10
20.0328
 20
90.8598
 30
0.000000
  70
    32
  0
VERTEX
  8
16
  5
66C
 10
20.0276
 20
90.8640
 30
0.000000
  70
    32
  0
VERTEX
  8
16
  5
66D
 10
20.0224
 20
90.8682
 30
0.000000
  70
    32
  0
VERTEX
  8
16
  5
66E
 10
20.0172
 20
90.8724
 30
0.000000
  70
    32
  0
VERTEX
  8
16
  5
66F
 10
20.0119
 20
90.8766
 30
0.000000
  70
    32
  0
VERTEX
  8
16
  5
670
 10
20.0067
 20
90.8808
 30
0.000000
  70
    32
  0
VERTEX
  8
16
  5
671
 10
20.0014
 20
90.8850
 30
0.000000
  70
    32
  0
VERTEX
  8
16
  5
672
 10
19.9961
 20
90.8892
 30
0.000000
  70
    32
  0
VERTEX
  8
16
  5
673
 10
19.9909
 20
90.8933
 30
0.000000
  70
    32
  0
VERTEX
  8
16
  5
674
 10
19.9856
 20
90.8975
 30
0.000000
  70
    32
  0
VERTEX
  8
16
  5
675
 10
19.9803
 20
90.9017
 30
0.000000
  70
    32
  0
VERTEX
  8
16
  5
676
 10
19.9750
 20
90.9059
 30
0.000000
  70
    32
  0
VERTEX
  8
16
  5
677
 10
19.9697
 20
90.9101
 30
0.000000
  70
    32
  0
VERTEX
  8
16
  5
678
 10
19.9644
 20
90.9144
 30
0.000000
  70
    32
  0
VERTEX
  8
16
  5
679
 10
19.9590
 20
90.9186
 30
0.000000
  70
    32
  0
VERTEX
  8
16
  5
67A
 10
19.9537
 20
90.9228
 30
0.000000
  70
    32
  0
VERTEX
  8
16
  5
67B
 10
19.9484
 20
90.9270
 30
0.000000
  70
    32
  0
VERTEX
  8
16
  5
67C
 10
19.9431
 20
90.9312
 30
0.000000
  70
    32
  0
VERTEX
  8
16
  5
67D
 10
19.9377
 20
90.9354
 30
0.000000
  70
    32
  0
VERTEX
  8
16
  5
67E
 10
19.9324
 20
90.9396
 30
0.000000
  70
    32
  0
VERTEX
  8
16
  5
67F
 10
19.9270
 20
90.9438
 30
0.000000
  70
    32
  0
VERTEX
  8
16
  5
680
 10
19.9216
 20
90.9480
 30
0.000000
  70
    32
  0
VERTEX
  8
16
  5
681
 10
19.9163
 20
90.9522
 30
0.000000
  70
    32
  0
VERTEX
  8
16
  5
682
 10
19.9109
 20
90.9565
 30
0.000000
  70
    32
  0
VERTEX
  8
16
  5
683
 10
19.9055
 20
90.9607
 30
0.000000
  70
    32
  0
VERTEX
  8
16
  5
684
 10
19.9001
 20
90.9649
 30
0.000000
  70
    32
  0
VERTEX
  8
16
  5
685
 10
19.8947
 20
90.9691
 30
0.000000
  70
    32
  0
VERTEX
  8
16
  5
686
 10
19.8894
 20
90.9733
 30
0.000000
  70
    32
  0
VERTEX
  8
16
  5
687
 10
19.8840
 20
90.9776
 30
0.000000
  70
    32
  0
VERTEX
  8
16
  5
688
 10
19.8786
 20
90.9818
 30
0.000000
  70
    32
  0
VERTEX
  8
16
  5
689
 10
19.8732
 20
90.9860
 30
0.000000
  70
    32
  0
VERTEX
  8
16
  5
68A
 10
19.8677
 20
90.9902
 30
0.000000
  70
    32
  0
VERTEX
  8
16
  5
68B
 10
19.8623
 20
90.9945
 30
0.000000
  70
    32
  0
VERTEX
  8
16
  5
68C
 10
19.8569
 20
90.9987
 30
0.000000
  70
    32
  0
VERTEX
  8
16
  5
68D
 10
19.8515
 20
91.0029
 30
0.000000
  70
    32
  0
VERTEX
  8
16
  5
68E
 10
19.8461
 20
91.0071
 30
0.000000
  70
    32
  0
VERTEX
  8
16
  5
68F
 10
19.8406
 20
91.0114
 30
0.000000
  70
    32
  0
VERTEX
  8
16
  5
690
 10
19.8352
 20
91.0156
 30
0.000000
  70
    32
  0
VERTEX
  8
16
  5
691
 10
19.8298
 20
91.0198
 30
0.000000
  70
    32
  0
VERTEX
  8
16
  5
692
 10
19.8243
 20
91.0241
 30
0.000000
  70
    32
  0
VERTEX
  8
16
  5
693
 10
19.8189
 20
91.0283
 30
0.000000
  70
    32
  0
VERTEX
  8
16
  5
694
 10
19.8135
 20
91.0325
 30
0.000000
  70
    32
  0
VERTEX
  8
16
  5
695
 10
19.8080
 20
91.0368
 30
0.000000
  70
    32
  0
VERTEX
  8
16
  5
696
 10
19.8026
 20
91.0410
 30
0.000000
  70
    32
  0
VERTEX
  8
16
  5
697
 10
19.7971
 20
91.0452
 30
0.000000
  70
    32
  0
VERTEX
  8
16
  5
698
 10
19.7917
 20
91.0495
 30
0.000000
  70
    32
  0
VERTEX
  8
16
  5
699
 10
19.7862
 20
91.0537
 30
0.000000
  70
    32
  0
VERTEX
  8
16
  5
69A
 10
19.7808
 20
91.0579
 30
0.000000
  70
    32
  0
VERTEX
  8
16
  5
69B
 10
19.7753
 20
91.0622
 30
0.000000
  70
    32
  0
VERTEX
  8
16
  5
69C
 10
19.7699
 20
91.0664
 30
0.000000
  70
    32
  0
VERTEX
  8
16
  5
69D
 10
19.7644
 20
91.0706
 30
0.000000
  70
    32
  0
VERTEX
  8
16
  5
69E
 10
19.7589
 20
91.0749
 30
0.000000
  70
    32
  0
VERTEX
  8
16
  5
69F
 10
19.7535
 20
91.0791
 30
0.000000
  70
    32
  0
VERTEX
  8
16
  5
6A0
 10
19.7480
 20
91.0833
 30
0.000000
  70
    32
  0
VERTEX
  8
16
  5
6A1
 10
19.7426
 20
91.0876
 30
0.000000
  70
    32
  0
VERTEX
  8
16
  5
6A2
 10
19.7371
 20
91.0918
 30
0.000000
  70
    32
  0
SEQEND
  8
16
  5
6A3
  0
POLYLINE
  8
16
  5
6A4
  62
0
  66
     1
 10
0.000000
 20
0.000000
 30
0.000000
  70
     8
  0
VERTEX
  8
16
  5
6A5
 10
20.6962
 20
90.4853
 30
0.000000
  70
    32
  0
VERTEX
  8
16
  5
6A6
 10
20.6962
 20
90.4838
 30
0.000000
  70
    32
  0
VERTEX
  8
16
  5
6A7
 10
20.6962
 20
90.4823
 30
0.000000
  70
    32
  0
VERTEX
  8
16
  5
6A8
 10
20.6962
 20
90.4809
 30
0.000000
  70
    32
  0
VERTEX
  8
16
  5
6A9
 10
20.6962
 20
90.4794
 30
0.000000
  70
    32
  0
VERTEX
  8
16
  5
6AA
 10
20.6961
 20
90.4779
 30
0.000000
  70
    32
  0
VERTEX
  8
16
  5
6AB
 10
20.6961
 20
90.4764
 30
0.000000
  70
    32
  0
VERTEX
  8
16
  5
6AC
 10
20.6961
 20
90.4749
 30
0.000000
  70
    32
  0
VERTEX
  8
16
  5
6AD
 10
20.6961
 20
90.4734
 30
0.000000
  70
    32
  0
VERTEX
  8
16
  5
6AE
 10
20.6960
 20
90.4719
 30
0.000000
  70
    32
  0
VERTEX
  8
16
  5
6AF
 10
20.6960
 20
90.4704
 30
0.000000
  70
    32
  0
VERTEX
  8
16
  5
6B0
 10
20.6960
 20
90.4689
 30
0.000000
  70
    32
  0
VERTEX
  8
16
  5
6B1
 10
20.6960
 20
90.4675
 30
0.000000
  70
    32
  0
VERTEX
  8
16
  5
6B2
 10
20.6960
 20
90.4660
 30
0.000000
  70
    32
  0
VERTEX
  8
16
  5
6B3
 10
20.6959
 20
90.4645
 30
0.000000
  70
    32
  0
VERTEX
  8
16
  5
6B4
 10
20.6959
 20
90.4630
 30
0.000000
  70
    32
  0
VERTEX
  8
16
  5
6B5
 10
20.6959
 20
90.4615
 30
0.000000
  70
    32
  0
VERTEX
  8
16
  5
6B6
 10
20.6959
 20
90.4600
 30
0.000000
  70
    32
  0
VERTEX
  8
16
  5
6B7
 10
20.6958
 20
90.4585
 30
0.000000
  70
    32
  0
VERTEX
  8
16
  5
6B8
 10
20.6958
 20
90.4570
 30
0.000000
  70
    32
  0
VERTEX
  8
16
  5
6B9
 10
20.6958
 20
90.4555
 30
0.000000
  70
    32
  0
VERTEX
  8
16
  5
6BA
 10
20.6958
 20
90.4541
 30
0.000000
  70
    32
  0
VERTEX
  8
16
  5
6BB
 10
20.6957
 20
90.4526
 30
0.000000
  70
    32
  0
VERTEX
  8
16
  5
6BC
 10
20.6957
 20
90.4511
 30
0.000000
  70
    32
  0
VERTEX
  8
16
  5
6BD
 10
20.6957
 20
90.4496
 30
0.000000
  70
    32
  0
VERTEX
  8
16
  5
6BE
 10
20.6957
 20
90.4481
 30
0.000000
  70
    32
  0
VERTEX
  8
16
  5
6BF
 10
20.6956
 20
90.4466
 30
0.000000
  70
    32
  0
VERTEX
  8
16
  5
6C0
 10
20.6956
 20
90.4451
 30
0.000000
  70
    32
  0
VERTEX
  8
16
  5
6C1
 10
20.6956
 20
90.4436
 30
0.000000
  70
    32
  0
VERTEX
  8
16
  5
6C2
 10
20.6956
 20
90.4421
 30
0.000000
  70
    32
  0
VERTEX
  8
16
  5
6C3
 10
20.6955
 20
90.4407
 30
0.000000
  70
    32
  0
VERTEX
  8
16
  5
6C4
 10
20.6955
 20
90.4392
 30
0.000000
  70
    32
  0
VERTEX
  8
16
  5
6C5
 10
20.6955
 20
90.4377
 30
0.000000
  70
    32
  0
VERTEX
  8
16
  5
6C6
 10
20.6954
 20
90.4362
 30
0.000000
  70
    32
  0
VERTEX
  8
16
  5
6C7
 10
20.6954
 20
90.4347
 30
0.000000
  70
    32
  0
VERTEX
  8
16
  5
6C8
 10
20.6954
 20
90.4332
 30
0.000000
  70
    32
  0
VERTEX
  8
16
  5
6C9
 10
20.6954
 20
90.4317
 30
0.000000
  70
    32
  0
VERTEX
  8
16
  5
6CA
 10
20.6953
 20
90.4302
 30
0.000000
  70
    32
  0
VERTEX
  8
16
  5
6CB
 10
20.6953
 20
90.4288
 30
0.000000
  70
    32
  0
VERTEX
  8
16
  5
6CC
 10
20.6953
 20
90.4273
 30
0.000000
  70
    32
  0
VERTEX
  8
16
  5
6CD
 10
20.6952
 20
90.4258
 30
0.000000
  70
    32
  0
VERTEX
  8
16
  5
6CE
 10
20.6952
 20
90.4243
 30
0.000000
  70
    32
  0
VERTEX
  8
16
  5
6CF
 10
20.6952
 20
90.4228
 30
0.000000
  70
    32
  0
VERTEX
  8
16
  5
6D0
 10
20.6952
 20
90.4213
 30
0.000000
  70
    32
  0
VERTEX
  8
16
  5
6D1
 10
20.6951
 20
90.4198
 30
0.000000
  70
    32
  0
VERTEX
  8
16
  5
6D2
 10
20.6951
 20
90.4183
 30
0.000000
  70
    32
  0
VERTEX
  8
16
  5
6D3
 10
20.6951
 20
90.4169
 30
0.000000
  70
    32
  0
VERTEX
  8
16
  5
6D4
 10
20.6950
 20
90.4154
 30
0.000000
  70
    32
  0
VERTEX
  8
16
  5
6D5
 10
20.6950
 20
90.4139
 30
0.000000
  70
    32
  0
VERTEX
  8
16
  5
6D6
 10
20.6950
 20
90.4124
 30
0.000000
  70
    32
  0
VERTEX
  8
16
  5
6D7
 10
20.6949
 20
90.4109
 30
0.000000
  70
    32
  0
VERTEX
  8
16
  5
6D8
 10
20.6949
 20
90.4094
 30
0.000000
  70
    32
  0
VERTEX
  8
16
  5
6D9
 10
20.6949
 20
90.4079
 30
0.000000
  70
    32
  0
VERTEX
  8
16
  5
6DA
 10
20.6948
 20
90.4065
 30
0.000000
  70
    32
  0
VERTEX
  8
16
  5
6DB
 10
20.6948
 20
90.4050
 30
0.000000
  70
    32
  0
VERTEX
  8
16
  5
6DC
 10
20.6948
 20
90.4035
 30
0.000000
  70
    32
  0
VERTEX
  8
16
  5
6DD
 10
20.6948
 20
90.4020
 30
0.000000
  70
    32
  0
VERTEX
  8
16
  5
6DE
 10
20.6947
 20
90.4005
 30
0.000000
  70
    32
  0
VERTEX
  8
16
  5
6DF
 10
20.6947
 20
90.3990
 30
0.000000
  70
    32
  0
VERTEX
  8
16
  5
6E0
 10
20.6947
 20
90.3975
 30
0.000000
  70
    32
  0
VERTEX
  8
16
  5
6E1
 10
20.6946
 20
90.3960
 30
0.000000
  70
    32
  0
VERTEX
  8
16
  5
6E2
 10
20.6946
 20
90.3946
 30
0.000000
  70
    32
  0
VERTEX
  8
16
  5
6E3
 10
20.6946
 20
90.3931
 30
0.000000
  70
    32
  0
VERTEX
  8
16
  5
6E4
 10
20.6945
 20
90.3916
 30
0.000000
  70
    32
  0
VERTEX
  8
16
  5
6E5
 10
20.6945
 20
90.3901
 30
0.000000
  70
    32
  0
VERTEX
  8
16
  5
6E6
 10
20.6944
 20
90.3886
 30
0.000000
  70
    32
  0
VERTEX
  8
16
  5
6E7
 10
20.6944
 20
90.3871
 30
0.000000
  70
    32
  0
VERTEX
  8
16
  5
6E8
 10
20.6944
 20
90.3857
 30
0.000000
  70
    32
  0
VERTEX
  8
16
  5
6E9
 10
20.6943
 20
90.3842
 30
0.000000
  70
    32
  0
VERTEX
  8
16
  5
6EA
 10
20.6943
 20
90.3827
 30
0.000000
  70
    32
  0
VERTEX
  8
16
  5
6EB
 10
20.6943
 20
90.3812
 30
0.000000
  70
    32
  0
VERTEX
  8
16
  5
6EC
 10
20.6942
 20
90.3797
 30
0.000000
  70
    32
  0
VERTEX
  8
16
  5
6ED
 10
20.6942
 20
90.3782
 30
0.000000
  70
    32
  0
VERTEX
  8
16
  5
6EE
 10
20.6942
 20
90.3767
 30
0.000000
  70
    32
  0
VERTEX
  8
16
  5
6EF
 10
20.6941
 20
90.3753
 30
0.000000
  70
    32
  0
VERTEX
  8
16
  5
6F0
 10
20.6941
 20
90.3738
 30
0.000000
  70
    32
  0
VERTEX
  8
16
  5
6F1
 10
20.6941
 20
90.3723
 30
0.000000
  70
    32
  0
VERTEX
  8
16
  5
6F2
 10
20.6940
 20
90.3708
 30
0.000000
  70
    32
  0
VERTEX
  8
16
  5
6F3
 10
20.6940
 20
90.3693
 30
0.000000
  70
    32
  0
VERTEX
  8
16
  5
6F4
 10
20.6939
 20
90.3678
 30
0.000000
  70
    32
  0
VERTEX
  8
16
  5
6F5
 10
20.6939
 20
90.3664
 30
0.000000
  70
    32
  0
VERTEX
  8
16
  5
6F6
 10
20.6939
 20
90.3649
 30
0.000000
  70
    32
  0
VERTEX
  8
16
  5
6F7
 10
20.6938
 20
90.3634
 30
0.000000
  70
    32
  0
VERTEX
  8
16
  5
6F8
 10
20.6938
 20
90.3619
 30
0.000000
  70
    32
  0
VERTEX
  8
16
  5
6F9
 10
20.6938
 20
90.3604
 30
0.000000
  70
    32
  0
VERTEX
  8
16
  5
6FA
 10
20.6937
 20
90.3589
 30
0.000000
  70
    32
  0
VERTEX
  8
16
  5
6FB
 10
20.6937
 20
90.3574
 30
0.000000
  70
    32
  0
VERTEX
  8
16
  5
6FC
 10
20.6936
 20
90.3560
 30
0.000000
  70
    32
  0
VERTEX
  8
16
  5
6FD
 10
20.6936
 20
90.3545
 30
0.000000
  70
    32
  0
VERTEX
  8
16
  5
6FE
 10
20.6936
 20
90.3530
 30
0.000000
  70
    32
  0
VERTEX
  8
16
  5
6FF
 10
20.6935
 20
90.3515
 30
0.000000
  70
    32
  0
VERTEX
  8
16
  5
700
 10
20.6935
 20
90.3500
 30
0.000000
  70
    32
  0
VERTEX
  8
16
  5
701
 10
20.6934
 20
90.3485
 30
0.000000
  70
    32
  0
VERTEX
  8
16
  5
702
 10
20.6934
 20
90.3471
 30
0.000000
  70
    32
  0
VERTEX
  8
16
  5
703
 10
20.6934
 20
90.3456
 30
0.000000
  70
    32
  0
VERTEX
  8
16
  5
704
 10
20.6933
 20
90.3441
 30
0.000000
  70
    32
  0
VERTEX
  8
16
  5
705
 10
20.6933
 20
90.3426
 30
0.000000
  70
    32
  0
VERTEX
  8
16
  5
706
 10
20.6932
 20
90.3411
 30
0.000000
  70
    32
  0
VERTEX
  8
16
  5
707
 10
20.6932
 20
90.3396
 30
0.000000
  70
    32
  0
VERTEX
  8
16
  5
708
 10
20.6931
 20
90.3382
 30
0.000000
  70
    32
  0
VERTEX
  8
16
  5
709
 10
20.6931
 20
90.3367
 30
0.000000
  70
    32
  0
VERTEX
  8
16
  5
70A
 10
20.6931
 20
90.3352
 30
0.000000
  70
    32
  0
VERTEX
  8
16
  5
70B
 10
20.6930
 20
90.3337
 30
0.000000
  70
    32
  0
VERTEX
  8
16
  5
70C
 10
20.6930
 20
90.3322
 30
0.000000
  70
    32
  0
VERTEX
  8
16
  5
70D
 10
20.6929
 20
90.3308
 30
0.000000
  70
    32
  0
VERTEX
  8
16
  5
70E
 10
20.6929
 20
90.3293
 30
0.000000
  70
    32
  0
VERTEX
  8
16
  5
70F
 10
20.6929
 20
90.3278
 30
0.000000
  70
    32
  0
VERTEX
  8
16
  5
710
 10
20.6928
 20
90.3263
 30
0.000000
  70
    32
  0
VERTEX
  8
16
  5
711
 10
20.6928
 20
90.3248
 30
0.000000
  70
    32
  0
VERTEX
  8
16
  5
712
 10
20.6927
 20
90.3233
 30
0.000000
  70
    32
  0
VERTEX
  8
16
  5
713
 10
20.6927
 20
90.3219
 30
0.000000
  70
    32
  0
VERTEX
  8
16
  5
714
 10
20.6926
 20
90.3204
 30
0.000000
  70
    32
  0
VERTEX
  8
16
  5
715
 10
20.6926
 20
90.3189
 30
0.000000
  70
    32
  0
VERTEX
  8
16
  5
716
 10
20.6925
 20
90.3174
 30
0.000000
  70
    32
  0
VERTEX
  8
16
  5
717
 10
20.6925
 20
90.3159
 30
0.000000
  70
    32
  0
VERTEX
  8
16
  5
718
 10
20.6925
 20
90.3144
 30
0.000000
  70
    32
  0
VERTEX
  8
16
  5
719
 10
20.6924
 20
90.3130
 30
0.000000
  70
    32
  0
VERTEX
  8
16
  5
71A
 10
20.6924
 20
90.3115
 30
0.000000
  70
    32
  0
VERTEX
  8
16
  5
71B
 10
20.6923
 20
90.3100
 30
0.000000
  70
    32
  0
VERTEX
  8
16
  5
71C
 10
20.6923
 20
90.3085
 30
0.000000
  70
    32
  0
VERTEX
  8
16
  5
71D
 10
20.6922
 20
90.3070
 30
0.000000
  70
    32
  0
VERTEX
  8
16
  5
71E
 10
20.6922
 20
90.3056
 30
0.000000
  70
    32
  0
VERTEX
  8
16
  5
71F
 10
20.6921
 20
90.3041
 30
0.000000
  70
    32
  0
VERTEX
  8
16
  5
720
 10
20.6921
 20
90.3026
 30
0.000000
  70
    32
  0
VERTEX
  8
16
  5
721
 10
20.6920
 20
90.3011
 30
0.000000
  70
    32
  0
VERTEX
  8
16
  5
722
 10
20.6920
 20
90.2996
 30
0.000000
  70
    32
  0
VERTEX
  8
16
  5
723
 10
20.6919
 20
90.2982
 30
0.000000
  70
    32
  0
VERTEX
  8
16
  5
724
 10
20.6919
 20
90.2967
 30
0.000000
  70
    32
  0
SEQEND
  8
16
  5
725
  0
POLYLINE
  8
16
  5
726
  62
0
  66
     1
 10
0.000000
 20
0.000000
 30
0.000000
  70
     8
  0
VERTEX
  8
16
  5
727
 10
8.72891
 20
106.887
 30
0.000000
  70
    32
  0
VERTEX
  8
16
  5
728
 10
8.72878
 20
106.887
 30
0.000000
  70
    32
  0
VERTEX
  8
16
  5
729
 10
8.72864
 20
106.886
 30
0.000000
  70
    32
  0
VERTEX
  8
16
  5
72A
 10
8.72851
 20
106.885
 30
0.000000
  70
    32
  0
VERTEX
  8
16
  5
72B
 10
8.72837
 20
106.884
 30
0.000000
  70
    32
  0
VERTEX
  8
16
  5
72C
 10
8.72823
 20
106.884
 30
0.000000
  70
    32
  0
VERTEX
  8
16
  5
72D
 10
8.72810
 20
106.883
 30
0.000000
  70
    32
  0
VERTEX
  8
16
  5
72E
 10
8.72796
 20
106.882
 30
0.000000
  70
    32
  0
VERTEX
  8
16
  5
72F
 10
8.72783
 20
106.881
 30
0.000000
  70
    32
  0
VERTEX
  8
16
  5
730
 10
8.72769
 20
106.881
 30
0.000000
  70
    32
  0
VERTEX
  8
16
  5
731
 10
8.72755
 20
106.880
 30
0.000000
  70
    32
  0
VERTEX
  8
16
  5
732
 10
8.72742
 20
106.879
 30
0.000000
  70
    32
  0
VERTEX
  8
16
  5
733
 10
8.72728
 20
106.878
 30
0.000000
  70
    32
  0
VERTEX
  8
16
  5
734
 10
8.72715
 20
106.877
 30
0.000000
  70
    32
  0
VERTEX
  8
16
  5
735
 10
8.72701
 20
106.877
 30
0.000000
  70
    32
  0
VERTEX
  8
16
  5
736
 10
8.72688
 20
106.876
 30
0.000000
  70
    32
  0
VERTEX
  8
16
  5
737
 10
8.72674
 20
106.875
 30
0.000000
  70
    32
  0
VERTEX
  8
16
  5
738
 10
8.72661
 20
106.874
 30
0.000000
  70
    32
  0
VERTEX
  8
16
  5
739
 10
8.72647
 20
106.873
 30
0.000000
  70
    32
  0
VERTEX
  8
16
  5
73A
 10
8.72634
 20
106.873
 30
0.000000
  70
    32
  0
VERTEX
  8
16
  5
73B
 10
8.72620
 20
106.872
 30
0.000000
  70
    32
  0
VERTEX
  8
16
  5
73C
 10
8.72607
 20
106.871
 30
0.000000
  70
    32
  0
VERTEX
  8
16
  5
73D
 10
8.72593
 20
106.870
 30
0.000000
  70
    32
  0
VERTEX
  8
16
  5
73E
 10
8.72580
 20
106.869
 30
0.000000
  70
    32
  0
VERTEX
  8
16
  5
73F
 10
8.72567
 20
106.868
 30
0.000000
  70
    32
  0
VERTEX
  8
16
  5
740
 10
8.72553
 20
106.867
 30
0.000000
  70
    32
  0
VERTEX
  8
16
  5
741
 10
8.72540
 20
106.866
 30
0.000000
  70
    32
  0
VERTEX
  8
16
  5
742
 10
8.72527
 20
106.865
 30
0.000000
  70
    32
  0
VERTEX
  8
16
  5
743
 10
8.72513
 20
106.864
 30
0.000000
  70
    32
  0
VERTEX
  8
16
  5
744
 10
8.72500
 20
106.863
 30
0.000000
  70
    32
  0
VERTEX
  8
16
  5
745
 10
8.72487
 20
106.863
 30
0.000000
  70
    32
  0
VERTEX
  8
16
  5
746
 10
8.72473
 20
106.862
 30
0.000000
  70
    32
  0
VERTEX
  8
16
  5
747
 10
8.72460
 20
106.861
 30
0.000000
  70
    32
  0
VERTEX
  8
16
  5
748
 10
8.72447
 20
106.859
 30
0.000000
  70
    32
  0
VERTEX
  8
16
  5
749
 10
8.72434
 20
106.858
 30
0.000000
  70
    32
  0
VERTEX
  8
16
  5
74A
 10
8.72421
 20
106.857
 30
0.000000
  70
    32
  0
VERTEX
  8
16
  5
74B
 10
8.72407
 20
106.856
 30
0.000000
  70
    32
  0
VERTEX
  8
16
  5
74C
 10
8.72394
 20
106.855
 30
0.000000
  70
    32
  0
VERTEX
  8
16
  5
74D
 10
8.72381
 20
106.854
 30
0.000000
  70
    32
  0
VERTEX
  8
16
  5
74E
 10
8.72368
 20
106.853
 30
0.000000
  70
    32
  0
VERTEX
  8
16
  5
74F
 10
8.72355
 20
106.852
 30
0.000000
  70
    32
  0
VERTEX
  8
16
  5
750
 10
8.72342
 20
106.851
 30
0.000000
  70
    32
  0
VERTEX
  8
16
  5
751
 10
8.72329
 20
106.849
 30
0.000000
  70
    32
  0
VERTEX
  8
16
  5
752
 10
8.72316
 20
106.848
 30
0.000000
  70
    32
  0
VERTEX
  8
16
  5
753
 10
8.72303
 20
106.847
 30
0.000000
  70
    32
  0
VERTEX
  8
16
  5
754
 10
8.72290
 20
106.846
 30
0.000000
  70
    32
  0
VERTEX
  8
16
  5
755
 10
8.72277
 20
106.844
 30
0.000000
  70
    32
  0
VERTEX
  8
16
  5
756
 10
8.72265
 20
106.843
 30
0.000000
  70
    32
  0
VERTEX
  8
16
  5
757
 10
8.72252
 20
106.842
 30
0.000000
  70
    32
  0
VERTEX
  8
16
  5
758
 10
8.72239
 20
106.840
 30
0.000000
  70
    32
  0
VERTEX
  8
16
  5
759
 10
8.72226
 20
106.839
 30
0.000000
  70
    32
  0
VERTEX
  8
16
  5
75A
 10
8.72214
 20
106.838
 30
0.000000
  70
    32
  0
VERTEX
  8
16
  5
75B
 10
8.72201
 20
106.836
 30
0.000000
  70
    32
  0
VERTEX
  8
16
  5
75C
 10
8.72188
 20
106.835
 30
0.000000
  70
    32
  0
VERTEX
  8
16
  5
75D
 10
8.72176
 20
106.833
 30
0.000000
  70
    32
  0
VERTEX
  8
16
  5
75E
 10
8.72163
 20
106.832
 30
0.000000
  70
    32
  0
VERTEX
  8
16
  5
75F
 10
8.72151
 20
106.830
 30
0.000000
  70
    32
  0
VERTEX
  8
16
  5
760
 10
8.72138
 20
106.829
 30
0.000000
  70
    32
  0
VERTEX
  8
16
  5
761
 10
8.72126
 20
106.827
 30
0.000000
  70
    32
  0
VERTEX
  8
16
  5
762
 10
8.72113
 20
106.825
 30
0.000000
  70
    32
  0
VERTEX
  8
16
  5
763
 10
8.72101
 20
106.824
 30
0.000000
  70
    32
  0
VERTEX
  8
16
  5
764
 10
8.72089
 20
106.822
 30
0.000000
  70
    32
  0
VERTEX
  8
16
  5
765
 10
8.72077
 20
106.820
 30
0.000000
  70
    32
  0
VERTEX
  8
16
  5
766
 10
8.72064
 20
106.818
 30
0.000000
  70
    32
  0
VERTEX
  8
16
  5
767
 10
8.72052
 20
106.817
 30
0.000000
  70
    32
  0
VERTEX
  8
16
  5
768
 10
8.72040
 20
106.815
 30
0.000000
  70
    32
  0
VERTEX
  8
16
  5
769
 10
8.72028
 20
106.813
 30
0.000000
  70
    32
  0
VERTEX
  8
16
  5
76A
 10
8.72016
 20
106.811
 30
0.000000
  70
    32
  0
VERTEX
  8
16
  5
76B
 10
8.72004
 20
106.809
 30
0.000000
  70
    32
  0
VERTEX
  8
16
  5
76C
 10
8.71992
 20
106.807
 30
0.000000
  70
    32
  0
VERTEX
  8
16
  5
76D
 10
8.71980
 20
106.805
 30
0.000000
  70
    32
  0
VERTEX
  8
16
  5
76E
 10
8.71968
 20
106.803
 30
0.000000
  70
    32
  0
VERTEX
  8
16
  5
76F
 10
8.71957
 20
106.801
 30
0.000000
  70
    32
  0
VERTEX
  8
16
  5
770
 10
8.71945
 20
106.799
 30
0.000000
  70
    32
  0
VERTEX
  8
16
  5
771
 10
8.71933
 20
106.797
 30
0.000000
  70
    32
  0
VERTEX
  8
16
  5
772
 10
8.71922
 20
106.795
 30
0.000000
  70
    32
  0
VERTEX
  8
16
  5
773
 10
8.71910
 20
106.793
 30
0.000000
  70
    32
  0
VERTEX
  8
16
  5
774
 10
8.71898
 20
106.790
 30
0.000000
  70
    32
  0
VERTEX
  8
16
  5
775
 10
8.71887
 20
106.788
 30
0.000000
  70
    32
  0
VERTEX
  8
16
  5
776
 10
8.71876
 20
106.786
 30
0.000000
  70
    32
  0
VERTEX
  8
16
  5
777
 10
8.71864
 20
106.783
 30
0.000000
  70
    32
  0
VERTEX
  8
16
  5
778
 10
8.71853
 20
106.781
 30
0.000000
  70
    32
  0
VERTEX
  8
16
  5
779
 10
8.71842
 20
106.778
 30
0.000000
  70
    32
  0
VERTEX
  8
16
  5
77A
 10
8.71831
 20
106.776
 30
0.000000
  70
    32
  0
VERTEX
  8
16
  5
77B
 10
8.71819
 20
106.773
 30
0.000000
  70
    32
  0
VERTEX
  8
16
  5
77C
 10
8.71808
 20
106.771
 30
0.000000
  70
    32
  0
VERTEX
  8
16
  5
77D
 10
8.71797
 20
106.768
 30
0.000000
  70
    32
  0
VERTEX
  8
16
  5
77E
 10
8.71787
 20
106.766
 30
0.000000
  70
    32
  0
VERTEX
  8
16
  5
77F
 10
8.71776
 20
106.763
 30
0.000000
  70
    32
  0
VERTEX
  8
16
  5
780
 10
8.71765
 20
106.760
 30
0.000000
  70
    32
  0
VERTEX
  8
16
  5
781
 10
8.71754
 20
106.758
 30
0.000000
  70
    32
  0
VERTEX
  8
16
  5
782
 10
8.71744
 20
106.755
 30
0.000000
  70
    32
  0
VERTEX
  8
16
  5
783
 10
8.71733
 20
106.752
 30
0.000000
  70
    32
  0
VERTEX
  8
16
  5
784
 10
8.71723
 20
106.749
 30
0.000000
  70
    32
  0
VERTEX
  8
16
  5
785
 10
8.71712
 20
106.746
 30
0.000000
  70
    32
  0
VERTEX
  8
16
  5
786
 10
8.71702
 20
106.744
 30
0.000000
  70
    32
  0
VERTEX
  8
16
  5
787
 10
8.71692
 20
106.741
 30
0.000000
  70
    32
  0
VERTEX
  8
16
  5
788
 10
8.71681
 20
106.738
 30
0.000000
  70
    32
  0
VERTEX
  8
16
  5
789
 10
8.71671
 20
106.735
 30
0.000000
  70
    32
  0
VERTEX
  8
16
  5
78A
 10
8.71661
 20
106.732
 30
0.000000
  70
    32
  0
VERTEX
  8
16
  5
78B
 10
8.71651
 20
106.729
 30
0.000000
  70
    32
  0
VERTEX
  8
16
  5
78C
 10
8.71641
 20
106.726
 30
0.000000
  70
    32
  0
VERTEX
  8
16
  5
78D
 10
8.71632
 20
106.723
 30
0.000000
  70
    32
  0
VERTEX
  8
16
  5
78E
 10
8.71622
 20
106.720
 30
0.000000
  70
    32
  0
VERTEX
  8
16
  5
78F
 10
8.71612
 20
106.717
 30
0.000000
  70
    32
  0
VERTEX
  8
16
  5
790
 10
8.71603
 20
106.713
 30
0.000000
  70
    32
  0
VERTEX
  8
16
  5
791
 10
8.71593
 20
106.710
 30
0.000000
  70
    32
  0
VERTEX
  8
16
  5
792
 10
8.71584
 20
106.707
 30
0.000000
  70
    32
  0
VERTEX
  8
16
  5
793
 10
8.71575
 20
106.704
 30
0.000000
  70
    32
  0
VERTEX
  8
16
  5
794
 10
8.71565
 20
106.701
 30
0.000000
  70
    32
  0
VERTEX
  8
16
  5
795
 10
8.71556
 20
106.697
 30
0.000000
  70
    32
  0
VERTEX
  8
16
  5
796
 10
8.71547
 20
106.694
 30
0.000000
  70
    32
  0
VERTEX
  8
16
  5
797
 10
8.71539
 20
106.691
 30
0.000000
  70
    32
  0
VERTEX
  8
16
  5
798
 10
8.71530
 20
106.687
 30
0.000000
  70
    32
  0
VERTEX
  8
16
  5
799
 10
8.71521
 20
106.684
 30
0.000000
  70
    32
  0
VERTEX
  8
16
  5
79A
 10
8.71512
 20
106.681
 30
0.000000
  70
    32
  0
VERTEX
  8
16
  5
79B
 10
8.71504
 20
106.677
 30
0.000000
  70
    32
  0
VERTEX
  8
16
  5
79C
 10
8.71495
 20
106.674
 30
0.000000
  70
    32
  0
VERTEX
  8
16
  5
79D
 10
8.71487
 20
106.670
 30
0.000000
  70
    32
  0
VERTEX
  8
16
  5
79E
 10
8.71479
 20
106.667
 30
0.000000
  70
    32
  0
VERTEX
  8
16
  5
79F
 10
8.71471
 20
106.663
 30
0.000000
  70
    32
  0
VERTEX
  8
16
  5
7A0
 10
8.71463
 20
106.660
 30
0.000000
  70
    32
  0
VERTEX
  8
16
  5
7A1
 10
8.71455
 20
106.656
 30
0.000000
  70
    32
  0
VERTEX
  8
16
  5
7A2
 10
8.71447
 20
106.653
 30
0.000000
  70
    32
  0
VERTEX
  8
16
  5
7A3
 10
8.71440
 20
106.649
 30
0.000000
  70
    32
  0
VERTEX
  8
16
  5
7A4
 10
8.71432
 20
106.646
 30
0.000000
  70
    32
  0
VERTEX
  8
16
  5
7A5
 10
8.71424
 20
106.642
 30
0.000000
  70
    32
  0
VERTEX
  8
16
  5
7A6
 10
8.71417
 20
106.638
 30
0.000000
  70
    32
  0
VERTEX
  8
16
  5
7A7
 10
8.71410
 20
106.635
 30
0.000000
  70
    32
  0
VERTEX
  8
16
  5
7A8
 10
8.71403
 20
106.631
 30
0.000000
  70
    32
  0
VERTEX
  8
16
  5
7A9
 10
8.71396
 20
106.628
 30
0.000000
  70
    32
  0
VERTEX
  8
16
  5
7AA
 10
8.71389
 20
106.624
 30
0.000000
  70
    32
  0
VERTEX
  8
16
  5
7AB
 10
8.71382
 20
106.620
 30
0.000000
  70
    32
  0
VERTEX
  8
16
  5
7AC
 10
8.71375
 20
106.616
 30
0.000000
  70
    32
  0
VERTEX
  8
16
  5
7AD
 10
8.71369
 20
106.613
 30
0.000000
  70
    32
  0
VERTEX
  8
16
  5
7AE
 10
8.71363
 20
106.609
 30
0.000000
  70
    32
  0
VERTEX
  8
16
  5
7AF
 10
8.71356
 20
106.605
 30
0.000000
  70
    32
  0
VERTEX
  8
16
  5
7B0
 10
8.71350
 20
106.602
 30
0.000000
  70
    32
  0
VERTEX
  8
16
  5
7B1
 10
8.71344
 20
106.598
 30
0.000000
  70
    32
  0
VERTEX
  8
16
  5
7B2
 10
8.71338
 20
106.594
 30
0.000000
  70
    32
  0
VERTEX
  8
16
  5
7B3
 10
8.71332
 20
106.590
 30
0.000000
  70
    32
  0
VERTEX
  8
16
  5
7B4
 10
8.71327
 20
106.586
 30
0.000000
  70
    32
  0
VERTEX
  8
16
  5
7B5
 10
8.71321
 20
106.583
 30
0.000000
  70
    32
  0
VERTEX
  8
16
  5
7B6
 10
8.71316
 20
106.579
 30
0.000000
  70
    32
  0
VERTEX
  8
16
  5
7B7
 10
8.71310
 20
106.575
 30
0.000000
  70
    32
  0
VERTEX
  8
16
  5
7B8
 10
8.71305
 20
106.571
 30
0.000000
  70
    32
  0
VERTEX
  8
16
  5
7B9
 10
8.71300
 20
106.567
 30
0.000000
  70
    32
  0
VERTEX
  8
16
  5
7BA
 10
8.71295
 20
106.563
 30
0.000000
  70
    32
  0
VERTEX
  8
16
  5
7BB
 10
8.71290
 20
106.560
 30
0.000000
  70
    32
  0
VERTEX
  8
16
  5
7BC
 10
8.71285
 20
106.556
 30
0.000000
  70
    32
  0
VERTEX
  8
16
  5
7BD
 10
8.71281
 20
106.552
 30
0.000000
  70
    32
  0
VERTEX
  8
16
  5
7BE
 10
8.71276
 20
106.548
 30
0.000000
  70
    32
  0
VERTEX
  8
16
  5
7BF
 10
8.71272
 20
106.544
 30
0.000000
  70
    32
  0
VERTEX
  8
16
  5
7C0
 10
8.71267
 20
106.540
 30
0.000000
  70
    32
  0
VERTEX
  8
16
  5
7C1
 10
8.71263
 20
106.536
 30
0.000000
  70
    32
  0
VERTEX
  8
16
  5
7C2
 10
8.71259
 20
106.532
 30
0.000000
  70
    32
  0
VERTEX
  8
16
  5
7C3
 10
8.71255
 20
106.528
 30
0.000000
  70
    32
  0
VERTEX
  8
16
  5
7C4
 10
8.71250
 20
106.524
 30
0.000000
  70
    32
  0
VERTEX
  8
16
  5
7C5
 10
8.71246
 20
106.520
 30
0.000000
  70
    32
  0
VERTEX
  8
16
  5
7C6
 10
8.71243
 20
106.516
 30
0.000000
  70
    32
  0
VERTEX
  8
16
  5
7C7
 10
8.71239
 20
106.513
 30
0.000000
  70
    32
  0
VERTEX
  8
16
  5
7C8
 10
8.71235
 20
106.509
 30
0.000000
  70
    32
  0
VERTEX
  8
16
  5
7C9
 10
8.71231
 20
106.505
 30
0.000000
  70
    32
  0
VERTEX
  8
16
  5
7CA
 10
8.71228
 20
106.501
 30
0.000000
  70
    32
  0
VERTEX
  8
16
  5
7CB
 10
8.71224
 20
106.497
 30
0.000000
  70
    32
  0
VERTEX
  8
16
  5
7CC
 10
8.71221
 20
106.493
 30
0.000000
  70
    32
  0
VERTEX
  8
16
  5
7CD
 10
8.71217
 20
106.489
 30
0.000000
  70
    32
  0
VERTEX
  8
16
  5
7CE
 10
8.71214
 20
106.485
 30
0.000000
  70
    32
  0
VERTEX
  8
16
  5
7CF
 10
8.71211
 20
106.481
 30
0.000000
  70
    32
  0
VERTEX
  8
16
  5
7D0
 10
8.71208
 20
106.477
 30
0.000000
  70
    32
  0
VERTEX
  8
16
  5
7D1
 10
8.71204
 20
106.473
 30
0.000000
  70
    32
  0
VERTEX
  8
16
  5
7D2
 10
8.71201
 20
106.469
 30
0.000000
  70
    32
  0
VERTEX
  8
16
  5
7D3
 10
8.71198
 20
106.465
 30
0.000000
  70
    32
  0
VERTEX
  8
16
  5
7D4
 10
8.71195
 20
106.461
 30
0.000000
  70
    32
  0
VERTEX
  8
16
  5
7D5
 10
8.71192
 20
106.456
 30
0.000000
  70
    32
  0
VERTEX
  8
16
  5
7D6
 10
8.71189
 20
106.452
 30
0.000000
  70
    32
  0
VERTEX
  8
16
  5
7D7
 10
8.71186
 20
106.448
 30
0.000000
  70
    32
  0
VERTEX
  8
16
  5
7D8
 10
8.71184
 20
106.444
 30
0.000000
  70
    32
  0
VERTEX
  8
16
  5
7D9
 10
8.71181
 20
106.440
 30
0.000000
  70
    32
  0
VERTEX
  8
16
  5
7DA
 10
8.71178
 20
106.436
 30
0.000000
  70
    32
  0
VERTEX
  8
16
  5
7DB
 10
8.71175
 20
106.432
 30
0.000000
  70
    32
  0
VERTEX
  8
16
  5
7DC
 10
8.71172
 20
106.428
 30
0.000000
  70
    32
  0
VERTEX
  8
16
  5
7DD
 10
8.71170
 20
106.424
 30
0.000000
  70
    32
  0
VERTEX
  8
16
  5
7DE
 10
8.71167
 20
106.420
 30
0.000000
  70
    32
  0
VERTEX
  8
16
  5
7DF
 10
8.71164
 20
106.416
 30
0.000000
  70
    32
  0
VERTEX
  8
16
  5
7E0
 10
8.71162
 20
106.412
 30
0.000000
  70
    32
  0
VERTEX
  8
16
  5
7E1
 10
8.71159
 20
106.408
 30
0.000000
  70
    32
  0
VERTEX
  8
16
  5
7E2
 10
8.71156
 20
106.404
 30
0.000000
  70
    32
  0
VERTEX
  8
16
  5
7E3
 10
8.71154
 20
106.400
 30
0.000000
  70
    32
  0
VERTEX
  8
16
  5
7E4
 10
8.71151
 20
106.396
 30
0.000000
  70
    32
  0
VERTEX
  8
16
  5
7E5
 10
8.71148
 20
106.392
 30
0.000000
  70
    32
  0
VERTEX
  8
16
  5
7E6
 10
8.71146
 20
106.388
 30
0.000000
  70
    32
  0
SEQEND
  8
16
  5
7E7
  0
POLYLINE
  8
16
  5
7E8
  62
0
  66
     1
 10
0.000000
 20
0.000000
 30
0.000000
  70
     8
  0
VERTEX
  8
16
  5
7E9
 10
20.5392
 20
90.6567
 30
0.000000
  70
    32
  0
VERTEX
  8
16
  5
7EA
 10
20.5392
 20
90.6565
 30
0.000000
  70
    32
  0
VERTEX
  8
16
  5
7EB
 10
20.5392
 20
90.6563
 30
0.000000
  70
    32
  0
VERTEX
  8
16
  5
7EC
 10
20.5392
 20
90.6561
 30
0.000000
  70
    32
  0
VERTEX
  8
16
  5
7ED
 10
20.5392
 20
90.6559
 30
0.000000
  70
    32
  0
VERTEX
  8
16
  5
7EE
 10
20.5392
 20
90.6558
 30
0.000000
  70
    32
  0
VERTEX
  8
16
  5
7EF
 10
20.5392
 20
90.6557
 30
0.000000
  70
    32
  0
VERTEX
  8
16
  5
7F0
 10
20.5391
 20
90.6556
 30
0.000000
  70
    32
  0
VERTEX
  8
16
  5
7F1
 10
20.5390
 20
90.6555
 30
0.000000
  70
    32
  0
VERTEX
  8
16
  5
7F2
 10
20.5390
 20
90.6555
 30
0.000000
  70
    32
  0
VERTEX
  8
16
  5
7F3
 10
20.5389
 20
90.6555
 30
0.000000
  70
    32
  0
VERTEX
  8
16
  5
7F4
 10
20.5388
 20
90.6556
 30
0.000000
  70
    32
  0
VERTEX
  8
16
  5
7F5
 10
20.5387
 20
90.6556
 30
0.000000
  70
    32
  0
VERTEX
  8
16
  5
7F6
 10
20.5385
 20
90.6557
 30
0.000000
  70
    32
  0
VERTEX
  8
16
  5
7F7
 10
20.5384
 20
90.6558
 30
0.000000
  70
    32
  0
VERTEX
  8
16
  5
7F8
 10
20.5382
 20
90.6560
 30
0.000000
  70
    32
  0
VERTEX
  8
16
  5
7F9
 10
20.5381
 20
90.6561
 30
0.000000
  70
    32
  0
VERTEX
  8
16
  5
7FA
 10
20.5379
 20
90.6563
 30
0.000000
  70
    32
  0
VERTEX
  8
16
  5
7FB
 10
20.5377
 20
90.6566
 30
0.000000
  70
    32
  0
VERTEX
  8
16
  5
7FC
 10
20.5375
 20
90.6568
 30
0.000000
  70
    32
  0
VERTEX
  8
16
  5
7FD
 10
20.5373
 20
90.6571
 30
0.000000
  70
    32
  0
VERTEX
  8
16
  5
7FE
 10
20.5371
 20
90.6574
 30
0.000000
  70
    32
  0
VERTEX
  8
16
  5
7FF
 10
20.5368
 20
90.6577
 30
0.000000
  70
    32
  0
VERTEX
  8
16
  5
800
 10
20.5366
 20
90.6580
 30
0.000000
  70
    32
  0
VERTEX
  8
16
  5
801
 10
20.5363
 20
90.6584
 30
0.000000
  70
    32
  0
VERTEX
  8
16
  5
802
 10
20.5361
 20
90.6588
 30
0.000000
  70
    32
  0
VERTEX
  8
16
  5
803
 10
20.5358
 20
90.6592
 30
0.000000
  70
    32
  0
VERTEX
  8
16
  5
804
 10
20.5355
 20
90.6597
 30
0.000000
  70
    32
  0
VERTEX
  8
16
  5
805
 10
20.5352
 20
90.6601
 30
0.000000
  70
    32
  0
VERTEX
  8
16
  5
806
 10
20.5349
 20
90.6606
 30
0.000000
  70
    32
  0
VERTEX
  8
16
  5
807
 10
20.5345
 20
90.6611
 30
0.000000
  70
    32
  0
VERTEX
  8
16
  5
808
 10
20.5342
 20
90.6617
 30
0.000000
  70
    32
  0
VERTEX
  8
16
  5
809
 10
20.5338
 20
90.6622
 30
0.000000
  70
    32
  0
VERTEX
  8
16
  5
80A
 10
20.5335
 20
90.6628
 30
0.000000
  70
    32
  0
VERTEX
  8
16
  5
80B
 10
20.5331
 20
90.6634
 30
0.000000
  70
    32
  0
VERTEX
  8
16
  5
80C
 10
20.5327
 20
90.6641
 30
0.000000
  70
    32
  0
VERTEX
  8
16
  5
80D
 10
20.5323
 20
90.6647
 30
0.000000
  70
    32
  0
VERTEX
  8
16
  5
80E
 10
20.5319
 20
90.6654
 30
0.000000
  70
    32
  0
VERTEX
  8
16
  5
80F
 10
20.5315
 20
90.6661
 30
0.000000
  70
    32
  0
VERTEX
  8
16
  5
810
 10
20.5310
 20
90.6668
 30
0.000000
  70
    32
  0
VERTEX
  8
16
  5
811
 10
20.5306
 20
90.6676
 30
0.000000
  70
    32
  0
VERTEX
  8
16
  5
812
 10
20.5301
 20
90.6683
 30
0.000000
  70
    32
  0
VERTEX
  8
16
  5
813
 10
20.5297
 20
90.6691
 30
0.000000
  70
    32
  0
VERTEX
  8
16
  5
814
 10
20.5292
 20
90.6699
 30
0.000000
  70
    32
  0
VERTEX
  8
16
  5
815
 10
20.5287
 20
90.6707
 30
0.000000
  70
    32
  0
VERTEX
  8
16
  5
816
 10
20.5282
 20
90.6716
 30
0.000000
  70
    32
  0
VERTEX
  8
16
  5
817
 10
20.5277
 20
90.6725
 30
0.000000
  70
    32
  0
VERTEX
  8
16
  5
818
 10
20.5272
 20
90.6734
 30
0.000000
  70
    32
  0
VERTEX
  8
16
  5
819
 10
20.5267
 20
90.6743
 30
0.000000
  70
    32
  0
VERTEX
  8
16
  5
81A
 10
20.5261
 20
90.6752
 30
0.000000
  70
    32
  0
VERTEX
  8
16
  5
81B
 10
20.5256
 20
90.6762
 30
0.000000
  70
    32
  0
VERTEX
  8
16
  5
81C
 10
20.5250
 20
90.6771
 30
0.000000
  70
    32
  0
VERTEX
  8
16
  5
81D
 10
20.5245
 20
90.6781
 30
0.000000
  70
    32
  0
VERTEX
  8
16
  5
81E
 10
20.5239
 20
90.6791
 30
0.000000
  70
    32
  0
VERTEX
  8
16
  5
81F
 10
20.5233
 20
90.6802
 30
0.000000
  70
    32
  0
VERTEX
  8
16
  5
820
 10
20.5227
 20
90.6812
 30
0.000000
  70
    32
  0
VERTEX
  8
16
  5
821
 10
20.5221
 20
90.6823
 30
0.000000
  70
    32
  0
VERTEX
  8
16
  5
822
 10
20.5215
 20
90.6834
 30
0.000000
  70
    32
  0
VERTEX
  8
16
  5
823
 10
20.5209
 20
90.6845
 30
0.000000
  70
    32
  0
VERTEX
  8
16
  5
824
 10
20.5202
 20
90.6856
 30
0.000000
  70
    32
  0
VERTEX
  8
16
  5
825
 10
20.5196
 20
90.6868
 30
0.000000
  70
    32
  0
VERTEX
  8
16
  5
826
 10
20.5189
 20
90.6879
 30
0.000000
  70
    32
  0
VERTEX
  8
16
  5
827
 10
20.5183
 20
90.6891
 30
0.000000
  70
    32
  0
VERTEX
  8
16
  5
828
 10
20.5176
 20
90.6903
 30
0.000000
  70
    32
  0
VERTEX
  8
16
  5
829
 10
20.5169
 20
90.6915
 30
0.000000
  70
    32
  0
VERTEX
  8
16
  5
82A
 10
20.5162
 20
90.6928
 30
0.000000
  70
    32
  0
VERTEX
  8
16
  5
82B
 10
20.5155
 20
90.6940
 30
0.000000
  70
    32
  0
VERTEX
  8
16
  5
82C
 10
20.5148
 20
90.6953
 30
0.000000
  70
    32
  0
VERTEX
  8
16
  5
82D
 10
20.5141
 20
90.6966
 30
0.000000
  70
    32
  0
VERTEX
  8
16
  5
82E
 10
20.5133
 20
90.6979
 30
0.000000
  70
    32
  0
VERTEX
  8
16
  5
82F
 10
20.5126
 20
90.6992
 30
0.000000
  70
    32
  0
VERTEX
  8
16
  5
830
 10
20.5119
 20
90.7006
 30
0.000000
  70
    32
  0
VERTEX
  8
16
  5
831
 10
20.5111
 20
90.7019
 30
0.000000
  70
    32
  0
VERTEX
  8
16
  5
832
 10
20.5103
 20
90.7033
 30
0.000000
  70
    32
  0
VERTEX
  8
16
  5
833
 10
20.5096
 20
90.7047
 30
0.000000
  70
    32
  0
VERTEX
  8
16
  5
834
 10
20.5088
 20
90.7061
 30
0.000000
  70
    32
  0
VERTEX
  8
16
  5
835
 10
20.5080
 20
90.7075
 30
0.000000
  70
    32
  0
VERTEX
  8
16
  5
836
 10
20.5072
 20
90.7089
 30
0.000000
  70
    32
  0
VERTEX
  8
16
  5
837
 10
20.5064
 20
90.7104
 30
0.000000
  70
    32
  0
VERTEX
  8
16
  5
838
 10
20.5056
 20
90.7118
 30
0.000000
  70
    32
  0
VERTEX
  8
16
  5
839
 10
20.5047
 20
90.7133
 30
0.000000
  70
    32
  0
VERTEX
  8
16
  5
83A
 10
20.5039
 20
90.7148
 30
0.000000
  70
    32
  0
VERTEX
  8
16
  5
83B
 10
20.5031
 20
90.7163
 30
0.000000
  70
    32
  0
VERTEX
  8
16
  5
83C
 10
20.5022
 20
90.7179
 30
0.000000
  70
    32
  0
VERTEX
  8
16
  5
83D
 10
20.5014
 20
90.7194
 30
0.000000
  70
    32
  0
VERTEX
  8
16
  5
83E
 10
20.5005
 20
90.7210
 30
0.000000
  70
    32
  0
VERTEX
  8
16
  5
83F
 10
20.4996
 20
90.7225
 30
0.000000
  70
    32
  0
VERTEX
  8
16
  5
840
 10
20.4987
 20
90.7241
 30
0.000000
  70
    32
  0
VERTEX
  8
16
  5
841
 10
20.4979
 20
90.7257
 30
0.000000
  70
    32
  0
VERTEX
  8
16
  5
842
 10
20.4970
 20
90.7273
 30
0.000000
  70
    32
  0
VERTEX
  8
16
  5
843
 10
20.4961
 20
90.7289
 30
0.000000
  70
    32
  0
VERTEX
  8
16
  5
844
 10
20.4951
 20
90.7306
 30
0.000000
  70
    32
  0
VERTEX
  8
16
  5
845
 10
20.4942
 20
90.7322
 30
0.000000
  70
    32
  0
VERTEX
  8
16
  5
846
 10
20.4933
 20
90.7339
 30
0.000000
  70
    32
  0
VERTEX
  8
16
  5
847
 10
20.4924
 20
90.7355
 30
0.000000
  70
    32
  0
VERTEX
  8
16
  5
848
 10
20.4914
 20
90.7372
 30
0.000000
  70
    32
  0
VERTEX
  8
16
  5
849
 10
20.4905
 20
90.7389
 30
0.000000
  70
    32
  0
VERTEX
  8
16
  5
84A
 10
20.4895
 20
90.7406
 30
0.000000
  70
    32
  0
VERTEX
  8
16
  5
84B
 10
20.4885
 20
90.7423
 30
0.000000
  70
    32
  0
VERTEX
  8
16
  5
84C
 10
20.4876
 20
90.7441
 30
0.000000
  70
    32
  0
VERTEX
  8
16
  5
84D
 10
20.4866
 20
90.7458
 30
0.000000
  70
    32
  0
VERTEX
  8
16
  5
84E
 10
20.4856
 20
90.7476
 30
0.000000
  70
    32
  0
VERTEX
  8
16
  5
84F
 10
20.4846
 20
90.7494
 30
0.000000
  70
    32
  0
VERTEX
  8
16
  5
850
 10
20.4836
 20
90.7512
 30
0.000000
  70
    32
  0
VERTEX
  8
16
  5
851
 10
20.4826
 20
90.7530
 30
0.000000
  70
    32
  0
VERTEX
  8
16
  5
852
 10
20.4816
 20
90.7548
 30
0.000000
  70
    32
  0
VERTEX
  8
16
  5
853
 10
20.4805
 20
90.7567
 30
0.000000
  70
    32
  0
VERTEX
  8
16
  5
854
 10
20.4795
 20
90.7585
 30
0.000000
  70
    32
  0
VERTEX
  8
16
  5
855
 10
20.4785
 20
90.7604
 30
0.000000
  70
    32
  0
VERTEX
  8
16
  5
856
 10
20.4774
 20
90.7623
 30
0.000000
  70
    32
  0
VERTEX
  8
16
  5
857
 10
20.4764
 20
90.7641
 30
0.000000
  70
    32
  0
VERTEX
  8
16
  5
858
 10
20.4753
 20
90.7660
 30
0.000000
  70
    32
  0
VERTEX
  8
16
  5
859
 10
20.4742
 20
90.7680
 30
0.000000
  70
    32
  0
VERTEX
  8
16
  5
85A
 10
20.4731
 20
90.7699
 30
0.000000
  70
    32
  0
VERTEX
  8
16
  5
85B
 10
20.4721
 20
90.7718
 30
0.000000
  70
    32
  0
VERTEX
  8
16
  5
85C
 10
20.4710
 20
90.7738
 30
0.000000
  70
    32
  0
VERTEX
  8
16
  5
85D
 10
20.4699
 20
90.7757
 30
0.000000
  70
    32
  0
VERTEX
  8
16
  5
85E
 10
20.4688
 20
90.7777
 30
0.000000
  70
    32
  0
VERTEX
  8
16
  5
85F
 10
20.4676
 20
90.7797
 30
0.000000
  70
    32
  0
VERTEX
  8
16
  5
860
 10
20.4665
 20
90.7817
 30
0.000000
  70
    32
  0
VERTEX
  8
16
  5
861
 10
20.4654
 20
90.7837
 30
0.000000
  70
    32
  0
VERTEX
  8
16
  5
862
 10
20.4643
 20
90.7857
 30
0.000000
  70
    32
  0
VERTEX
  8
16
  5
863
 10
20.4631
 20
90.7878
 30
0.000000
  70
    32
  0
VERTEX
  8
16
  5
864
 10
20.4620
 20
90.7898
 30
0.000000
  70
    32
  0
VERTEX
  8
16
  5
865
 10
20.4608
 20
90.7918
 30
0.000000
  70
    32
  0
VERTEX
  8
16
  5
866
 10
20.4597
 20
90.7939
 30
0.000000
  70
    32
  0
VERTEX
  8
16
  5
867
 10
20.4585
 20
90.7960
 30
0.000000
  70
    32
  0
VERTEX
  8
16
  5
868
 10
20.4574
 20
90.7981
 30
0.000000
  70
    32
  0
VERTEX
  8
16
  5
869
 10
20.4562
 20
90.8002
 30
0.000000
  70
    32
  0
VERTEX
  8
16
  5
86A
 10
20.4550
 20
90.8023
 30
0.000000
  70
    32
  0
VERTEX
  8
16
  5
86B
 10
20.4538
 20
90.8044
 30
0.000000
  70
    32
  0
VERTEX
  8
16
  5
86C
 10
20.4526
 20
90.8065
 30
0.000000
  70
    32
  0
VERTEX
  8
16
  5
86D
 10
20.4514
 20
90.8086
 30
0.000000
  70
    32
  0
VERTEX
  8
16
  5
86E
 10
20.4502
 20
90.8108
 30
0.000000
  70
    32
  0
VERTEX
  8
16
  5
86F
 10
20.4490
 20
90.8129
 30
0.000000
  70
    32
  0
VERTEX
  8
16
  5
870
 10
20.4478
 20
90.8151
 30
0.000000
  70
    32
  0
VERTEX
  8
16
  5
871
 10
20.4466
 20
90.8173
 30
0.000000
  70
    32
  0
VERTEX
  8
16
  5
872
 10
20.4454
 20
90.8194
 30
0.000000
  70
    32
  0
VERTEX
  8
16
  5
873
 10
20.4441
 20
90.8216
 30
0.000000
  70
    32
  0
VERTEX
  8
16
  5
874
 10
20.4429
 20
90.8238
 30
0.000000
  70
    32
  0
VERTEX
  8
16
  5
875
 10
20.4417
 20
90.8260
 30
0.000000
  70
    32
  0
VERTEX
  8
16
  5
876
 10
20.4404
 20
90.8282
 30
0.000000
  70
    32
  0
VERTEX
  8
16
  5
877
 10
20.4392
 20
90.8304
 30
0.000000
  70
    32
  0
VERTEX
  8
16
  5
878
 10
20.4379
 20
90.8327
 30
0.000000
  70
    32
  0
VERTEX
  8
16
  5
879
 10
20.4367
 20
90.8349
 30
0.000000
  70
    32
  0
VERTEX
  8
16
  5
87A
 10
20.4354
 20
90.8371
 30
0.000000
  70
    32
  0
VERTEX
  8
16
  5
87B
 10
20.4341
 20
90.8394
 30
0.000000
  70
    32
  0
VERTEX
  8
16
  5
87C
 10
20.4329
 20
90.8417
 30
0.000000
  70
    32
  0
VERTEX
  8
16
  5
87D
 10
20.4316
 20
90.8439
 30
0.000000
  70
    32
  0
VERTEX
  8
16
  5
87E
 10
20.4303
 20
90.8462
 30
0.000000
  70
    32
  0
VERTEX
  8
16
  5
87F
 10
20.4290
 20
90.8485
 30
0.000000
  70
    32
  0
VERTEX
  8
16
  5
880
 10
20.4277
 20
90.8508
 30
0.000000
  70
    32
  0
VERTEX
  8
16
  5
881
 10
20.4264
 20
90.8531
 30
0.000000
  70
    32
  0
VERTEX
  8
16
  5
882
 10
20.4251
 20
90.8554
 30
0.000000
  70
    32
  0
VERTEX
  8
16
  5
883
 10
20.4238
 20
90.8577
 30
0.000000
  70
    32
  0
VERTEX
  8
16
  5
884
 10
20.4225
 20
90.8600
 30
0.000000
  70
    32
  0
VERTEX
  8
16
  5
885
 10
20.4212
 20
90.8624
 30
0.000000
  70
    32
  0
VERTEX
  8
16
  5
886
 10
20.4198
 20
90.8647
 30
0.000000
  70
    32
  0
VERTEX
  8
16
  5
887
 10
20.4185
 20
90.8671
 30
0.000000
  70
    32
  0
VERTEX
  8
16
  5
888
 10
20.4172
 20
90.8694
 30
0.000000
  70
    32
  0
VERTEX
  8
16
  5
889
 10
20.4158
 20
90.8718
 30
0.000000
  70
    32
  0
VERTEX
  8
16
  5
88A
 10
20.4145
 20
90.8741
 30
0.000000
  70
    32
  0
VERTEX
  8
16
  5
88B
 10
20.4131
 20
90.8765
 30
0.000000
  70
    32
  0
VERTEX
  8
16
  5
88C
 10
20.4118
 20
90.8789
 30
0.000000
  70
    32
  0
VERTEX
  8
16
  5
88D
 10
20.4104
 20
90.8813
 30
0.000000
  70
    32
  0
VERTEX
  8
16
  5
88E
 10
20.4091
 20
90.8837
 30
0.000000
  70
    32
  0
VERTEX
  8
16
  5
88F
 10
20.4077
 20
90.8861
 30
0.000000
  70
    32
  0
VERTEX
  8
16
  5
890
 10
20.4063
 20
90.8886
 30
0.000000
  70
    32
  0
VERTEX
  8
16
  5
891
 10
20.4049
 20
90.8910
 30
0.000000
  70
    32
  0
VERTEX
  8
16
  5
892
 10
20.4036
 20
90.8934
 30
0.000000
  70
    32
  0
VERTEX
  8
16
  5
893
 10
20.4022
 20
90.8959
 30
0.000000
  70
    32
  0
VERTEX
  8
16
  5
894
 10
20.4008
 20
90.8983
 30
0.000000
  70
    32
  0
VERTEX
  8
16
  5
895
 10
20.3994
 20
90.9008
 30
0.000000
  70
    32
  0
VERTEX
  8
16
  5
896
 10
20.3980
 20
90.9032
 30
0.000000
  70
    32
  0
VERTEX
  8
16
  5
897
 10
20.3966
 20
90.9057
 30
0.000000
  70
    32
  0
VERTEX
  8
16
  5
898
 10
20.3951
 20
90.9082
 30
0.000000
  70
    32
  0
VERTEX
  8
16
  5
899
 10
20.3937
 20
90.9107
 30
0.000000
  70
    32
  0
VERTEX
  8
16
  5
89A
 10
20.3923
 20
90.9132
 30
0.000000
  70
    32
  0
VERTEX
  8
16
  5
89B
 10
20.3909
 20
90.9157
 30
0.000000
  70
    32
  0
VERTEX
  8
16
  5
89C
 10
20.3894
 20
90.9182
 30
0.000000
  70
    32
  0
VERTEX
  8
16
  5
89D
 10
20.3880
 20
90.9207
 30
0.000000
  70
    32
  0
VERTEX
  8
16
  5
89E
 10
20.3866
 20
90.9232
 30
0.000000
  70
    32
  0
VERTEX
  8
16
  5
89F
 10
20.3851
 20
90.9258
 30
0.000000
  70
    32
  0
VERTEX
  8
16
  5
8A0
 10
20.3837
 20
90.9283
 30
0.000000
  70
    32
  0
VERTEX
  8
16
  5
8A1
 10
20.3822
 20
90.9308
 30
0.000000
  70
    32
  0
VERTEX
  8
16
  5
8A2
 10
20.3807
 20
90.9334
 30
0.000000
  70
    32
  0
VERTEX
  8
16
  5
8A3
 10
20.3793
 20
90.9359
 30
0.000000
  70
    32
  0
VERTEX
  8
16
  5
8A4
 10
20.3778
 20
90.9385
 30
0.000000
  70
    32
  0
VERTEX
  8
16
  5
8A5
 10
20.3763
 20
90.9411
 30
0.000000
  70
    32
  0
VERTEX
  8
16
  5
8A6
 10
20.3748
 20
90.9437
 30
0.000000
  70
    32
  0
VERTEX
  8
16
  5
8A7
 10
20.3733
 20
90.9463
 30
0.000000
  70
    32
  0
VERTEX
  8
16
  5
8A8
 10
20.3719
 20
90.9489
 30
0.000000
  70
    32
  0
VERTEX
  8
16
  5
8A9
 10
20.3704
 20
90.9515
 30
0.000000
  70
    32
  0
VERTEX
  8
16
  5
8AA
 10
20.3689
 20
90.9541
 30
0.000000
  70
    32
  0
VERTEX
  8
16
  5
8AB
 10
20.3674
 20
90.9567
 30
0.000000
  70
    32
  0
VERTEX
  8
16
  5
8AC
 10
20.3658
 20
90.9593
 30
0.000000
  70
    32
  0
VERTEX
  8
16
  5
8AD
 10
20.3643
 20
90.9619
 30
0.000000
  70
    32
  0
VERTEX
  8
16
  5
8AE
 10
20.3628
 20
90.9645
 30
0.000000
  70
    32
  0
VERTEX
  8
16
  5
8AF
 10
20.3613
 20
90.9671
 30
0.000000
  70
    32
  0
VERTEX
  8
16
  5
8B0
 10
20.3598
 20
90.9698
 30
0.000000
  70
    32
  0
VERTEX
  8
16
  5
8B1
 10
20.3583
 20
90.9724
 30
0.000000
  70
    32
  0
VERTEX
  8
16
  5
8B2
 10
20.3568
 20
90.9750
 30
0.000000
  70
    32
  0
VERTEX
  8
16
  5
8B3
 10
20.3552
 20
90.9777
 30
0.000000
  70
    32
  0
VERTEX
  8
16
  5
8B4
 10
20.3537
 20
90.9803
 30
0.000000
  70
    32
  0
VERTEX
  8
16
  5
8B5
 10
20.3522
 20
90.9830
 30
0.000000
  70
    32
  0
VERTEX
  8
16
  5
8B6
 10
20.3506
 20
90.9856
 30
0.000000
  70
    32
  0
VERTEX
  8
16
  5
8B7
 10
20.3491
 20
90.9883
 30
0.000000
  70
    32
  0
VERTEX
  8
16
  5
8B8
 10
20.3476
 20
90.9909
 30
0.000000
  70
    32
  0
VERTEX
  8
16
  5
8B9
 10
20.3460
 20
90.9936
 30
0.000000
  70
    32
  0
VERTEX
  8
16
  5
8BA
 10
20.3445
 20
90.9962
 30
0.000000
  70
    32
  0
VERTEX
  8
16
  5
8BB
 10
20.3429
 20
90.9989
 30
0.000000
  70
    32
  0
VERTEX
  8
16
  5
8BC
 10
20.3414
 20
91.0016
 30
0.000000
  70
    32
  0
VERTEX
  8
16
  5
8BD
 10
20.3398
 20
91.0042
 30
0.000000
  70
    32
  0
VERTEX
  8
16
  5
8BE
 10
20.3382
 20
91.0069
 30
0.000000
  70
    32
  0
VERTEX
  8
16
  5
8BF
 10
20.3367
 20
91.0096
 30
0.000000
  70
    32
  0
VERTEX
  8
16
  5
8C0
 10
20.3351
 20
91.0123
 30
0.000000
  70
    32
  0
VERTEX
  8
16
  5
8C1
 10
20.3336
 20
91.0150
 30
0.000000
  70
    32
  0
VERTEX
  8
16
  5
8C2
 10
20.3320
 20
91.0177
 30
0.000000
  70
    32
  0
VERTEX
  8
16
  5
8C3
 10
20.3304
 20
91.0203
 30
0.000000
  70
    32
  0
VERTEX
  8
16
  5
8C4
 10
20.3288
 20
91.0230
 30
0.000000
  70
    32
  0
VERTEX
  8
16
  5
8C5
 10
20.3273
 20
91.0257
 30
0.000000
  70
    32
  0
VERTEX
  8
16
  5
8C6
 10
20.3257
 20
91.0284
 30
0.000000
  70
    32
  0
VERTEX
  8
16
  5
8C7
 10
20.3241
 20
91.0311
 30
0.000000
  70
    32
  0
VERTEX
  8
16
  5
8C8
 10
20.3225
 20
91.0339
 30
0.000000
  70
    32
  0
VERTEX
  8
16
  5
8C9
 10
20.3209
 20
91.0366
 30
0.000000
  70
    32
  0
VERTEX
  8
16
  5
8CA
 10
20.3193
 20
91.0393
 30
0.000000
  70
    32
  0
VERTEX
  8
16
  5
8CB
 10
20.3177
 20
91.0420
 30
0.000000
  70
    32
  0
VERTEX
  8
16
  5
8CC
 10
20.3161
 20
91.0447
 30
0.000000
  70
    32
  0
VERTEX
  8
16
  5
8CD
 10
20.3145
 20
91.0474
 30
0.000000
  70
    32
  0
VERTEX
  8
16
  5
8CE
 10
20.3129
 20
91.0502
 30
0.000000
  70
    32
  0
VERTEX
  8
16
  5
8CF
 10
20.3113
 20
91.0529
 30
0.000000
  70
    32
  0
VERTEX
  8
16
  5
8D0
 10
20.3097
 20
91.0556
 30
0.000000
  70
    32
  0
VERTEX
  8
16
  5
8D1
 10
20.3081
 20
91.0584
 30
0.000000
  70
    32
  0
VERTEX
  8
16
  5
8D2
 10
20.3065
 20
91.0611
 30
0.000000
  70
    32
  0
VERTEX
  8
16
  5
8D3
 10
20.3049
 20
91.0639
 30
0.000000
  70
    32
  0
VERTEX
  8
16
  5
8D4
 10
20.3032
 20
91.0666
 30
0.000000
  70
    32
  0
VERTEX
  8
16
  5
8D5
 10
20.3016
 20
91.0694
 30
0.000000
  70
    32
  0
VERTEX
  8
16
  5
8D6
 10
20.3000
 20
91.0721
 30
0.000000
  70
    32
  0
VERTEX
  8
16
  5
8D7
 10
20.2984
 20
91.0749
 30
0.000000
  70
    32
  0
VERTEX
  8
16
  5
8D8
 10
20.2967
 20
91.0776
 30
0.000000
  70
    32
  0
VERTEX
  8
16
  5
8D9
 10
20.2951
 20
91.0804
 30
0.000000
  70
    32
  0
VERTEX
  8
16
  5
8DA
 10
20.2935
 20
91.0831
 30
0.000000
  70
    32
  0
VERTEX
  8
16
  5
8DB
 10
20.2918
 20
91.0859
 30
0.000000
  70
    32
  0
VERTEX
  8
16
  5
8DC
 10
20.2902
 20
91.0887
 30
0.000000
  70
    32
  0
VERTEX
  8
16
  5
8DD
 10
20.2885
 20
91.0915
 30
0.000000
  70
    32
  0
VERTEX
  8
16
  5
8DE
 10
20.2869
 20
91.0942
 30
0.000000
  70
    32
  0
VERTEX
  8
16
  5
8DF
 10
20.2852
 20
91.0970
 30
0.000000
  70
    32
  0
VERTEX
  8
16
  5
8E0
 10
20.2836
 20
91.0998
 30
0.000000
  70
    32
  0
VERTEX
  8
16
  5
8E1
 10
20.2819
 20
91.1026
 30
0.000000
  70
    32
  0
VERTEX
  8
16
  5
8E2
 10
20.2802
 20
91.1054
 30
0.000000
  70
    32
  0
VERTEX
  8
16
  5
8E3
 10
20.2786
 20
91.1082
 30
0.000000
  70
    32
  0
VERTEX
  8
16
  5
8E4
 10
20.2769
 20
91.1109
 30
0.000000
  70
    32
  0
VERTEX
  8
16
  5
8E5
 10
20.2752
 20
91.1137
 30
0.000000
  70
    32
  0
VERTEX
  8
16
  5
8E6
 10
20.2736
 20
91.1165
 30
0.000000
  70
    32
  0
VERTEX
  8
16
  5
8E7
 10
20.2719
 20
91.1193
 30
0.000000
  70
    32
  0
VERTEX
  8
16
  5
8E8
 10
20.2702
 20
91.1221
 30
0.000000
  70
    32
  0
VERTEX
  8
16
  5
8E9
 10
20.2685
 20
91.1250
 30
0.000000
  70
    32
  0
VERTEX
  8
16
  5
8EA
 10
20.2669
 20
91.1278
 30
0.000000
  70
    32
  0
VERTEX
  8
16
  5
8EB
 10
20.2652
 20
91.1306
 30
0.000000
  70
    32
  0
VERTEX
  8
16
  5
8EC
 10
20.2635
 20
91.1334
 30
0.000000
  70
    32
  0
VERTEX
  8
16
  5
8ED
 10
20.2618
 20
91.1362
 30
0.000000
  70
    32
  0
VERTEX
  8
16
  5
8EE
 10
20.2601
 20
91.1390
 30
0.000000
  70
    32
  0
VERTEX
  8
16
  5
8EF
 10
20.2584
 20
91.1418
 30
0.000000
  70
    32
  0
VERTEX
  8
16
  5
8F0
 10
20.2567
 20
91.1447
 30
0.000000
  70
    32
  0
VERTEX
  8
16
  5
8F1
 10
20.2550
 20
91.1475
 30
0.000000
  70
    32
  0
VERTEX
  8
16
  5
8F2
 10
20.2533
 20
91.1503
 30
0.000000
  70
    32
  0
VERTEX
  8
16
  5
8F3
 10
20.2516
 20
91.1532
 30
0.000000
  70
    32
  0
VERTEX
  8
16
  5
8F4
 10
20.2499
 20
91.1560
 30
0.000000
  70
    32
  0
VERTEX
  8
16
  5
8F5
 10
20.2482
 20
91.1588
 30
0.000000
  70
    32
  0
VERTEX
  8
16
  5
8F6
 10
20.2464
 20
91.1617
 30
0.000000
  70
    32
  0
VERTEX
  8
16
  5
8F7
 10
20.2447
 20
91.1645
 30
0.000000
  70
    32
  0
VERTEX
  8
16
  5
8F8
 10
20.2430
 20
91.1674
 30
0.000000
  70
    32
  0
VERTEX
  8
16
  5
8F9
 10
20.2413
 20
91.1702
 30
0.000000
  70
    32
  0
VERTEX
  8
16
  5
8FA
 10
20.2396
 20
91.1731
 30
0.000000
  70
    32
  0
VERTEX
  8
16
  5
8FB
 10
20.2378
 20
91.1759
 30
0.000000
  70
    32
  0
VERTEX
  8
16
  5
8FC
 10
20.2361
 20
91.1788
 30
0.000000
  70
    32
  0
VERTEX
  8
16
  5
8FD
 10
20.2344
 20
91.1816
 30
0.000000
  70
    32
  0
VERTEX
  8
16
  5
8FE
 10
20.2326
 20
91.1845
 30
0.000000
  70
    32
  0
VERTEX
  8
16
  5
8FF
 10
20.2309
 20
91.1873
 30
0.000000
  70
    32
  0
VERTEX
  8
16
  5
900
 10
20.2291
 20
91.1902
 30
0.000000
  70
    32
  0
VERTEX
  8
16
  5
901
 10
20.2274
 20
91.1931
 30
0.000000
  70
    32
  0
VERTEX
  8
16
  5
902
 10
20.2256
 20
91.1959
 30
0.000000
  70
    32
  0
VERTEX
  8
16
  5
903
 10
20.2239
 20
91.1988
 30
0.000000
  70
    32
  0
VERTEX
  8
16
  5
904
 10
20.2221
 20
91.2017
 30
0.000000
  70
    32
  0
VERTEX
  8
16
  5
905
 10
20.2204
 20
91.2046
 30
0.000000
  70
    32
  0
VERTEX
  8
16
  5
906
 10
20.2186
 20
91.2074
 30
0.000000
  70
    32
  0
VERTEX
  8
16
  5
907
 10
20.2169
 20
91.2103
 30
0.000000
  70
    32
  0
VERTEX
  8
16
  5
908
 10
20.2151
 20
91.2132
 30
0.000000
  70
    32
  0
VERTEX
  8
16
  5
909
 10
20.2133
 20
91.2161
 30
0.000000
  70
    32
  0
VERTEX
  8
16
  5
90A
 10
20.2116
 20
91.2190
 30
0.000000
  70
    32
  0
VERTEX
  8
16
  5
90B
 10
20.2098
 20
91.2219
 30
0.000000
  70
    32
  0
VERTEX
  8
16
  5
90C
 10
20.2080
 20
91.2248
 30
0.000000
  70
    32
  0
VERTEX
  8
16
  5
90D
 10
20.2062
 20
91.2276
 30
0.000000
  70
    32
  0
VERTEX
  8
16
  5
90E
 10
20.2045
 20
91.2305
 30
0.000000
  70
    32
  0
VERTEX
  8
16
  5
90F
 10
20.2027
 20
91.2334
 30
0.000000
  70
    32
  0
VERTEX
  8
16
  5
910
 10
20.2009
 20
91.2363
 30
0.000000
  70
    32
  0
VERTEX
  8
16
  5
911
 10
20.1991
 20
91.2392
 30
0.000000
  70
    32
  0
VERTEX
  8
16
  5
912
 10
20.1973
 20
91.2421
 30
0.000000
  70
    32
  0
VERTEX
  8
16
  5
913
 10
20.1956
 20
91.2450
 30
0.000000
  70
    32
  0
VERTEX
  8
16
  5
914
 10
20.1938
 20
91.2479
 30
0.000000
  70
    32
  0
VERTEX
  8
16
  5
915
 10
20.1920
 20
91.2508
 30
0.000000
  70
    32
  0
VERTEX
  8
16
  5
916
 10
20.1902
 20
91.2537
 30
0.000000
  70
    32
  0
VERTEX
  8
16
  5
917
 10
20.1884
 20
91.2566
 30
0.000000
  70
    32
  0
VERTEX
  8
16
  5
918
 10
20.1866
 20
91.2594
 30
0.000000
  70
    32
  0
VERTEX
  8
16
  5
919
 10
20.1848
 20
91.2623
 30
0.000000
  70
    32
  0
VERTEX
  8
16
  5
91A
 10
20.1830
 20
91.2652
 30
0.000000
  70
    32
  0
VERTEX
  8
16
  5
91B
 10
20.1812
 20
91.2681
 30
0.000000
  70
    32
  0
VERTEX
  8
16
  5
91C
 10
20.1794
 20
91.2710
 30
0.000000
  70
    32
  0
VERTEX
  8
16
  5
91D
 10
20.1776
 20
91.2739
 30
0.000000
  70
    32
  0
VERTEX
  8
16
  5
91E
 10
20.1758
 20
91.2768
 30
0.000000
  70
    32
  0
VERTEX
  8
16
  5
91F
 10
20.1740
 20
91.2797
 30
0.000000
  70
    32
  0
VERTEX
  8
16
  5
920
 10
20.1722
 20
91.2826
 30
0.000000
  70
    32
  0
VERTEX
  8
16
  5
921
 10
20.1704
 20
91.2855
 30
0.000000
  70
    32
  0
VERTEX
  8
16
  5
922
 10
20.1686
 20
91.2884
 30
0.000000
  70
    32
  0
VERTEX
  8
16
  5
923
 10
20.1668
 20
91.2913
 30
0.000000
  70
    32
  0
VERTEX
  8
16
  5
924
 10
20.1650
 20
91.2942
 30
0.000000
  70
    32
  0
VERTEX
  8
16
  5
925
 10
20.1632
 20
91.2971
 30
0.000000
  70
    32
  0
VERTEX
  8
16
  5
926
 10
20.1614
 20
91.3000
 30
0.000000
  70
    32
  0
VERTEX
  8
16
  5
927
 10
20.1595
 20
91.3029
 30
0.000000
  70
    32
  0
VERTEX
  8
16
  5
928
 10
20.1577
 20
91.3058
 30
0.000000
  70
    32
  0
VERTEX
  8
16
  5
929
 10
20.1559
 20
91.3087
 30
0.000000
  70
    32
  0
VERTEX
  8
16
  5
92A
 10
20.1541
 20
91.3116
 30
0.000000
  70
    32
  0
VERTEX
  8
16
  5
92B
 10
20.1523
 20
91.3145
 30
0.000000
  70
    32
  0
VERTEX
  8
16
  5
92C
 10
20.1504
 20
91.3174
 30
0.000000
  70
    32
  0
VERTEX
  8
16
  5
92D
 10
20.1486
 20
91.3203
 30
0.000000
  70
    32
  0
VERTEX
  8
16
  5
92E
 10
20.1468
 20
91.3232
 30
0.000000
  70
    32
  0
VERTEX
  8
16
  5
92F
 10
20.1450
 20
91.3261
 30
0.000000
  70
    32
  0
VERTEX
  8
16
  5
930
 10
20.1431
 20
91.3290
 30
0.000000
  70
    32
  0
VERTEX
  8
16
  5
931
 10
20.1413
 20
91.3319
 30
0.000000
  70
    32
  0
VERTEX
  8
16
  5
932
 10
20.1395
 20
91.3347
 30
0.000000
  70
    32
  0
VERTEX
  8
16
  5
933
 10
20.1377
 20
91.3376
 30
0.000000
  70
    32
  0
VERTEX
  8
16
  5
934
 10
20.1358
 20
91.3405
 30
0.000000
  70
    32
  0
VERTEX
  8
16
  5
935
 10
20.1340
 20
91.3434
 30
0.000000
  70
    32
  0
VERTEX
  8
16
  5
936
 10
20.1322
 20
91.3463
 30
0.000000
  70
    32
  0
VERTEX
  8
16
  5
937
 10
20.1303
 20
91.3492
 30
0.000000
  70
    32
  0
VERTEX
  8
16
  5
938
 10
20.1285
 20
91.3521
 30
0.000000
  70
    32
  0
VERTEX
  8
16
  5
939
 10
20.1266
 20
91.3550
 30
0.000000
  70
    32
  0
VERTEX
  8
16
  5
93A
 10
20.1248
 20
91.3579
 30
0.000000
  70
    32
  0
VERTEX
  8
16
  5
93B
 10
20.1230
 20
91.3608
 30
0.000000
  70
    32
  0
VERTEX
  8
16
  5
93C
 10
20.1211
 20
91.3637
 30
0.000000
  70
    32
  0
VERTEX
  8
16
  5
93D
 10
20.1193
 20
91.3666
 30
0.000000
  70
    32
  0
VERTEX
  8
16
  5
93E
 10
20.1174
 20
91.3695
 30
0.000000
  70
    32
  0
VERTEX
  8
16
  5
93F
 10
20.1156
 20
91.3724
 30
0.000000
  70
    32
  0
VERTEX
  8
16
  5
940
 10
20.1137
 20
91.3753
 30
0.000000
  70
    32
  0
VERTEX
  8
16
  5
941
 10
20.1119
 20
91.3781
 30
0.000000
  70
    32
  0
VERTEX
  8
16
  5
942
 10
20.1100
 20
91.3810
 30
0.000000
  70
    32
  0
VERTEX
  8
16
  5
943
 10
20.1082
 20
91.3839
 30
0.000000
  70
    32
  0
VERTEX
  8
16
  5
944
 10
20.1063
 20
91.3868
 30
0.000000
  70
    32
  0
VERTEX
  8
16
  5
945
 10
20.1045
 20
91.3897
 30
0.000000
  70
    32
  0
VERTEX
  8
16
  5
946
 10
20.1026
 20
91.3926
 30
0.000000
  70
    32
  0
VERTEX
  8
16
  5
947
 10
20.1008
 20
91.3955
 30
0.000000
  70
    32
  0
VERTEX
  8
16
  5
948
 10
20.0989
 20
91.3984
 30
0.000000
  70
    32
  0
VERTEX
  8
16
  5
949
 10
20.0971
 20
91.4012
 30
0.000000
  70
    32
  0
VERTEX
  8
16
  5
94A
 10
20.0952
 20
91.4041
 30
0.000000
  70
    32
  0
VERTEX
  8
16
  5
94B
 10
20.0934
 20
91.4070
 30
0.000000
  70
    32
  0
VERTEX
  8
16
  5
94C
 10
20.0915
 20
91.4099
 30
0.000000
  70
    32
  0
VERTEX
  8
16
  5
94D
 10
20.0897
 20
91.4128
 30
0.000000
  70
    32
  0
VERTEX
  8
16
  5
94E
 10
20.0878
 20
91.4156
 30
0.000000
  70
    32
  0
VERTEX
  8
16
  5
94F
 10
20.0859
 20
91.4185
 30
0.000000
  70
    32
  0
VERTEX
  8
16
  5
950
 10
20.0841
 20
91.4214
 30
0.000000
  70
    32
  0
VERTEX
  8
16
  5
951
 10
20.0822
 20
91.4243
 30
0.000000
  70
    32
  0
VERTEX
  8
16
  5
952
 10
20.0803
 20
91.4272
 30
0.000000
  70
    32
  0
VERTEX
  8
16
  5
953
 10
20.0785
 20
91.4300
 30
0.000000
  70
    32
  0
VERTEX
  8
16
  5
954
 10
20.0766
 20
91.4329
 30
0.000000
  70
    32
  0
VERTEX
  8
16
  5
955
 10
20.0748
 20
91.4358
 30
0.000000
  70
    32
  0
VERTEX
  8
16
  5
956
 10
20.0729
 20
91.4387
 30
0.000000
  70
    32
  0
VERTEX
  8
16
  5
957
 10
20.0710
 20
91.4415
 30
0.000000
  70
    32
  0
VERTEX
  8
16
  5
958
 10
20.0692
 20
91.4444
 30
0.000000
  70
    32
  0
VERTEX
  8
16
  5
959
 10
20.0673
 20
91.4473
 30
0.000000
  70
    32
  0
VERTEX
  8
16
  5
95A
 10
20.0654
 20
91.4501
 30
0.000000
  70
    32
  0
VERTEX
  8
16
  5
95B
 10
20.0636
 20
91.4530
 30
0.000000
  70
    32
  0
VERTEX
  8
16
  5
95C
 10
20.0617
 20
91.4559
 30
0.000000
  70
    32
  0
VERTEX
  8
16
  5
95D
 10
20.0598
 20
91.4587
 30
0.000000
  70
    32
  0
VERTEX
  8
16
  5
95E
 10
20.0579
 20
91.4616
 30
0.000000
  70
    32
  0
VERTEX
  8
16
  5
95F
 10
20.0561
 20
91.4644
 30
0.000000
  70
    32
  0
VERTEX
  8
16
  5
960
 10
20.0542
 20
91.4673
 30
0.000000
  70
    32
  0
VERTEX
  8
16
  5
961
 10
20.0523
 20
91.4702
 30
0.000000
  70
    32
  0
VERTEX
  8
16
  5
962
 10
20.0504
 20
91.4730
 30
0.000000
  70
    32
  0
VERTEX
  8
16
  5
963
 10
20.0486
 20
91.4759
 30
0.000000
  70
    32
  0
VERTEX
  8
16
  5
964
 10
20.0467
 20
91.4787
 30
0.000000
  70
    32
  0
VERTEX
  8
16
  5
965
 10
20.0448
 20
91.4816
 30
0.000000
  70
    32
  0
VERTEX
  8
16
  5
966
 10
20.0429
 20
91.4844
 30
0.000000
  70
    32
  0
VERTEX
  8
16
  5
967
 10
20.0411
 20
91.4873
 30
0.000000
  70
    32
  0
VERTEX
  8
16
  5
968
 10
20.0392
 20
91.4901
 30
0.000000
  70
    32
  0
SEQEND
  8
16
  5
969
  0
POLYLINE
  8
16
  5
96A
  62
0
  66
     1
 10
0.000000
 20
0.000000
 30
0.000000
  70
     8
  0
VERTEX
  8
16
  5
96B
 10
20.5390
 20
90.6563
 30
0.000000
  70
    32
  0
VERTEX
  8
16
  5
96C
 10
20.5390
 20
90.6542
 30
0.000000
  70
    32
  0
VERTEX
  8
16
  5
96D
 10
20.5390
 20
90.6521
 30
0.000000
  70
    32
  0
VERTEX
  8
16
  5
96E
 10
20.5391
 20
90.6500
 30
0.000000
  70
    32
  0
VERTEX
  8
16
  5
96F
 10
20.5391
 20
90.6479
 30
0.000000
  70
    32
  0
VERTEX
  8
16
  5
970
 10
20.5391
 20
90.6458
 30
0.000000
  70
    32
  0
VERTEX
  8
16
  5
971
 10
20.5392
 20
90.6437
 30
0.000000
  70
    32
  0
VERTEX
  8
16
  5
972
 10
20.5392
 20
90.6416
 30
0.000000
  70
    32
  0
VERTEX
  8
16
  5
973
 10
20.5393
 20
90.6395
 30
0.000000
  70
    32
  0
VERTEX
  8
16
  5
974
 10
20.5394
 20
90.6374
 30
0.000000
  70
    32
  0
VERTEX
  8
16
  5
975
 10
20.5395
 20
90.6353
 30
0.000000
  70
    32
  0
VERTEX
  8
16
  5
976
 10
20.5396
 20
90.6332
 30
0.000000
  70
    32
  0
VERTEX
  8
16
  5
977
 10
20.5397
 20
90.6311
 30
0.000000
  70
    32
  0
VERTEX
  8
16
  5
978
 10
20.5398
 20
90.6290
 30
0.000000
  70
    32
  0
VERTEX
  8
16
  5
979
 10
20.5399
 20
90.6269
 30
0.000000
  70
    32
  0
VERTEX
  8
16
  5
97A
 10
20.5400
 20
90.6248
 30
0.000000
  70
    32
  0
VERTEX
  8
16
  5
97B
 10
20.5402
 20
90.6227
 30
0.000000
  70
    32
  0
VERTEX
  8
16
  5
97C
 10
20.5403
 20
90.6206
 30
0.000000
  70
    32
  0
VERTEX
  8
16
  5
97D
 10
20.5405
 20
90.6185
 30
0.000000
  70
    32
  0
VERTEX
  8
16
  5
97E
 10
20.5407
 20
90.6164
 30
0.000000
  70
    32
  0
VERTEX
  8
16
  5
97F
 10
20.5408
 20
90.6143
 30
0.000000
  70
    32
  0
VERTEX
  8
16
  5
980
 10
20.5410
 20
90.6122
 30
0.000000
  70
    32
  0
VERTEX
  8
16
  5
981
 10
20.5412
 20
90.6101
 30
0.000000
  70
    32
  0
VERTEX
  8
16
  5
982
 10
20.5414
 20
90.6080
 30
0.000000
  70
    32
  0
VERTEX
  8
16
  5
983
 10
20.5416
 20
90.6059
 30
0.000000
  70
    32
  0
VERTEX
  8
16
  5
984
 10
20.5418
 20
90.6038
 30
0.000000
  70
    32
  0
VERTEX
  8
16
  5
985
 10
20.5421
 20
90.6018
 30
0.000000
  70
    32
  0
VERTEX
  8
16
  5
986
 10
20.5423
 20
90.5997
 30
0.000000
  70
    32
  0
VERTEX
  8
16
  5
987
 10
20.5426
 20
90.5976
 30
0.000000
  70
    32
  0
VERTEX
  8
16
  5
988
 10
20.5428
 20
90.5955
 30
0.000000
  70
    32
  0
VERTEX
  8
16
  5
989
 10
20.5431
 20
90.5934
 30
0.000000
  70
    32
  0
VERTEX
  8
16
  5
98A
 10
20.5433
 20
90.5913
 30
0.000000
  70
    32
  0
VERTEX
  8
16
  5
98B
 10
20.5436
 20
90.5893
 30
0.000000
  70
    32
  0
VERTEX
  8
16
  5
98C
 10
20.5439
 20
90.5872
 30
0.000000
  70
    32
  0
VERTEX
  8
16
  5
98D
 10
20.5442
 20
90.5851
 30
0.000000
  70
    32
  0
VERTEX
  8
16
  5
98E
 10
20.5445
 20
90.5830
 30
0.000000
  70
    32
  0
VERTEX
  8
16
  5
98F
 10
20.5448
 20
90.5809
 30
0.000000
  70
    32
  0
VERTEX
  8
16
  5
990
 10
20.5452
 20
90.5789
 30
0.000000
  70
    32
  0
VERTEX
  8
16
  5
991
 10
20.5455
 20
90.5768
 30
0.000000
  70
    32
  0
VERTEX
  8
16
  5
992
 10
20.5458
 20
90.5747
 30
0.000000
  70
    32
  0
VERTEX
  8
16
  5
993
 10
20.5462
 20
90.5726
 30
0.000000
  70
    32
  0
VERTEX
  8
16
  5
994
 10
20.5465
 20
90.5706
 30
0.000000
  70
    32
  0
VERTEX
  8
16
  5
995
 10
20.5469
 20
90.5685
 30
0.000000
  70
    32
  0
VERTEX
  8
16
  5
996
 10
20.5473
 20
90.5664
 30
0.000000
  70
    32
  0
VERTEX
  8
16
  5
997
 10
20.5477
 20
90.5644
 30
0.000000
  70
    32
  0
VERTEX
  8
16
  5
998
 10
20.5481
 20
90.5623
 30
0.000000
  70
    32
  0
VERTEX
  8
16
  5
999
 10
20.5485
 20
90.5602
 30
0.000000
  70
    32
  0
VERTEX
  8
16
  5
99A
 10
20.5489
 20
90.5582
 30
0.000000
  70
    32
  0
VERTEX
  8
16
  5
99B
 10
20.5493
 20
90.5561
 30
0.000000
  70
    32
  0
VERTEX
  8
16
  5
99C
 10
20.5497
 20
90.5541
 30
0.000000
  70
    32
  0
VERTEX
  8
16
  5
99D
 10
20.5502
 20
90.5520
 30
0.000000
  70
    32
  0
VERTEX
  8
16
  5
99E
 10
20.5506
 20
90.5500
 30
0.000000
  70
    32
  0
VERTEX
  8
16
  5
99F
 10
20.5511
 20
90.5479
 30
0.000000
  70
    32
  0
VERTEX
  8
16
  5
9A0
 10
20.5515
 20
90.5459
 30
0.000000
  70
    32
  0
VERTEX
  8
16
  5
9A1
 10
20.5520
 20
90.5438
 30
0.000000
  70
    32
  0
VERTEX
  8
16
  5
9A2
 10
20.5525
 20
90.5418
 30
0.000000
  70
    32
  0
VERTEX
  8
16
  5
9A3
 10
20.5530
 20
90.5397
 30
0.000000
  70
    32
  0
VERTEX
  8
16
  5
9A4
 10
20.5535
 20
90.5377
 30
0.000000
  70
    32
  0
VERTEX
  8
16
  5
9A5
 10
20.5540
 20
90.5356
 30
0.000000
  70
    32
  0
VERTEX
  8
16
  5
9A6
 10
20.5545
 20
90.5336
 30
0.000000
  70
    32
  0
VERTEX
  8
16
  5
9A7
 10
20.5550
 20
90.5316
 30
0.000000
  70
    32
  0
VERTEX
  8
16
  5
9A8
 10
20.5555
 20
90.5295
 30
0.000000
  70
    32
  0
VERTEX
  8
16
  5
9A9
 10
20.5561
 20
90.5275
 30
0.000000
  70
    32
  0
VERTEX
  8
16
  5
9AA
 10
20.5566
 20
90.5255
 30
0.000000
  70
    32
  0
VERTEX
  8
16
  5
9AB
 10
20.5572
 20
90.5235
 30
0.000000
  70
    32
  0
VERTEX
  8
16
  5
9AC
 10
20.5577
 20
90.5214
 30
0.000000
  70
    32
  0
VERTEX
  8
16
  5
9AD
 10
20.5583
 20
90.5194
 30
0.000000
  70
    32
  0
VERTEX
  8
16
  5
9AE
 10
20.5589
 20
90.5174
 30
0.000000
  70
    32
  0
VERTEX
  8
16
  5
9AF
 10
20.5595
 20
90.5154
 30
0.000000
  70
    32
  0
VERTEX
  8
16
  5
9B0
 10
20.5601
 20
90.5134
 30
0.000000
  70
    32
  0
VERTEX
  8
16
  5
9B1
 10
20.5607
 20
90.5114
 30
0.000000
  70
    32
  0
VERTEX
  8
16
  5
9B2
 10
20.5613
 20
90.5093
 30
0.000000
  70
    32
  0
VERTEX
  8
16
  5
9B3
 10
20.5619
 20
90.5073
 30
0.000000
  70
    32
  0
VERTEX
  8
16
  5
9B4
 10
20.5626
 20
90.5053
 30
0.000000
  70
    32
  0
VERTEX
  8
16
  5
9B5
 10
20.5632
 20
90.5033
 30
0.000000
  70
    32
  0
VERTEX
  8
16
  5
9B6
 10
20.5638
 20
90.5013
 30
0.000000
  70
    32
  0
VERTEX
  8
16
  5
9B7
 10
20.5645
 20
90.4993
 30
0.000000
  70
    32
  0
VERTEX
  8
16
  5
9B8
 10
20.5652
 20
90.4974
 30
0.000000
  70
    32
  0
VERTEX
  8
16
  5
9B9
 10
20.5658
 20
90.4954
 30
0.000000
  70
    32
  0
VERTEX
  8
16
  5
9BA
 10
20.5665
 20
90.4934
 30
0.000000
  70
    32
  0
VERTEX
  8
16
  5
9BB
 10
20.5672
 20
90.4914
 30
0.000000
  70
    32
  0
VERTEX
  8
16
  5
9BC
 10
20.5679
 20
90.4894
 30
0.000000
  70
    32
  0
VERTEX
  8
16
  5
9BD
 10
20.5686
 20
90.4874
 30
0.000000
  70
    32
  0
VERTEX
  8
16
  5
9BE
 10
20.5693
 20
90.4855
 30
0.000000
  70
    32
  0
VERTEX
  8
16
  5
9BF
 10
20.5701
 20
90.4835
 30
0.000000
  70
    32
  0
VERTEX
  8
16
  5
9C0
 10
20.5708
 20
90.4815
 30
0.000000
  70
    32
  0
VERTEX
  8
16
  5
9C1
 10
20.5715
 20
90.4796
 30
0.000000
  70
    32
  0
VERTEX
  8
16
  5
9C2
 10
20.5723
 20
90.4776
 30
0.000000
  70
    32
  0
VERTEX
  8
16
  5
9C3
 10
20.5731
 20
90.4756
 30
0.000000
  70
    32
  0
VERTEX
  8
16
  5
9C4
 10
20.5738
 20
90.4737
 30
0.000000
  70
    32
  0
VERTEX
  8
16
  5
9C5
 10
20.5746
 20
90.4717
 30
0.000000
  70
    32
  0
VERTEX
  8
16
  5
9C6
 10
20.5754
 20
90.4698
 30
0.000000
  70
    32
  0
VERTEX
  8
16
  5
9C7
 10
20.5762
 20
90.4678
 30
0.000000
  70
    32
  0
VERTEX
  8
16
  5
9C8
 10
20.5770
 20
90.4659
 30
0.000000
  70
    32
  0
VERTEX
  8
16
  5
9C9
 10
20.5778
 20
90.4639
 30
0.000000
  70
    32
  0
VERTEX
  8
16
  5
9CA
 10
20.5786
 20
90.4620
 30
0.000000
  70
    32
  0
VERTEX
  8
16
  5
9CB
 10
20.5794
 20
90.4601
 30
0.000000
  70
    32
  0
VERTEX
  8
16
  5
9CC
 10
20.5803
 20
90.4582
 30
0.000000
  70
    32
  0
VERTEX
  8
16
  5
9CD
 10
20.5811
 20
90.4562
 30
0.000000
  70
    32
  0
VERTEX
  8
16
  5
9CE
 10
20.5819
 20
90.4543
 30
0.000000
  70
    32
  0
VERTEX
  8
16
  5
9CF
 10
20.5828
 20
90.4524
 30
0.000000
  70
    32
  0
VERTEX
  8
16
  5
9D0
 10
20.5837
 20
90.4505
 30
0.000000
  70
    32
  0
VERTEX
  8
16
  5
9D1
 10
20.5845
 20
90.4486
 30
0.000000
  70
    32
  0
VERTEX
  8
16
  5
9D2
 10
20.5854
 20
90.4467
 30
0.000000
  70
    32
  0
VERTEX
  8
16
  5
9D3
 10
20.5863
 20
90.4448
 30
0.000000
  70
    32
  0
VERTEX
  8
16
  5
9D4
 10
20.5872
 20
90.4429
 30
0.000000
  70
    32
  0
VERTEX
  8
16
  5
9D5
 10
20.5881
 20
90.4410
 30
0.000000
  70
    32
  0
VERTEX
  8
16
  5
9D6
 10
20.5890
 20
90.4391
 30
0.000000
  70
    32
  0
VERTEX
  8
16
  5
9D7
 10
20.5900
 20
90.4372
 30
0.000000
  70
    32
  0
VERTEX
  8
16
  5
9D8
 10
20.5909
 20
90.4353
 30
0.000000
  70
    32
  0
VERTEX
  8
16
  5
9D9
 10
20.5918
 20
90.4334
 30
0.000000
  70
    32
  0
VERTEX
  8
16
  5
9DA
 10
20.5928
 20
90.4315
 30
0.000000
  70
    32
  0
VERTEX
  8
16
  5
9DB
 10
20.5937
 20
90.4297
 30
0.000000
  70
    32
  0
VERTEX
  8
16
  5
9DC
 10
20.5947
 20
90.4278
 30
0.000000
  70
    32
  0
VERTEX
  8
16
  5
9DD
 10
20.5957
 20
90.4259
 30
0.000000
  70
    32
  0
VERTEX
  8
16
  5
9DE
 10
20.5966
 20
90.4241
 30
0.000000
  70
    32
  0
VERTEX
  8
16
  5
9DF
 10
20.5976
 20
90.4222
 30
0.000000
  70
    32
  0
VERTEX
  8
16
  5
9E0
 10
20.5986
 20
90.4204
 30
0.000000
  70
    32
  0
VERTEX
  8
16
  5
9E1
 10
20.5996
 20
90.4185
 30
0.000000
  70
    32
  0
VERTEX
  8
16
  5
9E2
 10
20.6006
 20
90.4167
 30
0.000000
  70
    32
  0
VERTEX
  8
16
  5
9E3
 10
20.6016
 20
90.4148
 30
0.000000
  70
    32
  0
VERTEX
  8
16
  5
9E4
 10
20.6027
 20
90.4130
 30
0.000000
  70
    32
  0
VERTEX
  8
16
  5
9E5
 10
20.6037
 20
90.4112
 30
0.000000
  70
    32
  0
VERTEX
  8
16
  5
9E6
 10
20.6047
 20
90.4094
 30
0.000000
  70
    32
  0
VERTEX
  8
16
  5
9E7
 10
20.6058
 20
90.4075
 30
0.000000
  70
    32
  0
VERTEX
  8
16
  5
9E8
 10
20.6068
 20
90.4057
 30
0.000000
  70
    32
  0
VERTEX
  8
16
  5
9E9
 10
20.6079
 20
90.4039
 30
0.000000
  70
    32
  0
VERTEX
  8
16
  5
9EA
 10
20.6090
 20
90.4021
 30
0.000000
  70
    32
  0
VERTEX
  8
16
  5
9EB
 10
20.6100
 20
90.4003
 30
0.000000
  70
    32
  0
VERTEX
  8
16
  5
9EC
 10
20.6111
 20
90.3985
 30
0.000000
  70
    32
  0
VERTEX
  8
16
  5
9ED
 10
20.6122
 20
90.3967
 30
0.000000
  70
    32
  0
VERTEX
  8
16
  5
9EE
 10
20.6133
 20
90.3949
 30
0.000000
  70
    32
  0
VERTEX
  8
16
  5
9EF
 10
20.6144
 20
90.3931
 30
0.000000
  70
    32
  0
VERTEX
  8
16
  5
9F0
 10
20.6155
 20
90.3913
 30
0.000000
  70
    32
  0
VERTEX
  8
16
  5
9F1
 10
20.6167
 20
90.3896
 30
0.000000
  70
    32
  0
VERTEX
  8
16
  5
9F2
 10
20.6178
 20
90.3878
 30
0.000000
  70
    32
  0
VERTEX
  8
16
  5
9F3
 10
20.6189
 20
90.3860
 30
0.000000
  70
    32
  0
VERTEX
  8
16
  5
9F4
 10
20.6201
 20
90.3843
 30
0.000000
  70
    32
  0
VERTEX
  8
16
  5
9F5
 10
20.6212
 20
90.3825
 30
0.000000
  70
    32
  0
VERTEX
  8
16
  5
9F6
 10
20.6224
 20
90.3808
 30
0.000000
  70
    32
  0
VERTEX
  8
16
  5
9F7
 10
20.6236
 20
90.3790
 30
0.000000
  70
    32
  0
VERTEX
  8
16
  5
9F8
 10
20.6247
 20
90.3773
 30
0.000000
  70
    32
  0
VERTEX
  8
16
  5
9F9
 10
20.6259
 20
90.3755
 30
0.000000
  70
    32
  0
VERTEX
  8
16
  5
9FA
 10
20.6271
 20
90.3738
 30
0.000000
  70
    32
  0
VERTEX
  8
16
  5
9FB
 10
20.6283
 20
90.3721
 30
0.000000
  70
    32
  0
VERTEX
  8
16
  5
9FC
 10
20.6295
 20
90.3704
 30
0.000000
  70
    32
  0
VERTEX
  8
16
  5
9FD
 10
20.6307
 20
90.3686
 30
0.000000
  70
    32
  0
VERTEX
  8
16
  5
9FE
 10
20.6319
 20
90.3669
 30
0.000000
  70
    32
  0
VERTEX
  8
16
  5
9FF
 10
20.6332
 20
90.3652
 30
0.000000
  70
    32
  0
VERTEX
  8
16
  5
A00
 10
20.6344
 20
90.3635
 30
0.000000
  70
    32
  0
VERTEX
  8
16
  5
A01
 10
20.6356
 20
90.3618
 30
0.000000
  70
    32
  0
VERTEX
  8
16
  5
A02
 10
20.6369
 20
90.3601
 30
0.000000
  70
    32
  0
VERTEX
  8
16
  5
A03
 10
20.6381
 20
90.3584
 30
0.000000
  70
    32
  0
VERTEX
  8
16
  5
A04
 10
20.6394
 20
90.3568
 30
0.000000
  70
    32
  0
VERTEX
  8
16
  5
A05
 10
20.6407
 20
90.3551
 30
0.000000
  70
    32
  0
VERTEX
  8
16
  5
A06
 10
20.6419
 20
90.3534
 30
0.000000
  70
    32
  0
VERTEX
  8
16
  5
A07
 10
20.6432
 20
90.3518
 30
0.000000
  70
    32
  0
VERTEX
  8
16
  5
A08
 10
20.6445
 20
90.3501
 30
0.000000
  70
    32
  0
VERTEX
  8
16
  5
A09
 10
20.6458
 20
90.3484
 30
0.000000
  70
    32
  0
VERTEX
  8
16
  5
A0A
 10
20.6471
 20
90.3468
 30
0.000000
  70
    32
  0
VERTEX
  8
16
  5
A0B
 10
20.6484
 20
90.3451
 30
0.000000
  70
    32
  0
VERTEX
  8
16
  5
A0C
 10
20.6497
 20
90.3435
 30
0.000000
  70
    32
  0
VERTEX
  8
16
  5
A0D
 10
20.6510
 20
90.3419
 30
0.000000
  70
    32
  0
VERTEX
  8
16
  5
A0E
 10
20.6524
 20
90.3403
 30
0.000000
  70
    32
  0
VERTEX
  8
16
  5
A0F
 10
20.6537
 20
90.3386
 30
0.000000
  70
    32
  0
VERTEX
  8
16
  5
A10
 10
20.6551
 20
90.3370
 30
0.000000
  70
    32
  0
VERTEX
  8
16
  5
A11
 10
20.6564
 20
90.3354
 30
0.000000
  70
    32
  0
VERTEX
  8
16
  5
A12
 10
20.6578
 20
90.3338
 30
0.000000
  70
    32
  0
VERTEX
  8
16
  5
A13
 10
20.6591
 20
90.3322
 30
0.000000
  70
    32
  0
VERTEX
  8
16
  5
A14
 10
20.6605
 20
90.3306
 30
0.000000
  70
    32
  0
VERTEX
  8
16
  5
A15
 10
20.6619
 20
90.3290
 30
0.000000
  70
    32
  0
VERTEX
  8
16
  5
A16
 10
20.6633
 20
90.3274
 30
0.000000
  70
    32
  0
VERTEX
  8
16
  5
A17
 10
20.6646
 20
90.3259
 30
0.000000
  70
    32
  0
VERTEX
  8
16
  5
A18
 10
20.6660
 20
90.3243
 30
0.000000
  70
    32
  0
VERTEX
  8
16
  5
A19
 10
20.6674
 20
90.3227
 30
0.000000
  70
    32
  0
VERTEX
  8
16
  5
A1A
 10
20.6689
 20
90.3212
 30
0.000000
  70
    32
  0
VERTEX
  8
16
  5
A1B
 10
20.6703
 20
90.3196
 30
0.000000
  70
    32
  0
VERTEX
  8
16
  5
A1C
 10
20.6717
 20
90.3181
 30
0.000000
  70
    32
  0
VERTEX
  8
16
  5
A1D
 10
20.6731
 20
90.3165
 30
0.000000
  70
    32
  0
VERTEX
  8
16
  5
A1E
 10
20.6746
 20
90.3150
 30
0.000000
  70
    32
  0
VERTEX
  8
16
  5
A1F
 10
20.6760
 20
90.3135
 30
0.000000
  70
    32
  0
VERTEX
  8
16
  5
A20
 10
20.6775
 20
90.3120
 30
0.000000
  70
    32
  0
VERTEX
  8
16
  5
A21
 10
20.6789
 20
90.3105
 30
0.000000
  70
    32
  0
VERTEX
  8
16
  5
A22
 10
20.6804
 20
90.3089
 30
0.000000
  70
    32
  0
VERTEX
  8
16
  5
A23
 10
20.6818
 20
90.3074
 30
0.000000
  70
    32
  0
VERTEX
  8
16
  5
A24
 10
20.6833
 20
90.3059
 30
0.000000
  70
    32
  0
VERTEX
  8
16
  5
A25
 10
20.6848
 20
90.3045
 30
0.000000
  70
    32
  0
VERTEX
  8
16
  5
A26
 10
20.6863
 20
90.3030
 30
0.000000
  70
    32
  0
VERTEX
  8
16
  5
A27
 10
20.6878
 20
90.3015
 30
0.000000
  70
    32
  0
VERTEX
  8
16
  5
A28
 10
20.6893
 20
90.3000
 30
0.000000
  70
    32
  0
VERTEX
  8
16
  5
A29
 10
20.6908
 20
90.2986
 30
0.000000
  70
    32
  0
VERTEX
  8
16
  5
A2A
 10
20.6923
 20
90.2971
 30
0.000000
  70
    32
  0
SEQEND
  8
16
  5
A2B
  0
LINE
  5
20E
  8
16
 62
     0
 10
8.368477788345217
 20
180.4874999999999
 30
0.0
 11
8.3684777883452295
 21
107.3874999999999
 31
0.0
  0
LINE
  5
212
  8
0
  6
DASHED
 62
     1
 10
221.26598906665379
 20
19.07260599790726
 30
0.0000000000000007
 11
371.30742698895102
 21
19.07260599790726
 31
0.0000000000000007
  0
LINE
  5
213
  8
0
  6
DASHED
 62
     1
 10
371.30742698895102
 20
19.07260599790726
 30
0.0000000000000007
 11
371.58670802780239
 21
36.872605997907243
 31
0.0000000000000007
  0
LINE
  5
215
  8
0
  6
DASHED
 62
     1
 10
221.26598906665379
 20
19.07260599790726
 30
0.0000000000000007
 11
220.98670802780231
 21
36.872605997907243
 31
0.0000000000000007
  0
LINE
  5
216
  8
0
  6
DASHED
 62
     1
 10
413.42436266447362
 20
212.75821896114849
 30
0.0
 11
395.62436266447372
 21
213.03749999999999
 31
0.0
  0
LINE
  5
217
  8
0
  6
DASHED
 62
     1
 10
413.42436266447362
 20
212.75821896114849
 30
0.0
 11
413.42436266447362
 21
62.716781038851401
 31
0.0
  0
LINE
  5
218
  8
0
  6
DASHED
 62
     1
 10
413.42436266447362
 20
62.716781038851401
 30
0.0
 11
395.62436266447372
 21
62.437499999999901
 31
0.0
  0
LINE
  5
21A
  8
0
  6
DASHED
 62
     1
 10
235.75966615596789
 20
19.07260599790726
 30
0.0
 11
235.48038511711641
 21
36.872605997907243
 31
0.0
  0
LINE
  5
21C
  8
0
  6
DASHED
 62
     1
 10
413.42436266447362
 20
93.646062077702936
 30
0.0
 11
395.62436266447372
 21
93.366781038851457
 31
0.0
  0
LINE
  5
21D
  8
0
  6
DASHED
 62
     1
 10
413.42436266447362
 20
181.82893792229689
 30
0.0
 11
395.62436266447372
 21
182.1082189611484
 31
0.0
  0
LINE
  5
21E
  8
0
  6
DASHED
 62
     1
 10
353.96446086832361
 20
19.07260599790726
 30
0.0
 11
354.24374190717498
 21
36.872605997907243
 31
0.0
  0
LINE
  5
21F
  8
0
  6
DASHED
 62
     1
 10
176.29976435981769
 20
93.646062077702936
 30
0.0
 11
194.0997643598177
 21
93.366781038851457
 31
0.0
  0
LINE
  5
220
  8
0
  6
DASHED
 62
     1
 10
176.2997643598178
 20
212.75821896114849
 30
0.0
 11
176.2997643598178
 21
62.716781038851401
 31
0.0
  0
LINE
  5
221
  8
0
  6
DASHED
 62
     1
 10
176.2997643598178
 20
62.716781038851401
 30
0.0
 11
194.0997643598177
 21
62.437499999999901
 31
0.0
  0
LINE
  5
222
  8
0
  6
DASHED
 62
     1
 10
176.29976435981769
 20
181.82893792229689
 30
0.0
 11
194.0997643598177
 21
182.1082189611484
 31
0.0
  0
LINE
  5
223
  8
0
  6
DASHED
 62
     1
 10
176.2997643598178
 20
212.75821896114849
 30
0.0
 11
194.0997643598177
 21
213.03749999999999
 31
0.0
  0
LINE
  5
224
  8
0
  6
DASHED
 62
     1
 10
235.75966615596789
 20
256.40239400209271
 30
0.0
 11
235.48038511711641
 21
238.60239400209269
 31
0.0
  0
LINE
  5
225
  8
0
  6
DASHED
 62
     1
 10
221.26598906665379
 20
256.40239400209271
 30
0.0000000000000007
 11
371.30742698895102
 21
256.40239400209271
 31
0.0000000000000007
  0
LINE
  5
226
  8
0
  6
DASHED
 62
     1
 10
221.26598906665379
 20
256.40239400209271
 30
0.0000000000000007
 11
220.98670802780231
 21
238.60239400209269
 31
0.0000000000000007
  0
LINE
  5
227
  8
0
  6
DASHED
 62
     1
 10
371.30742698895102
 20
256.40239400209271
 30
0.0000000000000007
 11
371.58670802780239
 21
238.60239400209269
 31
0.0000000000000007
  0
LINE
  5
228
  8
0
  6
DASHED
 62
     1
 10
353.96446086832361
 20
256.40239400209271
 30
0.0
 11
354.24374190717498
 21
238.60239400209269
 31
0.0
  0
ENDSEC
  0
EOF
