  0
SECTION
  2
HEADER
  9
$ACADVER
  1
AC1015
  9
$ACADMAINTVER
 70
    20
  9
$DWGCODEPAGE
  3
ANSI_936
  9
$INSBASE
 10
0.0
 20
0.0
 30
0.0
  9
$EXTMIN
 10
-628.4142896955203
 20
-131.5219353702938
 30
0.0
  9
$EXTMAX
 10
300.4379087279397
 20
150.7167089371662
 30
0.0
  9
$LIMMIN
 10
0.0
 20
0.0
  9
$LIMMAX
 10
22.0
 20
17.0
  9
$ORTHOMODE
 70
     0
  9
$REGENMODE
 70
     1
  9
$FILLMODE
 70
     1
  9
$QTEXTMODE
 70
     0
  9
$MIRRTEXT
 70
     0
  9
$LTSCALE
 40
1.209999999999999
  9
$ATTMODE
 70
     1
  9
$TEXTSIZE
 40
0.2
  9
$TRACEWID
 40
0.05
  9
$TEXTSTYLE
  7
STANDARD
  9
$CLAYER
  8
0
  9
$CELTYPE
  6
BYLAYER
  9
$CECOLOR
 62
   256
  9
$CELTSCALE
 40
1.0
  9
$DISPSILH
 70
     0
  9
$DIMSCALE
 40
1.0
  9
$DIMASZ
 40
0.1875
  9
$DIMEXO
 40
0.1375
  9
$DIMDLI
 40
0.8359999999999999
  9
$DIMRND
 40
0.0
  9
$DIMDLE
 40
0.0
  9
$DIMEXE
 40
0.396
  9
$DIMTP
 40
0.0
  9
$DIMTM
 40
0.0
  9
$DIMTXT
 40
0.15625
  9
$DIMCEN
 40
0.198
  9
$DIMTSZ
 40
0.0
  9
$DIMTOL
 70
     0
  9
$DIMLIM
 70
     0
  9
$DIMTIH
 70
     1
  9
$DIMTOH
 70
     1
  9
$DIMSE1
 70
     0
  9
$DIMSE2
 70
     0
  9
$DIMTAD
 70
     0
  9
$DIMZIN
 70
     0
  9
$DIMBLK
  1

  9
$DIMASO
 70
     1
  9
$DIMSHO
 70
     1
  9
$DIMPOST
  1

  9
$DIMAPOST
  1

  9
$DIMALT
 70
     0
  9
$DIMALTD
 70
     2
  9
$DIMALTF
 40
25.4
  9
$DIMLFAC
 40
1.0
  9
$DIMTOFL
 70
     0
  9
$DIMTVP
 40
0.0
  9
$DIMTIX
 70
     0
  9
$DIMSOXD
 70
     0
  9
$DIMSAH
 70
     0
  9
$DIMBLK1
  1

  9
$DIMBLK2
  1

  9
$DIMSTYLE
  2
STANDARD
  9
$DIMCLRD
 70
     0
  9
$DIMCLRE
 70
     0
  9
$DIMCLRT
 70
     0
  9
$DIMTFAC
 40
1.0
  9
$DIMGAP
 40
0.09
  9
$DIMJUST
 70
     0
  9
$DIMSD1
 70
     0
  9
$DIMSD2
 70
     0
  9
$DIMTOLJ
 70
     1
  9
$DIMTZIN
 70
     0
  9
$DIMALTZ
 70
     0
  9
$DIMALTTZ
 70
     0
  9
$DIMUPT
 70
     0
  9
$DIMDEC
 70
     4
  9
$DIMTDEC
 70
     4
  9
$DIMALTU
 70
     2
  9
$DIMALTTD
 70
     2
  9
$DIMTXSTY
  7
STANDARD
  9
$DIMAUNIT
 70
     0
  9
$DIMADEC
 70
     0
  9
$DIMALTRND
 40
0.0
  9
$DIMAZIN
 70
     0
  9
$DIMDSEP
 70
    46
  9
$DIMATFIT
 70
     3
  9
$DIMFRAC
 70
     0
  9
$DIMLDRBLK
  1

  9
$DIMLUNIT
 70
     2
  9
$DIMLWD
 70
    -2
  9
$DIMLWE
 70
    -2
  9
$DIMTMOVE
 70
     0
  9
$LUNITS
 70
     2
  9
$LUPREC
 70
     4
  9
$SKETCHINC
 40
0.1
  9
$FILLETRAD
 40
0.0
  9
$AUNITS
 70
     0
  9
$AUPREC
 70
     0
  9
$MENU
  1
.
  9
$ELEVATION
 40
0.0
  9
$PELEVATION
 40
0.0
  9
$THICKNESS
 40
0.0
  9
$LIMCHECK
 70
     0
  9
$CHAMFERA
 40
0.0
  9
$CHAMFERB
 40
0.0
  9
$CHAMFERC
 40
0.0
  9
$CHAMFERD
 40
0.0
  9
$SKPOLY
 70
     0
  9
$TDCREATE
 40
2456503.554813369
  9
$TDUCREATE
 40
2456503.221480035
  9
$TDUPDATE
 40
2456503.557300162
  9
$TDUUPDATE
 40
2456503.223966829
  9
$TDINDWG
 40
0.0009530440
  9
$TDUSRTIMER
 40
0.0009530440
  9
$USRTIMER
 70
     1
  9
$ANGBASE
 50
0.0
  9
$ANGDIR
 70
     0
  9
$PDMODE
 70
     3
  9
$PDSIZE
 40
0.3125
  9
$PLINEWID
 40
0.0
  9
$SPLFRAME
 70
     0
  9
$SPLINETYPE
 70
     6
  9
$SPLINESEGS
 70
     8
  9
$HANDSEED
  5
543
  9
$SURFTAB1
 70
     6
  9
$SURFTAB2
 70
     6
  9
$SURFTYPE
 70
     6
  9
$SURFU
 70
     6
  9
$SURFV
 70
     6
  9
$UCSBASE
  2

  9
$UCSNAME
  2

  9
$UCSORG
 10
0.0
 20
0.0
 30
0.0
  9
$UCSXDIR
 10
1.0
 20
0.0
 30
0.0
  9
$UCSYDIR
 10
0.0
 20
1.0
 30
0.0
  9
$UCSORTHOREF
  2

  9
$UCSORTHOVIEW
 70
     0
  9
$UCSORGTOP
 10
0.0
 20
0.0
 30
0.0
  9
$UCSORGBOTTOM
 10
0.0
 20
0.0
 30
0.0
  9
$UCSORGLEFT
 10
0.0
 20
0.0
 30
0.0
  9
$UCSORGRIGHT
 10
0.0
 20
0.0
 30
0.0
  9
$UCSORGFRONT
 10
0.0
 20
0.0
 30
0.0
  9
$UCSORGBACK
 10
0.0
 20
0.0
 30
0.0
  9
$PUCSBASE
  2

  9
$PUCSNAME
  2

  9
$PUCSORG
 10
0.0
 20
0.0
 30
0.0
  9
$PUCSXDIR
 10
1.0
 20
0.0
 30
0.0
  9
$PUCSYDIR
 10
0.0
 20
1.0
 30
0.0
  9
$PUCSORTHOREF
  2

  9
$PUCSORTHOVIEW
 70
     0
  9
$PUCSORGTOP
 10
0.0
 20
0.0
 30
0.0
  9
$PUCSORGBOTTOM
 10
0.0
 20
0.0
 30
0.0
  9
$PUCSORGLEFT
 10
0.0
 20
0.0
 30
0.0
  9
$PUCSORGRIGHT
 10
0.0
 20
0.0
 30
0.0
  9
$PUCSORGFRONT
 10
0.0
 20
0.0
 30
0.0
  9
$PUCSORGBACK
 10
0.0
 20
0.0
 30
0.0
  9
$USERI1
 70
     0
  9
$USERI2
 70
     0
  9
$USERI3
 70
     0
  9
$USERI4
 70
     0
  9
$USERI5
 70
     0
  9
$USERR1
 40
0.0
  9
$USERR2
 40
0.0
  9
$USERR3
 40
0.0
  9
$USERR4
 40
0.0
  9
$USERR5
 40
0.0
  9
$WORLDVIEW
 70
     1
  9
$SHADEDGE
 70
     3
  9
$SHADEDIF
 70
    70
  9
$TILEMODE
 70
     1
  9
$MAXACTVP
 70
    64
  9
$PINSBASE
 10
0.0
 20
0.0
 30
0.0
  9
$PLIMCHECK
 70
     0
  9
$PEXTMIN
 10
1.000000000000000E+20
 20
1.000000000000000E+20
 30
1.000000000000000E+20
  9
$PEXTMAX
 10
-1.000000000000000E+20
 20
-1.000000000000000E+20
 30
-1.000000000000000E+20
  9
$PLIMMIN
 10
0.0
 20
0.0
  9
$PLIMMAX
 10
12.0
 20
9.0
  9
$UNITMODE
 70
     0
  9
$VISRETAIN
 70
     1
  9
$PLINEGEN
 70
     0
  9
$PSLTSCALE
 70
     1
  9
$TREEDEPTH
 70
  3020
  9
$CMLSTYLE
  2
Standard
  9
$CMLJUST
 70
     0
  9
$CMLSCALE
 40
1.0
  9
$PROXYGRAPHICS
 70
     1
  9
$MEASUREMENT
 70
     0
  9
$CELWEIGHT
370
    -1
  9
$ENDCAPS
280
     0
  9
$JOINSTYLE
280
     0
  9
$LWDISPLAY
290
     0
  9
$INSUNITS
 70
     1
  9
$HYPERLINKBASE
  1

  9
$STYLESHEET
  1

  9
$XEDIT
290
     1
  9
$CEPSNTYPE
380
     0
  9
$PSTYLEMODE
290
     1
  9
$FINGERPRINTGUID
  2
{FFE59B96-E749-4CF0-959F-B66BF01226AF}
  9
$VERSIONGUID
  2
{6AD81C2B-B426-4A41-BDF8-39751B5A2332}
  9
$EXTNAMES
290
     1
  9
$PSVPSCALE
 40
0.0
  9
$OLESTARTUP
290
     0
  0
ENDSEC
  0
SECTION
  2
CLASSES
  0
CLASS
  1
ACDBDICTIONARYWDFLT
  2
AcDbDictionaryWithDefault
  3
ObjectDBX Classes
 90
        0
280
     0
281
     0
  0
CLASS
  1
ACDBPLACEHOLDER
  2
AcDbPlaceHolder
  3
ObjectDBX Classes
 90
        0
280
     0
281
     0
  0
CLASS
  1
LAYOUT
  2
AcDbLayout
  3
ObjectDBX Classes
 90
        0
280
     0
281
     0
  0
CLASS
  1
MATERIAL
  2
AcDbMaterial
  3
ObjectDBX Classes
 90
        0
280
     0
281
     0
  0
CLASS
  1
VISUALSTYLE
  2
AcDbVisualStyle
  3
ObjectDBX Classes
 90
     4095
280
     0
281
     0
  0
CLASS
  1
TABLESTYLE
  2
AcDbTableStyle
  3
ObjectDBX Classes
 90
     4095
280
     0
281
     0
  0
CLASS
  1
SCALE
  2
AcDbScale
  3
ObjectDBX Classes
 90
     1153
280
     0
281
     0
  0
CLASS
  1
MLEADERSTYLE
  2
AcDbMLeaderStyle
  3
ACDB_MLEADERSTYLE_CLASS
 90
     4095
280
     0
281
     0
  0
CLASS
  1
CELLSTYLEMAP
  2
AcDbCellStyleMap
  3
ObjectDBX Classes
 90
     1152
280
     0
281
     0
  0
CLASS
  1
DICTIONARYVAR
  2
AcDbDictionaryVar
  3
ObjectDBX Classes
 90
        0
280
     0
281
     0
  0
ENDSEC
  0
SECTION
  2
TABLES
  0
TABLE
  2
VPORT
  5
8
102
{ACAD_XDICTIONARY
360
50F
102
}
330
0
100
AcDbSymbolTable
 70
     3
  0
VPORT
  5
53A
330
8
100
AcDbSymbolTableRecord
100
AcDbViewportTableRecord
  2
*Active
 70
     0
 10
0.0
 20
0.0
 11
1.0
 21
1.0
 12
63.56611559407986
 22
10.21088293928926
 13
0.0
 23
0.0
 14
1.0
 24
1.0
 15
0.0
 25
0.0
 16
0.0
 26
0.0
 36
1.0
 17
0.0
 27
0.0
 37
0.0
 40
1086.584446720409
 41
1.444308445532435
 42
50.0
 43
0.0
 44
0.0
 50
0.0
 51
0.0
 71
     0
 72
   100
 73
     1
 74
     1
 75
     0
 76
     0
 77
     0
 78
     0
281
     0
 65
     1
110
0.0
120
0.0
130
0.0
111
1.0
121
0.0
131
0.0
112
0.0
122
1.0
132
0.0
 79
     0
146
0.0
  0
ENDTAB
  0
TABLE
  2
LTYPE
  5
5
330
0
100
AcDbSymbolTable
 70
     6
  0
LTYPE
  5
14
330
5
100
AcDbSymbolTableRecord
100
AcDbLinetypeTableRecord
  2
BYBLOCK
 70
     0
  3

 72
    65
 73
     0
 40
0.0
  0
LTYPE
  5
15
330
5
100
AcDbSymbolTableRecord
100
AcDbLinetypeTableRecord
  2
BYLAYER
 70
     0
  3

 72
    65
 73
     0
 40
0.0
  0
LTYPE
  5
16
330
5
100
AcDbSymbolTableRecord
100
AcDbLinetypeTableRecord
  2
CONTINUOUS
 70
     0
  3
Solid line
 72
    65
 73
     0
 40
0.0
  0
LTYPE
  5
1F5
330
5
100
AcDbSymbolTableRecord
100
AcDbLinetypeTableRecord
  2
CENTER
 70
     0
  3
____ _ ____ _ ____ _ ____ _ ____ _ ____ _ ____
 72
    65
 73
     4
 40
0.6
 49
0.375
 74
     0
 49
-0.075
 74
     0
 49
0.075
 74
     0
 49
-0.075
 74
     0
  0
LTYPE
  5
1F6
330
5
100
AcDbSymbolTableRecord
100
AcDbLinetypeTableRecord
  2
HIDDEN
 70
     0
  3
- - - - - - - - - - - - - - - - - - - -
 72
    65
 73
     2
 40
0.2
 49
0.1
 74
     0
 49
-0.1
 74
     0
  0
LTYPE
  5
1F7
330
5
100
AcDbSymbolTableRecord
100
AcDbLinetypeTableRecord
  2
PHANTOM
 70
     0
  3
_____ _ _ _____ _ _ _____ _ _ _____
 72
    65
 73
     6
 40
0.8
 49
0.45
 74
     0
 49
-0.05
 74
     0
 49
0.1
 74
     0
 49
-0.05
 74
     0
 49
0.1
 74
     0
 49
-0.05
 74
     0
  0
LTYPE
  5
1F8
330
5
100
AcDbSymbolTableRecord
100
AcDbLinetypeTableRecord
  2
DOT
 70
     0
  3
. . . . . . . . . . . . . . . . . . . .
 72
    65
 73
     2
 40
0.2
 49
0.1
 74
     0
 49
-0.1
 74
     0
  0
LTYPE
  5
1F9
330
5
100
AcDbSymbolTableRecord
100
AcDbLinetypeTableRecord
  2
DASHED
 70
     0
  3
- - - - - - - - - - - - - - - - - - - -
 72
    65
 73
     2
 40
0.2
 49
0.1
 74
     0
 49
-0.1
 74
     0
  0
ENDTAB
  0
TABLE
  2
LAYER
  5
2
330
0
100
AcDbSymbolTable
 70
    12
  0
LAYER
  5
10
102
{ACAD_XDICTIONARY
360
511
102
}
330
2
100
AcDbSymbolTableRecord
100
AcDbLayerTableRecord
  2
0
 70
     0
 62
     7
  6
CONTINUOUS
370
    -3
390
F
  0
LAYER
  5
1FA
102
{ACAD_XDICTIONARY
360
513
102
}
330
2
100
AcDbSymbolTableRecord
100
AcDbLayerTableRecord
  2
DEFAULT_1
 70
     0
 62
     7
  6
CENTER
370
    -3
390
F
  0
LAYER
  5
1FB
102
{ACAD_XDICTIONARY
360
515
102
}
330
2
100
AcDbSymbolTableRecord
100
AcDbLayerTableRecord
  2
DEFAULT_2
 70
     0
 62
     8
  6
HIDDEN
370
    -3
390
F
  0
LAYER
  5
1FC
102
{ACAD_XDICTIONARY
360
517
102
}
330
2
100
AcDbSymbolTableRecord
100
AcDbLayerTableRecord
  2
DEFAULT_3
 70
     0
 62
     7
  6
PHANTOM
370
    -3
390
F
  0
LAYER
  5
1FD
102
{ACAD_XDICTIONARY
360
519
102
}
330
2
100
AcDbSymbolTableRecord
100
AcDbLayerTableRecord
  2
01___PRT_ALL_DTM_PLN
 70
     0
 62
     7
  6
CONTINUOUS
370
    -3
390
F
  0
LAYER
  5
1FE
102
{ACAD_XDICTIONARY
360
51B
102
}
330
2
100
AcDbSymbolTableRecord
100
AcDbLayerTableRecord
  2
01___PRT_DEF_DTM_PLN
 70
     0
 62
     7
  6
CONTINUOUS
370
    -3
390
F
  0
LAYER
  5
1FF
102
{ACAD_XDICTIONARY
360
51D
102
}
330
2
100
AcDbSymbolTableRecord
100
AcDbLayerTableRecord
  2
02___PRT_ALL_AXES
 70
     0
 62
     7
  6
CONTINUOUS
370
    -3
390
F
  0
LAYER
  5
200
102
{ACAD_XDICTIONARY
360
51F
102
}
330
2
100
AcDbSymbolTableRecord
100
AcDbLayerTableRecord
  2
03___PRT_ALL_CURVES
 70
     0
 62
     7
  6
CONTINUOUS
370
    -3
390
F
  0
LAYER
  5
201
102
{ACAD_XDICTIONARY
360
521
102
}
330
2
100
AcDbSymbolTableRecord
100
AcDbLayerTableRecord
  2
04___PRT_ALL_DTM_PNT
 70
     0
 62
     7
  6
CONTINUOUS
370
    -3
390
F
  0
LAYER
  5
202
102
{ACAD_XDICTIONARY
360
523
102
}
330
2
100
AcDbSymbolTableRecord
100
AcDbLayerTableRecord
  2
05___PRT_ALL_DTM_CSYS
 70
     0
 62
     7
  6
CONTINUOUS
370
    -3
390
F
  0
LAYER
  5
203
102
{ACAD_XDICTIONARY
360
525
102
}
330
2
100
AcDbSymbolTableRecord
100
AcDbLayerTableRecord
  2
05___PRT_DEF_DTM_CSYS
 70
     0
 62
     7
  6
CONTINUOUS
370
    -3
390
F
  0
LAYER
  5
204
102
{ACAD_XDICTIONARY
360
527
102
}
330
2
100
AcDbSymbolTableRecord
100
AcDbLayerTableRecord
  2
06___PRT_ALL_SURFS
 70
     0
 62
     7
  6
CONTINUOUS
370
    -3
390
F
  0
ENDTAB
  0
TABLE
  2
STYLE
  5
3
330
0
100
AcDbSymbolTable
 70
     2
  0
STYLE
  5
11
330
3
100
AcDbSymbolTableRecord
100
AcDbTextStyleTableRecord
  2
STANDARD
 70
     0
 40
0.0
 41
0.8
 50
0.0
 71
     0
 42
0.2
  3
txt
  4

  0
STYLE
  5
205
330
3
100
AcDbSymbolTableRecord
100
AcDbTextStyleTableRecord
  2
TEXTSTYLE_1
 70
     0
 40
0.0
 41
0.8
 50
0.0
 71
     0
 42
0.2
  3
gdt
  4

  0
ENDTAB
  0
TABLE
  2
VIEW
  5
6
330
0
100
AcDbSymbolTable
 70
     0
  0
ENDTAB
  0
TABLE
  2
UCS
  5
7
330
0
100
AcDbSymbolTable
 70
     0
  0
ENDTAB
  0
TABLE
  2
APPID
  5
9
330
0
100
AcDbSymbolTable
 70
     2
  0
APPID
  5
206
330
9
100
AcDbSymbolTableRecord
100
AcDbRegAppTableRecord
  2
ACAD
 70
     0
  0
APPID
  5
50B
330
9
100
AcDbSymbolTableRecord
100
AcDbRegAppTableRecord
  2
ACAD_MLEADERVER
 70
     0
  0
ENDTAB
  0
TABLE
  2
DIMSTYLE
  5
A
330
0
100
AcDbSymbolTable
 70
     1
100
AcDbDimStyleTable
 71
     0
  0
DIMSTYLE
105
209
330
A
100
AcDbSymbolTableRecord
100
AcDbDimStyleTableRecord
  2
STANDARD
 70
     0
 41
0.1875
 47
0.01
 48
0.01
 78
     4
140
0.15625
271
     2
272
     2
284
     4
340
11
  0
ENDTAB
  0
TABLE
  2
BLOCK_RECORD
  5
1
330
0
100
AcDbSymbolTable
 70
     0
  0
BLOCK_RECORD
  5
207
330
1
100
AcDbSymbolTableRecord
100
AcDbBlockTableRecord
  2
*Model_Space
340
4B6
  0
BLOCK_RECORD
  5
208
330
1
100
AcDbSymbolTableRecord
100
AcDbBlockTableRecord
  2
*Paper_Space
340
4B7
  0
ENDTAB
  0
ENDSEC
  0
SECTION
  2
BLOCKS
  0
BLOCK
  5
20
330
207
100
AcDbEntity
  8
0
100
AcDbBlockBegin
  2
*Model_Space
 70
     0
 10
0.0
 20
0.0
 30
0.0
  3
*Model_Space
  1

1001
ACAD
1000
RTMaterial
1005
4BB
  0
ENDBLK
  5
21
330
207
100
AcDbEntity
  8
0
100
AcDbBlockEnd
1001
ACAD
1000
RTMaterial
1005
4BB
  0
BLOCK
  5
1C
330
208
100
AcDbEntity
 67
     1
  8
0
100
AcDbBlockBegin
  2
*Paper_Space
 70
     0
 10
0.0
 20
0.0
 30
0.0
  3
*Paper_Space
  1

1001
ACAD
1000
RTMaterial
1005
4BB
  0
ENDBLK
  5
1D
330
208
100
AcDbEntity
 67
     1
  8
0
100
AcDbBlockEnd
1001
ACAD
1000
RTMaterial
1005
4BB
  0
ENDSEC
  0
SECTION
  2
ENTITIES
  0
LINE
  5
20E
330
207
100
AcDbEntity
  8
0
  6
Continuous
 62
     7
100
AcDbLine
 10
-628.4142896955203
 20
-39.04371769565378
 30
0.0
 11
-628.4142896955203
 21
69.85628223568617
 31
0.0
1001
ACAD
1000
RTMaterial
1005
4BB
  0
LINE
  5
20F
330
207
100
AcDbEntity
  8
DEFAULT_2
  6
HIDDEN
 62
     8
100
AcDbLine
 10
-628.0547121672803
 20
69.85628228394617
 30
0.0
 11
-628.0547121672803
 21
-39.04371771597381
 31
0.0
1001
ACAD
1000
RTMaterial
1005
4BB
  0
LINE
  5
210
330
207
100
AcDbEntity
  8
DEFAULT_2
  6
HIDDEN
 62
     8
100
AcDbLine
 10
-626.8337692802402
 20
69.85628228394617
 30
0.0
 11
-626.8337692802402
 21
-39.04371771597381
 31
0.0
1001
ACAD
1000
RTMaterial
1005
4BB
  0
LINE
  5
211
330
207
100
AcDbEntity
  8
0
  6
Continuous
 62
     7
100
AcDbLine
 10
-622.9820380606803
 20
-14.18004696335379
 30
0.0
 11
-622.9820380606803
 21
44.9926117751662
 31
0.0
1001
ACAD
1000
RTMaterial
1005
4BB
  0
LINE
  5
212
330
207
100
AcDbEntity
  8
0
  6
Continuous
 62
     7
100
AcDbLine
 10
-622.8197059545603
 20
-9.313717717113799
 30
0.0
 11
-622.8197059545603
 21
-14.18004696335379
 31
0.0
1001
ACAD
1000
RTMaterial
1005
4BB
  0
LINE
  5
213
330
207
100
AcDbEntity
  8
0
  6
Continuous
 62
     7
100
AcDbLine
 10
-622.6713379048403
 20
44.99261153132618
 30
0.0
 11
-622.6713379048403
 21
-9.313717717113799
 31
0.0
1001
ACAD
1000
RTMaterial
1005
4BB
  0
LINE
  5
214
330
207
100
AcDbEntity
  8
0
  6
Continuous
 62
     7
100
AcDbLine
 10
-621.9820380591603
 20
-15.18004696233382
 30
0.0
 11
-621.9820380591603
 21
-15.01771485875378
 31
0.0
1001
ACAD
1000
RTMaterial
1005
4BB
  0
LINE
  5
215
330
207
100
AcDbEntity
  8
0
  6
Continuous
 62
     7
100
AcDbLine
 10
-621.9820380591603
 20
45.6819113744662
 30
0.0
 11
-621.9820380591603
 21
45.99261153030621
 31
0.0
1001
ACAD
1000
RTMaterial
1005
4BB
  0
LINE
  5
216
330
207
100
AcDbEntity
  8
DEFAULT_2
  6
HIDDEN
 62
     8
100
AcDbLine
 10
-620.4457087924803
 20
77.8248631666662
 30
0.0
 11
-620.4457088128004
 21
76.24434275138617
 31
0.0
1001
ACAD
1000
RTMaterial
1005
4BB
  0
LINE
  5
217
330
207
100
AcDbEntity
  8
DEFAULT_2
  6
HIDDEN
 62
     8
100
AcDbLine
 10
-620.4457087645404
 20
-47.01229859869379
 30
0.0
 11
-620.4457088128004
 21
-45.4317781834138
 31
0.0
1001
ACAD
1000
RTMaterial
1005
4BB
  0
LINE
  5
218
330
207
100
AcDbEntity
  8
0
  6
Continuous
 62
     7
100
AcDbLine
 10
-618.4957088139003
 20
45.99261153030621
 30
0.0
 11
-618.4957088139003
 21
45.6819113744662
 31
0.0
1001
ACAD
1000
RTMaterial
1005
4BB
  0
LINE
  5
219
330
207
100
AcDbEntity
  8
0
  6
Continuous
 62
     7
100
AcDbLine
 10
-618.4957088139003
 20
-15.01771485875378
 30
0.0
 11
-618.4957088139003
 21
-15.18004696233382
 31
0.0
1001
ACAD
1000
RTMaterial
1005
4BB
  0
LINE
  5
21A
330
207
100
AcDbEntity
  8
0
  6
Continuous
 62
     7
100
AcDbLine
 10
-616.4557088121203
 20
-13.81371771633379
 30
0.0
 11
-616.4557088121203
 21
-15.2202358659538
 31
0.0
1001
ACAD
1000
RTMaterial
1005
4BB
  0
LINE
  5
21B
330
207
100
AcDbEntity
  8
0
  6
Continuous
 62
     7
100
AcDbLine
 10
-608.2820380601803
 20
-40.58004696233381
 30
0.0
 11
-608.2820380601803
 21
-25.3937177160538
 31
0.0
1001
ACAD
1000
RTMaterial
1005
4BB
  0
LINE
  5
21C
330
207
100
AcDbEntity
  8
0
  6
Continuous
 62
     7
100
AcDbLine
 10
-608.2820380601803
 20
56.20628228402621
 30
0.0
 11
-608.2820380601803
 21
71.39261177414619
 31
0.0
1001
ACAD
1000
RTMaterial
1005
4BB
  0
LINE
  5
21D
330
207
100
AcDbEntity
  8
0
  6
Continuous
 62
     7
100
AcDbLine
 10
-607.9713379043404
 20
71.39261153030616
 30
0.0
 11
-607.9713379043404
 21
56.20628228402621
 31
0.0
1001
ACAD
1000
RTMaterial
1005
4BB
  0
LINE
  5
21E
330
207
100
AcDbEntity
  8
0
  6
Continuous
 62
     7
100
AcDbLine
 10
-607.9713379043404
 20
-25.3937177160538
 30
0.0
 11
-607.9713379043404
 21
-40.58004696233381
 31
0.0
1001
ACAD
1000
RTMaterial
1005
4BB
  0
LINE
  5
21F
330
207
100
AcDbEntity
  8
0
  6
Continuous
 62
     7
100
AcDbLine
 10
-607.2820370960004
 20
-41.58004696385379
 30
0.0
 11
-607.2820370960004
 21
-41.2693468080138
 31
0.0
1001
ACAD
1000
RTMaterial
1005
4BB
  0
LINE
  5
220
330
207
100
AcDbEntity
  8
0
  6
Continuous
 62
     7
100
AcDbLine
 10
-607.2820380586604
 20
72.08191137344619
 30
0.0
 11
-607.2820380586604
 21
72.39261152928619
 31
0.0
1001
ACAD
1000
RTMaterial
1005
4BB
  0
LINE
  5
221
330
207
100
AcDbEntity
  8
0
  6
Continuous
 62
     7
100
AcDbLine
 10
-604.8557088117604
 20
-6.513717716413822
 30
0.0
 11
-604.8557088117604
 21
-9.113717715793832
 31
0.0
1001
ACAD
1000
RTMaterial
1005
4BB
  0
LINE
  5
222
330
207
100
AcDbEntity
  8
0
  6
Continuous
 62
     7
100
AcDbLine
 10
-604.8557088117604
 20
-9.513717715893815
 30
0.0
 11
-604.8557088117604
 21
-12.11371771527382
 31
0.0
1001
ACAD
1000
RTMaterial
1005
4BB
  0
LINE
  5
223
330
207
100
AcDbEntity
  8
0
  6
Continuous
 62
     7
100
AcDbLine
 10
-604.4557088116603
 20
-12.11371771527382
 30
0.0
 11
-604.4557088116603
 21
-6.513717716413822
 31
0.0
1001
ACAD
1000
RTMaterial
1005
4BB
  0
LINE
  5
224
330
207
100
AcDbEntity
  8
0
  6
Continuous
 62
     7
100
AcDbLine
 10
-603.5557088133402
 20
-7.263717717553774
 30
0.0
 11
-603.5557088133402
 21
-11.36371771667378
 31
0.0
1001
ACAD
1000
RTMaterial
1005
4BB
  0
LINE
  5
225
330
207
100
AcDbEntity
  8
0
  6
Continuous
 62
     7
100
AcDbLine
 10
-603.1557088132403
 20
-11.36371771667378
 30
0.0
 11
-603.1557088132403
 21
-7.263717717553774
 31
0.0
1001
ACAD
1000
RTMaterial
1005
4BB
  0
LINE
  5
226
330
207
100
AcDbEntity
  8
0
  6
Continuous
 62
     7
100
AcDbLine
 10
-602.2557088123804
 20
-8.013717716153774
 30
0.0
 11
-602.2557088123804
 21
-10.61371771553378
 31
0.0
1001
ACAD
1000
RTMaterial
1005
4BB
  0
LINE
  5
227
330
207
100
AcDbEntity
  8
0
  6
Continuous
 62
     7
100
AcDbLine
 10
-601.8557088122803
 20
-10.61371771553378
 30
0.0
 11
-601.8557088122803
 21
-8.013717716153774
 31
0.0
1001
ACAD
1000
RTMaterial
1005
4BB
  0
LINE
  5
228
330
207
100
AcDbEntity
  8
0
  6
Continuous
 62
     7
100
AcDbLine
 10
-274.3457088323204
 20
-47.01229859869379
 30
0.0
 11
-620.4457087645404
 21
-47.01229859869379
 31
0.0
1001
ACAD
1000
RTMaterial
1005
4BB
  0
LINE
  5
229
330
207
100
AcDbEntity
  8
DEFAULT_2
  6
HIDDEN
 62
     8
100
AcDbLine
 10
-620.4457088128004
 20
-46.65272107299379
 30
0.0
 11
-274.3457088120003
 21
-46.65272107299379
 31
0.0
1001
ACAD
1000
RTMaterial
1005
4BB
  0
LINE
  5
22A
330
207
100
AcDbEntity
  8
DEFAULT_2
  6
HIDDEN
 62
     8
100
AcDbLine
 10
-620.4457088128004
 20
-45.4317781834138
 30
0.0
 11
-274.3457088120003
 21
-45.4317781834138
 31
0.0
1001
ACAD
1000
RTMaterial
1005
4BB
  0
LINE
  5
22B
330
207
100
AcDbEntity
  8
0
  6
Continuous
 62
     7
100
AcDbLine
 10
-287.5093795661403
 20
-41.58004696385379
 30
0.0
 11
-607.2820380586604
 21
-41.58004696385379
 31
0.0
1001
ACAD
1000
RTMaterial
1005
4BB
  0
LINE
  5
22C
330
207
100
AcDbEntity
  8
0
  6
Continuous
 62
     7
100
AcDbLine
 10
-287.5093795661403
 20
-41.2693468080138
 30
0.0
 11
-607.2820380586604
 21
-41.2693468080138
 31
0.0
1001
ACAD
1000
RTMaterial
1005
4BB
  0
LINE
  5
22D
330
207
100
AcDbEntity
  8
0
  6
Continuous
 62
     7
100
AcDbLine
 10
-607.9713379043404
 20
-40.58004696233381
 30
0.0
 11
-608.2820380601803
 21
-40.58004696233381
 31
0.0
1001
ACAD
1000
RTMaterial
1005
4BB
  0
LINE
  5
22E
330
207
100
AcDbEntity
  8
0
  6
Continuous
 62
     7
100
AcDbLine
 10
-286.5093795671604
 20
-40.58004599967378
 30
0.0
 11
-286.8200797204604
 21
-40.58004599967378
 31
0.0
1001
ACAD
1000
RTMaterial
1005
4BB
  0
LINE
  5
22F
330
207
100
AcDbEntity
  8
DEFAULT_2
  6
HIDDEN
 62
     8
100
AcDbLine
 10
-266.3771279292803
 20
-39.04371767025378
 30
0.0
 11
-267.9576483445603
 21
-39.04371771597381
 31
0.0
1001
ACAD
1000
RTMaterial
1005
4BB
  0
LINE
  5
230
330
207
100
AcDbEntity
  8
DEFAULT_2
  6
HIDDEN
 62
     8
100
AcDbLine
 10
-628.4142896955203
 20
-39.04371769565378
 30
0.0
 11
-626.8337692802402
 21
-39.04371771597381
 31
0.0
1001
ACAD
1000
RTMaterial
1005
4BB
  0
LINE
  5
231
330
207
100
AcDbEntity
  8
0
  6
Continuous
 62
     7
100
AcDbLine
 10
-608.2820380601803
 20
-25.39371771859379
 30
0.0
 11
-607.9713379043404
 21
-25.39371771859379
 31
0.0
1001
ACAD
1000
RTMaterial
1005
4BB
  0
LINE
  5
232
330
207
100
AcDbEntity
  8
0
  6
Continuous
 62
     7
100
AcDbLine
 10
-286.8200797204604
 20
-25.39371771859379
 30
0.0
 11
-286.5093795671604
 21
-25.39371771859379
 31
0.0
1001
ACAD
1000
RTMaterial
1005
4BB
  0
LINE
  5
233
330
207
100
AcDbEntity
  8
0
  6
Continuous
 62
     7
100
AcDbLine
 10
-272.8093795656403
 20
-15.18004696233382
 30
0.0
 11
-276.2957088134403
 21
-15.18004696233382
 31
0.0
1001
ACAD
1000
RTMaterial
1005
4BB
  0
LINE
  5
234
330
207
100
AcDbEntity
  8
0
  6
Continuous
 62
     7
100
AcDbLine
 10
-618.4957088139003
 20
-15.18004696233382
 30
0.0
 11
-621.9820380591603
 21
-15.18004696233382
 31
0.0
1001
ACAD
1000
RTMaterial
1005
4BB
  0
LINE
  5
235
330
207
100
AcDbEntity
  8
0
  6
Continuous
 62
     7
100
AcDbLine
 10
-618.4957088139003
 20
-15.01771485875378
 30
0.0
 11
-621.9820380591603
 21
-15.01771485875378
 31
0.0
1001
ACAD
1000
RTMaterial
1005
4BB
  0
LINE
  5
236
330
207
100
AcDbEntity
  8
0
  6
Continuous
 62
     7
100
AcDbLine
 10
-276.2957088134403
 20
-14.86934680649379
 30
0.0
 11
-272.8093795656403
 21
-14.86934680649379
 31
0.0
1001
ACAD
1000
RTMaterial
1005
4BB
  0
LINE
  5
237
330
207
100
AcDbEntity
  8
0
  6
Continuous
 62
     7
100
AcDbLine
 10
-271.8093795666604
 20
-14.1800460006938
 30
0.0
 11
-272.1200797225003
 21
-14.1800460006938
 31
0.0
1001
ACAD
1000
RTMaterial
1005
4BB
  0
LINE
  5
238
330
207
100
AcDbEntity
  8
0
  6
Continuous
 62
     7
100
AcDbLine
 10
-622.8197059545603
 20
-14.18004696335379
 30
0.0
 11
-622.9820380606803
 21
-14.18004696335379
 31
0.0
1001
ACAD
1000
RTMaterial
1005
4BB
  0
LINE
  5
239
330
207
100
AcDbEntity
  8
0
  6
Continuous
 62
     7
100
AcDbLine
 10
-607.2557088123603
 20
-9.513717715893815
 30
0.0
 11
-604.8557088117604
 21
-9.513717715893815
 31
0.0
1001
ACAD
1000
RTMaterial
1005
4BB
  0
LINE
  5
23A
330
207
100
AcDbEntity
  8
0
  6
Continuous
 62
     7
100
AcDbLine
 10
-622.8197059545603
 20
-9.313717717113799
 30
0.0
 11
-620.9557088138804
 21
-9.313717717113799
 31
0.0
1001
ACAD
1000
RTMaterial
1005
4BB
  0
LINE
  5
23B
330
207
100
AcDbEntity
  8
0
  6
Continuous
 62
     7
100
AcDbLine
 10
-604.8557088117604
 20
-9.113717715793832
 30
0.0
 11
-607.2557088123603
 21
-9.113717715793832
 31
0.0
1001
ACAD
1000
RTMaterial
1005
4BB
  0
LINE
  5
23C
330
207
100
AcDbEntity
  8
0
  6
Continuous
 62
     7
100
AcDbLine
 10
-622.9820380606803
 20
44.9926105661262
 30
0.0
 11
-622.6713379048403
 21
44.9926105661262
 31
0.0
1001
ACAD
1000
RTMaterial
1005
4BB
  0
LINE
  5
23D
330
207
100
AcDbEntity
  8
0
  6
Continuous
 62
     7
100
AcDbLine
 10
-272.1200797225003
 20
44.99261153132618
 30
0.0
 11
-271.8093795666604
 21
44.99261153132618
 31
0.0
1001
ACAD
1000
RTMaterial
1005
4BB
  0
LINE
  5
23E
330
207
100
AcDbEntity
  8
0
  6
Continuous
 62
     7
100
AcDbLine
 10
-272.8093795656403
 20
45.6819113744662
 30
0.0
 11
-276.2957088134403
 21
45.6819113744662
 31
0.0
1001
ACAD
1000
RTMaterial
1005
4BB
  0
LINE
  5
23F
330
207
100
AcDbEntity
  8
0
  6
Continuous
 62
     7
100
AcDbLine
 10
-618.4957088139003
 20
45.6819113744662
 30
0.0
 11
-621.9820380591603
 21
45.6819113744662
 31
0.0
1001
ACAD
1000
RTMaterial
1005
4BB
  0
LINE
  5
240
330
207
100
AcDbEntity
  8
0
  6
Continuous
 62
     7
100
AcDbLine
 10
-621.9820380591603
 20
45.99261153030621
 30
0.0
 11
-618.4957088139003
 21
45.99261153030621
 31
0.0
1001
ACAD
1000
RTMaterial
1005
4BB
  0
LINE
  5
241
330
207
100
AcDbEntity
  8
0
  6
Continuous
 62
     7
100
AcDbLine
 10
-276.2957088134403
 20
45.99261153030621
 30
0.0
 11
-272.8093795656403
 21
45.99261153030621
 31
0.0
1001
ACAD
1000
RTMaterial
1005
4BB
  0
LINE
  5
242
330
207
100
AcDbEntity
  8
0
  6
Continuous
 62
     7
100
AcDbLine
 10
-286.5093795671604
 20
56.20628228402621
 30
0.0
 11
-286.8200797204604
 21
56.20628228402621
 31
0.0
1001
ACAD
1000
RTMaterial
1005
4BB
  0
LINE
  5
243
330
207
100
AcDbEntity
  8
0
  6
Continuous
 62
     7
100
AcDbLine
 10
-607.9713379043404
 20
56.20628228656621
 30
0.0
 11
-608.2820380601803
 21
56.20628228656621
 31
0.0
1001
ACAD
1000
RTMaterial
1005
4BB
  0
LINE
  5
244
330
207
100
AcDbEntity
  8
DEFAULT_2
  6
HIDDEN
 62
     8
100
AcDbLine
 10
-266.3771279292803
 20
69.85628226362621
 30
0.0
 11
-267.9576483445603
 21
69.85628228394617
 31
0.0
1001
ACAD
1000
RTMaterial
1005
4BB
  0
LINE
  5
245
330
207
100
AcDbEntity
  8
DEFAULT_2
  6
HIDDEN
 62
     8
100
AcDbLine
 10
-626.8337692802402
 20
69.85628228394617
 30
0.0
 11
-628.4142896955203
 21
69.85628223568617
 31
0.0
1001
ACAD
1000
RTMaterial
1005
4BB
  0
LINE
  5
246
330
207
100
AcDbEntity
  8
0
  6
Continuous
 62
     7
100
AcDbLine
 10
-608.2820380601803
 20
71.39261056764619
 30
0.0
 11
-607.9713379043404
 21
71.39261056764619
 31
0.0
1001
ACAD
1000
RTMaterial
1005
4BB
  0
LINE
  5
247
330
207
100
AcDbEntity
  8
0
  6
Continuous
 62
     7
100
AcDbLine
 10
-286.8200797204604
 20
71.39261153030616
 30
0.0
 11
-286.5093795671604
 21
71.39261153030616
 31
0.0
1001
ACAD
1000
RTMaterial
1005
4BB
  0
LINE
  5
248
330
207
100
AcDbEntity
  8
0
  6
Continuous
 62
     7
100
AcDbLine
 10
-607.2820380586604
 20
72.08191137344619
 30
0.0
 11
-287.5093795661403
 21
72.08191137344619
 31
0.0
1001
ACAD
1000
RTMaterial
1005
4BB
  0
LINE
  5
249
330
207
100
AcDbEntity
  8
0
  6
Continuous
 62
     7
100
AcDbLine
 10
-607.2820380586604
 20
72.39261152928619
 30
0.0
 11
-287.5093795661403
 21
72.39261152928619
 31
0.0
1001
ACAD
1000
RTMaterial
1005
4BB
  0
LINE
  5
24A
330
207
100
AcDbEntity
  8
DEFAULT_2
  6
HIDDEN
 62
     8
100
AcDbLine
 10
-274.3457088120003
 20
76.24434275138617
 30
0.0
 11
-620.4457088128004
 21
76.24434275138617
 31
0.0
1001
ACAD
1000
RTMaterial
1005
4BB
  0
LINE
  5
24B
330
207
100
AcDbEntity
  8
DEFAULT_2
  6
HIDDEN
 62
     8
100
AcDbLine
 10
-274.3457088120003
 20
77.46528563842616
 30
0.0
 11
-620.4457088128004
 21
77.46528563842616
 31
0.0
1001
ACAD
1000
RTMaterial
1005
4BB
  0
LINE
  5
24C
330
207
100
AcDbEntity
  8
0
  6
Continuous
 62
     7
100
AcDbLine
 10
-620.4457087924803
 20
77.8248631666662
 30
0.0
 11
-274.3457088602603
 21
77.8248631666662
 31
0.0
1001
ACAD
1000
RTMaterial
1005
4BB
  0
LINE
  5
24D
330
207
100
AcDbEntity
  8
0
  6
Continuous
 62
     7
100
AcDbLine
 10
-287.5093805288003
 20
72.39261152928619
 30
0.0
 11
-287.5093805288003
 21
72.08191137344619
 31
0.0
1001
ACAD
1000
RTMaterial
1005
4BB
  0
LINE
  5
24E
330
207
100
AcDbEntity
  8
0
  6
Continuous
 62
     7
100
AcDbLine
 10
-287.5093795661403
 20
-41.2693468080138
 30
0.0
 11
-287.5093795661403
 21
-41.58004696385379
 31
0.0
1001
ACAD
1000
RTMaterial
1005
4BB
  0
LINE
  5
24F
330
207
100
AcDbEntity
  8
0
  6
Continuous
 62
     7
100
AcDbLine
 10
-286.8200797204604
 20
-40.58004696233381
 30
0.0
 11
-286.8200797204604
 21
-25.3937177160538
 31
0.0
1001
ACAD
1000
RTMaterial
1005
4BB
  0
LINE
  5
250
330
207
100
AcDbEntity
  8
0
  6
Continuous
 62
     7
100
AcDbLine
 10
-286.8200797204604
 20
56.20628228402621
 30
0.0
 11
-286.8200797204604
 21
71.39261153030616
 31
0.0
1001
ACAD
1000
RTMaterial
1005
4BB
  0
LINE
  5
251
330
207
100
AcDbEntity
  8
0
  6
Continuous
 62
     7
100
AcDbLine
 10
-286.5093795671604
 20
71.39261153030616
 30
0.0
 11
-286.5093795671604
 21
56.20628228402621
 31
0.0
1001
ACAD
1000
RTMaterial
1005
4BB
  0
LINE
  5
252
330
207
100
AcDbEntity
  8
0
  6
Continuous
 62
     7
100
AcDbLine
 10
-286.5093795671604
 20
-25.3937177160538
 30
0.0
 11
-286.5093795671604
 21
-40.58004720617378
 31
0.0
1001
ACAD
1000
RTMaterial
1005
4BB
  0
LINE
  5
253
330
207
100
AcDbEntity
  8
0
  6
Continuous
 62
     7
100
AcDbLine
 10
-276.2957088109004
 20
-15.18004696233382
 30
0.0
 11
-276.2957088109004
 21
-14.86934680649379
 31
0.0
1001
ACAD
1000
RTMaterial
1005
4BB
  0
LINE
  5
254
330
207
100
AcDbEntity
  8
0
  6
Continuous
 62
     7
100
AcDbLine
 10
-276.2957088109004
 20
45.6819113744662
 30
0.0
 11
-276.2957088109004
 21
45.99261153030621
 31
0.0
1001
ACAD
1000
RTMaterial
1005
4BB
  0
LINE
  5
255
330
207
100
AcDbEntity
  8
DEFAULT_2
  6
HIDDEN
 62
     8
100
AcDbLine
 10
-274.3457088323204
 20
-47.01229859869379
 30
0.0
 11
-274.3457088120003
 21
-45.4317781834138
 31
0.0
1001
ACAD
1000
RTMaterial
1005
4BB
  0
LINE
  5
256
330
207
100
AcDbEntity
  8
DEFAULT_2
  6
HIDDEN
 62
     8
100
AcDbLine
 10
-274.3457088120003
 20
76.24434275138617
 30
0.0
 11
-274.3457088602603
 21
77.8248631666662
 31
0.0
1001
ACAD
1000
RTMaterial
1005
4BB
  0
LINE
  5
257
330
207
100
AcDbEntity
  8
0
  6
Continuous
 62
     7
100
AcDbLine
 10
-272.8093805283003
 20
45.99261153030621
 30
0.0
 11
-272.8093805283003
 21
45.6819113744662
 31
0.0
1001
ACAD
1000
RTMaterial
1005
4BB
  0
LINE
  5
258
330
207
100
AcDbEntity
  8
0
  6
Continuous
 62
     7
100
AcDbLine
 10
-272.8093795656403
 20
-14.86934680649379
 30
0.0
 11
-272.8093795656403
 21
-15.18004696233382
 31
0.0
1001
ACAD
1000
RTMaterial
1005
4BB
  0
LINE
  5
259
330
207
100
AcDbEntity
  8
0
  6
Continuous
 62
     7
100
AcDbLine
 10
-272.1200797225003
 20
-14.18004696335379
 30
0.0
 11
-272.1200797225003
 21
44.99261153132618
 31
0.0
1001
ACAD
1000
RTMaterial
1005
4BB
  0
LINE
  5
25A
330
207
100
AcDbEntity
  8
0
  6
Continuous
 62
     7
100
AcDbLine
 10
-271.8093795666604
 20
44.99261153132618
 30
0.0
 11
-271.8093795666604
 21
-14.18004720719381
 31
0.0
1001
ACAD
1000
RTMaterial
1005
4BB
  0
LINE
  5
25B
330
207
100
AcDbEntity
  8
DEFAULT_2
  6
HIDDEN
 62
     8
100
AcDbLine
 10
-267.9576483445603
 20
-39.04371771597381
 30
0.0
 11
-267.9576483445603
 21
69.85628228394617
 31
0.0
1001
ACAD
1000
RTMaterial
1005
4BB
  0
LINE
  5
25C
330
207
100
AcDbEntity
  8
DEFAULT_2
  6
HIDDEN
 62
     8
100
AcDbLine
 10
-266.7367054575203
 20
-39.04371771597381
 30
0.0
 11
-266.7367054575203
 21
69.85628228394617
 31
0.0
1001
ACAD
1000
RTMaterial
1005
4BB
  0
LINE
  5
25D
330
207
100
AcDbEntity
  8
0
  6
Continuous
 62
     7
100
AcDbLine
 10
-266.3771279292803
 20
69.85628226362621
 30
0.0
 11
-266.3771279292803
 21
-39.04371767025378
 31
0.0
1001
ACAD
1000
RTMaterial
1005
4BB
  0
LINE
  5
25E
330
207
100
AcDbEntity
  8
DEFAULT_2
  6
HIDDEN
 62
     8
100
AcDbLine
 10
-196.1794152134803
 20
-44.94886284495379
 30
0.0
 11
-205.5898866592003
 21
-45.11312323525378
 31
0.0
1001
ACAD
1000
RTMaterial
1005
4BB
  0
LINE
  5
25F
330
207
100
AcDbEntity
  8
0
  6
Continuous
 62
     7
100
AcDbLine
 10
-204.6848337017203
 20
-46.65272107299379
 30
0.0
 11
-184.0846509372203
 21
-47.01229859869379
 31
0.0
1001
ACAD
1000
RTMaterial
1005
4BB
  0
LINE
  5
260
330
207
100
AcDbEntity
  8
DEFAULT_2
  6
HIDDEN
 62
     8
100
AcDbLine
 10
-192.4602496495404
 20
-41.76032598861379
 30
0.0
 11
-195.8846509363603
 21
-41.87990871617379
 31
0.0
1001
ACAD
1000
RTMaterial
1005
4BB
  0
LINE
  5
261
330
207
100
AcDbEntity
  8
DEFAULT_2
  6
HIDDEN
 62
     8
100
AcDbLine
 10
-191.9846508242603
 20
-41.34371771591381
 30
0.0
 11
-191.8846509379003
 21
-41.34371771591381
 31
0.0
1001
ACAD
1000
RTMaterial
1005
4BB
  0
LINE
  5
262
330
207
100
AcDbEntity
  8
DEFAULT_2
  6
HIDDEN
 62
     8
100
AcDbLine
 10
-201.8846509378604
 20
-40.58004696233381
 30
0.0
 11
-184.0846509372203
 21
-40.58004696233381
 31
0.0
1001
ACAD
1000
RTMaterial
1005
4BB
  0
LINE
  5
263
330
207
100
AcDbEntity
  8
0
  6
Continuous
 62
     7
100
AcDbLine
 10
-184.0846509372203
 20
-39.04371769565378
 30
0.0
 11
-205.8846509363203
 21
-39.04371771597381
 31
0.0
1001
ACAD
1000
RTMaterial
1005
4BB
  0
LINE
  5
264
330
207
100
AcDbEntity
  8
DEFAULT_2
  6
HIDDEN
 62
     8
100
AcDbLine
 10
-184.0846509372203
 20
-41.58004696385379
 30
0.0
 11
-201.8846509378604
 21
-41.2693468080138
 31
0.0
1001
ACAD
1000
RTMaterial
1005
4BB
  0
LINE
  5
265
330
207
100
AcDbEntity
  8
DEFAULT_2
  6
HIDDEN
 62
     8
100
AcDbLine
 10
-191.8846509379003
 20
-42.09341294499379
 30
0.0
 11
-184.0846509372203
 21
-42.36579494531381
 31
0.0
1001
ACAD
1000
RTMaterial
1005
4BB
  0
LINE
  5
266
330
207
100
AcDbEntity
  8
0
  6
Continuous
 62
     7
100
AcDbLine
 10
-204.6848337017203
 20
77.46528563842616
 30
0.0
 11
-205.8846509363203
 21
76.24434275138617
 31
0.0
1001
ACAD
1000
RTMaterial
1005
4BB
  0
LINE
  5
267
330
207
100
AcDbEntity
  8
DEFAULT_2
  6
HIDDEN
 62
     8
100
AcDbLine
 10
-191.8846509379003
 20
-35.0940224886338
 30
0.0
 11
-184.0846509372203
 21
-34.82164048577382
 31
0.0
1001
ACAD
1000
RTMaterial
1005
4BB
  0
LINE
  5
268
330
207
100
AcDbEntity
  8
DEFAULT_2
  6
HIDDEN
 62
     8
100
AcDbLine
 10
-191.9846508242603
 20
-35.8437177151738
 30
0.0
 11
-191.8846509379003
 21
-35.8437177151738
 31
0.0
1001
ACAD
1000
RTMaterial
1005
4BB
  0
LINE
  5
269
330
207
100
AcDbEntity
  8
DEFAULT_2
  6
HIDDEN
 62
     8
100
AcDbLine
 10
-192.4602496495404
 20
-35.4271094424738
 30
0.0
 11
-195.8846509363603
 21
-35.30752671491379
 31
0.0
1001
ACAD
1000
RTMaterial
1005
4BB
  0
LINE
  5
26A
330
207
100
AcDbEntity
  8
0
  6
Continuous
 62
     7
100
AcDbLine
 10
-204.6848337017203
 20
-46.65272107299379
 30
0.0
 11
-205.8846509363203
 21
-45.4317781834138
 31
0.0
1001
ACAD
1000
RTMaterial
1005
4BB
  0
LINE
  5
26B
330
207
100
AcDbEntity
  8
DEFAULT_2
  6
HIDDEN
 62
     8
100
AcDbLine
 10
-196.1794152134803
 20
-32.2385725861338
 30
0.0
 11
-205.5898866592003
 21
-32.07431219583381
 31
0.0
1001
ACAD
1000
RTMaterial
1005
4BB
  0
LINE
  5
288
330
207
100
AcDbEntity
  8
0
  6
Continuous
 62
     7
100
AcDbLine
 10
-205.8846509363203
 20
76.24434275138617
 30
0.0
 11
-205.8846509363203
 21
-45.4317781834138
 31
0.0
1001
ACAD
1000
RTMaterial
1005
4BB
  0
LINE
  5
289
330
207
100
AcDbEntity
  8
DEFAULT_2
  6
HIDDEN
 62
     8
100
AcDbLine
 10
-205.5898866592003
 20
75.92568780322617
 30
0.0
 11
-205.5898866592003
 21
62.88687676380618
 31
0.0
1001
ACAD
1000
RTMaterial
1005
4BB
  0
LINE
  5
28A
330
207
100
AcDbEntity
  8
DEFAULT_2
  6
HIDDEN
 62
     8
100
AcDbLine
 10
-205.5898866592003
 20
-32.07431219583381
 30
0.0
 11
-205.5898866592003
 21
-45.11312323525378
 31
0.0
1001
ACAD
1000
RTMaterial
1005
4BB
  0
LINE
  5
28B
330
207
100
AcDbEntity
  8
0
  6
Continuous
 62
     7
100
AcDbLine
 10
-204.6848337017203
 20
77.46528563842616
 30
0.0
 11
-204.6848337017203
 21
-46.65272107299379
 31
0.0
1001
ACAD
1000
RTMaterial
1005
4BB
  0
LINE
  5
28D
330
207
100
AcDbEntity
  8
DEFAULT_2
  6
HIDDEN
 62
     8
100
AcDbLine
 10
-201.8846509378604
 20
-41.26934679023377
 30
0.0
 11
-201.8846509378604
 21
72.08191137344619
 31
0.0
1001
ACAD
1000
RTMaterial
1005
4BB
  0
LINE
  5
28F
330
207
100
AcDbEntity
  8
DEFAULT_2
  6
HIDDEN
 62
     8
100
AcDbLine
 10
-196.1794152134803
 20
75.7614274129262
 30
0.0
 11
-196.1794152134803
 21
63.05113715410617
 31
0.0
1001
ACAD
1000
RTMaterial
1005
4BB
  0
LINE
  5
290
330
207
100
AcDbEntity
  8
DEFAULT_2
  6
HIDDEN
 62
     8
100
AcDbLine
 10
-196.1794152134803
 20
-32.2385725861338
 30
0.0
 11
-196.1794152134803
 21
-44.94886284495379
 31
0.0
1001
ACAD
1000
RTMaterial
1005
4BB
  0
LINE
  5
291
330
207
100
AcDbEntity
  8
DEFAULT_2
  6
HIDDEN
 62
     8
100
AcDbLine
 10
-195.8846509363603
 20
75.46147310554622
 30
0.0
 11
-195.8846509363603
 21
63.35109146148617
 31
0.0
1001
ACAD
1000
RTMaterial
1005
4BB
  0
LINE
  5
292
330
207
100
AcDbEntity
  8
DEFAULT_2
  6
HIDDEN
 62
     8
100
AcDbLine
 10
-195.8846509363603
 20
-32.53852689605379
 30
0.0
 11
-195.8846509363603
 21
-44.64890853757378
 31
0.0
1001
ACAD
1000
RTMaterial
1005
4BB
  0
LINE
  5
295
330
207
100
AcDbEntity
  8
DEFAULT_2
  6
HIDDEN
 62
     8
100
AcDbLine
 10
-192.4602496495404
 20
72.57289055658623
 30
0.0
 11
-192.4602496495404
 21
66.23967401044621
 31
0.0
1001
ACAD
1000
RTMaterial
1005
4BB
  0
LINE
  5
296
330
207
100
AcDbEntity
  8
DEFAULT_2
  6
HIDDEN
 62
     8
100
AcDbLine
 10
-192.4602496495404
 20
-35.4271094424738
 30
0.0
 11
-192.4602496495404
 21
-41.76032598861379
 31
0.0
1001
ACAD
1000
RTMaterial
1005
4BB
  0
LINE
  5
297
330
207
100
AcDbEntity
  8
DEFAULT_2
  6
HIDDEN
 62
     8
100
AcDbLine
 10
-191.9846508242603
 20
72.15628228388618
 30
0.0
 11
-191.9846508242603
 21
66.65628228314616
 31
0.0
1001
ACAD
1000
RTMaterial
1005
4BB
  0
LINE
  5
298
330
207
100
AcDbEntity
  8
DEFAULT_2
  6
HIDDEN
 62
     8
100
AcDbLine
 10
-191.9846508242603
 20
-35.8437177151738
 30
0.0
 11
-191.9846508242603
 21
-41.34371771591381
 31
0.0
1001
ACAD
1000
RTMaterial
1005
4BB
  0
LINE
  5
299
330
207
100
AcDbEntity
  8
DEFAULT_2
  6
HIDDEN
 62
     8
100
AcDbLine
 10
-191.8846509379003
 20
72.90648793104622
 30
0.0
 11
-191.8846509379003
 21
65.90607663598621
 31
0.0
1001
ACAD
1000
RTMaterial
1005
4BB
  0
LINE
  5
29A
330
207
100
AcDbEntity
  8
DEFAULT_2
  6
HIDDEN
 62
     8
100
AcDbLine
 10
-191.8846509379003
 20
-35.0935120705538
 30
0.0
 11
-191.8846509379003
 21
-42.0939233630738
 31
0.0
1001
ACAD
1000
RTMaterial
1005
4BB
  0
LINE
  5
29B
330
207
100
AcDbEntity
  8
0
  6
Continuous
 62
     7
100
AcDbLine
 10
-184.0846509372203
 20
-47.01229859869379
 30
0.0
 11
-184.0846509372203
 21
77.8248631666662
 31
0.0
1001
ACAD
1000
RTMaterial
1005
4BB
  0
LINE
  5
2A0
330
207
100
AcDbEntity
  8
DEFAULT_2
  6
HIDDEN
 62
     8
100
AcDbLine
 10
-192.4602496495404
 20
66.23967401044621
 30
0.0
 11
-195.8846509363603
 21
66.12009128288619
 31
0.0
1001
ACAD
1000
RTMaterial
1005
4BB
  0
LINE
  5
2A1
330
207
100
AcDbEntity
  8
DEFAULT_2
  6
HIDDEN
 62
     8
100
AcDbLine
 10
-196.1794152134803
 20
63.05113715410617
 30
0.0
 11
-205.5898866592003
 21
62.88687676380618
 31
0.0
1001
ACAD
1000
RTMaterial
1005
4BB
  0
LINE
  5
2A2
330
207
100
AcDbEntity
  8
DEFAULT_2
  6
HIDDEN
 62
     8
100
AcDbLine
 10
-191.9846508242603
 20
66.65628228314616
 30
0.0
 11
-191.8846509379003
 21
66.65628228314616
 31
0.0
1001
ACAD
1000
RTMaterial
1005
4BB
  0
LINE
  5
2A3
330
207
100
AcDbEntity
  8
DEFAULT_2
  6
HIDDEN
 62
     8
100
AcDbLine
 10
-191.8846509379003
 20
65.90658705660617
 30
0.0
 11
-184.0846509372203
 21
65.63420505374621
 31
0.0
1001
ACAD
1000
RTMaterial
1005
4BB
  0
LINE
  5
2A4
330
207
100
AcDbEntity
  8
0
  6
Continuous
 62
     7
100
AcDbLine
 10
-205.8846509363203
 20
69.85628228394617
 30
0.0
 11
-184.0846509372203
 21
69.85628223568617
 31
0.0
1001
ACAD
1000
RTMaterial
1005
4BB
  0
LINE
  5
2A5
330
207
100
AcDbEntity
  8
DEFAULT_2
  6
HIDDEN
 62
     8
100
AcDbLine
 10
-191.8846509379003
 20
72.9059775104262
 30
0.0
 11
-184.0846509372203
 21
73.17835951328618
 31
0.0
1001
ACAD
1000
RTMaterial
1005
4BB
  0
LINE
  5
2A6
330
207
100
AcDbEntity
  8
DEFAULT_2
  6
HIDDEN
 62
     8
100
AcDbLine
 10
-184.0846509372203
 20
72.39261152928619
 30
0.0
 11
-201.8846509378604
 21
72.08191137344619
 31
0.0
1001
ACAD
1000
RTMaterial
1005
4BB
  0
LINE
  5
2A7
330
207
100
AcDbEntity
  8
0
  6
Continuous
 62
     7
100
AcDbLine
 10
-184.0846509372203
 20
77.8248631666662
 30
0.0
 11
-204.6848337017203
 21
77.46528563842616
 31
0.0
1001
ACAD
1000
RTMaterial
1005
4BB
  0
LINE
  5
2A8
330
207
100
AcDbEntity
  8
DEFAULT_2
  6
HIDDEN
 62
     8
100
AcDbLine
 10
-184.0846509372203
 20
71.39261056764619
 30
0.0
 11
-201.8846509378604
 21
71.39261056764619
 31
0.0
1001
ACAD
1000
RTMaterial
1005
4BB
  0
LINE
  5
2A9
330
207
100
AcDbEntity
  8
DEFAULT_2
  6
HIDDEN
 62
     8
100
AcDbLine
 10
-191.9846508242603
 20
72.15628228388618
 30
0.0
 11
-191.8846509379003
 21
72.15628228388618
 31
0.0
1001
ACAD
1000
RTMaterial
1005
4BB
  0
LINE
  5
2AA
330
207
100
AcDbEntity
  8
DEFAULT_2
  6
HIDDEN
 62
     8
100
AcDbLine
 10
-196.1794152134803
 20
75.7614274129262
 30
0.0
 11
-205.5898866592003
 21
75.92568780322617
 31
0.0
1001
ACAD
1000
RTMaterial
1005
4BB
  0
LINE
  5
2AB
330
207
100
AcDbEntity
  8
DEFAULT_2
  6
HIDDEN
 62
     8
100
AcDbLine
 10
-192.4602496495404
 20
72.57289055658623
 30
0.0
 11
-195.8846509363603
 21
72.69247328414616
 31
0.0
1001
ACAD
1000
RTMaterial
1005
4BB
  0
LINE
  5
2AC
330
207
100
AcDbEntity
  8
0
  6
Continuous
 62
     7
100
AcDbLine
 10
-139.3767854280603
 20
69.85628226362621
 30
0.0
 11
-139.3767854280603
 21
-39.04371767025378
 31
0.0
1001
ACAD
1000
RTMaterial
1005
4BB
  0
LINE
  5
2AD
330
207
100
AcDbEntity
  8
0
  6
Continuous
 62
     7
100
AcDbLine
 10
-139.0172078998203
 20
-39.04371771597381
 30
0.0
 11
-139.0172078998203
 21
69.85628228394617
 31
0.0
1001
ACAD
1000
RTMaterial
1005
4BB
  0
LINE
  5
2AE
330
207
100
AcDbEntity
  8
0
  6
Continuous
 62
     7
100
AcDbLine
 10
-137.7962650127803
 20
-39.04371771597381
 30
0.0
 11
-137.7962650127803
 21
69.85628228394617
 31
0.0
1001
ACAD
1000
RTMaterial
1005
4BB
  0
LINE
  5
2AF
330
207
100
AcDbEntity
  8
DEFAULT_2
  6
HIDDEN
 62
     8
100
AcDbLine
 10
-133.9445337906804
 20
44.99261153132618
 30
0.0
 11
-133.9445337906804
 21
-14.18004720719381
 31
0.0
1001
ACAD
1000
RTMaterial
1005
4BB
  0
LINE
  5
2B0
330
207
100
AcDbEntity
  8
DEFAULT_2
  6
HIDDEN
 62
     8
100
AcDbLine
 10
-133.6338336348404
 20
-14.18004696335379
 30
0.0
 11
-133.6338336348404
 21
44.99261153132618
 31
0.0
1001
ACAD
1000
RTMaterial
1005
4BB
  0
LINE
  5
2B1
330
207
100
AcDbEntity
  8
DEFAULT_2
  6
HIDDEN
 62
     8
100
AcDbLine
 10
-132.9445328265003
 20
45.99261153030621
 30
0.0
 11
-132.9445328265003
 21
45.6819113744662
 31
0.0
1001
ACAD
1000
RTMaterial
1005
4BB
  0
LINE
  5
2B2
330
207
100
AcDbEntity
  8
DEFAULT_2
  6
HIDDEN
 62
     8
100
AcDbLine
 10
-132.9445337917003
 20
-14.86934680649379
 30
0.0
 11
-132.9445337917003
 21
-15.18004696233382
 31
0.0
1001
ACAD
1000
RTMaterial
1005
4BB
  0
LINE
  5
2B3
330
207
100
AcDbEntity
  8
0
  6
Continuous
 62
     7
100
AcDbLine
 10
-131.4082044970803
 20
77.8248631666662
 30
0.0
 11
-131.4082045453404
 21
76.24434275138617
 31
0.0
1001
ACAD
1000
RTMaterial
1005
4BB
  0
LINE
  5
2B4
330
207
100
AcDbEntity
  8
0
  6
Continuous
 62
     7
100
AcDbLine
 10
-131.4082045250204
 20
-47.01229859869379
 30
0.0
 11
-131.4082045453404
 21
-45.4317781834138
 31
0.0
1001
ACAD
1000
RTMaterial
1005
4BB
  0
LINE
  5
2B5
330
207
100
AcDbEntity
  8
DEFAULT_2
  6
HIDDEN
 62
     8
100
AcDbLine
 10
-129.4582045439003
 20
-15.18004696233382
 30
0.0
 11
-129.4582045439003
 21
-14.86934680649379
 31
0.0
1001
ACAD
1000
RTMaterial
1005
4BB
  0
LINE
  5
2B6
330
207
100
AcDbEntity
  8
DEFAULT_2
  6
HIDDEN
 62
     8
100
AcDbLine
 10
-129.4582045464404
 20
45.6819113744662
 30
0.0
 11
-129.4582045464404
 21
45.99261153030621
 31
0.0
1001
ACAD
1000
RTMaterial
1005
4BB
  0
LINE
  5
2B7
330
207
100
AcDbEntity
  8
DEFAULT_2
  6
HIDDEN
 62
     8
100
AcDbLine
 10
-119.2445337901804
 20
71.39261153030616
 30
0.0
 11
-119.2445337901804
 21
56.20628228402621
 31
0.0
1001
ACAD
1000
RTMaterial
1005
4BB
  0
LINE
  5
2B8
330
207
100
AcDbEntity
  8
DEFAULT_2
  6
HIDDEN
 62
     8
100
AcDbLine
 10
-119.2445337901804
 20
-25.3937177160538
 30
0.0
 11
-119.2445337901804
 21
-40.58004720617378
 31
0.0
1001
ACAD
1000
RTMaterial
1005
4BB
  0
LINE
  5
2B9
330
207
100
AcDbEntity
  8
DEFAULT_2
  6
HIDDEN
 62
     8
100
AcDbLine
 10
-118.9338336343404
 20
-40.58004696233381
 30
0.0
 11
-118.9338336343404
 21
-25.3937177160538
 31
0.0
1001
ACAD
1000
RTMaterial
1005
4BB
  0
LINE
  5
2BA
330
207
100
AcDbEntity
  8
DEFAULT_2
  6
HIDDEN
 62
     8
100
AcDbLine
 10
-118.9338336343404
 20
56.20628228402621
 30
0.0
 11
-118.9338336343404
 21
71.39261153030616
 31
0.0
1001
ACAD
1000
RTMaterial
1005
4BB
  0
LINE
  5
2BB
330
207
100
AcDbEntity
  8
DEFAULT_2
  6
HIDDEN
 62
     8
100
AcDbLine
 10
-118.2445328285403
 20
72.39261152928619
 30
0.0
 11
-118.2445328285403
 21
72.08191137344619
 31
0.0
1001
ACAD
1000
RTMaterial
1005
4BB
  0
LINE
  5
2BC
330
207
100
AcDbEntity
  8
DEFAULT_2
  6
HIDDEN
 62
     8
100
AcDbLine
 10
-118.2445337912003
 20
-41.2693468080138
 30
0.0
 11
-118.2445337912003
 21
-41.58004696385379
 31
0.0
1001
ACAD
1000
RTMaterial
1005
4BB
  0
LINE
  5
2BD
330
207
100
AcDbEntity
  8
0
  6
Continuous
 62
     7
100
AcDbLine
 10
-131.4082045250204
 20
-47.01229859869379
 30
0.0
 11
214.6917954097395
 21
-47.01229859869379
 31
0.0
1001
ACAD
1000
RTMaterial
1005
4BB
  0
LINE
  5
2BE
330
207
100
AcDbEntity
  8
0
  6
Continuous
 62
     7
100
AcDbLine
 10
214.6917954554596
 20
-46.65272107299379
 30
0.0
 11
-131.4082045453404
 21
-46.65272107299379
 31
0.0
1001
ACAD
1000
RTMaterial
1005
4BB
  0
LINE
  5
2BF
330
207
100
AcDbEntity
  8
0
  6
Continuous
 62
     7
100
AcDbLine
 10
214.6917954554596
 20
-45.4317781834138
 30
0.0
 11
-131.4082045453404
 21
-45.4317781834138
 31
0.0
1001
ACAD
1000
RTMaterial
1005
4BB
  0
LINE
  5
2C0
330
207
100
AcDbEntity
  8
DEFAULT_2
  6
HIDDEN
 62
     8
100
AcDbLine
 10
-118.2445337912003
 20
-41.58004696385379
 30
0.0
 11
201.5281247013197
 21
-41.58004696385379
 31
0.0
1001
ACAD
1000
RTMaterial
1005
4BB
  0
LINE
  5
2C1
330
207
100
AcDbEntity
  8
DEFAULT_2
  6
HIDDEN
 62
     8
100
AcDbLine
 10
-118.2445337912003
 20
-41.2693468080138
 30
0.0
 11
201.5281247013197
 21
-41.2693468080138
 31
0.0
1001
ACAD
1000
RTMaterial
1005
4BB
  0
LINE
  5
2C2
330
207
100
AcDbEntity
  8
DEFAULT_2
  6
HIDDEN
 62
     8
100
AcDbLine
 10
202.2174245469996
 20
-40.58004696233381
 30
0.0
 11
202.5281247028396
 21
-40.58004696233381
 31
0.0
1001
ACAD
1000
RTMaterial
1005
4BB
  0
LINE
  5
2C3
330
207
100
AcDbEntity
  8
DEFAULT_2
  6
HIDDEN
 62
     8
100
AcDbLine
 10
-119.2445337901804
 20
-40.58004599967378
 30
0.0
 11
-118.9338336343404
 21
-40.58004599967378
 31
0.0
1001
ACAD
1000
RTMaterial
1005
4BB
  0
LINE
  5
2C4
330
207
100
AcDbEntity
  8
0
  6
Continuous
 62
     7
100
AcDbLine
 10
222.6603763381797
 20
-39.04371769565378
 30
0.0
 11
221.0798559228996
 21
-39.04371771597381
 31
0.0
1001
ACAD
1000
RTMaterial
1005
4BB
  0
LINE
  5
2C5
330
207
100
AcDbEntity
  8
0
  6
Continuous
 62
     7
100
AcDbLine
 10
-139.3767854280603
 20
-39.04371767025378
 30
0.0
 11
-137.7962650127803
 21
-39.04371771597381
 31
0.0
1001
ACAD
1000
RTMaterial
1005
4BB
  0
LINE
  5
2C6
330
207
100
AcDbEntity
  8
DEFAULT_2
  6
HIDDEN
 62
     8
100
AcDbLine
 10
202.5281247028396
 20
-25.39371771859379
 30
0.0
 11
202.2174245469996
 21
-25.39371771859379
 31
0.0
1001
ACAD
1000
RTMaterial
1005
4BB
  0
LINE
  5
2C7
330
207
100
AcDbEntity
  8
DEFAULT_2
  6
HIDDEN
 62
     8
100
AcDbLine
 10
-118.9338336343404
 20
-25.39371771859379
 30
0.0
 11
-119.2445337901804
 21
-25.39371771859379
 31
0.0
1001
ACAD
1000
RTMaterial
1005
4BB
  0
LINE
  5
2C8
330
207
100
AcDbEntity
  8
DEFAULT_2
  6
HIDDEN
 62
     8
100
AcDbLine
 10
-132.9445337917003
 20
-15.18004696233382
 30
0.0
 11
-129.4582045439003
 21
-15.18004696233382
 31
0.0
1001
ACAD
1000
RTMaterial
1005
4BB
  0
LINE
  5
2C9
330
207
100
AcDbEntity
  8
DEFAULT_2
  6
HIDDEN
 62
     8
100
AcDbLine
 10
212.7417954565596
 20
-15.18004696233382
 30
0.0
 11
216.2281247018197
 21
-15.18004696233382
 31
0.0
1001
ACAD
1000
RTMaterial
1005
4BB
  0
LINE
  5
2CA
330
207
100
AcDbEntity
  8
DEFAULT_2
  6
HIDDEN
 62
     8
100
AcDbLine
 10
212.7417954565596
 20
-15.01771485875378
 30
0.0
 11
216.2281247018197
 21
-15.01771485875378
 31
0.0
1001
ACAD
1000
RTMaterial
1005
4BB
  0
LINE
  5
2CB
330
207
100
AcDbEntity
  8
DEFAULT_2
  6
HIDDEN
 62
     8
100
AcDbLine
 10
-129.4582045439003
 20
-14.86934680649379
 30
0.0
 11
-132.9445337917003
 21
-14.86934680649379
 31
0.0
1001
ACAD
1000
RTMaterial
1005
4BB
  0
LINE
  5
2CC
330
207
100
AcDbEntity
  8
DEFAULT_2
  6
HIDDEN
 62
     8
100
AcDbLine
 10
-133.9445337906804
 20
-14.1800460006938
 30
0.0
 11
-133.6338336348404
 21
-14.1800460006938
 31
0.0
1001
ACAD
1000
RTMaterial
1005
4BB
  0
LINE
  5
2CD
330
207
100
AcDbEntity
  8
DEFAULT_2
  6
HIDDEN
 62
     8
100
AcDbLine
 10
217.0657925997597
 20
-14.18004696335379
 30
0.0
 11
217.2281247033396
 21
-14.18004696335379
 31
0.0
1001
ACAD
1000
RTMaterial
1005
4BB
  0
LINE
  5
2CE
330
207
100
AcDbEntity
  8
DEFAULT_2
  6
HIDDEN
 62
     8
100
AcDbLine
 10
201.5017954550197
 20
-9.513717715893815
 30
0.0
 11
199.1017954569596
 21
-9.513717715893815
 31
0.0
1001
ACAD
1000
RTMaterial
1005
4BB
  0
LINE
  5
2CF
330
207
100
AcDbEntity
  8
DEFAULT_2
  6
HIDDEN
 62
     8
100
AcDbLine
 10
215.2017954565396
 20
-9.313717717113799
 30
0.0
 11
217.0657925997597
 21
-9.313717717113799
 31
0.0
1001
ACAD
1000
RTMaterial
1005
4BB
  0
LINE
  5
2D0
330
207
100
AcDbEntity
  8
DEFAULT_2
  6
HIDDEN
 62
     8
100
AcDbLine
 10
199.1017954569596
 20
-9.113717715793832
 30
0.0
 11
201.5017954550197
 21
-9.113717715793832
 31
0.0
1001
ACAD
1000
RTMaterial
1005
4BB
  0
LINE
  5
2D1
330
207
100
AcDbEntity
  8
DEFAULT_2
  6
HIDDEN
 62
     8
100
AcDbLine
 10
217.2281247033396
 20
44.9926105661262
 30
0.0
 11
216.9174245474996
 21
44.9926105661262
 31
0.0
1001
ACAD
1000
RTMaterial
1005
4BB
  0
LINE
  5
2D2
330
207
100
AcDbEntity
  8
DEFAULT_2
  6
HIDDEN
 62
     8
100
AcDbLine
 10
-133.6338336348404
 20
44.99261153132618
 30
0.0
 11
-133.9445337906804
 21
44.99261153132618
 31
0.0
1001
ACAD
1000
RTMaterial
1005
4BB
  0
LINE
  5
2D3
330
207
100
AcDbEntity
  8
DEFAULT_2
  6
HIDDEN
 62
     8
100
AcDbLine
 10
-132.9445337917003
 20
45.6819113744662
 30
0.0
 11
-129.4582045439003
 21
45.6819113744662
 31
0.0
1001
ACAD
1000
RTMaterial
1005
4BB
  0
LINE
  5
2D4
330
207
100
AcDbEntity
  8
DEFAULT_2
  6
HIDDEN
 62
     8
100
AcDbLine
 10
212.7417954565596
 20
45.6819113744662
 30
0.0
 11
216.2281247018197
 21
45.6819113744662
 31
0.0
1001
ACAD
1000
RTMaterial
1005
4BB
  0
LINE
  5
2D5
330
207
100
AcDbEntity
  8
DEFAULT_2
  6
HIDDEN
 62
     8
100
AcDbLine
 10
216.2281247018197
 20
45.99261153030621
 30
0.0
 11
212.7417954565596
 21
45.99261153030621
 31
0.0
1001
ACAD
1000
RTMaterial
1005
4BB
  0
LINE
  5
2D6
330
207
100
AcDbEntity
  8
DEFAULT_2
  6
HIDDEN
 62
     8
100
AcDbLine
 10
-129.4582045439003
 20
45.99261153030621
 30
0.0
 11
-132.9445337917003
 21
45.99261153030621
 31
0.0
1001
ACAD
1000
RTMaterial
1005
4BB
  0
LINE
  5
2D7
330
207
100
AcDbEntity
  8
DEFAULT_2
  6
HIDDEN
 62
     8
100
AcDbLine
 10
-119.2445337901804
 20
56.20628228402621
 30
0.0
 11
-118.9338336343404
 21
56.20628228402621
 31
0.0
1001
ACAD
1000
RTMaterial
1005
4BB
  0
LINE
  5
2D8
330
207
100
AcDbEntity
  8
DEFAULT_2
  6
HIDDEN
 62
     8
100
AcDbLine
 10
202.2174245469996
 20
56.20628228656621
 30
0.0
 11
202.5281247028396
 21
56.20628228656621
 31
0.0
1001
ACAD
1000
RTMaterial
1005
4BB
  0
LINE
  5
2D9
330
207
100
AcDbEntity
  8
0
  6
Continuous
 62
     7
100
AcDbLine
 10
-139.3767854280603
 20
69.85628226362621
 30
0.0
 11
-137.7962650127803
 21
69.85628228394617
 31
0.0
1001
ACAD
1000
RTMaterial
1005
4BB
  0
LINE
  5
2DA
330
207
100
AcDbEntity
  8
0
  6
Continuous
 62
     7
100
AcDbLine
 10
221.0798559228996
 20
69.85628228394617
 30
0.0
 11
222.6603763381797
 21
69.85628223568617
 31
0.0
1001
ACAD
1000
RTMaterial
1005
4BB
  0
LINE
  5
2DB
330
207
100
AcDbEntity
  8
DEFAULT_2
  6
HIDDEN
 62
     8
100
AcDbLine
 10
202.5281247028396
 20
71.39261056764619
 30
0.0
 11
202.2174245469996
 21
71.39261056764619
 31
0.0
1001
ACAD
1000
RTMaterial
1005
4BB
  0
LINE
  5
2DC
330
207
100
AcDbEntity
  8
DEFAULT_2
  6
HIDDEN
 62
     8
100
AcDbLine
 10
-118.9338336343404
 20
71.39261153030616
 30
0.0
 11
-119.2445337901804
 21
71.39261153030616
 31
0.0
1001
ACAD
1000
RTMaterial
1005
4BB
  0
LINE
  5
2DD
330
207
100
AcDbEntity
  8
DEFAULT_2
  6
HIDDEN
 62
     8
100
AcDbLine
 10
201.5281247013197
 20
72.08191137344619
 30
0.0
 11
-118.2445337912003
 21
72.08191137344619
 31
0.0
1001
ACAD
1000
RTMaterial
1005
4BB
  0
LINE
  5
2DE
330
207
100
AcDbEntity
  8
DEFAULT_2
  6
HIDDEN
 62
     8
100
AcDbLine
 10
201.5281247013197
 20
72.39261152928619
 30
0.0
 11
-118.2445337912003
 21
72.39261152928619
 31
0.0
1001
ACAD
1000
RTMaterial
1005
4BB
  0
LINE
  5
2DF
330
207
100
AcDbEntity
  8
0
  6
Continuous
 62
     7
100
AcDbLine
 10
-131.4082045453404
 20
76.24434275138617
 30
0.0
 11
214.6917954554596
 21
76.24434275138617
 31
0.0
1001
ACAD
1000
RTMaterial
1005
4BB
  0
LINE
  5
2E0
330
207
100
AcDbEntity
  8
0
  6
Continuous
 62
     7
100
AcDbLine
 10
-131.4082045453404
 20
77.46528563842616
 30
0.0
 11
214.6917954554596
 21
77.46528563842616
 31
0.0
1001
ACAD
1000
RTMaterial
1005
4BB
  0
LINE
  5
2E1
330
207
100
AcDbEntity
  8
0
  6
Continuous
 62
     7
100
AcDbLine
 10
214.6917954351397
 20
77.8248631666662
 30
0.0
 11
-131.4082044970803
 21
77.8248631666662
 31
0.0
1001
ACAD
1000
RTMaterial
1005
4BB
  0
LINE
  5
2E2
330
207
100
AcDbEntity
  8
DEFAULT_2
  6
HIDDEN
 62
     8
100
AcDbLine
 10
196.1017954549397
 20
-10.61371771553378
 30
0.0
 11
196.1017954549397
 21
-8.013717716153774
 31
0.0
1001
ACAD
1000
RTMaterial
1005
4BB
  0
LINE
  5
2E3
330
207
100
AcDbEntity
  8
DEFAULT_2
  6
HIDDEN
 62
     8
100
AcDbLine
 10
196.5017954550397
 20
-8.013717716153774
 30
0.0
 11
196.5017954550397
 21
-10.61371771553378
 31
0.0
1001
ACAD
1000
RTMaterial
1005
4BB
  0
LINE
  5
2E4
330
207
100
AcDbEntity
  8
DEFAULT_2
  6
HIDDEN
 62
     8
100
AcDbLine
 10
197.4017954558995
 20
-11.36371771667378
 30
0.0
 11
197.4017954558995
 21
-7.263717717553774
 31
0.0
1001
ACAD
1000
RTMaterial
1005
4BB
  0
LINE
  5
2E5
330
207
100
AcDbEntity
  8
DEFAULT_2
  6
HIDDEN
 62
     8
100
AcDbLine
 10
197.8017954559996
 20
-7.263717717553774
 30
0.0
 11
197.8017954559996
 21
-11.36371771667378
 31
0.0
1001
ACAD
1000
RTMaterial
1005
4BB
  0
LINE
  5
2E6
330
207
100
AcDbEntity
  8
DEFAULT_2
  6
HIDDEN
 62
     8
100
AcDbLine
 10
198.7017954568597
 20
-12.11371771527382
 30
0.0
 11
198.7017954568597
 21
-6.513717716413822
 31
0.0
1001
ACAD
1000
RTMaterial
1005
4BB
  0
LINE
  5
2E7
330
207
100
AcDbEntity
  8
DEFAULT_2
  6
HIDDEN
 62
     8
100
AcDbLine
 10
199.1017954569596
 20
-6.513717716413822
 30
0.0
 11
199.1017954569596
 21
-9.113717715793832
 31
0.0
1001
ACAD
1000
RTMaterial
1005
4BB
  0
LINE
  5
2E8
330
207
100
AcDbEntity
  8
DEFAULT_2
  6
HIDDEN
 62
     8
100
AcDbLine
 10
199.1017954569596
 20
-9.513717715893815
 30
0.0
 11
199.1017954569596
 21
-12.11371771527382
 31
0.0
1001
ACAD
1000
RTMaterial
1005
4BB
  0
LINE
  5
2E9
330
207
100
AcDbEntity
  8
DEFAULT_2
  6
HIDDEN
 62
     8
100
AcDbLine
 10
201.5281237386596
 20
-41.58004696385379
 30
0.0
 11
201.5281237386596
 21
-41.2693468080138
 31
0.0
1001
ACAD
1000
RTMaterial
1005
4BB
  0
LINE
  5
2EA
330
207
100
AcDbEntity
  8
DEFAULT_2
  6
HIDDEN
 62
     8
100
AcDbLine
 10
201.5281247013197
 20
72.08191137344619
 30
0.0
 11
201.5281247013197
 21
72.39261152928619
 31
0.0
1001
ACAD
1000
RTMaterial
1005
4BB
  0
LINE
  5
2EB
330
207
100
AcDbEntity
  8
DEFAULT_2
  6
HIDDEN
 62
     8
100
AcDbLine
 10
202.2174245469996
 20
71.39261153030616
 30
0.0
 11
202.2174245469996
 21
56.20628228402621
 31
0.0
1001
ACAD
1000
RTMaterial
1005
4BB
  0
LINE
  5
2EC
330
207
100
AcDbEntity
  8
DEFAULT_2
  6
HIDDEN
 62
     8
100
AcDbLine
 10
202.2174245469996
 20
-25.3937177160538
 30
0.0
 11
202.2174245469996
 21
-40.58004696233381
 31
0.0
1001
ACAD
1000
RTMaterial
1005
4BB
  0
LINE
  5
2ED
330
207
100
AcDbEntity
  8
DEFAULT_2
  6
HIDDEN
 62
     8
100
AcDbLine
 10
202.5281247028396
 20
-40.58004696233381
 30
0.0
 11
202.5281247028396
 21
-25.3937177160538
 31
0.0
1001
ACAD
1000
RTMaterial
1005
4BB
  0
LINE
  5
2EE
330
207
100
AcDbEntity
  8
DEFAULT_2
  6
HIDDEN
 62
     8
100
AcDbLine
 10
202.5281247028396
 20
56.20628228402621
 30
0.0
 11
202.5281247028396
 21
71.39261177414619
 31
0.0
1001
ACAD
1000
RTMaterial
1005
4BB
  0
LINE
  5
2EF
330
207
100
AcDbEntity
  8
DEFAULT_2
  6
HIDDEN
 62
     8
100
AcDbLine
 10
210.7017954547797
 20
-15.2202358659538
 30
0.0
 11
210.7017954547797
 21
-13.81371771633379
 31
0.0
1001
ACAD
1000
RTMaterial
1005
4BB
  0
LINE
  5
2F0
330
207
100
AcDbEntity
  8
DEFAULT_2
  6
HIDDEN
 62
     8
100
AcDbLine
 10
212.7417954565596
 20
45.99261153030621
 30
0.0
 11
212.7417954565596
 21
45.6819113744662
 31
0.0
1001
ACAD
1000
RTMaterial
1005
4BB
  0
LINE
  5
2F1
330
207
100
AcDbEntity
  8
DEFAULT_2
  6
HIDDEN
 62
     8
100
AcDbLine
 10
212.7417954565596
 20
-15.01771485875378
 30
0.0
 11
212.7417954565596
 21
-15.18004696233382
 31
0.0
1001
ACAD
1000
RTMaterial
1005
4BB
  0
LINE
  5
2F2
330
207
100
AcDbEntity
  8
0
  6
Continuous
 62
     7
100
AcDbLine
 10
214.6917954351397
 20
77.8248631666662
 30
0.0
 11
214.6917954554596
 21
76.24434275138617
 31
0.0
1001
ACAD
1000
RTMaterial
1005
4BB
  0
LINE
  5
2F3
330
207
100
AcDbEntity
  8
0
  6
Continuous
 62
     7
100
AcDbLine
 10
214.6917954554596
 20
-45.4317781834138
 30
0.0
 11
214.6917954097395
 21
-47.01229859869379
 31
0.0
1001
ACAD
1000
RTMaterial
1005
4BB
  0
LINE
  5
2F4
330
207
100
AcDbEntity
  8
DEFAULT_2
  6
HIDDEN
 62
     8
100
AcDbLine
 10
216.2281247018197
 20
-15.18004696233382
 30
0.0
 11
216.2281247018197
 21
-15.01771485875378
 31
0.0
1001
ACAD
1000
RTMaterial
1005
4BB
  0
LINE
  5
2F5
330
207
100
AcDbEntity
  8
DEFAULT_2
  6
HIDDEN
 62
     8
100
AcDbLine
 10
216.2281247018197
 20
45.6819113744662
 30
0.0
 11
216.2281247018197
 21
45.99261153030621
 31
0.0
1001
ACAD
1000
RTMaterial
1005
4BB
  0
LINE
  5
2F6
330
207
100
AcDbEntity
  8
DEFAULT_2
  6
HIDDEN
 62
     8
100
AcDbLine
 10
216.9174245474996
 20
44.99261153132618
 30
0.0
 11
216.9174245474996
 21
-9.313717717113799
 31
0.0
1001
ACAD
1000
RTMaterial
1005
4BB
  0
LINE
  5
2F7
330
207
100
AcDbEntity
  8
DEFAULT_2
  6
HIDDEN
 62
     8
100
AcDbLine
 10
217.0657925997597
 20
-9.313717717113799
 30
0.0
 11
217.0657925997597
 21
-14.18004696335379
 31
0.0
1001
ACAD
1000
RTMaterial
1005
4BB
  0
LINE
  5
2F8
330
207
100
AcDbEntity
  8
DEFAULT_2
  6
HIDDEN
 62
     8
100
AcDbLine
 10
217.2281247033396
 20
-14.18004696335379
 30
0.0
 11
217.2281247033396
 21
44.9926117751662
 31
0.0
1001
ACAD
1000
RTMaterial
1005
4BB
  0
LINE
  5
2F9
330
207
100
AcDbEntity
  8
0
  6
Continuous
 62
     7
100
AcDbLine
 10
221.0798559228996
 20
69.85628228394617
 30
0.0
 11
221.0798559228996
 21
-39.04371771597381
 31
0.0
1001
ACAD
1000
RTMaterial
1005
4BB
  0
LINE
  5
2FA
330
207
100
AcDbEntity
  8
0
  6
Continuous
 62
     7
100
AcDbLine
 10
222.3007988099397
 20
69.85628228394617
 30
0.0
 11
222.3007988099397
 21
-39.04371771597381
 31
0.0
1001
ACAD
1000
RTMaterial
1005
4BB
  0
LINE
  5
2FB
330
207
100
AcDbEntity
  8
0
  6
Continuous
 62
     7
100
AcDbLine
 10
222.6603763381797
 20
-39.04371769565378
 30
0.0
 11
222.6603763381797
 21
69.85628223568617
 31
0.0
1001
ACAD
1000
RTMaterial
1005
4BB
  0
LINE
  5
2FC
330
207
100
AcDbEntity
  8
0
  6
Continuous
 62
     7
100
AcDbLine
 10
-139.0172078998203
 20
149.5168916746262
 30
0.0
 11
-139.3767854280603
 21
128.9167089101262
 31
0.0
1001
ACAD
1000
RTMaterial
1005
4BB
  0
LINE
  5
2FD
330
207
100
AcDbEntity
  8
DEFAULT_2
  6
HIDDEN
 62
     8
100
AcDbLine
 10
-133.6943955457203
 20
140.7167089092661
 30
0.0
 11
-133.5748128181603
 21
137.2923076224461
 31
0.0
1001
ACAD
1000
RTMaterial
1005
4BB
  0
LINE
  5
2FE
330
207
100
AcDbEntity
  8
DEFAULT_2
  6
HIDDEN
 62
     8
100
AcDbLine
 10
-126.9085093156403
 20
136.7167089108061
 30
0.0
 11
-126.6361273153203
 21
128.9167089101262
 31
0.0
1001
ACAD
1000
RTMaterial
1005
4BB
  0
LINE
  5
2FF
330
207
100
AcDbEntity
  8
DEFAULT_2
  6
HIDDEN
 62
     8
100
AcDbLine
 10
-136.7633496745003
 20
141.0114731889261
 30
0.0
 11
-136.9276100648002
 21
150.4219446321062
 31
0.0
1001
ACAD
1000
RTMaterial
1005
4BB
  0
LINE
  5
300
330
207
100
AcDbEntity
  8
DEFAULT_2
  6
HIDDEN
 62
     8
100
AcDbLine
 10
-133.1582045454603
 20
136.8167087971662
 30
0.0
 11
-133.1582045454603
 21
136.7167089108061
 31
0.0
1001
ACAD
1000
RTMaterial
1005
4BB
  0
LINE
  5
301
330
207
100
AcDbEntity
  8
DEFAULT_2
  6
HIDDEN
 62
     8
100
AcDbLine
 10
-132.9445337917003
 20
146.7167089107661
 30
0.0
 11
-132.9445337917003
 21
128.9167089101262
 31
0.0
1001
ACAD
1000
RTMaterial
1005
4BB
  0
LINE
  5
302
330
207
100
AcDbEntity
  8
0
  6
Continuous
 62
     7
100
AcDbLine
 10
-131.4082045250204
 20
128.9167089101262
 30
0.0
 11
-131.4082045453404
 21
150.7167089092262
 31
0.0
1001
ACAD
1000
RTMaterial
1005
4BB
  0
LINE
  5
303
330
207
100
AcDbEntity
  8
DEFAULT_2
  6
HIDDEN
 62
     8
100
AcDbLine
 10
-129.4582045464404
 20
146.7167089107661
 30
0.0
 11
-129.4582045464404
 21
128.9167089101262
 31
0.0
1001
ACAD
1000
RTMaterial
1005
4BB
  0
LINE
  5
304
330
207
100
AcDbEntity
  8
DEFAULT_2
  6
HIDDEN
 62
     8
100
AcDbLine
 10
-127.6582045447203
 20
136.8167087971662
 30
0.0
 11
-127.6582045447203
 21
136.7167089108061
 31
0.0
1001
ACAD
1000
RTMaterial
1005
4BB
  0
LINE
  5
305
330
207
100
AcDbEntity
  8
DEFAULT_2
  6
HIDDEN
 62
     8
100
AcDbLine
 10
-133.6338336348404
 20
146.7167089107661
 30
0.0
 11
-133.9445337906804
 21
128.9167089101262
 31
0.0
1001
ACAD
1000
RTMaterial
1005
4BB
  0
LINE
  5
306
330
207
100
AcDbEntity
  8
DEFAULT_2
  6
HIDDEN
 62
     8
100
AcDbLine
 10
-133.9078997720003
 20
136.7167089108061
 30
0.0
 11
-134.1802817748603
 21
128.9167089101262
 31
0.0
1001
ACAD
1000
RTMaterial
1005
4BB
  0
LINE
  5
307
330
207
100
AcDbEntity
  8
DEFAULT_2
  6
HIDDEN
 62
     8
100
AcDbLine
 10
-127.1220135444603
 20
140.7167089092661
 30
0.0
 11
-127.2415962720204
 21
137.2923076224461
 31
0.0
1001
ACAD
1000
RTMaterial
1005
4BB
  0
LINE
  5
308
330
207
100
AcDbEntity
  8
DEFAULT_2
  6
HIDDEN
 62
     8
100
AcDbLine
 10
-118.2445337912003
 20
146.7167089107661
 30
0.0
 11
-118.2445337912003
 21
128.9167089101262
 31
0.0
1001
ACAD
1000
RTMaterial
1005
4BB
  0
LINE
  5
309
330
207
100
AcDbEntity
  8
DEFAULT_2
  6
HIDDEN
 62
     8
100
AcDbLine
 10
-124.0530594156803
 20
141.0114731889261
 30
0.0
 11
-123.8887990253803
 21
150.4219446321062
 31
0.0
1001
ACAD
1000
RTMaterial
1005
4BB
  0
LINE
  5
30A
330
207
100
AcDbEntity
  8
DEFAULT_2
  6
HIDDEN
 62
     8
100
AcDbLine
 10
-118.9338336343404
 20
146.7167089107661
 30
0.0
 11
-119.2445337901804
 21
128.9167089101262
 31
0.0
1001
ACAD
1000
RTMaterial
1005
4BB
  0
LINE
  5
30B
330
207
100
AcDbEntity
  8
0
  6
Continuous
 62
     7
100
AcDbLine
 10
-137.7962649823002
 20
150.7167089371662
 30
0.0
 11
-139.0172078668002
 21
149.5168917101862
 31
0.0
1001
ACAD
1000
RTMaterial
1005
4BB
  0
LINE
  5
30C
330
207
100
AcDbEntity
  8
0
  6
Continuous
 62
     7
100
AcDbLine
 10
-139.3767854280603
 20
128.9167089101262
 30
0.0
 11
222.6603763381797
 21
128.9167089101262
 31
0.0
1001
ACAD
1000
RTMaterial
1005
4BB
  0
LINE
  5
30D
330
207
100
AcDbEntity
  8
DEFAULT_2
  6
HIDDEN
 62
     8
100
AcDbLine
 10
217.1914906846596
 20
136.7167089108061
 30
0.0
 11
210.1921002282996
 21
136.7167089108061
 31
0.0
1001
ACAD
1000
RTMaterial
1005
4BB
  0
LINE
  5
30E
330
207
100
AcDbEntity
  8
DEFAULT_2
  6
HIDDEN
 62
     8
100
AcDbLine
 10
-126.9085093156403
 20
136.7167089108061
 30
0.0
 11
-133.9078997720003
 21
136.7167089108061
 31
0.0
1001
ACAD
1000
RTMaterial
1005
4BB
  0
LINE
  5
30F
330
207
100
AcDbEntity
  8
DEFAULT_2
  6
HIDDEN
 62
     8
100
AcDbLine
 10
216.4417954555796
 20
136.8167087971662
 30
0.0
 11
210.9417954548396
 21
136.8167087971662
 31
0.0
1001
ACAD
1000
RTMaterial
1005
4BB
  0
LINE
  5
310
330
207
100
AcDbEntity
  8
DEFAULT_2
  6
HIDDEN
 62
     8
100
AcDbLine
 10
-127.6582045447203
 20
136.8167087971662
 30
0.0
 11
-133.1582045454603
 21
136.8167087971662
 31
0.0
1001
ACAD
1000
RTMaterial
1005
4BB
  0
LINE
  5
311
330
207
100
AcDbEntity
  8
DEFAULT_2
  6
HIDDEN
 62
     8
100
AcDbLine
 10
216.8584037282796
 20
137.2923076224461
 30
0.0
 11
210.5251871821397
 21
137.2923076224461
 31
0.0
1001
ACAD
1000
RTMaterial
1005
4BB
  0
LINE
  5
312
330
207
100
AcDbEntity
  8
DEFAULT_2
  6
HIDDEN
 62
     8
100
AcDbLine
 10
-127.2415962720204
 20
137.2923076224461
 30
0.0
 11
-133.5748128181603
 21
137.2923076224461
 31
0.0
1001
ACAD
1000
RTMaterial
1005
4BB
  0
LINE
  5
313
330
207
100
AcDbEntity
  8
DEFAULT_2
  6
HIDDEN
 62
     8
100
AcDbLine
 10
206.2018491790996
 20
138.2167089105462
 30
0.0
 11
217.0657925997597
 21
138.2167089105462
 31
0.0
1001
ACAD
1000
RTMaterial
1005
4BB
  0
LINE
  5
314
330
207
100
AcDbEntity
  8
02___PRT_ALL_AXES
  6
HIDDEN
 62
     8
100
AcDbLine
 10
213.1017954553796
 20
139.0830342314862
 30
0.0
 11
208.3017954567197
 21
139.0830342314862
 31
0.0
1001
ACAD
1000
RTMaterial
1005
4BB
  0
LINE
  5
315
330
207
100
AcDbEntity
  8
DEFAULT_2
  6
HIDDEN
 62
     8
100
AcDbLine
 10
219.7469862772395
 20
140.7167089092661
 30
0.0
 11
207.6366046357196
 21
140.7167089092661
 31
0.0
1001
ACAD
1000
RTMaterial
1005
4BB
  0
LINE
  5
316
330
207
100
AcDbEntity
  8
DEFAULT_2
  6
HIDDEN
 62
     8
100
AcDbLine
 10
-124.3530137230603
 20
140.7167089092661
 30
0.0
 11
-136.4633953645803
 21
140.7167089092661
 31
0.0
1001
ACAD
1000
RTMaterial
1005
4BB
  0
LINE
  5
317
330
207
100
AcDbEntity
  8
DEFAULT_2
  6
HIDDEN
 62
     8
100
AcDbLine
 10
220.0469405846197
 20
141.0114731889261
 30
0.0
 11
207.3366503257997
 21
141.0114731889261
 31
0.0
1001
ACAD
1000
RTMaterial
1005
4BB
  0
LINE
  5
318
330
207
100
AcDbEntity
  8
DEFAULT_2
  6
HIDDEN
 62
     8
100
AcDbLine
 10
-124.0530594156803
 20
141.0114731889261
 30
0.0
 11
-136.7633496745003
 21
141.0114731889261
 31
0.0
1001
ACAD
1000
RTMaterial
1005
4BB
  0
LINE
  5
319
330
207
100
AcDbEntity
  8
DEFAULT_2
  6
HIDDEN
 62
     8
100
AcDbLine
 10
202.6017954546595
 20
146.4167089087862
 30
0.0
 11
194.8017954565197
 21
146.4167089087862
 31
0.0
1001
ACAD
1000
RTMaterial
1005
4BB
  0
LINE
  5
31A
330
207
100
AcDbEntity
  8
DEFAULT_2
  6
HIDDEN
 62
     8
100
AcDbLine
 10
-133.6338336196004
 20
146.7167089107661
 30
0.0
 11
216.9174245474996
 21
146.7167089107661
 31
0.0
1001
ACAD
1000
RTMaterial
1005
4BB
  0
LINE
  5
31B
330
207
100
AcDbEntity
  8
02___PRT_ALL_AXES
  6
HIDDEN
 62
     8
100
AcDbLine
 10
213.1017954553796
 20
148.2167089105062
 30
0.0
 11
208.3017954567197
 21
148.2167089105062
 31
0.0
1001
ACAD
1000
RTMaterial
1005
4BB
  0
LINE
  5
31C
330
207
100
AcDbEntity
  8
0
  6
Continuous
 62
     7
100
AcDbLine
 10
222.3007988099397
 20
149.5168916746262
 30
0.0
 11
-139.0172078998203
 21
149.5168916746262
 31
0.0
1001
ACAD
1000
RTMaterial
1005
4BB
  0
LINE
  5
31D
330
207
100
AcDbEntity
  8
DEFAULT_2
  6
HIDDEN
 62
     8
100
AcDbLine
 10
220.2112009749197
 20
150.4219446321062
 30
0.0
 11
207.1723899354996
 21
150.4219446321062
 31
0.0
1001
ACAD
1000
RTMaterial
1005
4BB
  0
LINE
  5
31E
330
207
100
AcDbEntity
  8
DEFAULT_2
  6
HIDDEN
 62
     8
100
AcDbLine
 10
-123.8887990253803
 20
150.4219446321062
 30
0.0
 11
-136.9276100648002
 21
150.4219446321062
 31
0.0
1001
ACAD
1000
RTMaterial
1005
4BB
  0
LINE
  5
31F
330
207
100
AcDbEntity
  8
0
  6
Continuous
 62
     7
100
AcDbLine
 10
221.0798559228996
 20
150.7167089092262
 30
0.0
 11
-137.7962650102403
 21
150.7167089092262
 31
0.0
1001
ACAD
1000
RTMaterial
1005
4BB
  0
LINE
  5
320
330
207
100
AcDbEntity
  8
0
  6
Continuous
 62
     7
100
AcDbLine
 10
222.3007988099397
 20
149.5168916746262
 30
0.0
 11
221.0798559228996
 21
150.7167089092262
 31
0.0
1001
ACAD
1000
RTMaterial
1005
4BB
  0
LINE
  5
321
330
207
100
AcDbEntity
  8
DEFAULT_2
  6
HIDDEN
 62
     8
100
AcDbLine
 10
208.3017954567197
 20
139.0830342314862
 30
0.0
 11
207.8015862082198
 21
138.2167089105462
 31
0.0
1001
ACAD
1000
RTMaterial
1005
4BB
  0
LINE
  5
322
330
207
100
AcDbEntity
  8
DEFAULT_2
  6
HIDDEN
 62
     8
100
AcDbLine
 10
194.8017954565197
 20
146.7167089107661
 30
0.0
 11
194.8017954565197
 21
146.4167089087862
 31
0.0
1001
ACAD
1000
RTMaterial
1005
4BB
  0
LINE
  5
323
330
207
100
AcDbEntity
  8
DEFAULT_2
  6
HIDDEN
 62
     8
100
AcDbLine
 10
195.2017954566196
 20
146.7167089107661
 30
0.0
 11
195.2017954566196
 21
146.4167089087862
 31
0.0
1001
ACAD
1000
RTMaterial
1005
4BB
  0
LINE
  5
324
330
207
100
AcDbEntity
  8
DEFAULT_2
  6
HIDDEN
 62
     8
100
AcDbLine
 10
196.1017954549397
 20
146.7167089107661
 30
0.0
 11
196.1017954549397
 21
146.4167089087862
 31
0.0
1001
ACAD
1000
RTMaterial
1005
4BB
  0
LINE
  5
325
330
207
100
AcDbEntity
  8
DEFAULT_2
  6
HIDDEN
 62
     8
100
AcDbLine
 10
196.5017954550397
 20
146.7167089107661
 30
0.0
 11
196.5017954550397
 21
146.4167089087862
 31
0.0
1001
ACAD
1000
RTMaterial
1005
4BB
  0
LINE
  5
326
330
207
100
AcDbEntity
  8
DEFAULT_2
  6
HIDDEN
 62
     8
100
AcDbLine
 10
197.4017954558995
 20
146.7167089107661
 30
0.0
 11
197.4017954558995
 21
146.4167089087862
 31
0.0
1001
ACAD
1000
RTMaterial
1005
4BB
  0
LINE
  5
327
330
207
100
AcDbEntity
  8
DEFAULT_2
  6
HIDDEN
 62
     8
100
AcDbLine
 10
197.8017954559996
 20
146.7167089107661
 30
0.0
 11
197.8017954559996
 21
146.4167089087862
 31
0.0
1001
ACAD
1000
RTMaterial
1005
4BB
  0
LINE
  5
328
330
207
100
AcDbEntity
  8
DEFAULT_2
  6
HIDDEN
 62
     8
100
AcDbLine
 10
198.7017954568597
 20
146.7167089107661
 30
0.0
 11
198.7017954568597
 21
146.4167089087862
 31
0.0
1001
ACAD
1000
RTMaterial
1005
4BB
  0
LINE
  5
329
330
207
100
AcDbEntity
  8
DEFAULT_2
  6
HIDDEN
 62
     8
100
AcDbLine
 10
199.1017954569596
 20
146.7167089107661
 30
0.0
 11
199.1017954569596
 21
146.4167089087862
 31
0.0
1001
ACAD
1000
RTMaterial
1005
4BB
  0
LINE
  5
32A
330
207
100
AcDbEntity
  8
DEFAULT_2
  6
HIDDEN
 62
     8
100
AcDbLine
 10
213.1017954553796
 20
139.0830342314862
 30
0.0
 11
213.6020047038797
 21
138.2167089105462
 31
0.0
1001
ACAD
1000
RTMaterial
1005
4BB
  0
LINE
  5
32B
330
207
100
AcDbEntity
  8
DEFAULT_2
  6
HIDDEN
 62
     8
100
AcDbLine
 10
210.4056044545796
 20
140.7167089092661
 30
0.0
 11
210.5251871821397
 21
137.2923076224461
 31
0.0
1001
ACAD
1000
RTMaterial
1005
4BB
  0
LINE
  5
32C
330
207
100
AcDbEntity
  8
DEFAULT_2
  6
HIDDEN
 62
     8
100
AcDbLine
 10
217.1914906846596
 20
136.7167089108061
 30
0.0
 11
217.4638726849796
 21
128.9167089101262
 31
0.0
1001
ACAD
1000
RTMaterial
1005
4BB
  0
LINE
  5
32D
330
207
100
AcDbEntity
  8
DEFAULT_2
  6
HIDDEN
 62
     8
100
AcDbLine
 10
202.2174245469996
 20
146.7167089107661
 30
0.0
 11
202.5281247028396
 21
128.9167089101262
 31
0.0
1001
ACAD
1000
RTMaterial
1005
4BB
  0
LINE
  5
32E
330
207
100
AcDbEntity
  8
DEFAULT_2
  6
HIDDEN
 62
     8
100
AcDbLine
 10
207.3366503257997
 20
141.0114731889261
 30
0.0
 11
207.1723899354996
 21
150.4219446321062
 31
0.0
1001
ACAD
1000
RTMaterial
1005
4BB
  0
LINE
  5
32F
330
207
100
AcDbEntity
  8
DEFAULT_2
  6
HIDDEN
 62
     8
100
AcDbLine
 10
216.9174245474996
 20
146.7167089107661
 30
0.0
 11
217.2281247033396
 21
128.9167089101262
 31
0.0
1001
ACAD
1000
RTMaterial
1005
4BB
  0
LINE
  5
330
330
207
100
AcDbEntity
  8
0
  6
Continuous
 62
     7
100
AcDbLine
 10
222.3007988099397
 20
149.5168916746262
 30
0.0
 11
222.6603763381797
 21
128.9167089101262
 31
0.0
1001
ACAD
1000
RTMaterial
1005
4BB
  0
LINE
  5
331
330
207
100
AcDbEntity
  8
DEFAULT_2
  6
HIDDEN
 62
     8
100
AcDbLine
 10
201.5017954550197
 20
146.7167089107661
 30
0.0
 11
201.5017954550197
 21
146.4167089087862
 31
0.0
1001
ACAD
1000
RTMaterial
1005
4BB
  0
LINE
  5
332
330
207
100
AcDbEntity
  8
DEFAULT_2
  6
HIDDEN
 62
     8
100
AcDbLine
 10
201.5281247013197
 20
146.7167089107661
 30
0.0
 11
201.5281247013197
 21
128.9167089101262
 31
0.0
1001
ACAD
1000
RTMaterial
1005
4BB
  0
LINE
  5
333
330
207
100
AcDbEntity
  8
DEFAULT_2
  6
HIDDEN
 62
     8
100
AcDbLine
 10
201.7017954563396
 20
146.7167089107661
 30
0.0
 11
201.7017954563396
 21
146.4167089087862
 31
0.0
1001
ACAD
1000
RTMaterial
1005
4BB
  0
LINE
  5
334
330
207
100
AcDbEntity
  8
DEFAULT_2
  6
HIDDEN
 62
     8
100
AcDbLine
 10
202.2017954545597
 20
146.7167089107661
 30
0.0
 11
202.2017954545597
 21
146.4167089087862
 31
0.0
1001
ACAD
1000
RTMaterial
1005
4BB
  0
LINE
  5
335
330
207
100
AcDbEntity
  8
DEFAULT_2
  6
HIDDEN
 62
     8
100
AcDbLine
 10
202.6017954546595
 20
146.7167089107661
 30
0.0
 11
202.6017954546595
 21
146.4167089087862
 31
0.0
1001
ACAD
1000
RTMaterial
1005
4BB
  0
LINE
  5
336
330
207
100
AcDbEntity
  8
DEFAULT_2
  6
HIDDEN
 62
     8
100
AcDbLine
 10
206.2017954555595
 20
146.7167089107661
 30
0.0
 11
206.2017954555595
 21
138.2167089105462
 31
0.0
1001
ACAD
1000
RTMaterial
1005
4BB
  0
LINE
  5
337
330
207
100
AcDbEntity
  8
DEFAULT_2
  6
HIDDEN
 62
     8
100
AcDbLine
 10
208.3017954567197
 20
148.2167089105062
 30
0.0
 11
208.3017954567197
 21
139.0830342314862
 31
0.0
1001
ACAD
1000
RTMaterial
1005
4BB
  0
LINE
  5
338
330
207
100
AcDbEntity
  8
02___PRT_ALL_AXES
  6
HIDDEN
 62
     8
100
AcDbLine
 10
208.3017954567197
 20
139.0830342314862
 30
0.0
 11
208.3017954567197
 21
148.2167089105062
 31
0.0
1001
ACAD
1000
RTMaterial
1005
4BB
  0
LINE
  5
339
330
207
100
AcDbEntity
  8
DEFAULT_2
  6
HIDDEN
 62
     8
100
AcDbLine
 10
210.7017954547797
 20
138.2167089105462
 30
0.0
 11
210.7017954547797
 21
146.7167089107661
 31
0.0
1001
ACAD
1000
RTMaterial
1005
4BB
  0
LINE
  5
33A
330
207
100
AcDbEntity
  8
DEFAULT_2
  6
HIDDEN
 62
     8
100
AcDbLine
 10
210.9417954548396
 20
136.8167087971662
 30
0.0
 11
210.9417954548396
 21
136.7167089108061
 31
0.0
1001
ACAD
1000
RTMaterial
1005
4BB
  0
LINE
  5
33B
330
207
100
AcDbEntity
  8
DEFAULT_2
  6
HIDDEN
 62
     8
100
AcDbLine
 10
212.7417954565596
 20
128.9167089101262
 30
0.0
 11
212.7417954565596
 21
146.7167089107661
 31
0.0
1001
ACAD
1000
RTMaterial
1005
4BB
  0
LINE
  5
33C
330
207
100
AcDbEntity
  8
DEFAULT_2
  6
HIDDEN
 62
     8
100
AcDbLine
 10
213.1017954553796
 20
148.2167089105062
 30
0.0
 11
213.1017954553796
 21
139.0830342314862
 31
0.0
1001
ACAD
1000
RTMaterial
1005
4BB
  0
LINE
  5
33D
330
207
100
AcDbEntity
  8
02___PRT_ALL_AXES
  6
HIDDEN
 62
     8
100
AcDbLine
 10
213.1017954553796
 20
148.2167089105062
 30
0.0
 11
213.1017954553796
 21
139.0830342314862
 31
0.0
1001
ACAD
1000
RTMaterial
1005
4BB
  0
LINE
  5
33E
330
207
100
AcDbEntity
  8
0
  6
Continuous
 62
     7
100
AcDbLine
 10
214.6917954097395
 20
128.9167089101262
 30
0.0
 11
214.6917954554596
 21
150.7167089092262
 31
0.0
1001
ACAD
1000
RTMaterial
1005
4BB
  0
LINE
  5
33F
330
207
100
AcDbEntity
  8
DEFAULT_2
  6
HIDDEN
 62
     8
100
AcDbLine
 10
215.2017954565396
 20
146.7167089107661
 30
0.0
 11
215.2017954565396
 21
138.2167089105462
 31
0.0
1001
ACAD
1000
RTMaterial
1005
4BB
  0
LINE
  5
340
330
207
100
AcDbEntity
  8
DEFAULT_2
  6
HIDDEN
 62
     8
100
AcDbLine
 10
216.2281247018197
 20
146.7167089107661
 30
0.0
 11
216.2281247018197
 21
128.9167089101262
 31
0.0
1001
ACAD
1000
RTMaterial
1005
4BB
  0
LINE
  5
341
330
207
100
AcDbEntity
  8
DEFAULT_2
  6
HIDDEN
 62
     8
100
AcDbLine
 10
216.4417954555796
 20
136.8167087971662
 30
0.0
 11
216.4417954555796
 21
136.7167089108061
 31
0.0
1001
ACAD
1000
RTMaterial
1005
4BB
  0
LINE
  5
342
330
207
100
AcDbEntity
  8
DEFAULT_2
  6
HIDDEN
 62
     8
100
AcDbLine
 10
220.0469405846197
 20
141.0114731889261
 30
0.0
 11
220.2112009749197
 21
150.4219446321062
 31
0.0
1001
ACAD
1000
RTMaterial
1005
4BB
  0
LINE
  5
343
330
207
100
AcDbEntity
  8
DEFAULT_2
  6
HIDDEN
 62
     8
100
AcDbLine
 10
210.1921002282996
 20
136.7167089108061
 30
0.0
 11
209.9197182254396
 21
128.9167089101262
 31
0.0
1001
ACAD
1000
RTMaterial
1005
4BB
  0
LINE
  5
344
330
207
100
AcDbEntity
  8
DEFAULT_2
  6
HIDDEN
 62
     8
100
AcDbLine
 10
216.9779864558397
 20
140.7167089092661
 30
0.0
 11
216.8584037282796
 21
137.2923076224461
 31
0.0
1001
ACAD
1000
RTMaterial
1005
4BB
  0
LINE
  5
345
330
207
100
AcDbEntity
  8
0
  6
Continuous
 62
     7
100
AcDbLine
 10
299.2380914653996
 20
-46.65272107299379
 30
0.0
 11
278.6379086983596
 21
-47.01229859869379
 31
0.0
1001
ACAD
1000
RTMaterial
1005
4BB
  0
LINE
  5
346
330
207
100
AcDbEntity
  8
DEFAULT_2
  6
HIDDEN
 62
     8
100
AcDbLine
 10
290.7326729771596
 20
-44.94886284495379
 30
0.0
 11
300.1431444203397
 21
-45.11312323525378
 31
0.0
1001
ACAD
1000
RTMaterial
1005
4BB
  0
LINE
  5
347
330
207
100
AcDbEntity
  8
DEFAULT_2
  6
HIDDEN
 62
     8
100
AcDbLine
 10
286.4379086990397
 20
-42.09341294499379
 30
0.0
 11
278.6379086983596
 21
-42.36579494531381
 31
0.0
1001
ACAD
1000
RTMaterial
1005
4BB
  0
LINE
  5
348
330
207
100
AcDbEntity
  8
DEFAULT_2
  6
HIDDEN
 62
     8
100
AcDbLine
 10
296.4379086989995
 20
-41.2693468080138
 30
0.0
 11
278.6379086983596
 21
-41.58004696385379
 31
0.0
1001
ACAD
1000
RTMaterial
1005
4BB
  0
LINE
  5
349
330
207
100
AcDbEntity
  8
DEFAULT_2
  6
HIDDEN
 62
     8
100
AcDbLine
 10
286.5379085853997
 20
-41.34371771591381
 30
0.0
 11
286.4379086990397
 21
-41.34371771591381
 31
0.0
1001
ACAD
1000
RTMaterial
1005
4BB
  0
LINE
  5
34A
330
207
100
AcDbEntity
  8
DEFAULT_2
  6
HIDDEN
 62
     8
100
AcDbLine
 10
296.4379086989995
 20
-40.58004696233381
 30
0.0
 11
278.6379086983596
 21
-40.58004696233381
 31
0.0
1001
ACAD
1000
RTMaterial
1005
4BB
  0
LINE
  5
34B
330
207
100
AcDbEntity
  8
0
  6
Continuous
 62
     7
100
AcDbLine
 10
278.6379086983596
 20
-39.04371767025378
 30
0.0
 11
300.4379086974597
 21
-39.04371771597381
 31
0.0
1001
ACAD
1000
RTMaterial
1005
4BB
  0
LINE
  5
34C
330
207
100
AcDbEntity
  8
DEFAULT_2
  6
HIDDEN
 62
     8
100
AcDbLine
 10
287.0135074106796
 20
-41.76032598861379
 30
0.0
 11
290.4379086974996
 21
-41.87990871617379
 31
0.0
1001
ACAD
1000
RTMaterial
1005
4BB
  0
LINE
  5
34D
330
207
100
AcDbEntity
  8
DEFAULT_2
  6
HIDDEN
 62
     8
100
AcDbLine
 10
287.0135074106796
 20
-35.4271094424738
 30
0.0
 11
290.4379086974996
 21
-35.30752671491379
 31
0.0
1001
ACAD
1000
RTMaterial
1005
4BB
  0
LINE
  5
34E
330
207
100
AcDbEntity
  8
DEFAULT_2
  6
HIDDEN
 62
     8
100
AcDbLine
 10
286.5379085853997
 20
-35.8437177151738
 30
0.0
 11
286.4379086990397
 21
-35.8437177151738
 31
0.0
1001
ACAD
1000
RTMaterial
1005
4BB
  0
LINE
  5
34F
330
207
100
AcDbEntity
  8
DEFAULT_2
  6
HIDDEN
 62
     8
100
AcDbLine
 10
286.4379086990397
 20
-35.0940224886338
 30
0.0
 11
278.6379086983596
 21
-34.82164048577382
 31
0.0
1001
ACAD
1000
RTMaterial
1005
4BB
  0
LINE
  5
350
330
207
100
AcDbEntity
  8
DEFAULT_2
  6
HIDDEN
 62
     8
100
AcDbLine
 10
290.7326729771596
 20
-32.2385725861338
 30
0.0
 11
300.1431444203397
 21
-32.07431219583381
 31
0.0
1001
ACAD
1000
RTMaterial
1005
4BB
  0
LINE
  5
351
330
207
100
AcDbEntity
  8
DEFAULT_2
  6
HIDDEN
 62
     8
100
AcDbLine
 10
296.4379086989995
 20
-25.39371771859379
 30
0.0
 11
278.6379086983596
 21
-25.39371771859379
 31
0.0
1001
ACAD
1000
RTMaterial
1005
4BB
  0
LINE
  5
36D
330
207
100
AcDbEntity
  8
0
  6
Continuous
 62
     7
100
AcDbLine
 10
278.6379086983596
 20
-47.01229859869379
 30
0.0
 11
278.6379086983596
 21
77.8248631666662
 31
0.0
1001
ACAD
1000
RTMaterial
1005
4BB
  0
LINE
  5
36E
330
207
100
AcDbEntity
  8
DEFAULT_2
  6
HIDDEN
 62
     8
100
AcDbLine
 10
286.4379086990397
 20
-42.0939233630738
 30
0.0
 11
286.4379086990397
 21
-35.0935120705538
 31
0.0
1001
ACAD
1000
RTMaterial
1005
4BB
  0
LINE
  5
36F
330
207
100
AcDbEntity
  8
DEFAULT_2
  6
HIDDEN
 62
     8
100
AcDbLine
 10
286.4379086990397
 20
65.90607663598621
 30
0.0
 11
286.4379086990397
 21
72.90648793104622
 31
0.0
1001
ACAD
1000
RTMaterial
1005
4BB
  0
LINE
  5
370
330
207
100
AcDbEntity
  8
DEFAULT_2
  6
HIDDEN
 62
     8
100
AcDbLine
 10
286.5379085853997
 20
72.15628228388618
 30
0.0
 11
286.5379085853997
 21
66.65628228314616
 31
0.0
1001
ACAD
1000
RTMaterial
1005
4BB
  0
LINE
  5
371
330
207
100
AcDbEntity
  8
DEFAULT_2
  6
HIDDEN
 62
     8
100
AcDbLine
 10
286.5379085853997
 20
-35.8437177151738
 30
0.0
 11
286.5379085853997
 21
-41.34371771591381
 31
0.0
1001
ACAD
1000
RTMaterial
1005
4BB
  0
LINE
  5
372
330
207
100
AcDbEntity
  8
DEFAULT_2
  6
HIDDEN
 62
     8
100
AcDbLine
 10
287.0135074106796
 20
72.57289055658623
 30
0.0
 11
287.0135074106796
 21
66.23967401044621
 31
0.0
1001
ACAD
1000
RTMaterial
1005
4BB
  0
LINE
  5
373
330
207
100
AcDbEntity
  8
DEFAULT_2
  6
HIDDEN
 62
     8
100
AcDbLine
 10
287.0135074106796
 20
-35.4271094424738
 30
0.0
 11
287.0135074106796
 21
-41.76032598861379
 31
0.0
1001
ACAD
1000
RTMaterial
1005
4BB
  0
LINE
  5
376
330
207
100
AcDbEntity
  8
DEFAULT_2
  6
HIDDEN
 62
     8
100
AcDbLine
 10
290.4379086974996
 20
75.46147310554622
 30
0.0
 11
290.4379086974996
 21
63.35109146148617
 31
0.0
1001
ACAD
1000
RTMaterial
1005
4BB
  0
LINE
  5
377
330
207
100
AcDbEntity
  8
DEFAULT_2
  6
HIDDEN
 62
     8
100
AcDbLine
 10
290.4379086974996
 20
-32.53852689605379
 30
0.0
 11
290.4379086974996
 21
-44.64890853757378
 31
0.0
1001
ACAD
1000
RTMaterial
1005
4BB
  0
LINE
  5
378
330
207
100
AcDbEntity
  8
DEFAULT_2
  6
HIDDEN
 62
     8
100
AcDbLine
 10
290.7326729771596
 20
75.7614274129262
 30
0.0
 11
290.7326729771596
 21
63.05113715410617
 31
0.0
1001
ACAD
1000
RTMaterial
1005
4BB
  0
LINE
  5
379
330
207
100
AcDbEntity
  8
DEFAULT_2
  6
HIDDEN
 62
     8
100
AcDbLine
 10
290.7326729771596
 20
-32.2385725861338
 30
0.0
 11
290.7326729771596
 21
-44.94886284495379
 31
0.0
1001
ACAD
1000
RTMaterial
1005
4BB
  0
LINE
  5
37B
330
207
100
AcDbEntity
  8
DEFAULT_2
  6
HIDDEN
 62
     8
100
AcDbLine
 10
296.4379086989995
 20
-41.2693468080138
 30
0.0
 11
296.4379086989995
 21
72.08191137344619
 31
0.0
1001
ACAD
1000
RTMaterial
1005
4BB
  0
LINE
  5
37D
330
207
100
AcDbEntity
  8
0
  6
Continuous
 62
     7
100
AcDbLine
 10
299.2380914653996
 20
-46.65272107299379
 30
0.0
 11
299.2380914653996
 21
77.46528563842616
 31
0.0
1001
ACAD
1000
RTMaterial
1005
4BB
  0
LINE
  5
37E
330
207
100
AcDbEntity
  8
DEFAULT_2
  6
HIDDEN
 62
     8
100
AcDbLine
 10
300.1431444203397
 20
75.92568780322617
 30
0.0
 11
300.1431444203397
 21
62.88687676380618
 31
0.0
1001
ACAD
1000
RTMaterial
1005
4BB
  0
LINE
  5
37F
330
207
100
AcDbEntity
  8
DEFAULT_2
  6
HIDDEN
 62
     8
100
AcDbLine
 10
300.1431444203397
 20
-32.07431219583381
 30
0.0
 11
300.1431444203397
 21
-45.11312323525378
 31
0.0
1001
ACAD
1000
RTMaterial
1005
4BB
  0
LINE
  5
380
330
207
100
AcDbEntity
  8
0
  6
Continuous
 62
     7
100
AcDbLine
 10
300.4379086974597
 20
-45.4317781834138
 30
0.0
 11
300.4379086974597
 21
76.24434275138617
 31
0.0
1001
ACAD
1000
RTMaterial
1005
4BB
  0
LINE
  5
385
330
207
100
AcDbEntity
  8
0
  6
Continuous
 62
     7
100
AcDbLine
 10
300.4379087279397
 20
-45.4317781554738
 30
0.0
 11
299.2380914984197
 21
-46.65272103743381
 31
0.0
1001
ACAD
1000
RTMaterial
1005
4BB
  0
LINE
  5
386
330
207
100
AcDbEntity
  8
DEFAULT_2
  6
HIDDEN
 62
     8
100
AcDbLine
 10
286.4379086990397
 20
65.90658705660617
 30
0.0
 11
278.6379086983596
 21
65.63420505374621
 31
0.0
1001
ACAD
1000
RTMaterial
1005
4BB
  0
LINE
  5
387
330
207
100
AcDbEntity
  8
DEFAULT_2
  6
HIDDEN
 62
     8
100
AcDbLine
 10
286.5379085853997
 20
66.65628228314616
 30
0.0
 11
286.4379086990397
 21
66.65628228314616
 31
0.0
1001
ACAD
1000
RTMaterial
1005
4BB
  0
LINE
  5
388
330
207
100
AcDbEntity
  8
DEFAULT_2
  6
HIDDEN
 62
     8
100
AcDbLine
 10
290.7326729771596
 20
63.05113715410617
 30
0.0
 11
300.1431444203397
 21
62.88687676380618
 31
0.0
1001
ACAD
1000
RTMaterial
1005
4BB
  0
LINE
  5
389
330
207
100
AcDbEntity
  8
DEFAULT_2
  6
HIDDEN
 62
     8
100
AcDbLine
 10
287.0135074106796
 20
66.23967401044621
 30
0.0
 11
290.4379086974996
 21
66.12009128288619
 31
0.0
1001
ACAD
1000
RTMaterial
1005
4BB
  0
LINE
  5
38A
330
207
100
AcDbEntity
  8
0
  6
Continuous
 62
     7
100
AcDbLine
 10
300.4379087279397
 20
76.24434272344621
 30
0.0
 11
299.2380914984197
 21
77.46528560540619
 31
0.0
1001
ACAD
1000
RTMaterial
1005
4BB
  0
LINE
  5
38B
330
207
100
AcDbEntity
  8
0
  6
Continuous
 62
     7
100
AcDbLine
 10
278.6379086983596
 20
69.85628226362621
 30
0.0
 11
300.4379086974597
 21
69.85628228394617
 31
0.0
1001
ACAD
1000
RTMaterial
1005
4BB
  0
LINE
  5
38C
330
207
100
AcDbEntity
  8
DEFAULT_2
  6
HIDDEN
 62
     8
100
AcDbLine
 10
287.0135074106796
 20
72.57289055658623
 30
0.0
 11
290.4379086974996
 21
72.69247328414616
 31
0.0
1001
ACAD
1000
RTMaterial
1005
4BB
  0
LINE
  5
38D
330
207
100
AcDbEntity
  8
DEFAULT_2
  6
HIDDEN
 62
     8
100
AcDbLine
 10
290.7326729771596
 20
75.7614274129262
 30
0.0
 11
300.1431444203397
 21
75.92568780322617
 31
0.0
1001
ACAD
1000
RTMaterial
1005
4BB
  0
LINE
  5
38E
330
207
100
AcDbEntity
  8
DEFAULT_2
  6
HIDDEN
 62
     8
100
AcDbLine
 10
278.6379086983596
 20
71.39261056764619
 30
0.0
 11
296.4379086989995
 21
71.39261056764619
 31
0.0
1001
ACAD
1000
RTMaterial
1005
4BB
  0
LINE
  5
38F
330
207
100
AcDbEntity
  8
DEFAULT_2
  6
HIDDEN
 62
     8
100
AcDbLine
 10
286.5379085853997
 20
72.15628228388618
 30
0.0
 11
286.4379086990397
 21
72.15628228388618
 31
0.0
1001
ACAD
1000
RTMaterial
1005
4BB
  0
LINE
  5
390
330
207
100
AcDbEntity
  8
DEFAULT_2
  6
HIDDEN
 62
     8
100
AcDbLine
 10
296.4379086989995
 20
72.08191137344619
 30
0.0
 11
278.6379086983596
 21
72.39261152928619
 31
0.0
1001
ACAD
1000
RTMaterial
1005
4BB
  0
LINE
  5
391
330
207
100
AcDbEntity
  8
0
  6
Continuous
 62
     7
100
AcDbLine
 10
299.2380914653996
 20
77.46528563842616
 30
0.0
 11
278.6379086983596
 21
77.8248631666662
 31
0.0
1001
ACAD
1000
RTMaterial
1005
4BB
  0
LINE
  5
392
330
207
100
AcDbEntity
  8
DEFAULT_2
  6
HIDDEN
 62
     8
100
AcDbLine
 10
286.4379086990397
 20
72.9059775104262
 30
0.0
 11
278.6379086983596
 21
73.17835951328618
 31
0.0
1001
ACAD
1000
RTMaterial
1005
4BB
  0
LINE
  5
393
330
207
100
AcDbEntity
  8
0
  6
Continuous
 62
     7
100
AcDbLine
 10
-139.3767854280603
 20
-109.7219353407138
 30
0.0
 11
-139.0172078998203
 21
-130.3221181052138
 31
0.0
1001
ACAD
1000
RTMaterial
1005
4BB
  0
LINE
  5
394
330
207
100
AcDbEntity
  8
DEFAULT_2
  6
HIDDEN
 62
     8
100
AcDbLine
 10
-133.9078997720003
 20
-117.5219353413938
 30
0.0
 11
-134.1802817748603
 21
-109.7219353407138
 31
0.0
1001
ACAD
1000
RTMaterial
1005
4BB
  0
LINE
  5
395
330
207
100
AcDbEntity
  8
DEFAULT_2
  6
HIDDEN
 62
     8
100
AcDbLine
 10
-127.2415962720204
 20
-118.0975340530338
 30
0.0
 11
-127.1220135444603
 21
-121.5219353398538
 31
0.0
1001
ACAD
1000
RTMaterial
1005
4BB
  0
LINE
  5
396
330
207
100
AcDbEntity
  8
DEFAULT_2
  6
HIDDEN
 62
     8
100
AcDbLine
 10
-133.6338336348404
 20
-127.5219353413538
 30
0.0
 11
-133.9445337906804
 21
-109.7219353407138
 31
0.0
1001
ACAD
1000
RTMaterial
1005
4BB
  0
LINE
  5
397
330
207
100
AcDbEntity
  8
DEFAULT_2
  6
HIDDEN
 62
     8
100
AcDbLine
 10
-133.1582045454603
 20
-117.6219352277537
 30
0.0
 11
-133.1582045454603
 21
-117.5219353413938
 31
0.0
1001
ACAD
1000
RTMaterial
1005
4BB
  0
LINE
  5
398
330
207
100
AcDbEntity
  8
DEFAULT_2
  6
HIDDEN
 62
     8
100
AcDbLine
 10
-132.9445328265003
 20
-109.7219353407138
 30
0.0
 11
-132.9445328265003
 21
-127.5219353413538
 31
0.0
1001
ACAD
1000
RTMaterial
1005
4BB
  0
LINE
  5
399
330
207
100
AcDbEntity
  8
0
  6
Continuous
 62
     7
100
AcDbLine
 10
-131.4082045453404
 20
-131.5219353398138
 30
0.0
 11
-131.4082044970803
 21
-109.7219353407138
 31
0.0
1001
ACAD
1000
RTMaterial
1005
4BB
  0
LINE
  5
39A
330
207
100
AcDbEntity
  8
DEFAULT_2
  6
HIDDEN
 62
     8
100
AcDbLine
 10
-129.4582045439003
 20
-109.7219353407138
 30
0.0
 11
-129.4582045439003
 21
-127.5219353413538
 31
0.0
1001
ACAD
1000
RTMaterial
1005
4BB
  0
LINE
  5
39B
330
207
100
AcDbEntity
  8
DEFAULT_2
  6
HIDDEN
 62
     8
100
AcDbLine
 10
-127.6582045447203
 20
-117.6219352277537
 30
0.0
 11
-127.6582045447203
 21
-117.5219353413938
 31
0.0
1001
ACAD
1000
RTMaterial
1005
4BB
  0
LINE
  5
39C
330
207
100
AcDbEntity
  8
DEFAULT_2
  6
HIDDEN
 62
     8
100
AcDbLine
 10
-136.7633496745003
 20
-121.8166996195138
 30
0.0
 11
-136.9276100648002
 21
-131.2271710626938
 31
0.0
1001
ACAD
1000
RTMaterial
1005
4BB
  0
LINE
  5
39D
330
207
100
AcDbEntity
  8
DEFAULT_2
  6
HIDDEN
 62
     8
100
AcDbLine
 10
-133.5748128181603
 20
-118.0975340530338
 30
0.0
 11
-133.6943955457203
 21
-121.5219353398538
 31
0.0
1001
ACAD
1000
RTMaterial
1005
4BB
  0
LINE
  5
39E
330
207
100
AcDbEntity
  8
DEFAULT_2
  6
HIDDEN
 62
     8
100
AcDbLine
 10
-126.9085093156403
 20
-117.5219353413938
 30
0.0
 11
-126.6361273153203
 21
-109.7219353407138
 31
0.0
1001
ACAD
1000
RTMaterial
1005
4BB
  0
LINE
  5
39F
330
207
100
AcDbEntity
  8
DEFAULT_2
  6
HIDDEN
 62
     8
100
AcDbLine
 10
-124.0530594156803
 20
-121.8166996195138
 30
0.0
 11
-123.8887990253803
 21
-131.2271710626938
 31
0.0
1001
ACAD
1000
RTMaterial
1005
4BB
  0
LINE
  5
3A0
330
207
100
AcDbEntity
  8
DEFAULT_2
  6
HIDDEN
 62
     8
100
AcDbLine
 10
-119.2445337901804
 20
-109.7219353407138
 30
0.0
 11
-118.9338336343404
 21
-127.5219353413538
 31
0.0
1001
ACAD
1000
RTMaterial
1005
4BB
  0
LINE
  5
3A1
330
207
100
AcDbEntity
  8
DEFAULT_2
  6
HIDDEN
 62
     8
100
AcDbLine
 10
-118.2445328285403
 20
-109.7219353407138
 30
0.0
 11
-118.2445328285403
 21
-127.5219353413538
 31
0.0
1001
ACAD
1000
RTMaterial
1005
4BB
  0
LINE
  5
3A2
330
207
100
AcDbEntity
  8
0
  6
Continuous
 62
     7
100
AcDbLine
 10
-137.7962649823002
 20
-131.5219353702938
 30
0.0
 11
-139.0172078642604
 21
-130.3221181407738
 31
0.0
1001
ACAD
1000
RTMaterial
1005
4BB
  0
LINE
  5
3A3
330
207
100
AcDbEntity
  8
0
  6
Continuous
 62
     7
100
AcDbLine
 10
-137.7962650127803
 20
-131.5219353398138
 30
0.0
 11
221.0798559228996
 21
-131.5219353398138
 31
0.0
1001
ACAD
1000
RTMaterial
1005
4BB
  0
LINE
  5
3A4
330
207
100
AcDbEntity
  8
DEFAULT_2
  6
HIDDEN
 62
     8
100
AcDbLine
 10
220.2112009749197
 20
-131.2271710626938
 30
0.0
 11
207.1723899354996
 21
-131.2271710626938
 31
0.0
1001
ACAD
1000
RTMaterial
1005
4BB
  0
LINE
  5
3A5
330
207
100
AcDbEntity
  8
DEFAULT_2
  6
HIDDEN
 62
     8
100
AcDbLine
 10
-123.8887990253803
 20
-131.2271710626938
 30
0.0
 11
-136.9276100648002
 21
-131.2271710626938
 31
0.0
1001
ACAD
1000
RTMaterial
1005
4BB
  0
LINE
  5
3A6
330
207
100
AcDbEntity
  8
0
  6
Continuous
 62
     7
100
AcDbLine
 10
-139.0172078998203
 20
-130.3221181052138
 30
0.0
 11
222.3007988099397
 21
-130.3221181052138
 31
0.0
1001
ACAD
1000
RTMaterial
1005
4BB
  0
LINE
  5
3A7
330
207
100
AcDbEntity
  8
02___PRT_ALL_AXES
  6
HIDDEN
 62
     8
100
AcDbLine
 10
208.3017954567197
 20
-129.0219353410938
 30
0.0
 11
213.1017954553796
 21
-129.0219353410938
 31
0.0
1001
ACAD
1000
RTMaterial
1005
4BB
  0
LINE
  5
3A8
330
207
100
AcDbEntity
  8
DEFAULT_2
  6
HIDDEN
 62
     8
100
AcDbLine
 10
-133.6338336348404
 20
-127.5219353413538
 30
0.0
 11
216.9174245297197
 21
-127.5219353413538
 31
0.0
1001
ACAD
1000
RTMaterial
1005
4BB
  0
LINE
  5
3A9
330
207
100
AcDbEntity
  8
DEFAULT_2
  6
HIDDEN
 62
     8
100
AcDbLine
 10
194.8017954565197
 20
-127.2219353393738
 30
0.0
 11
202.6017954546595
 21
-127.2219353393738
 31
0.0
1001
ACAD
1000
RTMaterial
1005
4BB
  0
LINE
  5
3AA
330
207
100
AcDbEntity
  8
DEFAULT_2
  6
HIDDEN
 62
     8
100
AcDbLine
 10
220.0469405846197
 20
-121.8166996195138
 30
0.0
 11
207.3366503257997
 21
-121.8166996195138
 31
0.0
1001
ACAD
1000
RTMaterial
1005
4BB
  0
LINE
  5
3AB
330
207
100
AcDbEntity
  8
DEFAULT_2
  6
HIDDEN
 62
     8
100
AcDbLine
 10
-124.0530594156803
 20
-121.8166996195138
 30
0.0
 11
-136.7633496745003
 21
-121.8166996195138
 31
0.0
1001
ACAD
1000
RTMaterial
1005
4BB
  0
LINE
  5
3AC
330
207
100
AcDbEntity
  8
DEFAULT_2
  6
HIDDEN
 62
     8
100
AcDbLine
 10
219.7469862772395
 20
-121.5219353398538
 30
0.0
 11
207.6366046357196
 21
-121.5219353398538
 31
0.0
1001
ACAD
1000
RTMaterial
1005
4BB
  0
LINE
  5
3AD
330
207
100
AcDbEntity
  8
DEFAULT_2
  6
HIDDEN
 62
     8
100
AcDbLine
 10
-124.3530137230603
 20
-121.5219353398538
 30
0.0
 11
-136.4633953645803
 21
-121.5219353398538
 31
0.0
1001
ACAD
1000
RTMaterial
1005
4BB
  0
LINE
  5
3AE
330
207
100
AcDbEntity
  8
02___PRT_ALL_AXES
  6
HIDDEN
 62
     8
100
AcDbLine
 10
213.1017954553796
 20
-119.8882606620738
 30
0.0
 11
208.3017954567197
 21
-119.8882606620738
 31
0.0
1001
ACAD
1000
RTMaterial
1005
4BB
  0
LINE
  5
3AF
330
207
100
AcDbEntity
  8
DEFAULT_2
  6
HIDDEN
 62
     8
100
AcDbLine
 10
206.2018491790996
 20
-119.0219353411338
 30
0.0
 11
217.0657925997597
 21
-119.0219353411338
 31
0.0
1001
ACAD
1000
RTMaterial
1005
4BB
  0
LINE
  5
3B0
330
207
100
AcDbEntity
  8
DEFAULT_2
  6
HIDDEN
 62
     8
100
AcDbLine
 10
216.8584037282796
 20
-118.0975340530338
 30
0.0
 11
210.5251871821397
 21
-118.0975340530338
 31
0.0
1001
ACAD
1000
RTMaterial
1005
4BB
  0
LINE
  5
3B1
330
207
100
AcDbEntity
  8
DEFAULT_2
  6
HIDDEN
 62
     8
100
AcDbLine
 10
-127.2415962720204
 20
-118.0975340530338
 30
0.0
 11
-133.5748128181603
 21
-118.0975340530338
 31
0.0
1001
ACAD
1000
RTMaterial
1005
4BB
  0
LINE
  5
3B2
330
207
100
AcDbEntity
  8
DEFAULT_2
  6
HIDDEN
 62
     8
100
AcDbLine
 10
216.4417954555796
 20
-117.6219352277537
 30
0.0
 11
210.9417954548396
 21
-117.6219352277537
 31
0.0
1001
ACAD
1000
RTMaterial
1005
4BB
  0
LINE
  5
3B3
330
207
100
AcDbEntity
  8
DEFAULT_2
  6
HIDDEN
 62
     8
100
AcDbLine
 10
-127.6582045447203
 20
-117.6219352277537
 30
0.0
 11
-133.1582045454603
 21
-117.6219352277537
 31
0.0
1001
ACAD
1000
RTMaterial
1005
4BB
  0
LINE
  5
3B4
330
207
100
AcDbEntity
  8
DEFAULT_2
  6
HIDDEN
 62
     8
100
AcDbLine
 10
-133.9078997720003
 20
-117.5219353413938
 30
0.0
 11
-126.9085093156403
 21
-117.5219353413938
 31
0.0
1001
ACAD
1000
RTMaterial
1005
4BB
  0
LINE
  5
3B5
330
207
100
AcDbEntity
  8
DEFAULT_2
  6
HIDDEN
 62
     8
100
AcDbLine
 10
210.1921002282996
 20
-117.5219353413938
 30
0.0
 11
217.1914906846596
 21
-117.5219353413938
 31
0.0
1001
ACAD
1000
RTMaterial
1005
4BB
  0
LINE
  5
3B6
330
207
100
AcDbEntity
  8
0
  6
Continuous
 62
     7
100
AcDbLine
 10
-139.3767854280603
 20
-109.7219353407138
 30
0.0
 11
222.6603763381797
 21
-109.7219353407138
 31
0.0
1001
ACAD
1000
RTMaterial
1005
4BB
  0
LINE
  5
3B7
330
207
100
AcDbEntity
  8
0
  6
Continuous
 62
     7
100
AcDbLine
 10
222.3007988099397
 20
-130.3221181052138
 30
0.0
 11
221.0798559228996
 21
-131.5219353398138
 31
0.0
1001
ACAD
1000
RTMaterial
1005
4BB
  0
LINE
  5
3B8
330
207
100
AcDbEntity
  8
DEFAULT_2
  6
HIDDEN
 62
     8
100
AcDbLine
 10
208.3017954567197
 20
-119.8882606620738
 30
0.0
 11
207.8015862082198
 21
-119.0219353411338
 31
0.0
1001
ACAD
1000
RTMaterial
1005
4BB
  0
LINE
  5
3B9
330
207
100
AcDbEntity
  8
DEFAULT_2
  6
HIDDEN
 62
     8
100
AcDbLine
 10
194.8017954565197
 20
-127.2219353393738
 30
0.0
 11
194.8017954565197
 21
-127.5219353413538
 31
0.0
1001
ACAD
1000
RTMaterial
1005
4BB
  0
LINE
  5
3BA
330
207
100
AcDbEntity
  8
DEFAULT_2
  6
HIDDEN
 62
     8
100
AcDbLine
 10
195.2017954566196
 20
-127.2219353393738
 30
0.0
 11
195.2017954566196
 21
-127.5219353413538
 31
0.0
1001
ACAD
1000
RTMaterial
1005
4BB
  0
LINE
  5
3BB
330
207
100
AcDbEntity
  8
DEFAULT_2
  6
HIDDEN
 62
     8
100
AcDbLine
 10
196.1017954549397
 20
-127.2219353393738
 30
0.0
 11
196.1017954549397
 21
-127.5219353413538
 31
0.0
1001
ACAD
1000
RTMaterial
1005
4BB
  0
LINE
  5
3BC
330
207
100
AcDbEntity
  8
DEFAULT_2
  6
HIDDEN
 62
     8
100
AcDbLine
 10
196.5017954550397
 20
-127.5219353413538
 30
0.0
 11
196.5017954550397
 21
-127.2219353393738
 31
0.0
1001
ACAD
1000
RTMaterial
1005
4BB
  0
LINE
  5
3BD
330
207
100
AcDbEntity
  8
DEFAULT_2
  6
HIDDEN
 62
     8
100
AcDbLine
 10
197.4017954558995
 20
-127.2219353393738
 30
0.0
 11
197.4017954558995
 21
-127.5219353413538
 31
0.0
1001
ACAD
1000
RTMaterial
1005
4BB
  0
LINE
  5
3BE
330
207
100
AcDbEntity
  8
DEFAULT_2
  6
HIDDEN
 62
     8
100
AcDbLine
 10
197.8017954559996
 20
-127.5219353413538
 30
0.0
 11
197.8017954559996
 21
-127.2219353393738
 31
0.0
1001
ACAD
1000
RTMaterial
1005
4BB
  0
LINE
  5
3BF
330
207
100
AcDbEntity
  8
DEFAULT_2
  6
HIDDEN
 62
     8
100
AcDbLine
 10
198.7017954568597
 20
-127.2219353393738
 30
0.0
 11
198.7017954568597
 21
-127.5219353413538
 31
0.0
1001
ACAD
1000
RTMaterial
1005
4BB
  0
LINE
  5
3C0
330
207
100
AcDbEntity
  8
DEFAULT_2
  6
HIDDEN
 62
     8
100
AcDbLine
 10
199.1017954569596
 20
-127.2219353393738
 30
0.0
 11
199.1017954569596
 21
-127.5219353413538
 31
0.0
1001
ACAD
1000
RTMaterial
1005
4BB
  0
LINE
  5
3C1
330
207
100
AcDbEntity
  8
DEFAULT_2
  6
HIDDEN
 62
     8
100
AcDbLine
 10
213.1017954553796
 20
-119.8882606620738
 30
0.0
 11
213.6020047038797
 21
-119.0219353411338
 31
0.0
1001
ACAD
1000
RTMaterial
1005
4BB
  0
LINE
  5
3C2
330
207
100
AcDbEntity
  8
DEFAULT_2
  6
HIDDEN
 62
     8
100
AcDbLine
 10
210.1921002282996
 20
-117.5219353413938
 30
0.0
 11
209.9197182254396
 21
-109.7219353407138
 31
0.0
1001
ACAD
1000
RTMaterial
1005
4BB
  0
LINE
  5
3C3
330
207
100
AcDbEntity
  8
DEFAULT_2
  6
HIDDEN
 62
     8
100
AcDbLine
 10
216.8584037282796
 20
-118.0975340530338
 30
0.0
 11
216.9779864558397
 21
-121.5219353398538
 31
0.0
1001
ACAD
1000
RTMaterial
1005
4BB
  0
LINE
  5
3C4
330
207
100
AcDbEntity
  8
DEFAULT_2
  6
HIDDEN
 62
     8
100
AcDbLine
 10
220.0469405846197
 20
-121.8166996195138
 30
0.0
 11
220.2112009749197
 21
-131.2271710626938
 31
0.0
1001
ACAD
1000
RTMaterial
1005
4BB
  0
LINE
  5
3C5
330
207
100
AcDbEntity
  8
DEFAULT_2
  6
HIDDEN
 62
     8
100
AcDbLine
 10
201.5017954550197
 20
-127.2219353393738
 30
0.0
 11
201.5017954550197
 21
-127.5219353413538
 31
0.0
1001
ACAD
1000
RTMaterial
1005
4BB
  0
LINE
  5
3C6
330
207
100
AcDbEntity
  8
DEFAULT_2
  6
HIDDEN
 62
     8
100
AcDbLine
 10
201.5281237386596
 20
-109.7219353407138
 30
0.0
 11
201.5281237386596
 21
-127.5219353413538
 31
0.0
1001
ACAD
1000
RTMaterial
1005
4BB
  0
LINE
  5
3C7
330
207
100
AcDbEntity
  8
DEFAULT_2
  6
HIDDEN
 62
     8
100
AcDbLine
 10
201.7017954563396
 20
-127.5219353413538
 30
0.0
 11
201.7017954563396
 21
-127.2219353393738
 31
0.0
1001
ACAD
1000
RTMaterial
1005
4BB
  0
LINE
  5
3C8
330
207
100
AcDbEntity
  8
DEFAULT_2
  6
HIDDEN
 62
     8
100
AcDbLine
 10
202.2017954545597
 20
-127.2219353393738
 30
0.0
 11
202.2017954545597
 21
-127.5219353413538
 31
0.0
1001
ACAD
1000
RTMaterial
1005
4BB
  0
LINE
  5
3C9
330
207
100
AcDbEntity
  8
DEFAULT_2
  6
HIDDEN
 62
     8
100
AcDbLine
 10
202.6017954546595
 20
-127.2219353393738
 30
0.0
 11
202.6017954546595
 21
-127.5219353413538
 31
0.0
1001
ACAD
1000
RTMaterial
1005
4BB
  0
LINE
  5
3CA
330
207
100
AcDbEntity
  8
DEFAULT_2
  6
HIDDEN
 62
     8
100
AcDbLine
 10
206.2017954555595
 20
-127.5219353413538
 30
0.0
 11
206.2017954555595
 21
-119.0219353411338
 31
0.0
1001
ACAD
1000
RTMaterial
1005
4BB
  0
LINE
  5
3CB
330
207
100
AcDbEntity
  8
02___PRT_ALL_AXES
  6
HIDDEN
 62
     8
100
AcDbLine
 10
208.3017954567197
 20
-119.8882606620738
 30
0.0
 11
208.3017954567197
 21
-129.0219353410938
 31
0.0
1001
ACAD
1000
RTMaterial
1005
4BB
  0
LINE
  5
3CC
330
207
100
AcDbEntity
  8
DEFAULT_2
  6
HIDDEN
 62
     8
100
AcDbLine
 10
208.3017954567197
 20
-129.0219353410938
 30
0.0
 11
208.3017954567197
 21
-119.8882606620738
 31
0.0
1001
ACAD
1000
RTMaterial
1005
4BB
  0
LINE
  5
3CD
330
207
100
AcDbEntity
  8
DEFAULT_2
  6
HIDDEN
 62
     8
100
AcDbLine
 10
210.7017954547797
 20
-119.0219353411338
 30
0.0
 11
210.7017954547797
 21
-127.5219353413538
 31
0.0
1001
ACAD
1000
RTMaterial
1005
4BB
  0
LINE
  5
3CE
330
207
100
AcDbEntity
  8
DEFAULT_2
  6
HIDDEN
 62
     8
100
AcDbLine
 10
210.9417954548396
 20
-117.6219352277537
 30
0.0
 11
210.9417954548396
 21
-117.5219353413938
 31
0.0
1001
ACAD
1000
RTMaterial
1005
4BB
  0
LINE
  5
3CF
330
207
100
AcDbEntity
  8
DEFAULT_2
  6
HIDDEN
 62
     8
100
AcDbLine
 10
212.7417954565596
 20
-109.7219353407138
 30
0.0
 11
212.7417954565596
 21
-127.5219353413538
 31
0.0
1001
ACAD
1000
RTMaterial
1005
4BB
  0
LINE
  5
3D0
330
207
100
AcDbEntity
  8
DEFAULT_2
  6
HIDDEN
 62
     8
100
AcDbLine
 10
213.1017954553796
 20
-129.0219353410938
 30
0.0
 11
213.1017954553796
 21
-119.8882606620738
 31
0.0
1001
ACAD
1000
RTMaterial
1005
4BB
  0
LINE
  5
3D1
330
207
100
AcDbEntity
  8
02___PRT_ALL_AXES
  6
HIDDEN
 62
     8
100
AcDbLine
 10
213.1017954553796
 20
-129.0219353410938
 30
0.0
 11
213.1017954553796
 21
-119.8882606620738
 31
0.0
1001
ACAD
1000
RTMaterial
1005
4BB
  0
LINE
  5
3D2
330
207
100
AcDbEntity
  8
0
  6
Continuous
 62
     7
100
AcDbLine
 10
214.6917954351397
 20
-109.7219353407138
 30
0.0
 11
214.6917954554596
 21
-131.5219353398138
 31
0.0
1001
ACAD
1000
RTMaterial
1005
4BB
  0
LINE
  5
3D3
330
207
100
AcDbEntity
  8
DEFAULT_2
  6
HIDDEN
 62
     8
100
AcDbLine
 10
215.2017954565396
 20
-127.5219353413538
 30
0.0
 11
215.2017954565396
 21
-119.0219353411338
 31
0.0
1001
ACAD
1000
RTMaterial
1005
4BB
  0
LINE
  5
3D4
330
207
100
AcDbEntity
  8
DEFAULT_2
  6
HIDDEN
 62
     8
100
AcDbLine
 10
216.2281247018197
 20
-127.5219353413538
 30
0.0
 11
216.2281247018197
 21
-109.7219353407138
 31
0.0
1001
ACAD
1000
RTMaterial
1005
4BB
  0
LINE
  5
3D5
330
207
100
AcDbEntity
  8
DEFAULT_2
  6
HIDDEN
 62
     8
100
AcDbLine
 10
216.4417954555796
 20
-117.6219352277537
 30
0.0
 11
216.4417954555796
 21
-117.5219353413938
 31
0.0
1001
ACAD
1000
RTMaterial
1005
4BB
  0
LINE
  5
3D6
330
207
100
AcDbEntity
  8
DEFAULT_2
  6
HIDDEN
 62
     8
100
AcDbLine
 10
202.5281247028396
 20
-109.7219353407138
 30
0.0
 11
202.2174245469996
 21
-127.5219353413538
 31
0.0
1001
ACAD
1000
RTMaterial
1005
4BB
  0
LINE
  5
3D7
330
207
100
AcDbEntity
  8
DEFAULT_2
  6
HIDDEN
 62
     8
100
AcDbLine
 10
207.3366503257997
 20
-121.8166996195138
 30
0.0
 11
207.1723899354996
 21
-131.2271710626938
 31
0.0
1001
ACAD
1000
RTMaterial
1005
4BB
  0
LINE
  5
3D8
330
207
100
AcDbEntity
  8
DEFAULT_2
  6
HIDDEN
 62
     8
100
AcDbLine
 10
217.2281247033396
 20
-109.7219353407138
 30
0.0
 11
216.9174245474996
 21
-127.5219353413538
 31
0.0
1001
ACAD
1000
RTMaterial
1005
4BB
  0
LINE
  5
3D9
330
207
100
AcDbEntity
  8
0
  6
Continuous
 62
     7
100
AcDbLine
 10
222.3007988099397
 20
-130.3221181052138
 30
0.0
 11
222.6603763381797
 21
-109.7219353407138
 31
0.0
1001
ACAD
1000
RTMaterial
1005
4BB
  0
LINE
  5
3DA
330
207
100
AcDbEntity
  8
DEFAULT_2
  6
HIDDEN
 62
     8
100
AcDbLine
 10
210.5251871821397
 20
-118.0975340530338
 30
0.0
 11
210.4056044545796
 21
-121.5219353398538
 31
0.0
1001
ACAD
1000
RTMaterial
1005
4BB
  0
LINE
  5
3DB
330
207
100
AcDbEntity
  8
DEFAULT_2
  6
HIDDEN
 62
     8
100
AcDbLine
 10
217.1914906846596
 20
-117.5219353413938
 30
0.0
 11
217.4638726849796
 21
-109.7219353407138
 31
0.0
1001
ACAD
1000
RTMaterial
1005
4BB
  0
ARC
  5
3DC
330
207
100
AcDbEntity
  8
0
  6
Continuous
 62
     7
100
AcDbCircle
 10
-618.4957088139003
 20
-25.3937177160538
 30
0.0
 40
10.52437090956
100
AcDbArc
 50
0.0000000002
 51
78.8232768849
1001
ACAD
1000
RTMaterial
1005
4BB
  0
ARC
  5
3DD
330
207
100
AcDbEntity
  8
0
  6
Continuous
 62
     7
100
AcDbCircle
 10
-618.4957088139003
 20
-25.3937177160538
 30
0.0
 40
10.3760028573
100
AcDbArc
 50
78.66135530840001
 51
90.0
1001
ACAD
1000
RTMaterial
1005
4BB
  0
ARC
  5
3DE
330
207
100
AcDbEntity
  8
0
  6
Continuous
 62
     7
100
AcDbCircle
 10
-618.4957088139003
 20
-25.3937177160538
 30
0.0
 40
10.21367075372
100
AcDbArc
 50
0.0000000002
 51
89.99999999979999
1001
ACAD
1000
RTMaterial
1005
4BB
  0
ARC
  5
3DF
330
207
100
AcDbEntity
  8
0
  6
Continuous
 62
     7
100
AcDbCircle
 10
-620.4457088128004
 20
-39.04371771597381
 30
0.0
 40
7.968580882719998
100
AcDbArc
 50
180.0000000016
 51
270.0000000001
1001
ACAD
1000
RTMaterial
1005
4BB
  0
ARC
  5
3E0
330
207
100
AcDbEntity
  8
DEFAULT_2
  6
HIDDEN
 62
     8
100
AcDbCircle
 10
-620.4457088128004
 20
-39.04371771597381
 30
0.0
 40
7.609003354479999
100
AcDbArc
 50
180.0
 51
270.0
1001
ACAD
1000
RTMaterial
1005
4BB
  0
CIRCLE
  5
3E1
330
207
100
AcDbEntity
  8
DEFAULT_2
  6
HIDDEN
 62
     8
100
AcDbCircle
 10
-619.4457088138204
 20
-38.59371771681381
 30
0.0
 40
6.819359828359999
1001
ACAD
1000
RTMaterial
1005
4BB
  0
CIRCLE
  5
3E2
330
207
100
AcDbEntity
  8
DEFAULT_2
  6
HIDDEN
 62
     8
100
AcDbCircle
 10
-619.4457088138204
 20
-38.59371771681381
 30
0.0
 40
6.519405518439999
1001
ACAD
1000
RTMaterial
1005
4BB
  0
ARC
  5
3E3
330
207
100
AcDbEntity
  8
DEFAULT_2
  6
HIDDEN
 62
     8
100
AcDbCircle
 10
-620.4457088128004
 20
-39.04371771597381
 30
0.0
 40
6.388060467439999
100
AcDbArc
 50
179.9999999999
 51
269.9999999999
1001
ACAD
1000
RTMaterial
1005
4BB
  0
CIRCLE
  5
3E4
330
207
100
AcDbEntity
  8
DEFAULT_2
  6
HIDDEN
 62
     8
100
AcDbCircle
 10
-619.4457088138204
 20
-38.59371771681381
 30
0.0
 40
6.35514513068
1001
ACAD
1000
RTMaterial
1005
4BB
  0
CIRCLE
  5
3E5
330
207
100
AcDbEntity
  8
DEFAULT_2
  6
HIDDEN
 62
     8
100
AcDbCircle
 10
-619.4457088138204
 20
-38.59371771681381
 30
0.0
 40
6.05519082076
1001
ACAD
1000
RTMaterial
1005
4BB
  0
CIRCLE
  5
3E6
330
207
100
AcDbEntity
  8
0
  6
Continuous
 62
     7
100
AcDbCircle
 10
-619.4457088138204
 20
-38.59371771681381
 30
0.0
 40
3.772077231039999
1001
ACAD
1000
RTMaterial
1005
4BB
  0
CIRCLE
  5
3E7
330
207
100
AcDbEntity
  8
0
  6
Continuous
 62
     7
100
AcDbCircle
 10
-619.4457088138204
 20
-38.59371771681381
 30
0.0
 40
3.49969522818
1001
ACAD
1000
RTMaterial
1005
4BB
  0
CIRCLE
  5
3E8
330
207
100
AcDbEntity
  8
DEFAULT_2
  6
HIDDEN
 62
     8
100
AcDbCircle
 10
-619.4457088138204
 20
-38.59371771681381
 30
0.0
 40
3.286191001899999
1001
ACAD
1000
RTMaterial
1005
4BB
  0
CIRCLE
  5
3E9
330
207
100
AcDbEntity
  8
DEFAULT_2
  6
HIDDEN
 62
     8
100
AcDbCircle
 10
-619.4457088138204
 20
-38.59371771681381
 30
0.0
 40
3.166608271799999
1001
ACAD
1000
RTMaterial
1005
4BB
  0
CIRCLE
  5
3EA
330
207
100
AcDbEntity
  8
0
  6
Continuous
 62
     7
100
AcDbCircle
 10
-619.4457088138204
 20
-38.59371771681381
 30
0.0
 40
2.749999999099999
1001
ACAD
1000
RTMaterial
1005
4BB
  0
ARC
  5
3EB
330
207
100
AcDbEntity
  8
0
  6
Continuous
 62
     7
100
AcDbCircle
 10
-616.4557088121203
 20
-9.313717717113799
 30
0.0
 40
4.499999999219999
100
AcDbArc
 50
270.0
 51
180.0
1001
ACAD
1000
RTMaterial
1005
4BB
  0
CIRCLE
  5
3EC
330
207
100
AcDbEntity
  8
0
  6
Continuous
 62
     7
100
AcDbCircle
 10
-616.4557088121203
 20
-9.313717717113799
 30
0.0
 40
2.900209246559999
1001
ACAD
1000
RTMaterial
1005
4BB
  0
CIRCLE
  5
3ED
330
207
100
AcDbEntity
  8
02___PRT_ALL_AXES
  6
Continuous
 62
     7
100
AcDbCircle
 10
-616.4557088121203
 20
-9.313717717113799
 30
0.0
 40
2.400000000599999
1001
ACAD
1000
RTMaterial
1005
4BB
  0
ARC
  5
3EE
330
207
100
AcDbEntity
  8
0
  6
Continuous
 62
     7
100
AcDbCircle
 10
-621.9820380591603
 20
-14.18004696335379
 30
0.0
 40
0.9999999989799999
100
AcDbArc
 50
180.0
 51
270.0
1001
ACAD
1000
RTMaterial
1005
4BB
  0
ARC
  5
3EF
330
207
100
AcDbEntity
  8
0
  6
Continuous
 62
     7
100
AcDbCircle
 10
-621.9820380591603
 20
-14.18004696335379
 30
0.0
 40
0.8376678953999999
100
AcDbArc
 50
179.999999989
 51
269.9999999974
1001
ACAD
1000
RTMaterial
1005
4BB
  0
ARC
  5
3F0
330
207
100
AcDbEntity
  8
0
  6
Continuous
 62
     7
100
AcDbCircle
 10
-607.2820380586604
 20
-40.58004696233381
 30
0.0
 40
0.9999999989799999
100
AcDbArc
 50
180.0
 51
270.0
1001
ACAD
1000
RTMaterial
1005
4BB
  0
ARC
  5
3F1
330
207
100
AcDbEntity
  8
0
  6
Continuous
 62
     7
100
AcDbCircle
 10
-607.2820380586604
 20
-40.58004696233381
 30
0.0
 40
0.6892998431399999
100
AcDbArc
 50
179.9999999999
 51
270.0
1001
ACAD
1000
RTMaterial
1005
4BB
  0
CIRCLE
  5
3F2
330
207
100
AcDbEntity
  8
0
  6
Continuous
 62
     7
100
AcDbCircle
 10
-604.4557088116603
 20
-9.313717717113799
 30
0.0
 40
3.90000000034
1001
ACAD
1000
RTMaterial
1005
4BB
  0
CIRCLE
  5
3F3
330
207
100
AcDbEntity
  8
0
  6
Continuous
 62
     7
100
AcDbCircle
 10
-604.4557088116603
 20
-9.313717717113799
 30
0.0
 40
3.50000000024
1001
ACAD
1000
RTMaterial
1005
4BB
  0
ARC
  5
3F4
330
207
100
AcDbEntity
  8
0
  6
Continuous
 62
     7
100
AcDbCircle
 10
-602.0557088136004
 20
-10.61371771553378
 30
0.0
 40
0.19999999878
100
AcDbArc
 50
180.0
 51
0.0
1001
ACAD
1000
RTMaterial
1005
4BB
  0
ARC
  5
3F5
330
207
100
AcDbEntity
  8
0
  6
Continuous
 62
     7
100
AcDbCircle
 10
-602.0557088136004
 20
-8.013717716153774
 30
0.0
 40
0.19999999878
100
AcDbArc
 50
0.0
 51
180.0
1001
ACAD
1000
RTMaterial
1005
4BB
  0
ARC
  5
3F6
330
207
100
AcDbEntity
  8
0
  6
Continuous
 62
     7
100
AcDbCircle
 10
-603.3557088120203
 20
-11.36371771667378
 30
0.0
 40
0.19999999878
100
AcDbArc
 50
180.0
 51
0.0
1001
ACAD
1000
RTMaterial
1005
4BB
  0
ARC
  5
3F7
330
207
100
AcDbEntity
  8
0
  6
Continuous
 62
     7
100
AcDbCircle
 10
-603.3557088120203
 20
-7.263717717553774
 30
0.0
 40
0.19999999878
100
AcDbArc
 50
0.0
 51
180.0
1001
ACAD
1000
RTMaterial
1005
4BB
  0
ARC
  5
3F8
330
207
100
AcDbEntity
  8
0
  6
Continuous
 62
     7
100
AcDbCircle
 10
-604.6557088129803
 20
-12.11371771527382
 30
0.0
 40
0.19999999878
100
AcDbArc
 50
180.0
 51
0.0
1001
ACAD
1000
RTMaterial
1005
4BB
  0
ARC
  5
3F9
330
207
100
AcDbEntity
  8
0
  6
Continuous
 62
     7
100
AcDbCircle
 10
-607.2557088123603
 20
-9.313717717113799
 30
0.0
 40
0.19999999878
100
AcDbArc
 50
90.0
 51
270.0
1001
ACAD
1000
RTMaterial
1005
4BB
  0
ARC
  5
3FA
330
207
100
AcDbEntity
  8
0
  6
Continuous
 62
     7
100
AcDbCircle
 10
-604.6557088129803
 20
-6.513717716413822
 30
0.0
 40
0.19999999878
100
AcDbArc
 50
0.0
 51
180.0
1001
ACAD
1000
RTMaterial
1005
4BB
  0
ARC
  5
3FB
330
207
100
AcDbEntity
  8
0
  6
Continuous
 62
     7
100
AcDbCircle
 10
-618.4957088139003
 20
56.20628228402621
 30
0.0
 40
10.52437090956
100
AcDbArc
 50
270.0000000002
 51
359.9999999998
1001
ACAD
1000
RTMaterial
1005
4BB
  0
ARC
  5
3FC
330
207
100
AcDbEntity
  8
0
  6
Continuous
 62
     7
100
AcDbCircle
 10
-618.4957088139003
 20
56.20628228402621
 30
0.0
 40
10.21367075372
100
AcDbArc
 50
270.0000000002
 51
359.9999999998
1001
ACAD
1000
RTMaterial
1005
4BB
  0
ARC
  5
3FD
330
207
100
AcDbEntity
  8
0
  6
Continuous
 62
     7
100
AcDbCircle
 10
-620.4457088128004
 20
69.85628228394617
 30
0.0
 40
7.968580882719998
100
AcDbArc
 50
89.9999999999
 51
179.9999999984
1001
ACAD
1000
RTMaterial
1005
4BB
  0
ARC
  5
3FE
330
207
100
AcDbEntity
  8
DEFAULT_2
  6
HIDDEN
 62
     8
100
AcDbCircle
 10
-620.4457088128004
 20
69.85628228394617
 30
0.0
 40
7.609003354479999
100
AcDbArc
 50
90.0
 51
180.0
1001
ACAD
1000
RTMaterial
1005
4BB
  0
CIRCLE
  5
3FF
330
207
100
AcDbEntity
  8
DEFAULT_2
  6
HIDDEN
 62
     8
100
AcDbCircle
 10
-619.4457088138204
 20
69.40628228478622
 30
0.0
 40
6.819359828359999
1001
ACAD
1000
RTMaterial
1005
4BB
  0
CIRCLE
  5
400
330
207
100
AcDbEntity
  8
DEFAULT_2
  6
HIDDEN
 62
     8
100
AcDbCircle
 10
-619.4457088138204
 20
69.40628228478622
 30
0.0
 40
6.519405518439999
1001
ACAD
1000
RTMaterial
1005
4BB
  0
ARC
  5
401
330
207
100
AcDbEntity
  8
DEFAULT_2
  6
HIDDEN
 62
     8
100
AcDbCircle
 10
-620.4457088128004
 20
69.85628228394617
 30
0.0
 40
6.388060467439999
100
AcDbArc
 50
90.0000000001
 51
180.0000000001
1001
ACAD
1000
RTMaterial
1005
4BB
  0
CIRCLE
  5
402
330
207
100
AcDbEntity
  8
DEFAULT_2
  6
HIDDEN
 62
     8
100
AcDbCircle
 10
-619.4457088138204
 20
69.40628228478622
 30
0.0
 40
6.35514513068
1001
ACAD
1000
RTMaterial
1005
4BB
  0
CIRCLE
  5
403
330
207
100
AcDbEntity
  8
DEFAULT_2
  6
HIDDEN
 62
     8
100
AcDbCircle
 10
-619.4457088138204
 20
69.40628228478622
 30
0.0
 40
6.05519082076
1001
ACAD
1000
RTMaterial
1005
4BB
  0
CIRCLE
  5
404
330
207
100
AcDbEntity
  8
0
  6
Continuous
 62
     7
100
AcDbCircle
 10
-619.4457088138204
 20
69.40628228478622
 30
0.0
 40
3.772077231039999
1001
ACAD
1000
RTMaterial
1005
4BB
  0
CIRCLE
  5
405
330
207
100
AcDbEntity
  8
0
  6
Continuous
 62
     7
100
AcDbCircle
 10
-619.4457088138204
 20
69.40628228478622
 30
0.0
 40
3.49969522818
1001
ACAD
1000
RTMaterial
1005
4BB
  0
CIRCLE
  5
406
330
207
100
AcDbEntity
  8
DEFAULT_2
  6
HIDDEN
 62
     8
100
AcDbCircle
 10
-619.4457088138204
 20
69.40628228478622
 30
0.0
 40
3.286191001899999
1001
ACAD
1000
RTMaterial
1005
4BB
  0
CIRCLE
  5
407
330
207
100
AcDbEntity
  8
DEFAULT_2
  6
HIDDEN
 62
     8
100
AcDbCircle
 10
-619.4457088138204
 20
69.40628228478622
 30
0.0
 40
3.166608271799999
1001
ACAD
1000
RTMaterial
1005
4BB
  0
CIRCLE
  5
408
330
207
100
AcDbEntity
  8
0
  6
Continuous
 62
     7
100
AcDbCircle
 10
-619.4457088138204
 20
69.40628228478622
 30
0.0
 40
2.749999999099999
1001
ACAD
1000
RTMaterial
1005
4BB
  0
ARC
  5
409
330
207
100
AcDbEntity
  8
0
  6
Continuous
 62
     7
100
AcDbCircle
 10
-607.2820380586604
 20
71.39261153030616
 30
0.0
 40
0.9999999989799999
100
AcDbArc
 50
90.0
 51
179.9999860071
1001
ACAD
1000
RTMaterial
1005
4BB
  0
ARC
  5
40A
330
207
100
AcDbEntity
  8
0
  6
Continuous
 62
     7
100
AcDbCircle
 10
-621.9820380591603
 20
44.99261153132618
 30
0.0
 40
0.9999999989799999
100
AcDbArc
 50
90.0
 51
179.9999860071
1001
ACAD
1000
RTMaterial
1005
4BB
  0
ARC
  5
40B
330
207
100
AcDbEntity
  8
0
  6
Continuous
 62
     7
100
AcDbCircle
 10
-607.2820380586604
 20
71.39261153030616
 30
0.0
 40
0.6892998431399999
100
AcDbArc
 50
90.0
 51
180.0000000001
1001
ACAD
1000
RTMaterial
1005
4BB
  0
ARC
  5
40C
330
207
100
AcDbEntity
  8
0
  6
Continuous
 62
     7
100
AcDbCircle
 10
-621.9820380591603
 20
44.99261153132618
 30
0.0
 40
0.6892998431399999
100
AcDbArc
 50
90.0
 51
180.0000000001
1001
ACAD
1000
RTMaterial
1005
4BB
  0
ARC
  5
40D
330
207
100
AcDbEntity
  8
0
  6
Continuous
 62
     7
100
AcDbCircle
 10
-276.2957088134403
 20
-25.3937177160538
 30
0.0
 40
10.52437090956
100
AcDbArc
 50
90.0000000002
 51
179.9999999998
1001
ACAD
1000
RTMaterial
1005
4BB
  0
ARC
  5
40E
330
207
100
AcDbEntity
  8
0
  6
Continuous
 62
     7
100
AcDbCircle
 10
-276.2957088134403
 20
-25.3937177160538
 30
0.0
 40
10.21367075372
100
AcDbArc
 50
90.0000000002
 51
179.9999999998
1001
ACAD
1000
RTMaterial
1005
4BB
  0
ARC
  5
40F
330
207
100
AcDbEntity
  8
0
  6
Continuous
 62
     7
100
AcDbCircle
 10
-274.3457088120003
 20
-39.04371771597381
 30
0.0
 40
7.968580882719998
100
AcDbArc
 50
269.9999999999
 51
359.9999999984
1001
ACAD
1000
RTMaterial
1005
4BB
  0
ARC
  5
410
330
207
100
AcDbEntity
  8
DEFAULT_2
  6
HIDDEN
 62
     8
100
AcDbCircle
 10
-274.3457088120003
 20
-39.04371771597381
 30
0.0
 40
7.609003354479999
100
AcDbArc
 50
270.0
 51
0.0
1001
ACAD
1000
RTMaterial
1005
4BB
  0
CIRCLE
  5
411
330
207
100
AcDbEntity
  8
DEFAULT_2
  6
HIDDEN
 62
     8
100
AcDbCircle
 10
-275.3457088135203
 20
-38.59371771681381
 30
0.0
 40
6.819359828359999
1001
ACAD
1000
RTMaterial
1005
4BB
  0
CIRCLE
  5
412
330
207
100
AcDbEntity
  8
DEFAULT_2
  6
HIDDEN
 62
     8
100
AcDbCircle
 10
-275.3457088135203
 20
-38.59371771681381
 30
0.0
 40
6.519405518439999
1001
ACAD
1000
RTMaterial
1005
4BB
  0
ARC
  5
413
330
207
100
AcDbEntity
  8
DEFAULT_2
  6
HIDDEN
 62
     8
100
AcDbCircle
 10
-274.3457088120003
 20
-39.04371771597381
 30
0.0
 40
6.388060467439999
100
AcDbArc
 50
270.0000000001
 51
0.0
1001
ACAD
1000
RTMaterial
1005
4BB
  0
CIRCLE
  5
414
330
207
100
AcDbEntity
  8
DEFAULT_2
  6
HIDDEN
 62
     8
100
AcDbCircle
 10
-275.3457088135203
 20
-38.59371771681381
 30
0.0
 40
6.35514513068
1001
ACAD
1000
RTMaterial
1005
4BB
  0
CIRCLE
  5
415
330
207
100
AcDbEntity
  8
DEFAULT_2
  6
HIDDEN
 62
     8
100
AcDbCircle
 10
-275.3457088135203
 20
-38.59371771681381
 30
0.0
 40
6.05519082076
1001
ACAD
1000
RTMaterial
1005
4BB
  0
CIRCLE
  5
416
330
207
100
AcDbEntity
  8
0
  6
Continuous
 62
     7
100
AcDbCircle
 10
-275.3457088135203
 20
-38.59371771681381
 30
0.0
 40
3.772077231039999
1001
ACAD
1000
RTMaterial
1005
4BB
  0
CIRCLE
  5
417
330
207
100
AcDbEntity
  8
0
  6
Continuous
 62
     7
100
AcDbCircle
 10
-275.3457088135203
 20
-38.59371771681381
 30
0.0
 40
3.49969522818
1001
ACAD
1000
RTMaterial
1005
4BB
  0
CIRCLE
  5
418
330
207
100
AcDbEntity
  8
DEFAULT_2
  6
HIDDEN
 62
     8
100
AcDbCircle
 10
-275.3457088135203
 20
-38.59371771681381
 30
0.0
 40
3.286191001899999
1001
ACAD
1000
RTMaterial
1005
4BB
  0
CIRCLE
  5
419
330
207
100
AcDbEntity
  8
DEFAULT_2
  6
HIDDEN
 62
     8
100
AcDbCircle
 10
-275.3457088135203
 20
-38.59371771681381
 30
0.0
 40
3.166608271799999
1001
ACAD
1000
RTMaterial
1005
4BB
  0
CIRCLE
  5
41A
330
207
100
AcDbEntity
  8
0
  6
Continuous
 62
     7
100
AcDbCircle
 10
-275.3457088135203
 20
-38.59371771681381
 30
0.0
 40
2.749999999099999
1001
ACAD
1000
RTMaterial
1005
4BB
  0
ARC
  5
41B
330
207
100
AcDbEntity
  8
0
  6
Continuous
 62
     7
100
AcDbCircle
 10
-287.5093795661403
 20
-40.58004696233381
 30
0.0
 40
0.9999999989799999
100
AcDbArc
 50
270.0
 51
359.9999860071
1001
ACAD
1000
RTMaterial
1005
4BB
  0
ARC
  5
41C
330
207
100
AcDbEntity
  8
0
  6
Continuous
 62
     7
100
AcDbCircle
 10
-272.8093795656403
 20
-14.18004696335379
 30
0.0
 40
0.9999999989799999
100
AcDbArc
 50
270.0
 51
359.9999860071
1001
ACAD
1000
RTMaterial
1005
4BB
  0
ARC
  5
41D
330
207
100
AcDbEntity
  8
0
  6
Continuous
 62
     7
100
AcDbCircle
 10
-287.5093795661403
 20
-40.58004696233381
 30
0.0
 40
0.6892998431399999
100
AcDbArc
 50
270.0
 51
0.0
1001
ACAD
1000
RTMaterial
1005
4BB
  0
ARC
  5
41E
330
207
100
AcDbEntity
  8
0
  6
Continuous
 62
     7
100
AcDbCircle
 10
-272.8093795656403
 20
-14.18004696335379
 30
0.0
 40
0.6892998431399999
100
AcDbArc
 50
270.0
 51
0.0
1001
ACAD
1000
RTMaterial
1005
4BB
  0
ARC
  5
41F
330
207
100
AcDbEntity
  8
0
  6
Continuous
 62
     7
100
AcDbCircle
 10
-276.2957088134403
 20
56.20628228402621
 30
0.0
 40
10.52437090956
100
AcDbArc
 50
180.0000000002
 51
269.9999999997999
1001
ACAD
1000
RTMaterial
1005
4BB
  0
ARC
  5
420
330
207
100
AcDbEntity
  8
0
  6
Continuous
 62
     7
100
AcDbCircle
 10
-276.2957088134403
 20
56.20628228402621
 30
0.0
 40
10.21367075372
100
AcDbArc
 50
180.0000000002
 51
269.9999999997999
1001
ACAD
1000
RTMaterial
1005
4BB
  0
ARC
  5
421
330
207
100
AcDbEntity
  8
0
  6
Continuous
 62
     7
100
AcDbCircle
 10
-274.3457088120003
 20
69.85628228394617
 30
0.0
 40
7.968580882719998
100
AcDbArc
 50
0.0000000016
 51
90.0000000001
1001
ACAD
1000
RTMaterial
1005
4BB
  0
ARC
  5
422
330
207
100
AcDbEntity
  8
DEFAULT_2
  6
HIDDEN
 62
     8
100
AcDbCircle
 10
-274.3457088120003
 20
69.85628228394617
 30
0.0
 40
7.609003354479999
100
AcDbArc
 50
0.0
 51
90.0
1001
ACAD
1000
RTMaterial
1005
4BB
  0
CIRCLE
  5
423
330
207
100
AcDbEntity
  8
DEFAULT_2
  6
HIDDEN
 62
     8
100
AcDbCircle
 10
-275.3457088135203
 20
69.40628228478622
 30
0.0
 40
6.819359828359999
1001
ACAD
1000
RTMaterial
1005
4BB
  0
CIRCLE
  5
424
330
207
100
AcDbEntity
  8
DEFAULT_2
  6
HIDDEN
 62
     8
100
AcDbCircle
 10
-275.3457088135203
 20
69.40628228478622
 30
0.0
 40
6.519405518439999
1001
ACAD
1000
RTMaterial
1005
4BB
  0
ARC
  5
425
330
207
100
AcDbEntity
  8
DEFAULT_2
  6
HIDDEN
 62
     8
100
AcDbCircle
 10
-274.3457088120003
 20
69.85628228394617
 30
0.0
 40
6.388060467439999
100
AcDbArc
 50
0.0
 51
89.9999999999
1001
ACAD
1000
RTMaterial
1005
4BB
  0
CIRCLE
  5
426
330
207
100
AcDbEntity
  8
DEFAULT_2
  6
HIDDEN
 62
     8
100
AcDbCircle
 10
-275.3457088135203
 20
69.40628228478622
 30
0.0
 40
6.35514513068
1001
ACAD
1000
RTMaterial
1005
4BB
  0
CIRCLE
  5
427
330
207
100
AcDbEntity
  8
DEFAULT_2
  6
HIDDEN
 62
     8
100
AcDbCircle
 10
-275.3457088135203
 20
69.40628228478622
 30
0.0
 40
6.05519082076
1001
ACAD
1000
RTMaterial
1005
4BB
  0
CIRCLE
  5
428
330
207
100
AcDbEntity
  8
0
  6
Continuous
 62
     7
100
AcDbCircle
 10
-275.3457088135203
 20
69.40628228478622
 30
0.0
 40
3.772077231039999
1001
ACAD
1000
RTMaterial
1005
4BB
  0
CIRCLE
  5
429
330
207
100
AcDbEntity
  8
0
  6
Continuous
 62
     7
100
AcDbCircle
 10
-275.3457088135203
 20
69.40628228478622
 30
0.0
 40
3.49969522818
1001
ACAD
1000
RTMaterial
1005
4BB
  0
CIRCLE
  5
42A
330
207
100
AcDbEntity
  8
DEFAULT_2
  6
HIDDEN
 62
     8
100
AcDbCircle
 10
-275.3457088135203
 20
69.40628228478622
 30
0.0
 40
3.286191001899999
1001
ACAD
1000
RTMaterial
1005
4BB
  0
CIRCLE
  5
42B
330
207
100
AcDbEntity
  8
DEFAULT_2
  6
HIDDEN
 62
     8
100
AcDbCircle
 10
-275.3457088135203
 20
69.40628228478622
 30
0.0
 40
3.166608271799999
1001
ACAD
1000
RTMaterial
1005
4BB
  0
CIRCLE
  5
42C
330
207
100
AcDbEntity
  8
0
  6
Continuous
 62
     7
100
AcDbCircle
 10
-275.3457088135203
 20
69.40628228478622
 30
0.0
 40
2.749999999099999
1001
ACAD
1000
RTMaterial
1005
4BB
  0
ARC
  5
42D
330
207
100
AcDbEntity
  8
0
  6
Continuous
 62
     7
100
AcDbCircle
 10
-272.8093795656403
 20
44.99261153132618
 30
0.0
 40
0.9999999989799999
100
AcDbArc
 50
0.0
 51
90.0
1001
ACAD
1000
RTMaterial
1005
4BB
  0
ARC
  5
42E
330
207
100
AcDbEntity
  8
0
  6
Continuous
 62
     7
100
AcDbCircle
 10
-287.5093795661403
 20
71.39261153030616
 30
0.0
 40
0.9999999989799999
100
AcDbArc
 50
0.0
 51
90.0
1001
ACAD
1000
RTMaterial
1005
4BB
  0
ARC
  5
42F
330
207
100
AcDbEntity
  8
0
  6
Continuous
 62
     7
100
AcDbCircle
 10
-272.8093795656403
 20
44.99261153132618
 30
0.0
 40
0.6892998431399999
100
AcDbArc
 50
0.0
 51
90.0
1001
ACAD
1000
RTMaterial
1005
4BB
  0
ARC
  5
430
330
207
100
AcDbEntity
  8
0
  6
Continuous
 62
     7
100
AcDbCircle
 10
-287.5093795661403
 20
71.39261153030616
 30
0.0
 40
0.6892998431399999
100
AcDbArc
 50
0.0
 51
90.0
1001
ACAD
1000
RTMaterial
1005
4BB
  0
ARC
  5
431
330
207
100
AcDbEntity
  8
DEFAULT_2
  6
HIDDEN
 62
     8
100
AcDbCircle
 10
-192.4776990202803
 20
66.73936943726616
 30
0.0
 40
0.50000000076
100
AcDbArc
 50
271.999956712
 51
350.4345408431
1001
ACAD
1000
RTMaterial
1005
4BB
  0
ARC
  5
432
330
207
100
AcDbEntity
  8
DEFAULT_2
  6
HIDDEN
 62
     8
100
AcDbCircle
 10
-192.4776990202803
 20
72.07319512976619
 30
0.0
 40
0.50000000076
100
AcDbArc
 50
9.565459156900001
 51
88.00004328799998
1001
ACAD
1000
RTMaterial
1005
4BB
  0
ARC
  5
433
330
207
100
AcDbEntity
  8
DEFAULT_2
  6
HIDDEN
 62
     8
100
AcDbCircle
 10
-192.4776990202803
 20
-41.2606305617938
 30
0.0
 40
0.50000000076
100
AcDbArc
 50
271.999956712
 51
350.4345408431
1001
ACAD
1000
RTMaterial
1005
4BB
  0
ARC
  5
434
330
207
100
AcDbEntity
  8
DEFAULT_2
  6
HIDDEN
 62
     8
100
AcDbCircle
 10
-192.4776990202803
 20
-35.92680486929381
 30
0.0
 40
0.50000000076
100
AcDbArc
 50
9.565459156900001
 51
88.00004328799998
1001
ACAD
1000
RTMaterial
1005
4BB
  0
ARC
  5
435
330
207
100
AcDbEntity
  8
DEFAULT_2
  6
HIDDEN
 62
     8
100
AcDbCircle
 10
-205.5846509368803
 20
76.22564211060617
 30
0.0
 40
0.29999999944
100
AcDbArc
 50
180.0
 51
269.0
1001
ACAD
1000
RTMaterial
1005
4BB
  0
ARC
  5
436
330
207
100
AcDbEntity
  8
DEFAULT_2
  6
HIDDEN
 62
     8
100
AcDbCircle
 10
-205.5846509368803
 20
62.58692245642617
 30
0.0
 40
0.29999999944
100
AcDbArc
 50
91.0
 51
180.0
1001
ACAD
1000
RTMaterial
1005
4BB
  0
ARC
  5
437
330
207
100
AcDbEntity
  8
DEFAULT_2
  6
HIDDEN
 62
     8
100
AcDbCircle
 10
-205.5846509368803
 20
-31.7743578884538
 30
0.0
 40
0.29999999944
100
AcDbArc
 50
180.0
 51
269.0
1001
ACAD
1000
RTMaterial
1005
4BB
  0
ARC
  5
438
330
207
100
AcDbEntity
  8
DEFAULT_2
  6
HIDDEN
 62
     8
100
AcDbCircle
 10
-205.5846509368803
 20
-45.41307754517379
 30
0.0
 40
0.29999999944
100
AcDbArc
 50
91.0
 51
180.0
1001
ACAD
1000
RTMaterial
1005
4BB
  0
ARC
  5
439
330
207
100
AcDbEntity
  8
DEFAULT_2
  6
HIDDEN
 62
     8
100
AcDbCircle
 10
-196.1846509358003
 20
-32.53852689605379
 30
0.0
 40
0.29999999944
100
AcDbArc
 50
0.0
 51
89.0
1001
ACAD
1000
RTMaterial
1005
4BB
  0
ARC
  5
43A
330
207
100
AcDbEntity
  8
DEFAULT_2
  6
HIDDEN
 62
     8
100
AcDbCircle
 10
-196.1846509358003
 20
-44.64890853757378
 30
0.0
 40
0.29999999944
100
AcDbArc
 50
271.0
 51
0.0
1001
ACAD
1000
RTMaterial
1005
4BB
  0
ARC
  5
43B
330
207
100
AcDbEntity
  8
DEFAULT_2
  6
HIDDEN
 62
     8
100
AcDbCircle
 10
-196.1846509358003
 20
75.46147310554622
 30
0.0
 40
0.29999999944
100
AcDbArc
 50
0.0
 51
89.0
1001
ACAD
1000
RTMaterial
1005
4BB
  0
ARC
  5
43C
330
207
100
AcDbEntity
  8
DEFAULT_2
  6
HIDDEN
 62
     8
100
AcDbCircle
 10
-196.1846509358003
 20
63.35109146148617
 30
0.0
 40
0.29999999944
100
AcDbArc
 50
271.0
 51
0.0
1001
ACAD
1000
RTMaterial
1005
4BB
  0
ARC
  5
43D
330
207
100
AcDbEntity
  8
0
  6
Continuous
 62
     7
100
AcDbCircle
 10
-131.4082045453404
 20
-39.04371771597381
 30
0.0
 40
7.968580882719998
100
AcDbArc
 50
180.0000000016
 51
270.0000000001
1001
ACAD
1000
RTMaterial
1005
4BB
  0
ARC
  5
43E
330
207
100
AcDbEntity
  8
0
  6
Continuous
 62
     7
100
AcDbCircle
 10
-131.4082045453404
 20
-39.04371771597381
 30
0.0
 40
7.609003354479999
100
AcDbArc
 50
180.0
 51
270.0
1001
ACAD
1000
RTMaterial
1005
4BB
  0
CIRCLE
  5
43F
330
207
100
AcDbEntity
  8
0
  6
Continuous
 62
     7
100
AcDbCircle
 10
-130.4082045438203
 20
-38.59371771681381
 30
0.0
 40
6.819359828359999
1001
ACAD
1000
RTMaterial
1005
4BB
  0
CIRCLE
  5
440
330
207
100
AcDbEntity
  8
0
  6
Continuous
 62
     7
100
AcDbCircle
 10
-130.4082045438203
 20
-38.59371771681381
 30
0.0
 40
6.519405518439999
1001
ACAD
1000
RTMaterial
1005
4BB
  0
ARC
  5
441
330
207
100
AcDbEntity
  8
0
  6
Continuous
 62
     7
100
AcDbCircle
 10
-131.4082045453404
 20
-39.04371771597381
 30
0.0
 40
6.388060467439999
100
AcDbArc
 50
179.9999999999
 51
269.9999999999
1001
ACAD
1000
RTMaterial
1005
4BB
  0
CIRCLE
  5
442
330
207
100
AcDbEntity
  8
0
  6
Continuous
 62
     7
100
AcDbCircle
 10
-130.4082045438203
 20
-38.59371771681381
 30
0.0
 40
6.35514513068
1001
ACAD
1000
RTMaterial
1005
4BB
  0
CIRCLE
  5
443
330
207
100
AcDbEntity
  8
0
  6
Continuous
 62
     7
100
AcDbCircle
 10
-130.4082045438203
 20
-38.59371771681381
 30
0.0
 40
6.05519082076
1001
ACAD
1000
RTMaterial
1005
4BB
  0
CIRCLE
  5
444
330
207
100
AcDbEntity
  8
DEFAULT_2
  6
HIDDEN
 62
     8
100
AcDbCircle
 10
-130.4082045438203
 20
-38.59371771681381
 30
0.0
 40
3.772077231039999
1001
ACAD
1000
RTMaterial
1005
4BB
  0
CIRCLE
  5
445
330
207
100
AcDbEntity
  8
DEFAULT_2
  6
HIDDEN
 62
     8
100
AcDbCircle
 10
-130.4082045438203
 20
-38.59371771681381
 30
0.0
 40
3.49969522818
1001
ACAD
1000
RTMaterial
1005
4BB
  0
CIRCLE
  5
446
330
207
100
AcDbEntity
  8
0
  6
Continuous
 62
     7
100
AcDbCircle
 10
-130.4082045438203
 20
-38.59371771681381
 30
0.0
 40
3.286191001899999
1001
ACAD
1000
RTMaterial
1005
4BB
  0
ARC
  5
447
330
207
100
AcDbEntity
  8
0
  6
Continuous
 62
     7
100
AcDbCircle
 10
-130.4082045438203
 20
-38.59371771681381
 30
0.0
 40
3.166608271799999
100
AcDbArc
 50
180.0
 51
178.8159336002
1001
ACAD
1000
RTMaterial
1005
4BB
  0
CIRCLE
  5
448
330
207
100
AcDbEntity
  8
0
  6
Continuous
 62
     7
100
AcDbCircle
 10
-130.4082045438203
 20
-38.59371771681381
 30
0.0
 40
2.749999999099999
1001
ACAD
1000
RTMaterial
1005
4BB
  0
ARC
  5
449
330
207
100
AcDbEntity
  8
DEFAULT_2
  6
HIDDEN
 62
     8
100
AcDbCircle
 10
-129.4582045439003
 20
-25.3937177160538
 30
0.0
 40
10.52437090956
100
AcDbArc
 50
0.0000000002
 51
89.99999999979999
1001
ACAD
1000
RTMaterial
1005
4BB
  0
ARC
  5
44A
330
207
100
AcDbEntity
  8
DEFAULT_2
  6
HIDDEN
 62
     8
100
AcDbCircle
 10
-129.4582045439003
 20
-25.3937177160538
 30
0.0
 40
10.21367075372
100
AcDbArc
 50
0.0000000002
 51
89.99999999979999
1001
ACAD
1000
RTMaterial
1005
4BB
  0
ARC
  5
44B
330
207
100
AcDbEntity
  8
DEFAULT_2
  6
HIDDEN
 62
     8
100
AcDbCircle
 10
-132.9445337917003
 20
-14.18004696335379
 30
0.0
 40
0.9999999989799999
100
AcDbArc
 50
180.0000139929
 51
270.0
1001
ACAD
1000
RTMaterial
1005
4BB
  0
ARC
  5
44C
330
207
100
AcDbEntity
  8
DEFAULT_2
  6
HIDDEN
 62
     8
100
AcDbCircle
 10
-132.9445337917003
 20
-14.18004696335379
 30
0.0
 40
0.6892998431399999
100
AcDbArc
 50
179.9999999999
 51
270.0
1001
ACAD
1000
RTMaterial
1005
4BB
  0
ARC
  5
44D
330
207
100
AcDbEntity
  8
DEFAULT_2
  6
HIDDEN
 62
     8
100
AcDbCircle
 10
-118.2445337912003
 20
-40.58004696233381
 30
0.0
 40
0.9999999989799999
100
AcDbArc
 50
180.0000139929
 51
270.0
1001
ACAD
1000
RTMaterial
1005
4BB
  0
ARC
  5
44E
330
207
100
AcDbEntity
  8
DEFAULT_2
  6
HIDDEN
 62
     8
100
AcDbCircle
 10
-118.2445337912003
 20
-40.58004696233381
 30
0.0
 40
0.6892998431399999
100
AcDbArc
 50
179.9999999999
 51
270.0
1001
ACAD
1000
RTMaterial
1005
4BB
  0
ARC
  5
44F
330
207
100
AcDbEntity
  8
DEFAULT_2
  6
HIDDEN
 62
     8
100
AcDbCircle
 10
-129.4582045439003
 20
56.20628228402621
 30
0.0
 40
10.52437090956
100
AcDbArc
 50
270.0000000002
 51
359.9999999998
1001
ACAD
1000
RTMaterial
1005
4BB
  0
ARC
  5
450
330
207
100
AcDbEntity
  8
DEFAULT_2
  6
HIDDEN
 62
     8
100
AcDbCircle
 10
-129.4582045439003
 20
56.20628228402621
 30
0.0
 40
10.21367075372
100
AcDbArc
 50
270.0000000002
 51
359.9999999998
1001
ACAD
1000
RTMaterial
1005
4BB
  0
ARC
  5
451
330
207
100
AcDbEntity
  8
DEFAULT_2
  6
HIDDEN
 62
     8
100
AcDbCircle
 10
-132.9445337917003
 20
44.99261153132618
 30
0.0
 40
0.9999999989799999
100
AcDbArc
 50
90.0
 51
180.0
1001
ACAD
1000
RTMaterial
1005
4BB
  0
ARC
  5
452
330
207
100
AcDbEntity
  8
DEFAULT_2
  6
HIDDEN
 62
     8
100
AcDbCircle
 10
-132.9445337917003
 20
44.99261153132618
 30
0.0
 40
0.6892998431399999
100
AcDbArc
 50
90.0
 51
180.0000000001
1001
ACAD
1000
RTMaterial
1005
4BB
  0
ARC
  5
453
330
207
100
AcDbEntity
  8
0
  6
Continuous
 62
     7
100
AcDbCircle
 10
-131.4082045453404
 20
69.85628228394617
 30
0.0
 40
7.968580882719998
100
AcDbArc
 50
89.9999999999
 51
179.9999999984
1001
ACAD
1000
RTMaterial
1005
4BB
  0
ARC
  5
454
330
207
100
AcDbEntity
  8
0
  6
Continuous
 62
     7
100
AcDbCircle
 10
-131.4082045453404
 20
69.85628228394617
 30
0.0
 40
7.609003354479999
100
AcDbArc
 50
90.0
 51
180.0
1001
ACAD
1000
RTMaterial
1005
4BB
  0
CIRCLE
  5
455
330
207
100
AcDbEntity
  8
0
  6
Continuous
 62
     7
100
AcDbCircle
 10
-130.4082045438203
 20
69.40628228478622
 30
0.0
 40
6.819359828359999
1001
ACAD
1000
RTMaterial
1005
4BB
  0
CIRCLE
  5
456
330
207
100
AcDbEntity
  8
0
  6
Continuous
 62
     7
100
AcDbCircle
 10
-130.4082045438203
 20
69.40628228478622
 30
0.0
 40
6.519405518439999
1001
ACAD
1000
RTMaterial
1005
4BB
  0
ARC
  5
457
330
207
100
AcDbEntity
  8
0
  6
Continuous
 62
     7
100
AcDbCircle
 10
-131.4082045453404
 20
69.85628228394617
 30
0.0
 40
6.388060467439999
100
AcDbArc
 50
90.0000000001
 51
180.0000000001
1001
ACAD
1000
RTMaterial
1005
4BB
  0
CIRCLE
  5
458
330
207
100
AcDbEntity
  8
0
  6
Continuous
 62
     7
100
AcDbCircle
 10
-130.4082045438203
 20
69.40628228478622
 30
0.0
 40
6.35514513068
1001
ACAD
1000
RTMaterial
1005
4BB
  0
CIRCLE
  5
459
330
207
100
AcDbEntity
  8
0
  6
Continuous
 62
     7
100
AcDbCircle
 10
-130.4082045438203
 20
69.40628228478622
 30
0.0
 40
6.05519082076
1001
ACAD
1000
RTMaterial
1005
4BB
  0
CIRCLE
  5
45A
330
207
100
AcDbEntity
  8
DEFAULT_2
  6
HIDDEN
 62
     8
100
AcDbCircle
 10
-130.4082045438203
 20
69.40628228478622
 30
0.0
 40
3.772077231039999
1001
ACAD
1000
RTMaterial
1005
4BB
  0
CIRCLE
  5
45B
330
207
100
AcDbEntity
  8
DEFAULT_2
  6
HIDDEN
 62
     8
100
AcDbCircle
 10
-130.4082045438203
 20
69.40628228478622
 30
0.0
 40
3.49969522818
1001
ACAD
1000
RTMaterial
1005
4BB
  0
CIRCLE
  5
45C
330
207
100
AcDbEntity
  8
0
  6
Continuous
 62
     7
100
AcDbCircle
 10
-130.4082045438203
 20
69.40628228478622
 30
0.0
 40
3.286191001899999
1001
ACAD
1000
RTMaterial
1005
4BB
  0
ARC
  5
45D
330
207
100
AcDbEntity
  8
0
  6
Continuous
 62
     7
100
AcDbCircle
 10
-130.4082045438203
 20
69.40628228478622
 30
0.0
 40
3.166608271799999
100
AcDbArc
 50
180.0
 51
178.8159336002
1001
ACAD
1000
RTMaterial
1005
4BB
  0
CIRCLE
  5
45E
330
207
100
AcDbEntity
  8
0
  6
Continuous
 62
     7
100
AcDbCircle
 10
-130.4082045438203
 20
69.40628228478622
 30
0.0
 40
2.749999999099999
1001
ACAD
1000
RTMaterial
1005
4BB
  0
ARC
  5
45F
330
207
100
AcDbEntity
  8
DEFAULT_2
  6
HIDDEN
 62
     8
100
AcDbCircle
 10
-118.2445337912003
 20
71.39261153030616
 30
0.0
 40
0.9999999989799999
100
AcDbArc
 50
90.0
 51
180.0
1001
ACAD
1000
RTMaterial
1005
4BB
  0
ARC
  5
460
330
207
100
AcDbEntity
  8
DEFAULT_2
  6
HIDDEN
 62
     8
100
AcDbCircle
 10
-118.2445337912003
 20
71.39261153030616
 30
0.0
 40
0.6892998431399999
100
AcDbArc
 50
90.0
 51
180.0000000001
1001
ACAD
1000
RTMaterial
1005
4BB
  0
ARC
  5
461
330
207
100
AcDbEntity
  8
DEFAULT_2
  6
HIDDEN
 62
     8
100
AcDbCircle
 10
201.5281247013197
 20
-40.58004696233381
 30
0.0
 40
0.9999999989799999
100
AcDbArc
 50
270.0
 51
0.0
1001
ACAD
1000
RTMaterial
1005
4BB
  0
ARC
  5
462
330
207
100
AcDbEntity
  8
DEFAULT_2
  6
HIDDEN
 62
     8
100
AcDbCircle
 10
201.5281247013197
 20
-40.58004696233381
 30
0.0
 40
0.6892998431399999
100
AcDbArc
 50
270.0
 51
0.0
1001
ACAD
1000
RTMaterial
1005
4BB
  0
CIRCLE
  5
463
330
207
100
AcDbEntity
  8
DEFAULT_2
  6
HIDDEN
 62
     8
100
AcDbCircle
 10
198.7017954568597
 20
-9.313717717113799
 30
0.0
 40
3.90000000034
1001
ACAD
1000
RTMaterial
1005
4BB
  0
CIRCLE
  5
464
330
207
100
AcDbEntity
  8
DEFAULT_2
  6
HIDDEN
 62
     8
100
AcDbCircle
 10
198.7017954568597
 20
-9.313717717113799
 30
0.0
 40
3.50000000024
1001
ACAD
1000
RTMaterial
1005
4BB
  0
ARC
  5
465
330
207
100
AcDbEntity
  8
DEFAULT_2
  6
HIDDEN
 62
     8
100
AcDbCircle
 10
196.3017954562596
 20
-10.61371771553378
 30
0.0
 40
0.19999999878
100
AcDbArc
 50
180.0
 51
0.0
1001
ACAD
1000
RTMaterial
1005
4BB
  0
ARC
  5
466
330
207
100
AcDbEntity
  8
DEFAULT_2
  6
HIDDEN
 62
     8
100
AcDbCircle
 10
196.3017954562596
 20
-8.013717716153774
 30
0.0
 40
0.19999999878
100
AcDbArc
 50
0.0
 51
180.0
1001
ACAD
1000
RTMaterial
1005
4BB
  0
ARC
  5
467
330
207
100
AcDbEntity
  8
DEFAULT_2
  6
HIDDEN
 62
     8
100
AcDbCircle
 10
197.6017954546796
 20
-11.36371771667378
 30
0.0
 40
0.19999999878
100
AcDbArc
 50
180.0
 51
0.0
1001
ACAD
1000
RTMaterial
1005
4BB
  0
ARC
  5
468
330
207
100
AcDbEntity
  8
DEFAULT_2
  6
HIDDEN
 62
     8
100
AcDbCircle
 10
197.6017954546796
 20
-7.263717717553774
 30
0.0
 40
0.19999999878
100
AcDbArc
 50
0.0
 51
180.0
1001
ACAD
1000
RTMaterial
1005
4BB
  0
ARC
  5
469
330
207
100
AcDbEntity
  8
DEFAULT_2
  6
HIDDEN
 62
     8
100
AcDbCircle
 10
198.9017954556397
 20
-12.11371771527382
 30
0.0
 40
0.19999999878
100
AcDbArc
 50
180.0
 51
0.0
1001
ACAD
1000
RTMaterial
1005
4BB
  0
ARC
  5
46A
330
207
100
AcDbEntity
  8
DEFAULT_2
  6
HIDDEN
 62
     8
100
AcDbCircle
 10
198.9017954556397
 20
-6.513717716413822
 30
0.0
 40
0.19999999878
100
AcDbArc
 50
0.0
 51
180.0
1001
ACAD
1000
RTMaterial
1005
4BB
  0
ARC
  5
46B
330
207
100
AcDbEntity
  8
DEFAULT_2
  6
HIDDEN
 62
     8
100
AcDbCircle
 10
201.5017954550197
 20
-9.313717717113799
 30
0.0
 40
0.19999999878
100
AcDbArc
 50
270.0
 51
90.0
1001
ACAD
1000
RTMaterial
1005
4BB
  0
ARC
  5
46C
330
207
100
AcDbEntity
  8
DEFAULT_2
  6
HIDDEN
 62
     8
100
AcDbCircle
 10
212.7417954565596
 20
-25.3937177160538
 30
0.0
 40
10.52437090956
100
AcDbArc
 50
101.1767231151
 51
179.9999999998
1001
ACAD
1000
RTMaterial
1005
4BB
  0
ARC
  5
46D
330
207
100
AcDbEntity
  8
DEFAULT_2
  6
HIDDEN
 62
     8
100
AcDbCircle
 10
212.7417954565596
 20
-25.3937177160538
 30
0.0
 40
10.3760028573
100
AcDbArc
 50
90.0
 51
101.3386446916
1001
ACAD
1000
RTMaterial
1005
4BB
  0
ARC
  5
46E
330
207
100
AcDbEntity
  8
DEFAULT_2
  6
HIDDEN
 62
     8
100
AcDbCircle
 10
212.7417954565596
 20
-25.3937177160538
 30
0.0
 40
10.21367075372
100
AcDbArc
 50
90.0000000002
 51
179.9999999998
1001
ACAD
1000
RTMaterial
1005
4BB
  0
ARC
  5
46F
330
207
100
AcDbEntity
  8
0
  6
Continuous
 62
     7
100
AcDbCircle
 10
214.6917954554596
 20
-39.04371771597381
 30
0.0
 40
7.968580882719998
100
AcDbArc
 50
269.9999999999
 51
359.9999999984
1001
ACAD
1000
RTMaterial
1005
4BB
  0
ARC
  5
470
330
207
100
AcDbEntity
  8
0
  6
Continuous
 62
     7
100
AcDbCircle
 10
214.6917954554596
 20
-39.04371771597381
 30
0.0
 40
7.609003354479999
100
AcDbArc
 50
270.0
 51
0.0
1001
ACAD
1000
RTMaterial
1005
4BB
  0
CIRCLE
  5
471
330
207
100
AcDbEntity
  8
0
  6
Continuous
 62
     7
100
AcDbCircle
 10
213.6917954564796
 20
-38.59371771681381
 30
0.0
 40
6.819359828359999
1001
ACAD
1000
RTMaterial
1005
4BB
  0
CIRCLE
  5
472
330
207
100
AcDbEntity
  8
0
  6
Continuous
 62
     7
100
AcDbCircle
 10
213.6917954564796
 20
-38.59371771681381
 30
0.0
 40
6.519405518439999
1001
ACAD
1000
RTMaterial
1005
4BB
  0
ARC
  5
473
330
207
100
AcDbEntity
  8
0
  6
Continuous
 62
     7
100
AcDbCircle
 10
214.6917954554596
 20
-39.04371771597381
 30
0.0
 40
6.388060467439999
100
AcDbArc
 50
270.0000000001
 51
0.0
1001
ACAD
1000
RTMaterial
1005
4BB
  0
CIRCLE
  5
474
330
207
100
AcDbEntity
  8
0
  6
Continuous
 62
     7
100
AcDbCircle
 10
213.6917954564796
 20
-38.59371771681381
 30
0.0
 40
6.35514513068
1001
ACAD
1000
RTMaterial
1005
4BB
  0
CIRCLE
  5
475
330
207
100
AcDbEntity
  8
0
  6
Continuous
 62
     7
100
AcDbCircle
 10
213.6917954564796
 20
-38.59371771681381
 30
0.0
 40
6.05519082076
1001
ACAD
1000
RTMaterial
1005
4BB
  0
CIRCLE
  5
476
330
207
100
AcDbEntity
  8
DEFAULT_2
  6
HIDDEN
 62
     8
100
AcDbCircle
 10
213.6917954564796
 20
-38.59371771681381
 30
0.0
 40
3.772077231039999
1001
ACAD
1000
RTMaterial
1005
4BB
  0
CIRCLE
  5
477
330
207
100
AcDbEntity
  8
DEFAULT_2
  6
HIDDEN
 62
     8
100
AcDbCircle
 10
213.6917954564796
 20
-38.59371771681381
 30
0.0
 40
3.49969522818
1001
ACAD
1000
RTMaterial
1005
4BB
  0
CIRCLE
  5
478
330
207
100
AcDbEntity
  8
0
  6
Continuous
 62
     7
100
AcDbCircle
 10
213.6917954564796
 20
-38.59371771681381
 30
0.0
 40
3.286191001899999
1001
ACAD
1000
RTMaterial
1005
4BB
  0
ARC
  5
479
330
207
100
AcDbEntity
  8
0
  6
Continuous
 62
     7
100
AcDbCircle
 10
213.6917954564796
 20
-38.59371771681381
 30
0.0
 40
3.166608271799999
100
AcDbArc
 50
180.0
 51
178.8159336002
1001
ACAD
1000
RTMaterial
1005
4BB
  0
CIRCLE
  5
47A
330
207
100
AcDbEntity
  8
0
  6
Continuous
 62
     7
100
AcDbCircle
 10
213.6917954564796
 20
-38.59371771681381
 30
0.0
 40
2.749999999099999
1001
ACAD
1000
RTMaterial
1005
4BB
  0
ARC
  5
47B
330
207
100
AcDbEntity
  8
DEFAULT_2
  6
HIDDEN
 62
     8
100
AcDbCircle
 10
210.7017954547797
 20
-9.313717717113799
 30
0.0
 40
4.499999999219999
100
AcDbArc
 50
0.0
 51
270.0
1001
ACAD
1000
RTMaterial
1005
4BB
  0
CIRCLE
  5
47C
330
207
100
AcDbEntity
  8
DEFAULT_2
  6
HIDDEN
 62
     8
100
AcDbCircle
 10
210.7017954547797
 20
-9.313717717113799
 30
0.0
 40
2.900209246559999
1001
ACAD
1000
RTMaterial
1005
4BB
  0
CIRCLE
  5
47D
330
207
100
AcDbEntity
  8
02___PRT_ALL_AXES
  6
HIDDEN
 62
     8
100
AcDbCircle
 10
210.7017954547797
 20
-9.313717717113799
 30
0.0
 40
2.400000000599999
1001
ACAD
1000
RTMaterial
1005
4BB
  0
ARC
  5
47E
330
207
100
AcDbEntity
  8
DEFAULT_2
  6
HIDDEN
 62
     8
100
AcDbCircle
 10
216.2281247018197
 20
-14.18004696335379
 30
0.0
 40
0.9999999989799999
100
AcDbArc
 50
270.0
 51
0.0
1001
ACAD
1000
RTMaterial
1005
4BB
  0
ARC
  5
47F
330
207
100
AcDbEntity
  8
DEFAULT_2
  6
HIDDEN
 62
     8
100
AcDbCircle
 10
216.2281247018197
 20
-14.18004696335379
 30
0.0
 40
0.8376678953999999
100
AcDbArc
 50
270.0000000026
 51
0.0
1001
ACAD
1000
RTMaterial
1005
4BB
  0
ARC
  5
480
330
207
100
AcDbEntity
  8
DEFAULT_2
  6
HIDDEN
 62
     8
100
AcDbCircle
 10
201.5281247013197
 20
71.39261153030616
 30
0.0
 40
0.9999999989799999
100
AcDbArc
 50
0.0000139929
 51
90.0
1001
ACAD
1000
RTMaterial
1005
4BB
  0
ARC
  5
481
330
207
100
AcDbEntity
  8
DEFAULT_2
  6
HIDDEN
 62
     8
100
AcDbCircle
 10
201.5281247013197
 20
71.39261153030616
 30
0.0
 40
0.6892998431399999
100
AcDbArc
 50
0.0
 51
90.0
1001
ACAD
1000
RTMaterial
1005
4BB
  0
ARC
  5
482
330
207
100
AcDbEntity
  8
DEFAULT_2
  6
HIDDEN
 62
     8
100
AcDbCircle
 10
212.7417954565596
 20
56.20628228402621
 30
0.0
 40
10.52437090956
100
AcDbArc
 50
180.0000000002
 51
269.9999999997999
1001
ACAD
1000
RTMaterial
1005
4BB
  0
ARC
  5
483
330
207
100
AcDbEntity
  8
DEFAULT_2
  6
HIDDEN
 62
     8
100
AcDbCircle
 10
212.7417954565596
 20
56.20628228402621
 30
0.0
 40
10.21367075372
100
AcDbArc
 50
180.0000000002
 51
269.9999999997999
1001
ACAD
1000
RTMaterial
1005
4BB
  0
ARC
  5
484
330
207
100
AcDbEntity
  8
DEFAULT_2
  6
HIDDEN
 62
     8
100
AcDbCircle
 10
216.2281247018197
 20
44.99261153132618
 30
0.0
 40
0.9999999989799999
100
AcDbArc
 50
0.0000139929
 51
90.0
1001
ACAD
1000
RTMaterial
1005
4BB
  0
ARC
  5
485
330
207
100
AcDbEntity
  8
DEFAULT_2
  6
HIDDEN
 62
     8
100
AcDbCircle
 10
216.2281247018197
 20
44.99261153132618
 30
0.0
 40
0.6892998431399999
100
AcDbArc
 50
0.0
 51
90.0
1001
ACAD
1000
RTMaterial
1005
4BB
  0
ARC
  5
486
330
207
100
AcDbEntity
  8
0
  6
Continuous
 62
     7
100
AcDbCircle
 10
214.6917954554596
 20
69.85628228394617
 30
0.0
 40
7.968580882719998
100
AcDbArc
 50
0.0000000016
 51
90.0000000001
1001
ACAD
1000
RTMaterial
1005
4BB
  0
ARC
  5
487
330
207
100
AcDbEntity
  8
0
  6
Continuous
 62
     7
100
AcDbCircle
 10
214.6917954554596
 20
69.85628228394617
 30
0.0
 40
7.609003354479999
100
AcDbArc
 50
0.0
 51
90.0
1001
ACAD
1000
RTMaterial
1005
4BB
  0
CIRCLE
  5
488
330
207
100
AcDbEntity
  8
0
  6
Continuous
 62
     7
100
AcDbCircle
 10
213.6917954564796
 20
69.40628228478622
 30
0.0
 40
6.819359828359999
1001
ACAD
1000
RTMaterial
1005
4BB
  0
CIRCLE
  5
489
330
207
100
AcDbEntity
  8
0
  6
Continuous
 62
     7
100
AcDbCircle
 10
213.6917954564796
 20
69.40628228478622
 30
0.0
 40
6.519405518439999
1001
ACAD
1000
RTMaterial
1005
4BB
  0
ARC
  5
48A
330
207
100
AcDbEntity
  8
0
  6
Continuous
 62
     7
100
AcDbCircle
 10
214.6917954554596
 20
69.85628228394617
 30
0.0
 40
6.388060467439999
100
AcDbArc
 50
0.0
 51
89.9999999999
1001
ACAD
1000
RTMaterial
1005
4BB
  0
CIRCLE
  5
48B
330
207
100
AcDbEntity
  8
0
  6
Continuous
 62
     7
100
AcDbCircle
 10
213.6917954564796
 20
69.40628228478622
 30
0.0
 40
6.35514513068
1001
ACAD
1000
RTMaterial
1005
4BB
  0
CIRCLE
  5
48C
330
207
100
AcDbEntity
  8
0
  6
Continuous
 62
     7
100
AcDbCircle
 10
213.6917954564796
 20
69.40628228478622
 30
0.0
 40
6.05519082076
1001
ACAD
1000
RTMaterial
1005
4BB
  0
CIRCLE
  5
48D
330
207
100
AcDbEntity
  8
DEFAULT_2
  6
HIDDEN
 62
     8
100
AcDbCircle
 10
213.6917954564796
 20
69.40628228478622
 30
0.0
 40
3.772077231039999
1001
ACAD
1000
RTMaterial
1005
4BB
  0
CIRCLE
  5
48E
330
207
100
AcDbEntity
  8
DEFAULT_2
  6
HIDDEN
 62
     8
100
AcDbCircle
 10
213.6917954564796
 20
69.40628228478622
 30
0.0
 40
3.49969522818
1001
ACAD
1000
RTMaterial
1005
4BB
  0
CIRCLE
  5
48F
330
207
100
AcDbEntity
  8
0
  6
Continuous
 62
     7
100
AcDbCircle
 10
213.6917954564796
 20
69.40628228478622
 30
0.0
 40
3.286191001899999
1001
ACAD
1000
RTMaterial
1005
4BB
  0
ARC
  5
490
330
207
100
AcDbEntity
  8
0
  6
Continuous
 62
     7
100
AcDbCircle
 10
213.6917954564796
 20
69.40628228478622
 30
0.0
 40
3.166608271799999
100
AcDbArc
 50
180.0
 51
178.8159336002
1001
ACAD
1000
RTMaterial
1005
4BB
  0
CIRCLE
  5
491
330
207
100
AcDbEntity
  8
0
  6
Continuous
 62
     7
100
AcDbCircle
 10
213.6917954564796
 20
69.40628228478622
 30
0.0
 40
2.749999999099999
1001
ACAD
1000
RTMaterial
1005
4BB
  0
ARC
  5
492
330
207
100
AcDbEntity
  8
DEFAULT_2
  6
HIDDEN
 62
     8
100
AcDbCircle
 10
-133.0751173913403
 20
137.3097569931861
 30
0.0
 40
0.50000000076
100
AcDbArc
 50
181.999956712
 51
260.4345408431
1001
ACAD
1000
RTMaterial
1005
4BB
  0
ARC
  5
493
330
207
100
AcDbEntity
  8
DEFAULT_2
  6
HIDDEN
 62
     8
100
AcDbCircle
 10
-127.7412916988403
 20
137.3097569931861
 30
0.0
 40
0.50000000076
100
AcDbArc
 50
279.5654591569
 51
358.000043288
1001
ACAD
1000
RTMaterial
1005
4BB
  0
ARC
  5
494
330
207
100
AcDbEntity
  8
DEFAULT_2
  6
HIDDEN
 62
     8
100
AcDbCircle
 10
-136.4633953645803
 20
141.0167089087062
 30
0.0
 40
0.29999999944
100
AcDbArc
 50
181.0000003864999
 51
270.0000000059
1001
ACAD
1000
RTMaterial
1005
4BB
  0
ARC
  5
495
330
207
100
AcDbEntity
  8
DEFAULT_2
  6
HIDDEN
 62
     8
100
AcDbCircle
 10
-124.3530137230603
 20
141.0167089087062
 30
0.0
 40
0.29999999944
100
AcDbArc
 50
270.0
 51
358.9999994146
1001
ACAD
1000
RTMaterial
1005
4BB
  0
ARC
  5
496
330
207
100
AcDbEntity
  8
DEFAULT_2
  6
HIDDEN
 62
     8
100
AcDbCircle
 10
-137.2275643721804
 20
150.4167089097862
 30
0.0
 40
0.29999999944
100
AcDbArc
 50
1.000000598099999
 51
89.99999719879999
1001
ACAD
1000
RTMaterial
1005
4BB
  0
ARC
  5
497
330
207
100
AcDbEntity
  8
DEFAULT_2
  6
HIDDEN
 62
     8
100
AcDbCircle
 10
-123.5888447154603
 20
150.4167089097862
 30
0.0
 40
0.29999999944
100
AcDbArc
 50
90.00000280120001
 51
178.9999994019
1001
ACAD
1000
RTMaterial
1005
4BB
  0
ARC
  5
498
330
207
100
AcDbEntity
  8
DEFAULT_2
  6
HIDDEN
 62
     8
100
AcDbCircle
 10
211.0248826089597
 20
137.3097569931861
 30
0.0
 40
0.50000000076
100
AcDbArc
 50
181.999956712
 51
260.4345408431
1001
ACAD
1000
RTMaterial
1005
4BB
  0
ARC
  5
499
330
207
100
AcDbEntity
  8
DEFAULT_2
  6
HIDDEN
 62
     8
100
AcDbCircle
 10
216.3587083014597
 20
137.3097569931861
 30
0.0
 40
0.50000000076
100
AcDbArc
 50
279.5654591569
 51
358.000043288
1001
ACAD
1000
RTMaterial
1005
4BB
  0
ARC
  5
49A
330
207
100
AcDbEntity
  8
DEFAULT_2
  6
HIDDEN
 62
     8
100
AcDbCircle
 10
207.6366046357196
 20
141.0167089087062
 30
0.0
 40
0.29999999944
100
AcDbArc
 50
181.0000003864999
 51
270.0000000059
1001
ACAD
1000
RTMaterial
1005
4BB
  0
ARC
  5
49B
330
207
100
AcDbEntity
  8
DEFAULT_2
  6
HIDDEN
 62
     8
100
AcDbCircle
 10
219.7469862772395
 20
141.0167089087062
 30
0.0
 40
0.29999999944
100
AcDbArc
 50
270.0
 51
358.9999994145
1001
ACAD
1000
RTMaterial
1005
4BB
  0
ARC
  5
49C
330
207
100
AcDbEntity
  8
DEFAULT_2
  6
HIDDEN
 62
     8
100
AcDbCircle
 10
206.8724356281197
 20
150.4167089097862
 30
0.0
 40
0.29999999944
100
AcDbArc
 50
1.000000598099999
 51
89.99999719879999
1001
ACAD
1000
RTMaterial
1005
4BB
  0
ARC
  5
49D
330
207
100
AcDbEntity
  8
DEFAULT_2
  6
HIDDEN
 62
     8
100
AcDbCircle
 10
220.5111552848396
 20
150.4167089097862
 30
0.0
 40
0.29999999944
100
AcDbArc
 50
90.00000280120001
 51
178.9999994019
1001
ACAD
1000
RTMaterial
1005
4BB
  0
ARC
  5
49E
330
207
100
AcDbEntity
  8
DEFAULT_2
  6
HIDDEN
 62
     8
100
AcDbCircle
 10
287.0309567839596
 20
66.73936943726616
 30
0.0
 40
0.50000000076
100
AcDbArc
 50
189.5654591569
 51
268.000043288
1001
ACAD
1000
RTMaterial
1005
4BB
  0
ARC
  5
49F
330
207
100
AcDbEntity
  8
DEFAULT_2
  6
HIDDEN
 62
     8
100
AcDbCircle
 10
287.0309567839596
 20
72.07319512976619
 30
0.0
 40
0.50000000076
100
AcDbArc
 50
91.99995671200001
 51
170.4345408431
1001
ACAD
1000
RTMaterial
1005
4BB
  0
ARC
  5
4A0
330
207
100
AcDbEntity
  8
DEFAULT_2
  6
HIDDEN
 62
     8
100
AcDbCircle
 10
287.0309567839596
 20
-41.2606305617938
 30
0.0
 40
0.50000000076
100
AcDbArc
 50
189.5654591569
 51
268.000043288
1001
ACAD
1000
RTMaterial
1005
4BB
  0
ARC
  5
4A1
330
207
100
AcDbEntity
  8
DEFAULT_2
  6
HIDDEN
 62
     8
100
AcDbCircle
 10
287.0309567839596
 20
-35.92680486929381
 30
0.0
 40
0.50000000076
100
AcDbArc
 50
91.99995671200001
 51
170.4345408431
1001
ACAD
1000
RTMaterial
1005
4BB
  0
ARC
  5
4A2
330
207
100
AcDbEntity
  8
DEFAULT_2
  6
HIDDEN
 62
     8
100
AcDbCircle
 10
300.1379086980196
 20
76.22564211060617
 30
0.0
 40
0.29999999944
100
AcDbArc
 50
271.0
 51
0.0
1001
ACAD
1000
RTMaterial
1005
4BB
  0
ARC
  5
4A3
330
207
100
AcDbEntity
  8
DEFAULT_2
  6
HIDDEN
 62
     8
100
AcDbCircle
 10
300.1379086980196
 20
62.58692245642617
 30
0.0
 40
0.29999999944
100
AcDbArc
 50
0.0
 51
89.0
1001
ACAD
1000
RTMaterial
1005
4BB
  0
ARC
  5
4A4
330
207
100
AcDbEntity
  8
DEFAULT_2
  6
HIDDEN
 62
     8
100
AcDbCircle
 10
300.1379086980196
 20
-31.7743578884538
 30
0.0
 40
0.29999999944
100
AcDbArc
 50
271.0
 51
0.0
1001
ACAD
1000
RTMaterial
1005
4BB
  0
ARC
  5
4A5
330
207
100
AcDbEntity
  8
DEFAULT_2
  6
HIDDEN
 62
     8
100
AcDbCircle
 10
300.1379086980196
 20
-45.41307754517379
 30
0.0
 40
0.29999999944
100
AcDbArc
 50
0.0
 51
89.0
1001
ACAD
1000
RTMaterial
1005
4BB
  0
ARC
  5
4A6
330
207
100
AcDbEntity
  8
DEFAULT_2
  6
HIDDEN
 62
     8
100
AcDbCircle
 10
290.7379086994796
 20
-32.53852689605379
 30
0.0
 40
0.29999999944
100
AcDbArc
 50
91.0
 51
180.0
1001
ACAD
1000
RTMaterial
1005
4BB
  0
ARC
  5
4A7
330
207
100
AcDbEntity
  8
DEFAULT_2
  6
HIDDEN
 62
     8
100
AcDbCircle
 10
290.7379086994796
 20
-44.64890853757378
 30
0.0
 40
0.29999999944
100
AcDbArc
 50
180.0
 51
269.0
1001
ACAD
1000
RTMaterial
1005
4BB
  0
ARC
  5
4A8
330
207
100
AcDbEntity
  8
DEFAULT_2
  6
HIDDEN
 62
     8
100
AcDbCircle
 10
290.7379086994796
 20
75.46147310554622
 30
0.0
 40
0.29999999944
100
AcDbArc
 50
91.0
 51
180.0
1001
ACAD
1000
RTMaterial
1005
4BB
  0
ARC
  5
4A9
330
207
100
AcDbEntity
  8
DEFAULT_2
  6
HIDDEN
 62
     8
100
AcDbCircle
 10
290.7379086994796
 20
63.35109146148617
 30
0.0
 40
0.29999999944
100
AcDbArc
 50
180.0
 51
269.0
1001
ACAD
1000
RTMaterial
1005
4BB
  0
ARC
  5
4AA
330
207
100
AcDbEntity
  8
DEFAULT_2
  6
HIDDEN
 62
     8
100
AcDbCircle
 10
-137.2275643721804
 20
-131.2219353403738
 30
0.0
 40
0.29999999944
100
AcDbArc
 50
270.0000028012
 51
358.9999994019
1001
ACAD
1000
RTMaterial
1005
4BB
  0
ARC
  5
4AB
330
207
100
AcDbEntity
  8
DEFAULT_2
  6
HIDDEN
 62
     8
100
AcDbCircle
 10
-123.5888447154603
 20
-131.2219353403738
 30
0.0
 40
0.29999999944
100
AcDbArc
 50
181.0000005981
 51
269.9999971988
1001
ACAD
1000
RTMaterial
1005
4BB
  0
ARC
  5
4AC
330
207
100
AcDbEntity
  8
DEFAULT_2
  6
HIDDEN
 62
     8
100
AcDbCircle
 10
-133.0751173913403
 20
-118.1149834237738
 30
0.0
 40
0.50000000076
100
AcDbArc
 50
99.56545915690002
 51
178.000043288
1001
ACAD
1000
RTMaterial
1005
4BB
  0
ARC
  5
4AD
330
207
100
AcDbEntity
  8
DEFAULT_2
  6
HIDDEN
 62
     8
100
AcDbCircle
 10
-127.7412916988403
 20
-118.1149834237738
 30
0.0
 40
0.50000000076
100
AcDbArc
 50
1.999956712
 51
80.43454084310001
1001
ACAD
1000
RTMaterial
1005
4BB
  0
ARC
  5
4AE
330
207
100
AcDbEntity
  8
DEFAULT_2
  6
HIDDEN
 62
     8
100
AcDbCircle
 10
-136.4633953645803
 20
-121.8219353392938
 30
0.0
 40
0.29999999944
100
AcDbArc
 50
89.99999999409999
 51
178.9999996135
1001
ACAD
1000
RTMaterial
1005
4BB
  0
ARC
  5
4AF
330
207
100
AcDbEntity
  8
DEFAULT_2
  6
HIDDEN
 62
     8
100
AcDbCircle
 10
-124.3530137230603
 20
-121.8219353392938
 30
0.0
 40
0.29999999944
100
AcDbArc
 50
1.0000005854
 51
90.0
1001
ACAD
1000
RTMaterial
1005
4BB
  0
ARC
  5
4B0
330
207
100
AcDbEntity
  8
DEFAULT_2
  6
HIDDEN
 62
     8
100
AcDbCircle
 10
206.8724356281197
 20
-131.2219353403738
 30
0.0
 40
0.29999999944
100
AcDbArc
 50
270.0000028012
 51
358.9999994019
1001
ACAD
1000
RTMaterial
1005
4BB
  0
ARC
  5
4B1
330
207
100
AcDbEntity
  8
DEFAULT_2
  6
HIDDEN
 62
     8
100
AcDbCircle
 10
220.5111552848396
 20
-131.2219353403738
 30
0.0
 40
0.29999999944
100
AcDbArc
 50
181.0000005981
 51
269.9999971988
1001
ACAD
1000
RTMaterial
1005
4BB
  0
ARC
  5
4B2
330
207
100
AcDbEntity
  8
DEFAULT_2
  6
HIDDEN
 62
     8
100
AcDbCircle
 10
211.0248826089597
 20
-118.1149834237738
 30
0.0
 40
0.50000000076
100
AcDbArc
 50
99.56545915690002
 51
178.000043288
1001
ACAD
1000
RTMaterial
1005
4BB
  0
ARC
  5
4B3
330
207
100
AcDbEntity
  8
DEFAULT_2
  6
HIDDEN
 62
     8
100
AcDbCircle
 10
216.3587083014597
 20
-118.1149834237738
 30
0.0
 40
0.50000000076
100
AcDbArc
 50
1.999956712
 51
80.43454084310001
1001
ACAD
1000
RTMaterial
1005
4BB
  0
ARC
  5
4B4
330
207
100
AcDbEntity
  8
DEFAULT_2
  6
HIDDEN
 62
     8
100
AcDbCircle
 10
207.6366046357196
 20
-121.8219353392938
 30
0.0
 40
0.29999999944
100
AcDbArc
 50
89.99999999409999
 51
178.9999996135
1001
ACAD
1000
RTMaterial
1005
4BB
  0
ARC
  5
4B5
330
207
100
AcDbEntity
  8
DEFAULT_2
  6
HIDDEN
 62
     8
100
AcDbCircle
 10
219.7469862772395
 20
-121.8219353392938
 30
0.0
 40
0.29999999944
100
AcDbArc
 50
1.0000005855
 51
90.0
1001
ACAD
1000
RTMaterial
1005
4BB
  0
ENDSEC
  0
SECTION
  2
OBJECTS
  0
DICTIONARY
  5
C
330
0
100
AcDbDictionary
281
     1
  3
ACAD_COLOR
350
4E4
  3
ACAD_GROUP
350
D
  3
ACAD_LAYOUT
350
1A
  3
ACAD_MATERIAL
350
4BA
  3
ACAD_MLEADERSTYLE
350
509
  3
ACAD_MLINESTYLE
350
17
  3
ACAD_PLOTSETTINGS
350
19
  3
ACAD_PLOTSTYLENAME
350
E
  3
ACAD_SCALELIST
350
4E7
  3
ACAD_TABLESTYLE
350
4E5
  3
ACAD_VISUALSTYLE
350
4D3
  3
ACDB_RECOMPOSE_DATA
350
50E
  3
ACDBHEADERROUNDTRIPXREC
350
53C
  3
AcDbVariableDictionary
350
52D
  3
DWGPROPS
350
53B
  0
DICTIONARY
  5
50F
330
8
100
AcDbDictionary
280
     1
281
     1
  3
ACAD_XREC_ROUNDTRIP
360
510
  0
DICTIONARY
  5
511
330
10
100
AcDbDictionary
280
     1
281
     1
  3
ACAD_XREC_ROUNDTRIP
360
512
  0
DICTIONARY
  5
513
330
1FA
100
AcDbDictionary
280
     1
281
     1
  3
ACAD_XREC_ROUNDTRIP
360
514
  0
DICTIONARY
  5
515
330
1FB
100
AcDbDictionary
280
     1
281
     1
  3
ACAD_XREC_ROUNDTRIP
360
516
  0
DICTIONARY
  5
517
330
1FC
100
AcDbDictionary
280
     1
281
     1
  3
ACAD_XREC_ROUNDTRIP
360
518
  0
DICTIONARY
  5
519
330
1FD
100
AcDbDictionary
280
     1
281
     1
  3
ACAD_XREC_ROUNDTRIP
360
51A
  0
DICTIONARY
  5
51B
330
1FE
100
AcDbDictionary
280
     1
281
     1
  3
ACAD_XREC_ROUNDTRIP
360
51C
  0
DICTIONARY
  5
51D
330
1FF
100
AcDbDictionary
280
     1
281
     1
  3
ACAD_XREC_ROUNDTRIP
360
51E
  0
DICTIONARY
  5
51F
330
200
100
AcDbDictionary
280
     1
281
     1
  3
ACAD_XREC_ROUNDTRIP
360
520
  0
DICTIONARY
  5
521
330
201
100
AcDbDictionary
280
     1
281
     1
  3
ACAD_XREC_ROUNDTRIP
360
522
  0
DICTIONARY
  5
523
330
202
100
AcDbDictionary
280
     1
281
     1
  3
ACAD_XREC_ROUNDTRIP
360
524
  0
DICTIONARY
  5
525
330
203
100
AcDbDictionary
280
     1
281
     1
  3
ACAD_XREC_ROUNDTRIP
360
526
  0
DICTIONARY
  5
527
330
204
100
AcDbDictionary
280
     1
281
     1
  3
ACAD_XREC_ROUNDTRIP
360
528
  0
DICTIONARY
  5
4E4
102
{ACAD_REACTORS
330
C
102
}
330
C
100
AcDbDictionary
281
     1
  0
DICTIONARY
  5
D
102
{ACAD_REACTORS
330
C
102
}
330
C
100
AcDbDictionary
281
     1
  0
DICTIONARY
  5
1A
102
{ACAD_REACTORS
330
C
102
}
330
C
100
AcDbDictionary
281
     1
  3
Layout1
350
4B7
  3
Model
350
4B6
  0
DICTIONARY
  5
4BA
102
{ACAD_REACTORS
330
C
102
}
330
C
100
AcDbDictionary
281
     1
  3
ByBlock
350
4C3
  3
ByLayer
350
4BB
  3
Global
350
4CB
  0
DICTIONARY
  5
509
102
{ACAD_REACTORS
330
C
102
}
330
C
100
AcDbDictionary
281
     1
  3
Standard
350
50A
  0
DICTIONARY
  5
17
102
{ACAD_REACTORS
330
C
102
}
330
C
100
AcDbDictionary
281
     1
  3
Standard
350
18
  0
DICTIONARY
  5
19
102
{ACAD_REACTORS
330
C
102
}
330
C
100
AcDbDictionary
281
     1
  0
ACDBDICTIONARYWDFLT
  5
E
102
{ACAD_REACTORS
330
C
102
}
330
C
100
AcDbDictionary
281
     1
  3
Normal
350
F
100
AcDbDictionaryWithDefault
340
F
  0
DICTIONARY
  5
4E7
102
{ACAD_REACTORS
330
C
102
}
330
C
100
AcDbDictionary
281
     1
  3
A0
350
4E8
  3
A1
350
4E9
  3
A2
350
4EA
  3
A3
350
4EB
  3
A4
350
4EC
  3
A5
350
4ED
  3
A6
350
4EE
  3
A7
350
4EF
  3
A8
350
4F0
  3
A9
350
4F1
  3
B0
350
4F2
  3
B1
350
4F3
  3
B2
350
4F4
  3
B3
350
4F5
  3
B4
350
4F6
  3
B5
350
4F7
  3
B6
350
4F8
  3
B7
350
4F9
  3
B8
350
4FA
  3
B9
350
4FB
  3
C0
350
4FC
  3
C1
350
4FD
  3
C2
350
4FE
  3
C3
350
4FF
  3
C4
350
500
  3
C5
350
501
  3
C6
350
502
  3
C7
350
503
  3
C8
350
504
  3
C9
350
505
  3
D0
350
506
  3
D1
350
507
  3
D2
350
508
  0
DICTIONARY
  5
4E5
102
{ACAD_REACTORS
330
C
102
}
330
C
100
AcDbDictionary
281
     1
  3
Standard
350
4E6
  0
DICTIONARY
  5
4D3
102
{ACAD_REACTORS
330
C
102
}
330
C
100
AcDbDictionary
281
     1
  3
2dWireframe
350
4D9
  3
3D Hidden
350
4DB
  3
3dWireframe
350
4DA
  3
Basic
350
4D8
  3
Brighten
350
4DF
  3
ColorChange
350
4E3
  3
Conceptual
350
4DC
  3
Dim
350
4DE
  3
Facepattern
350
4E2
  3
Flat
350
4D4
  3
FlatWithEdges
350
4D5
  3
Gouraud
350
4D6
  3
GouraudWithEdges
350
4D7
  3
Linepattern
350
4E1
  3
Realistic
350
4DD
  3
Thicken
350
4E0
  0
XRECORD
  5
50E
102
{ACAD_REACTORS
330
C
102
}
330
C
100
AcDbXrecord
280
     1
 90
        1
330
4E6
  0
DICTIONARY
  5
53C
102
{ACAD_REACTORS
330
C
102
}
330
C
100
AcDbDictionary
281
     1
  3
COLORDICT
350
53E
  3
MATERIALDICT
350
53D
  0
DICTIONARY
  5
52D
102
{ACAD_REACTORS
330
C
102
}
330
C
100
AcDbDictionary
281
     1
  3
CANNOSCALE
350
530
  3
CMLEADERSTYLE
350
52F
  3
CTABLESTYLE
350
52E
  3
DIMASSOC
350
538
  3
HIDETEXT
350
537
  3
PROJECTNAME
350
539
  0
XRECORD
  5
53B
102
{ACAD_REACTORS
330
C
102
}
330
C
100
AcDbXrecord
280
     1
  1
DWGPROPS COOKIE
  2

  3

  4

  6

  7

  8

  9

300
=
301
=
302
=
303
=
304
=
305
=
306
=
307
=
308
=
309
=
 40
0.0009528703703704
 41
2456503.554813369
 42
2456503.557300162
  1

 90
        0
  0
XRECORD
  5
510
102
{ACAD_REACTORS
330
50F
102
}
330
50F
100
AcDbXrecord
280
     1
102
VTR_0.000_0.000_1.000_1.000_VISUALSTYLE
340
4D9
102
VTR_0.000_0.000_1.000_1.000_GRIDDISPLAY
 70
     3
102
VTR_0.000_0.000_1.000_1.000_GRIDMAJOR
 70
     5
102
VTR_0.000_0.000_1.000_1.000_DEFAULTLIGHTING
280
     1
102
VTR_0.000_0.000_1.000_1.000_DEFAULTLIGHTINGTYPE
 70
     1
102
VTR_0.000_0.000_1.000_1.000_BRIGHTNESS
141
0.0
102
VTR_0.000_0.000_1.000_1.000_CONTRAST
142
0.0
  0
XRECORD
  5
512
102
{ACAD_REACTORS
330
511
102
}
330
511
100
AcDbXrecord
280
     1
102
MATERIAL
340
4CB
  0
XRECORD
  5
514
102
{ACAD_REACTORS
330
513
102
}
330
513
100
AcDbXrecord
280
     1
102
MATERIAL
340
4CB
  0
XRECORD
  5
516
102
{ACAD_REACTORS
330
515
102
}
330
515
100
AcDbXrecord
280
     1
102
MATERIAL
340
4CB
  0
XRECORD
  5
518
102
{ACAD_REACTORS
330
517
102
}
330
517
100
AcDbXrecord
280
     1
102
MATERIAL
340
4CB
  0
XRECORD
  5
51A
102
{ACAD_REACTORS
330
519
102
}
330
519
100
AcDbXrecord
280
     1
102
MATERIAL
340
4CB
  0
XRECORD
  5
51C
102
{ACAD_REACTORS
330
51B
102
}
330
51B
100
AcDbXrecord
280
     1
102
MATERIAL
340
4CB
  0
XRECORD
  5
51E
102
{ACAD_REACTORS
330
51D
102
}
330
51D
100
AcDbXrecord
280
     1
102
MATERIAL
340
4CB
  0
XRECORD
  5
520
102
{ACAD_REACTORS
330
51F
102
}
330
51F
100
AcDbXrecord
280
     1
102
MATERIAL
340
4CB
  0
XRECORD
  5
522
102
{ACAD_REACTORS
330
521
102
}
330
521
100
AcDbXrecord
280
     1
102
MATERIAL
340
4CB
  0
XRECORD
  5
524
102
{ACAD_REACTORS
330
523
102
}
330
523
100
AcDbXrecord
280
     1
102
MATERIAL
340
4CB
  0
XRECORD
  5
526
102
{ACAD_REACTORS
330
525
102
}
330
525
100
AcDbXrecord
280
     1
102
MATERIAL
340
4CB
  0
XRECORD
  5
528
102
{ACAD_REACTORS
330
527
102
}
330
527
100
AcDbXrecord
280
     1
102
MATERIAL
340
4CB
  0
LAYOUT
  5
4B7
102
{ACAD_XDICTIONARY
360
541
102
}
102
{ACAD_REACTORS
330
1A
102
}
330
1A
100
AcDbPlotSettings
  1

  2
none_device
  4
ANSI_C_(22.00_x_17.00_Inches)
  6

 40
0.0
 41
0.0
 42
0.0
 43
0.0
 44
558.8
 45
431.8
 46
0.0
 47
0.0
 48
0.0
 49
0.0
140
0.0
141
0.0
142
1.0
143
1.0
 70
     0
 72
     0
 73
     0
 74
     0
  7

 75
     0
147
1.0
148
0.0
149
0.0
100
AcDbLayout
  1
Layout1
 70
     1
 71
     1
 10
0.0
 20
0.0
 11
12.0
 21
9.0
 12
0.0
 22
0.0
 32
0.0
 14
1.000000000000000E+20
 24
1.000000000000000E+20
 34
1.000000000000000E+20
 15
-1.000000000000000E+20
 25
-1.000000000000000E+20
 35
-1.000000000000000E+20
146
0.0
 13
0.0
 23
0.0
 33
0.0
 16
1.0
 26
0.0
 36
0.0
 17
0.0
 27
1.0
 37
0.0
 76
     0
330
208
  0
LAYOUT
  5
4B6
102
{ACAD_XDICTIONARY
360
53F
102
}
102
{ACAD_REACTORS
330
1A
102
}
330
1A
100
AcDbPlotSettings
  1

  2
none_device
  4
ANSI_C_(22.00_x_17.00_Inches)
  6

 40
0.0
 41
0.0
 42
0.0
 43
0.0
 44
558.8
 45
431.8
 46
0.0
 47
0.0
 48
0.0
 49
0.0
140
0.0
141
0.0
142
1.0
143
1.0
 70
  1024
 72
     0
 73
     0
 74
     0
  7

 75
     0
147
1.0
148
0.0
149
0.0
100
AcDbLayout
  1
Model
 70
     0
 71
     0
 10
0.0
 20
0.0
 11
22.0
 21
17.0
 12
0.0
 22
0.0
 32
0.0
 14
0.0
 24
0.0
 34
0.0
 15
0.0
 25
0.0
 35
0.0
146
0.0
 13
0.0
 23
0.0
 33
0.0
 16
1.0
 26
0.0
 36
0.0
 17
0.0
 27
1.0
 37
0.0
 76
     0
330
207
  0
MATERIAL
  5
4C3
102
{ACAD_XDICTIONARY
360
4C4
102
}
102
{ACAD_REACTORS
330
4BA
102
}
330
4BA
100
AcDbMaterial
  1
ByBlock
 72
     0
 73
     2
 43
0.0208333333333333
 43
0.0
 43
0.0
 43
0.0
 43
0.0
 43
0.0208333333333333
 43
0.0
 43
0.0
 43
0.0
 43
0.0
 43
1.0
 43
0.0
 43
0.0
 43
0.0
 43
0.0
 43
1.0
 77
     0
 78
     2
 47
0.0208333333333333
 47
0.0
 47
0.0
 47
0.0
 47
0.0
 47
0.0208333333333333
 47
0.0
 47
0.0
 47
0.0
 47
0.0
 47
1.0
 47
0.0
 47
0.0
 47
0.0
 47
0.0
 47
1.0
171
     0
172
     2
 49
0.0208333333333333
 49
0.0
 49
0.0
 49
0.0
 49
0.0
 49
0.0208333333333333
 49
0.0
 49
0.0
 49
0.0
 49
0.0
 49
1.0
 49
0.0
 49
0.0
 49
0.0
 49
0.0
 49
1.0
175
     0
176
     2
142
0.0208333333333333
142
0.0
142
0.0
142
0.0
142
0.0
142
0.0208333333333333
142
0.0
142
0.0
142
0.0
142
0.0
142
1.0
142
0.0
142
0.0
142
0.0
142
0.0
142
1.0
179
     0
270
     2
144
0.0208333333333333
144
0.0
144
0.0
144
0.0
144
0.0
144
0.0208333333333333
144
0.0
144
0.0
144
0.0
144
0.0
144
1.0
144
0.0
144
0.0
144
0.0
144
0.0
144
1.0
274
     2
147
0.0208333333333333
147
0.0
147
0.0
147
0.0
147
0.0
147
0.0208333333333333
147
0.0
147
0.0
147
0.0
147
0.0
147
1.0
147
0.0
147
0.0
147
0.0
147
0.0
147
1.0
  0
MATERIAL
  5
4BB
102
{ACAD_XDICTIONARY
360
4BC
102
}
102
{ACAD_REACTORS
330
4BA
102
}
330
4BA
100
AcDbMaterial
  1
ByLayer
 72
     0
 73
     2
 43
0.0208333333333333
 43
0.0
 43
0.0
 43
0.0
 43
0.0
 43
0.0208333333333333
 43
0.0
 43
0.0
 43
0.0
 43
0.0
 43
1.0
 43
0.0
 43
0.0
 43
0.0
 43
0.0
 43
1.0
 77
     0
 78
     2
 47
0.0208333333333333
 47
0.0
 47
0.0
 47
0.0
 47
0.0
 47
0.0208333333333333
 47
0.0
 47
0.0
 47
0.0
 47
0.0
 47
1.0
 47
0.0
 47
0.0
 47
0.0
 47
0.0
 47
1.0
171
     0
172
     2
 49
0.0208333333333333
 49
0.0
 49
0.0
 49
0.0
 49
0.0
 49
0.0208333333333333
 49
0.0
 49
0.0
 49
0.0
 49
0.0
 49
1.0
 49
0.0
 49
0.0
 49
0.0
 49
0.0
 49
1.0
175
     0
176
     2
142
0.0208333333333333
142
0.0
142
0.0
142
0.0
142
0.0
142
0.0208333333333333
142
0.0
142
0.0
142
0.0
142
0.0
142
1.0
142
0.0
142
0.0
142
0.0
142
0.0
142
1.0
179
     0
270
     2
144
0.0208333333333333
144
0.0
144
0.0
144
0.0
144
0.0
144
0.0208333333333333
144
0.0
144
0.0
144
0.0
144
0.0
144
1.0
144
0.0
144
0.0
144
0.0
144
0.0
144
1.0
274
     2
147
0.0208333333333333
147
0.0
147
0.0
147
0.0
147
0.0
147
0.0208333333333333
147
0.0
147
0.0
147
0.0
147
0.0
147
1.0
147
0.0
147
0.0
147
0.0
147
0.0
147
1.0
  0
MATERIAL
  5
4CB
102
{ACAD_XDICTIONARY
360
4CC
102
}
102
{ACAD_REACTORS
330
4BA
102
}
330
4BA
100
AcDbMaterial
  1
Global
 72
     0
 73
     2
 43
0.0208333333333333
 43
0.0
 43
0.0
 43
0.0
 43
0.0
 43
0.0208333333333333
 43
0.0
 43
0.0
 43
0.0
 43
0.0
 43
1.0
 43
0.0
 43
0.0
 43
0.0
 43
0.0
 43
1.0
 77
     0
 78
     2
 47
0.0208333333333333
 47
0.0
 47
0.0
 47
0.0
 47
0.0
 47
0.0208333333333333
 47
0.0
 47
0.0
 47
0.0
 47
0.0
 47
1.0
 47
0.0
 47
0.0
 47
0.0
 47
0.0
 47
1.0
171
     0
172
     2
 49
0.0208333333333333
 49
0.0
 49
0.0
 49
0.0
 49
0.0
 49
0.0208333333333333
 49
0.0
 49
0.0
 49
0.0
 49
0.0
 49
1.0
 49
0.0
 49
0.0
 49
0.0
 49
0.0
 49
1.0
175
     0
176
     2
142
0.0208333333333333
142
0.0
142
0.0
142
0.0
142
0.0
142
0.0208333333333333
142
0.0
142
0.0
142
0.0
142
0.0
142
1.0
142
0.0
142
0.0
142
0.0
142
0.0
142
1.0
179
     0
270
     2
144
0.0208333333333333
144
0.0
144
0.0
144
0.0
144
0.0
144
0.0208333333333333
144
0.0
144
0.0
144
0.0
144
0.0
144
1.0
144
0.0
144
0.0
144
0.0
144
0.0
144
1.0
274
     2
147
0.0208333333333333
147
0.0
147
0.0
147
0.0
147
0.0
147
0.0208333333333333
147
0.0
147
0.0
147
0.0
147
0.0
147
1.0
147
0.0
147
0.0
147
0.0
147
0.0
147
1.0
  0
ACAD_PROXY_OBJECT
  5
50A
102
{ACAD_REACTORS
330
509
102
}
330
509
100
AcDbProxyObject
 90
      499
 91
      507
 95
  6815769
 70
     0
 93
      744
310
40901902A40600000030400FEFFFFFF815AF46E07A156E7F02B5E8DC0F42B5CFD095374616E646172640002B5E8DC0F42B1CFE405064068000000C10002B5E8DC0F42B1CFC02B5E8DC0F42B1CFE000000304015D90000000000000C03F00
340
14
340
0
340
11
340
0
 94
        0
1001
ACAD_MLEADERVER
1070
     2
1001
ACAD
1000
AcRTDxfName
1000
MLEADERSTYLE
  0
MLINESTYLE
  5
18
102
{ACAD_REACTORS
330
17
102
}
330
17
100
AcDbMlineStyle
  2
STANDARD
 70
     0
  3

 62
   256
 51
90.0
 52
90.0
 71
     2
 49
0.5
 62
   256
  6
BYLAYER
 49
-0.5
 62
   256
  6
BYLAYER
  0
ACDBPLACEHOLDER
  5
F
102
{ACAD_REACTORS
330
E
102
}
330
E
  0
ACAD_PROXY_OBJECT
  5
4E8
102
{ACAD_REACTORS
330
4E7
102
}
330
4E7
100
AcDbProxyObject
 90
      499
 91
      506
 95
  6815769
 70
     0
 93
       49
310
904313A3100588
 94
        0
1001
ACAD
1000
AcRTDxfName
1000
SCALE
  0
ACAD_PROXY_OBJECT
  5
4E9
102
{ACAD_REACTORS
330
4E7
102
}
330
4E7
100
AcDbProxyObject
 90
      499
 91
      506
 95
  6815769
 70
     0
 93
      113
310
904313A3200400000000000000406B
 94
        0
1001
ACAD
1000
AcRTDxfName
1000
SCALE
  0
ACAD_PROXY_OBJECT
  5
4EA
102
{ACAD_REACTORS
330
4E7
102
}
330
4E7
100
AcDbProxyObject
 90
      499
 91
      506
 95
  6815769
 70
     0
 93
      113
310
904313A3400400000000000010407E
 94
        0
1001
ACAD
1000
AcRTDxfName
1000
SCALE
  0
ACAD_PROXY_OBJECT
  5
4EB
102
{ACAD_REACTORS
330
4E7
102
}
330
4E7
100
AcDbProxyObject
 90
      499
 91
      506
 95
  6815769
 70
     0
 93
      113
310
904313A3500400000000000014406B
 94
        0
1001
ACAD
1000
AcRTDxfName
1000
SCALE
  0
ACAD_PROXY_OBJECT
  5
4EC
102
{ACAD_REACTORS
330
4E7
102
}
330
4E7
100
AcDbProxyObject
 90
      499
 91
      506
 95
  6815769
 70
     0
 93
      113
310
904313A3800400000000000020406B
 94
        0
1001
ACAD
1000
AcRTDxfName
1000
SCALE
  0
ACAD_PROXY_OBJECT
  5
4ED
102
{ACAD_REACTORS
330
4E7
102
}
330
4E7
100
AcDbProxyObject
 90
      499
 91
      506
 95
  6815769
 70
     0
 93
      121
310
905313A3130004000000000000244051
 94
        0
1001
ACAD
1000
AcRTDxfName
1000
SCALE
  0
ACAD_PROXY_OBJECT
  5
4EE
102
{ACAD_REACTORS
330
4E7
102
}
330
4E7
100
AcDbProxyObject
 90
      499
 91
      506
 95
  6815769
 70
     0
 93
      121
310
905313A3136004000000000000304000
 94
        0
1001
ACAD
1000
AcRTDxfName
1000
SCALE
  0
ACAD_PROXY_OBJECT
  5
4EF
102
{ACAD_REACTORS
330
4E7
102
}
330
4E7
100
AcDbProxyObject
 90
      499
 91
      506
 95
  6815769
 70
     0
 93
      121
310
905313A3230004000000000000344051
 94
        0
1001
ACAD
1000
AcRTDxfName
1000
SCALE
  0
ACAD_PROXY_OBJECT
  5
4F0
102
{ACAD_REACTORS
330
4E7
102
}
330
4E7
100
AcDbProxyObject
 90
      499
 91
      506
 95
  6815769
 70
     0
 93
      121
310
905313A33300040000000000003E4000
 94
        0
1001
ACAD
1000
AcRTDxfName
1000
SCALE
  0
ACAD_PROXY_OBJECT
  5
4F1
102
{ACAD_REACTORS
330
4E7
102
}
330
4E7
100
AcDbProxyObject
 90
      499
 91
      506
 95
  6815769
 70
     0
 93
      121
310
905313A3430004000000000000444051
 94
        0
1001
ACAD
1000
AcRTDxfName
1000
SCALE
  0
ACAD_PROXY_OBJECT
  5
4F2
102
{ACAD_REACTORS
330
4E7
102
}
330
4E7
100
AcDbProxyObject
 90
      499
 91
      506
 95
  6815769
 70
     0
 93
      121
310
905313A3530004000000000000494000
 94
        0
1001
ACAD
1000
AcRTDxfName
1000
SCALE
  0
ACAD_PROXY_OBJECT
  5
4F3
102
{ACAD_REACTORS
330
4E7
102
}
330
4E7
100
AcDbProxyObject
 90
      499
 91
      506
 95
  6815769
 70
     0
 93
      129
310
906313A313030004000000000000594038
 94
        0
1001
ACAD
1000
AcRTDxfName
1000
SCALE
  0
ACAD_PROXY_OBJECT
  5
4F4
102
{ACAD_REACTORS
330
4E7
102
}
330
4E7
100
AcDbProxyObject
 90
      499
 91
      506
 95
  6815769
 70
     0
 93
      113
310
904323A31000000000000000010140
 94
        0
1001
ACAD
1000
AcRTDxfName
1000
SCALE
  0
ACAD_PROXY_OBJECT
  5
4F5
102
{ACAD_REACTORS
330
4E7
102
}
330
4E7
100
AcDbProxyObject
 90
      499
 91
      506
 95
  6815769
 70
     0
 93
      113
310
904343A31000000000000000410159
 94
        0
1001
ACAD
1000
AcRTDxfName
1000
SCALE
  0
ACAD_PROXY_OBJECT
  5
4F6
102
{ACAD_REACTORS
330
4E7
102
}
330
4E7
100
AcDbProxyObject
 90
      499
 91
      506
 95
  6815769
 70
     0
 93
      113
310
904383A31000000000000000810140
 94
        0
1001
ACAD
1000
AcRTDxfName
1000
SCALE
  0
ACAD_PROXY_OBJECT
  5
4F7
102
{ACAD_REACTORS
330
4E7
102
}
330
4E7
100
AcDbProxyObject
 90
      499
 91
      506
 95
  6815769
 70
     0
 93
      121
310
90531303A31000000000000000910140
 94
        0
1001
ACAD
1000
AcRTDxfName
1000
SCALE
  0
ACAD_PROXY_OBJECT
  5
4F8
102
{ACAD_REACTORS
330
4E7
102
}
330
4E7
100
AcDbProxyObject
 90
      499
 91
      506
 95
  6815769
 70
     0
 93
      129
310
9063130303A31000000000000001650100
 94
        0
1001
ACAD
1000
AcRTDxfName
1000
SCALE
  0
ACAD_PROXY_OBJECT
  5
4F9
102
{ACAD_REACTORS
330
4E7
102
}
330
4E7
100
AcDbProxyObject
 90
      499
 91
      506
 95
  6815769
 70
     0
 93
      265
310
90F312F31323822203D2031272D302200000000000000200FC00000000000028402B
 94
        0
1001
ACAD
1000
AcRTDxfName
1000
SCALE
  0
ACAD_PROXY_OBJECT
  5
4FA
102
{ACAD_REACTORS
330
4E7
102
}
330
4E7
100
AcDbProxyObject
 90
      499
 91
      506
 95
  6815769
 70
     0
 93
      257
310
90E312F363422203D2031272D302200000000000000240FC000000000000284000
 94
        0
1001
ACAD
1000
AcRTDxfName
1000
SCALE
  0
ACAD_PROXY_OBJECT
  5
4FB
102
{ACAD_REACTORS
330
4E7
102
}
330
4E7
100
AcDbProxyObject
 90
      499
 91
      506
 95
  6815769
 70
     0
 93
      257
310
90E312F333222203D2031272D302200000000000000280FC000000000000284040
 94
        0
1001
ACAD
1000
AcRTDxfName
1000
SCALE
  0
ACAD_PROXY_OBJECT
  5
4FC
102
{ACAD_REACTORS
330
4E7
102
}
330
4E7
100
AcDbProxyObject
 90
      499
 91
      506
 95
  6815769
 70
     0
 93
      257
310
90E312F313622203D2031272D3022000000000000002C0FC000000000000284000
 94
        0
1001
ACAD
1000
AcRTDxfName
1000
SCALE
  0
ACAD_PROXY_OBJECT
  5
4FD
102
{ACAD_REACTORS
330
4E7
102
}
330
4E7
100
AcDbProxyObject
 90
      499
 91
      506
 95
  6815769
 70
     0
 93
      257
310
90E332F333222203D2031272D3022000000000000002E0FC000000000000284040
 94
        0
1001
ACAD
1000
AcRTDxfName
1000
SCALE
  0
ACAD_PROXY_OBJECT
  5
4FE
102
{ACAD_REACTORS
330
4E7
102
}
330
4E7
100
AcDbProxyObject
 90
      499
 91
      506
 95
  6815769
 70
     0
 93
      249
310
90D312F3822203D2031272D302200000000000000300FC000000000000284040
 94
        0
1001
ACAD
1000
AcRTDxfName
1000
SCALE
  0
ACAD_PROXY_OBJECT
  5
4FF
102
{ACAD_REACTORS
330
4E7
102
}
330
4E7
100
AcDbProxyObject
 90
      499
 91
      506
 95
  6815769
 70
     0
 93
      257
310
90E332F313622203D2031272D302200000000000000320FC000000000000284040
 94
        0
1001
ACAD
1000
AcRTDxfName
1000
SCALE
  0
ACAD_PROXY_OBJECT
  5
500
102
{ACAD_REACTORS
330
4E7
102
}
330
4E7
100
AcDbProxyObject
 90
      499
 91
      506
 95
  6815769
 70
     0
 93
      249
310
90D312F3422203D2031272D302200000000000000340FC000000000000284040
 94
        0
1001
ACAD
1000
AcRTDxfName
1000
SCALE
  0
ACAD_PROXY_OBJECT
  5
501
102
{ACAD_REACTORS
330
4E7
102
}
330
4E7
100
AcDbProxyObject
 90
      499
 91
      506
 95
  6815769
 70
     0
 93
      249
310
90D332F3822203D2031272D302200000000000000360FC000000000000284040
 94
        0
1001
ACAD
1000
AcRTDxfName
1000
SCALE
  0
ACAD_PROXY_OBJECT
  5
502
102
{ACAD_REACTORS
330
4E7
102
}
330
4E7
100
AcDbProxyObject
 90
      499
 91
      506
 95
  6815769
 70
     0
 93
      249
310
90D312F3222203D2031272D302200000000000000380FC000000000000284040
 94
        0
1001
ACAD
1000
AcRTDxfName
1000
SCALE
  0
ACAD_PROXY_OBJECT
  5
503
102
{ACAD_REACTORS
330
4E7
102
}
330
4E7
100
AcDbProxyObject
 90
      499
 91
      506
 95
  6815769
 70
     0
 93
      249
310
90D332F3422203D2031272D3022000000000000003A0FC000000000000284040
 94
        0
1001
ACAD
1000
AcRTDxfName
1000
SCALE
  0
ACAD_PROXY_OBJECT
  5
504
102
{ACAD_REACTORS
330
4E7
102
}
330
4E7
100
AcDbProxyObject
 90
      499
 91
      506
 95
  6815769
 70
     0
 93
      169
310
90B3122203D2031272D3022004000000000000284000
 94
        0
1001
ACAD
1000
AcRTDxfName
1000
SCALE
  0
ACAD_PROXY_OBJECT
  5
505
102
{ACAD_REACTORS
330
4E7
102
}
330
4E7
100
AcDbProxyObject
 90
      499
 91
      506
 95
  6815769
 70
     0
 93
      265
310
90F312D312F3222203D2031272D3022000000000000003E0FC000000000000284000
 94
        0
1001
ACAD
1000
AcRTDxfName
1000
SCALE
  0
ACAD_PROXY_OBJECT
  5
506
102
{ACAD_REACTORS
330
4E7
102
}
330
4E7
100
AcDbProxyObject
 90
      499
 91
      506
 95
  6815769
 70
     0
 93
      233
310
90B3322203D2031272D30220000000000000002100000000000000284000
 94
        0
1001
ACAD
1000
AcRTDxfName
1000
SCALE
  0
ACAD_PROXY_OBJECT
  5
507
102
{ACAD_REACTORS
330
4E7
102
}
330
4E7
100
AcDbProxyObject
 90
      499
 91
      506
 95
  6815769
 70
     0
 93
      233
310
90B3622203D2031272D30220000000000000006100000000000000284000
 94
        0
1001
ACAD
1000
AcRTDxfName
1000
SCALE
  0
ACAD_PROXY_OBJECT
  5
508
102
{ACAD_REACTORS
330
4E7
102
}
330
4E7
100
AcDbProxyObject
 90
      499
 91
      506
 95
  6815769
 70
     0
 93
      257
310
90E31272D3022203D2031272D3022000000000000000A100000000000000284000
 94
        0
1001
ACAD
1000
AcRTDxfName
1000
SCALE
  0
ACAD_PROXY_OBJECT
  5
4E6
102
{ACAD_XDICTIONARY
360
50C
102
}
102
{ACAD_REACTORS
330
4E5
102
}
330
4E5
100
AcDbProxyObject
 90
      499
 91
      505
 95
  6815769
 70
     0
 93
     1849
310
4254DD185B99185C990028B81E85EB51B8AE3F2E07A17AD46E2B8FC02B5E8DC0F42B1CFD028000000C1008070000C3001FDFF8000000C1003FBFF000000182007F7FE00000030400FEFFC00000060801FDFF8000000C1003FBFF00000018200000000000000681FA0B0000001820100E000186003FBFF000000182007F7FE0
310
0000030400FEFFC00000060801FDFF8000000C1003FBFF000000182007F7FE000000304000AD7A3703D0AC73F4160000003040201C00030C007F7FE00000030400FEFFC00000060801FDFF8000000C1003FBFF000000182007F7FE00000030400FEFFC000000608000
340
11
340
11
340
11
 94
        0
1001
ACAD
1000
AcRTDxfName
1000
TABLESTYLE
  0
ACAD_PROXY_OBJECT
  5
4D9
102
{ACAD_REACTORS
330
4D3
102
}
330
4D3
100
AcDbProxyObject
 90
      499
 91
      504
 95
  6815769
 70
     0
 93
      598
310
430C9915DA5C99599C985B59401049028333333333333E3BF0000000000000FB023FFFFFF0802405048070000C3008000000C800405A000000320014050640A01C00030C010500920280D3
 94
        0
1001
ACAD
1000
AcDbSavedByObjectVersion
1070
     0
1000
AcRTDxfName
1000
VISUALSTYLE
  0
ACAD_PROXY_OBJECT
  5
4DB
102
{ACAD_REACTORS
330
4D3
102
}
330
4D3
100
AcDbProxyObject
 90
      499
 91
      504
 95
  6815769
 70
     0
 93
      662
310
428CD108121A5919195B8010640502408333333333333E3BF0000000000000FB023FFFFFF0802409028070000C3008000000C8004080000000000004440A000000320014050640A01C00030C010300920280D0
 94
        0
1001
ACAD
1000
AcDbSavedByObjectVersion
1070
     0
1000
AcRTDxfName
1000
VISUALSTYLE
  0
ACAD_PROXY_OBJECT
  5
4DA
102
{ACAD_REACTORS
330
4D3
102
}
330
4D3
100
AcDbProxyObject
 90
      499
 91
      504
 95
  6815769
 70
     0
 93
      598
310
430CD915DA5C99599C985B59401059028333333333333E3BF0000000000000FB023FFFFFF0802405048070000C3008000000C800405A000000320014050640A01C00030C010500920280D2
 94
        0
1001
ACAD
1000
AcDbSavedByObjectVersion
1070
     0
1000
AcRTDxfName
1000
VISUALSTYLE
  0
ACAD_PROXY_OBJECT
  5
4D8
102
{ACAD_REACTORS
330
4D3
102
}
330
4D3
100
AcDbProxyObject
 90
      499
 91
      504
 95
  6815769
 70
     0
 93
      558
310
4190985CDA58C0107406404333333333333E3BF0000000000000FB023FFFFFF08029048070000C3008000000C80040542201C00030C014050640A01C00030C010500920280D6
 94
        0
1001
ACAD
1000
AcDbSavedByObjectVersion
1070
     0
1000
AcRTDxfName
1000
VISUALSTYLE
  0
ACAD_PROXY_OBJECT
  5
4DF
102
{ACAD_REACTORS
330
4D3
102
}
330
4D3
100
AcDbProxyObject
 90
      499
 91
      504
 95
  6815769
 70
     0
 93
      598
310
42509C9A59DA1D195B8010C409028333333333333E3BF0000000000000FB023FFFFFF0802405048070000C3008000000C80040542201C00030C014050640A01C00030C010500920280A657
 94
        0
1001
ACAD
1000
AcDbSavedByObjectVersion
1070
     0
1000
AcRTDxfName
1000
VISUALSTYLE
  0
ACAD_PROXY_OBJECT
  5
4E3
102
{ACAD_REACTORS
330
4D3
102
}
330
4D3
100
AcDbProxyObject
 90
      499
 91
      504
 95
  6815769
 70
     0
 93
      622
310
4310DBDB1BDC90DA185B99D9401104090240C333333333333E3BF0000000000000FB0220202030802405048070000C3008000000C800405422202020308014050640A01C00030C010500920280D7
 94
        0
1001
ACAD
1000
AcDbSavedByObjectVersion
1070
     0
1000
AcRTDxfName
1000
VISUALSTYLE
  0
ACAD_PROXY_OBJECT
  5
4DC
102
{ACAD_REACTORS
330
4D3
102
}
330
4D3
100
AcDbProxyObject
 90
      499
 91
      504
 95
  6815769
 70
     0
 93
      670
310
42D0DBDB98D95C1D1D585B0010940D028333333333333E3BF0000000000000FB023FFFFFF0802409028070000C3008000000C800404000000000000444042201C00030C014050640A01C00030C010300920280D2
 94
        0
1001
ACAD
1000
AcDbSavedByObjectVersion
1070
     0
1000
AcRTDxfName
1000
VISUALSTYLE
  0
ACAD_PROXY_OBJECT
  5
4DE
102
{ACAD_REACTORS
330
4D3
102
}
330
4D3
100
AcDbProxyObject
 90
      499
 91
      504
 95
  6815769
 70
     0
 93
      582
310
41111A5B4010B409028333333333333E3BF0000000000000FB023FFFFFF0802405048070000C3008000000C80040542201C00030C014050640A01C00030C01050092028099DFFFFFF4
 94
        0
1001
ACAD
1000
AcDbSavedByObjectVersion
1070
     0
1000
AcRTDxfName
1000
VISUALSTYLE
  0
ACAD_PROXY_OBJECT
  5
4E2
102
{ACAD_REACTORS
330
4D3
102
}
330
4D3
100
AcDbProxyObject
 90
      499
 91
      504
 95
  6815769
 70
     0
 93
      614
310
43119858D95C185D1D195C9B8010F409028333333333333E3BF0000000000000FB023FFFFFF0802405048070000C3008000000C80040542201C00030C014050640A01C00030C010500920280D4
 94
        0
1001
ACAD
1000
AcDbSavedByObjectVersion
1070
     0
1000
AcRTDxfName
1000
VISUALSTYLE
  0
ACAD_PROXY_OBJECT
  5
4D4
102
{ACAD_REACTORS
330
4D3
102
}
330
4D3
100
AcDbProxyObject
 90
      499
 91
      504
 95
  6815769
 70
     0
 93
      558
310
41519B185D00240901404333333333333E3BF0000000000000F9023FFFFFF0801029048070000C3008000000C80040542201C00030C014050640A01C00030C010500920286D4
 94
        0
1001
ACAD
1000
AcDbSavedByObjectVersion
1070
     0
1000
AcRTDxfName
1000
VISUALSTYLE
  0
ACAD_PROXY_OBJECT
  5
4D5
102
{ACAD_REACTORS
330
4D3
102
}
330
4D3
100
AcDbProxyObject
 90
      499
 91
      504
 95
  6815769
 70
     0
 93
      638
310
43919B185D15DA5D1A115919D95CC010140901404333333333333E3BF0000000000000F9023FFFFFF080102405048070000C3008000000C800405A000000320014050640A01C00030C010500920286D4
 94
        0
1001
ACAD
1000
AcDbSavedByObjectVersion
1070
     0
1000
AcRTDxfName
1000
VISUALSTYLE
  0
ACAD_PROXY_OBJECT
  5
4D6
102
{ACAD_REACTORS
330
4D3
102
}
330
4D3
100
AcDbProxyObject
 90
      499
 91
      504
 95
  6815769
 70
     0
 93
      582
310
4211DBDD5C985D590010240902404333333333333E3BF0000000000000F9023FFFFFF0801029048070000C3008000000C800405A01C00030C014050640A01C00030C010500920286D6
 94
        0
1001
ACAD
1000
AcDbSavedByObjectVersion
1070
     0
1000
AcRTDxfName
1000
VISUALSTYLE
  0
ACAD_PROXY_OBJECT
  5
4D7
102
{ACAD_REACTORS
330
4D3
102
}
330
4D3
100
AcDbProxyObject
 90
      499
 91
      504
 95
  6815769
 70
     0
 93
      662
310
4451DBDD5C985D5915DA5D1A115919D95CC010340902404333333333333E3BF0000000000000F9023FFFFFF080102405048070000C3008000000C800405A000000320014050640A01C00030C010500920286D4
 94
        0
1001
ACAD
1000
AcDbSavedByObjectVersion
1070
     0
1000
AcRTDxfName
1000
VISUALSTYLE
  0
ACAD_PROXY_OBJECT
  5
4E1
102
{ACAD_REACTORS
330
4D3
102
}
330
4D3
100
AcDbProxyObject
 90
      499
 91
      504
 95
  6815769
 70
     0
 93
      614
310
43131A5B995C185D1D195C9B8010E409028333333333333E3BF0000000000000FB023FFFFFF0802405048070000C3008000000C80041D42201C00030C014050640A01C00030C010500920E80D5
 94
        0
1001
ACAD
1000
AcDbSavedByObjectVersion
1070
     0
1000
AcRTDxfName
1000
VISUALSTYLE
  0
ACAD_PROXY_OBJECT
  5
4DD
102
{ACAD_REACTORS
330
4D3
102
}
330
4D3
100
AcDbProxyObject
 90
      499
 91
      504
 95
  6815769
 70
     0
 93
      590
310
429499585B1A5CDD1A58C0108409028333333333333E3BF0000000000000FB023FFFFFF08024068070000C3008000000C8004054221E1E1E308014050640A01C00030C010500920286D0
 94
        0
1001
ACAD
1000
AcDbSavedByObjectVersion
1070
     0
1000
AcRTDxfName
1000
VISUALSTYLE
  0
ACAD_PROXY_OBJECT
  5
4E0
102
{ACAD_REACTORS
330
4D3
102
}
330
4D3
100
AcDbProxyObject
 90
      499
 91
      504
 95
  6815769
 70
     0
 93
      582
310
42151A1A58DAD95B8010D409028333333333333E3BF0000000000000FB023FFFFFF0802405048070000C3008000000C80040543201C00030C014050640A01C00030C010500920280D4
 94
        0
1001
ACAD
1000
AcDbSavedByObjectVersion
1070
     0
1000
AcRTDxfName
1000
VISUALSTYLE
  0
XRECORD
  5
53E
102
{ACAD_REACTORS
330
53C
102
}
330
53C
100
AcDbXrecord
280
     1
340
4E4
  0
XRECORD
  5
53D
102
{ACAD_REACTORS
330
53C
102
}
330
53C
100
AcDbXrecord
280
     1
340
4BA
  0
DICTIONARYVAR
  5
530
102
{ACAD_REACTORS
330
52D
102
}
330
52D
100
DictionaryVariables
280
     0
  1
1:1
  0
DICTIONARYVAR
  5
52F
102
{ACAD_REACTORS
330
52D
102
}
330
52D
100
DictionaryVariables
280
     0
  1
STANDARD
  0
DICTIONARYVAR
  5
52E
102
{ACAD_REACTORS
330
52D
102
}
330
52D
100
DictionaryVariables
280
     0
  1
STANDARD
  0
DICTIONARYVAR
  5
538
102
{ACAD_REACTORS
330
52D
102
}
330
52D
100
DictionaryVariables
280
     0
  1
2
  0
DICTIONARYVAR
  5
537
102
{ACAD_REACTORS
330
52D
102
}
330
52D
100
DictionaryVariables
280
     0
  1
1
  0
DICTIONARYVAR
  5
539
102
{ACAD_REACTORS
330
52D
102
}
330
52D
100
DictionaryVariables
280
     0
  1

  0
DICTIONARY
  5
541
330
4B7
100
AcDbDictionary
280
     1
281
     1
  3
ACAD_XREC_ROUNDTRIP
360
542
  0
DICTIONARY
  5
53F
330
4B6
100
AcDbDictionary
280
     1
281
     1
  3
ACAD_XREC_ROUNDTRIP
360
540
  0
DICTIONARY
  5
4C4
330
4C3
100
AcDbDictionary
280
     1
281
     1
  3
ACAD_XREC_ROUNDTRIP
360
52A
  3
BUMPTILE
360
4C6
  3
DIFFUSETILE
360
4C5
  3
OPACITYTILE
360
4C9
  3
REFLECTIONTILE
360
4C8
  3
REFRACTIONTILE
360
4CA
  3
SPECULARTILE
360
4C7
  0
DICTIONARY
  5
4BC
330
4BB
100
AcDbDictionary
280
     1
281
     1
  3
ACAD_XREC_ROUNDTRIP
360
529
  3
BUMPTILE
360
4BE
  3
DIFFUSETILE
360
4BD
  3
OPACITYTILE
360
4C1
  3
REFLECTIONTILE
360
4C0
  3
REFRACTIONTILE
360
4C2
  3
SPECULARTILE
360
4BF
  0
DICTIONARY
  5
4CC
330
4CB
100
AcDbDictionary
280
     1
281
     1
  3
ACAD_XREC_ROUNDTRIP
360
52B
  3
BUMPTILE
360
4CE
  3
DIFFUSETILE
360
4CD
  3
OPACITYTILE
360
4D1
  3
REFLECTIONTILE
360
4D0
  3
REFRACTIONTILE
360
4D2
  3
SPECULARTILE
360
4CF
  0
DICTIONARY
  5
50C
330
4E6
100
AcDbDictionary
280
     1
281
     1
  3
ACAD_ROUNDTRIP_2008_TABLESTYLE_CELLSTYLEMAP
360
50D
  3
ACAD_XREC_ROUNDTRIP
360
52C
  0
XRECORD
  5
542
102
{ACAD_REACTORS
330
541
102
}
330
541
100
AcDbXrecord
280
     1
102
SHADEPLOT
 70
     0
102
SHADEPLOTRESLEVEL
 70
     2
102
SHADEPLOTCUSTOMDPI
 70
   300
  0
XRECORD
  5
540
102
{ACAD_REACTORS
330
53F
102
}
330
53F
100
AcDbXrecord
280
     1
102
SHADEPLOT
 70
     0
102
SHADEPLOTRESLEVEL
 70
     2
102
SHADEPLOTCUSTOMDPI
 70
   300
  0
XRECORD
  5
52A
102
{ACAD_REACTORS
330
4C4
102
}
330
4C4
100
AcDbXrecord
280
     1
102
MATERIAL
148
0.0
149
0.0
149
0.0
 93
        0
 94
      127
282
     0
 72
     0
 77
     0
171
     0
175
     0
179
     0
273
     0
  0
XRECORD
  5
4C6
102
{ACAD_REACTORS
330
4C4
102
}
330
4C4
100
AcDbXrecord
280
     1
270
     1
271
     1
  0
XRECORD
  5
4C5
102
{ACAD_REACTORS
330
4C4
102
}
330
4C4
100
AcDbXrecord
280
     1
270
     1
271
     1
  0
XRECORD
  5
4C9
102
{ACAD_REACTORS
330
4C4
102
}
330
4C4
100
AcDbXrecord
280
     1
270
     1
271
     1
  0
XRECORD
  5
4C8
102
{ACAD_REACTORS
330
4C4
102
}
330
4C4
100
AcDbXrecord
280
     1
270
     1
271
     1
  0
XRECORD
  5
4CA
102
{ACAD_REACTORS
330
4C4
102
}
330
4C4
100
AcDbXrecord
280
     1
270
     1
271
     1
  0
XRECORD
  5
4C7
102
{ACAD_REACTORS
330
4C4
102
}
330
4C4
100
AcDbXrecord
280
     1
270
     1
271
     1
  0
XRECORD
  5
529
102
{ACAD_REACTORS
330
4BC
102
}
330
4BC
100
AcDbXrecord
280
     1
102
MATERIAL
148
0.0
149
0.0
149
0.0
 93
        0
 94
      127
282
     0
 72
     0
 77
     0
171
     0
175
     0
179
     0
273
     0
  0
XRECORD
  5
4BE
102
{ACAD_REACTORS
330
4BC
102
}
330
4BC
100
AcDbXrecord
280
     1
270
     1
271
     1
  0
XRECORD
  5
4BD
102
{ACAD_REACTORS
330
4BC
102
}
330
4BC
100
AcDbXrecord
280
     1
270
     1
271
     1
  0
XRECORD
  5
4C1
102
{ACAD_REACTORS
330
4BC
102
}
330
4BC
100
AcDbXrecord
280
     1
270
     1
271
     1
  0
XRECORD
  5
4C0
102
{ACAD_REACTORS
330
4BC
102
}
330
4BC
100
AcDbXrecord
280
     1
270
     1
271
     1
  0
XRECORD
  5
4C2
102
{ACAD_REACTORS
330
4BC
102
}
330
4BC
100
AcDbXrecord
280
     1
270
     1
271
     1
  0
XRECORD
  5
4BF
102
{ACAD_REACTORS
330
4BC
102
}
330
4BC
100
AcDbXrecord
280
     1
270
     1
271
     1
  0
XRECORD
  5
52B
102
{ACAD_REACTORS
330
4CC
102
}
330
4CC
100
AcDbXrecord
280
     1
102
MATERIAL
148
0.0
149
0.0
149
0.0
 93
        0
 94
      127
282
     0
 72
     0
 77
     0
171
     0
175
     0
179
     0
273
     0
  0
XRECORD
  5
4CE
102
{ACAD_REACTORS
330
4CC
102
}
330
4CC
100
AcDbXrecord
280
     1
270
     1
271
     1
  0
XRECORD
  5
4CD
102
{ACAD_REACTORS
330
4CC
102
}
330
4CC
100
AcDbXrecord
280
     1
270
     1
271
     1
  0
XRECORD
  5
4D1
102
{ACAD_REACTORS
330
4CC
102
}
330
4CC
100
AcDbXrecord
280
     1
270
     1
271
     1
  0
XRECORD
  5
4D0
102
{ACAD_REACTORS
330
4CC
102
}
330
4CC
100
AcDbXrecord
280
     1
270
     1
271
     1
  0
XRECORD
  5
4D2
102
{ACAD_REACTORS
330
4CC
102
}
330
4CC
100
AcDbXrecord
280
     1
270
     1
271
     1
  0
XRECORD
  5
4CF
102
{ACAD_REACTORS
330
4CC
102
}
330
4CC
100
AcDbXrecord
280
     1
270
     1
271
     1
  0
ACAD_PROXY_OBJECT
  5
50D
102
{ACAD_REACTORS
330
50C
102
}
330
50C
100
AcDbProxyObject
 90
      499
 91
      508
 95
  6815769
 70
     0
 93
     1044
310
40D054060020000020000003200101A000080002A5058000000C100000000000000340FE901405075F5449544C450041501A8000000C800406800020000A9416000000304000AD7A3703D0AC73FA409014217D2115051115480105406A0000003200101A000080002A5028000000C10002B5E8DC0F42B1CFE903409065F444
310
15441000
340
11
340
11
340
11
 94
        0
1001
ACAD
1000
AcRTDxfName
1000
CELLSTYLEMAP
  0
XRECORD
  5
52C
102
{ACAD_REACTORS
330
50C
102
}
330
50C
100
AcDbXrecord
280
     1
102
ACAD_ROUNDTRIP_PRE2007_TABLESTYLE
 90
      512
 91
        0
  1

 92
      512
 93
        0
  2

 94
      512
 95
        0
  3

  0
ENDSEC
  0
EOF
