  0
SECTION
  2
HEADER
  9
$ACADVER
  1
AC1015
  9
$ACADMAINTVER
 70
     6
  9
$DWGCODEPAGE
  3
ANSI_1252
  9
$INSBASE
 10
0.0
 20
0.0
 30
0.0
  9
$EXTMIN
 10
0.0
 20
0.0
 30
0.0
  9
$EXTMAX
 10
840.0
 20
594.0
 30
0.0
  9
$LIMMIN
 10
0.0
 20
0.0
  9
$LIMMAX
 10
840.0
 20
594.0
  9
$ORTHOMODE
 70
     0
  9
$REGENMODE
 70
     1
  9
$FILLMODE
 70
     1
  9
$QTEXTMODE
 70
     0
  9
$MIRRTEXT
 70
     1
  9
$LTSCALE
 40
2.0
  9
$ATTMODE
 70
     1
  9
$TEXTSIZE
 40
7.0
  9
$TRACEWID
 40
1.0
  9
$TEXTSTYLE
  7
Standard
  9
$CLAYER
  8
0
  9
$CELTYPE
  6
ByLayer
  9
$CECOLOR
 62
   256
  9
$CELTSCALE
 40
1.0
  9
$DISPSILH
 70
     0
  9
$DIMSCALE
 40
1.0
  9
$DIMASZ
 40
12.0
  9
$DIMEXO
 40
2.0
  9
$DIMDLI
 40
3.75
  9
$DIMRND
 40
0.0
  9
$DIMDLE
 40
0.0
  9
$DIMEXE
 40
2.0
  9
$DIMTP
 40
0.0
  9
$DIMTM
 40
0.0
  9
$DIMTXT
 40
7.0
  9
$DIMCEN
 40
2.5
  9
$DIMTSZ
 40
0.0
  9
$DIMTOL
 70
     0
  9
$DIMLIM
 70
     0
  9
$DIMTIH
 70
     1
  9
$DIMTOH
 70
     1
  9
$DIMSE1
 70
     0
  9
$DIMSE2
 70
     0
  9
$DIMTAD
 70
     1
  9
$DIMZIN
 70
     0
  9
$DIMBLK
  1

  9
$DIMASO
 70
     1
  9
$DIMSHO
 70
     1
  9
$DIMPOST
  1

  9
$DIMAPOST
  1

  9
$DIMALT
 70
     0
  9
$DIMALTD
 70
     3
  9
$DIMALTF
 40
0.0393700787
  9
$DIMLFAC
 40
1.0
  9
$DIMTOFL
 70
     1
  9
$DIMTVP
 40
0.0
  9
$DIMTIX
 70
     0
  9
$DIMSOXD
 70
     0
  9
$DIMSAH
 70
     0
  9
$DIMBLK1
  1

  9
$DIMBLK2
  1

  9
$DIMSTYLE
  2
ISO-25
  9
$DIMCLRD
 70
     0
  9
$DIMCLRE
 70
     0
  9
$DIMCLRT
 70
     0
  9
$DIMTFAC
 40
1.0
  9
$DIMGAP
 40
3.048
  9
$DIMJUST
 70
     0
  9
$DIMSD1
 70
     0
  9
$DIMSD2
 70
     0
  9
$DIMTOLJ
 70
     0
  9
$DIMTZIN
 70
     0
  9
$DIMALTZ
 70
     0
  9
$DIMALTTZ
 70
     0
  9
$DIMUPT
 70
     0
  9
$DIMDEC
 70
     2
  9
$DIMTDEC
 70
     2
  9
$DIMALTU
 70
     2
  9
$DIMALTTD
 70
     3
  9
$DIMTXSTY
  7
Standard
  9
$DIMAUNIT
 70
     0
  9
$DIMADEC
 70
     2
  9
$DIMALTRND
 40
0.0
  9
$DIMAZIN
 70
     0
  9
$DIMDSEP
 70
    44
  9
$DIMATFIT
 70
     3
  9
$DIMFRAC
 70
     0
  9
$DIMLDRBLK
  1

  9
$DIMLUNIT
 70
     2
  9
$DIMLWD
 70
    -2
  9
$DIMLWE
 70
    -2
  9
$DIMTMOVE
 70
     0
  9
$LUNITS
 70
     2
  9
$LUPREC
 70
     2
  9
$SKETCHINC
 40
1.0
  9
$FILLETRAD
 40
10.0
  9
$AUNITS
 70
     0
  9
$AUPREC
 70
     2
  9
$MENU
  1
.
  9
$ELEVATION
 40
0.0
  9
$PELEVATION
 40
0.0
  9
$THICKNESS
 40
0.0
  9
$LIMCHECK
 70
     0
  9
$CHAMFERA
 40
0.0
  9
$CHAMFERB
 40
0.0
  9
$CHAMFERC
 40
0.0
  9
$CHAMFERD
 40
0.0
  9
$SKPOLY
 70
     0
  9
$TDCREATE
 40
2457533.554016204
  9
$TDUCREATE
 40
2457533.429016204
  9
$TDUPDATE
 40
2457533.554017002
  9
$TDUUPDATE
 40
2457533.429017002
  9
$TDINDWG
 40
0.0000000116
  9
$TDUSRTIMER
 40
0.0000000116
  9
$USRTIMER
 70
     1
  9
$ANGBASE
 50
0.0
  9
$ANGDIR
 70
     0
  9
$PDMODE
 70
     0
  9
$PDSIZE
 40
-1.0
  9
$PLINEWID
 40
0.0
  9
$SPLFRAME
 70
     0
  9
$SPLINETYPE
 70
     6
  9
$SPLINESEGS
 70
     8
  9
$HANDSEED
  5
37D
  9
$SURFTAB1
 70
     6
  9
$SURFTAB2
 70
     6
  9
$SURFTYPE
 70
     6
  9
$SURFU
 70
     6
  9
$SURFV
 70
     6
  9
$UCSBASE
  2

  9
$UCSNAME
  2

  9
$UCSORG
 10
0.0
 20
0.0
 30
0.0
  9
$UCSXDIR
 10
1.0
 20
0.0
 30
0.0
  9
$UCSYDIR
 10
0.0
 20
1.0
 30
0.0
  9
$UCSORTHOREF
  2

  9
$UCSORTHOVIEW
 70
     0
  9
$UCSORGTOP
 10
0.0
 20
0.0
 30
0.0
  9
$UCSORGBOTTOM
 10
0.0
 20
0.0
 30
0.0
  9
$UCSORGLEFT
 10
0.0
 20
0.0
 30
0.0
  9
$UCSORGRIGHT
 10
0.0
 20
0.0
 30
0.0
  9
$UCSORGFRONT
 10
0.0
 20
0.0
 30
0.0
  9
$UCSORGBACK
 10
0.0
 20
0.0
 30
0.0
  9
$PUCSBASE
  2

  9
$PUCSNAME
  2

  9
$PUCSORG
 10
0.0
 20
0.0
 30
0.0
  9
$PUCSXDIR
 10
1.0
 20
0.0
 30
0.0
  9
$PUCSYDIR
 10
0.0
 20
1.0
 30
0.0
  9
$PUCSORTHOREF
  2

  9
$PUCSORTHOVIEW
 70
     0
  9
$PUCSORGTOP
 10
0.0
 20
0.0
 30
0.0
  9
$PUCSORGBOTTOM
 10
0.0
 20
0.0
 30
0.0
  9
$PUCSORGLEFT
 10
0.0
 20
0.0
 30
0.0
  9
$PUCSORGRIGHT
 10
0.0
 20
0.0
 30
0.0
  9
$PUCSORGFRONT
 10
0.0
 20
0.0
 30
0.0
  9
$PUCSORGBACK
 10
0.0
 20
0.0
 30
0.0
  9
$USERI1
 70
     0
  9
$USERI2
 70
     0
  9
$USERI3
 70
     0
  9
$USERI4
 70
     0
  9
$USERI5
 70
     0
  9
$USERR1
 40
0.0
  9
$USERR2
 40
0.0
  9
$USERR3
 40
0.0
  9
$USERR4
 40
0.0
  9
$USERR5
 40
0.0
  9
$WORLDVIEW
 70
     1
  9
$SHADEDGE
 70
     3
  9
$SHADEDIF
 70
    70
  9
$TILEMODE
 70
     1
  9
$MAXACTVP
 70
    64
  9
$PINSBASE
 10
0.0
 20
0.0
 30
0.0
  9
$PLIMCHECK
 70
     0
  9
$PEXTMIN
 10
1.0000000000E+20
 20
1.0000000000E+20
 30
1.0000000000E+20
  9
$PEXTMAX
 10
-1.0000000000E+20
 20
-1.0000000000E+20
 30
-1.0000000000E+20
  9
$PLIMMIN
 10
0.0
 20
0.0
  9
$PLIMMAX
 10
420.0
 20
297.0
  9
$UNITMODE
 70
     0
  9
$VISRETAIN
 70
     1
  9
$PLINEGEN
 70
     0
  9
$PSLTSCALE
 70
     1
  9
$TREEDEPTH
 70
  3020
  9
$CMLSTYLE
  2
Standard
  9
$CMLJUST
 70
     0
  9
$CMLSCALE
 40
20.0
  9
$PROXYGRAPHICS
 70
     1
  9
$MEASUREMENT
 70
     1
  9
$CELWEIGHT
370
    -1
  9
$ENDCAPS
280
     0
  9
$JOINSTYLE
280
     0
  9
$LWDISPLAY
290
     1
  9
$INSUNITS
 70
     4
  9
$HYPERLINKBASE
  1

  9
$STYLESHEET
  1

  9
$XEDIT
290
     1
  9
$CEPSNTYPE
380
     0
  9
$PSTYLEMODE
290
     1
  9
$FINGERPRINTGUID
  2
{8BDA0012-A5E3-4B11-A168-440DBDDBBE1B}
  9
$VERSIONGUID
  2
{FAEB1C32-E019-11D5-929B-00C0DF256EC4}
  9
$EXTNAMES
290
     1
  9
$PSVPSCALE
 40
0.0
  9
$OLESTARTUP
290
     0
  0
ENDSEC
  0
SECTION
  2
CLASSES
  0
CLASS
  1
ACDBDICTIONARYWDFLT
  2
AcDbDictionaryWithDefault
  3
ObjectDBX Classes
 90
        0
280
     0
281
     0
  0
CLASS
  1
VISUALSTYLE
  2
AcDbVisualStyle
  3
ObjectDBX Classes
 90
     4095
280
     0
281
     0
  0
CLASS
  1
MATERIAL
  2
AcDbMaterial
  3
ObjectDBX Classes
 90
     1153
280
     0
281
     0
  0
CLASS
  1
SCALE
  2
AcDbScale
  3
ObjectDBX Classes
 90
     1153
280
     0
281
     0
  0
CLASS
  1
TABLESTYLE
  2
AcDbTableStyle
  3
ObjectDBX Classes
 90
     4095
280
     0
281
     0
  0
CLASS
  1
MLEADERSTYLE
  2
AcDbMLeaderStyle
  3
ACDB_MLEADERSTYLE_CLASS
 90
     4095
280
     0
281
     0
  0
CLASS
  1
SUN
  2
AcDbSun
  3
SCENEOE
 90
     1153
280
     0
281
     0
  0
CLASS
  1
ACDBPLACEHOLDER
  2
AcDbPlaceHolder
  3
ObjectDBX Classes
 90
        0
280
     0
281
     0
  0
CLASS
  1
LAYOUT
  2
AcDbLayout
  3
ObjectDBX Classes
 90
        0
280
     0
281
     0
  0
ENDSEC
  0
SECTION
  2
TABLES
  0
TABLE
  2
VPORT
  5
8
330
0
100
AcDbSymbolTable
 70
     1
  0
VPORT
  5
29
330
8
100
AcDbSymbolTableRecord
100
AcDbViewportTableRecord
  2
*Active
 70
     0
 10
0.0
 20
0.0
 11
1.0
 21
1.0
 12
420.0
 22
297.0
 13
0.0
 23
0.0
 14
10.0
 24
10.0
 15
10.0
 25
10.0
 16
0.0
 26
0.0
 36
1.0
 17
0.0
 27
0.0
 37
0.0
 40
594.0
 41
1.4141414141
 42
50.0
 43
0.0
 44
0.0
 50
0.0
 51
0.0
 71
     0
 72
  2000
 73
     1
 74
     3
 75
     0
 76
     0
 77
     0
 78
     0
281
     0
 65
     1
110
0.0
120
0.0
130
0.0
111
1.0
121
0.0
131
0.0
112
0.0
122
1.0
132
0.0
 79
     0
146
0.0
  0
ENDTAB
  0
TABLE
  2
LTYPE
  5
5
330
0
100
AcDbSymbolTable
 70
     6
  0
LTYPE
  5
14
330
5
100
AcDbSymbolTableRecord
100
AcDbLinetypeTableRecord
  2
ByBlock
 70
     0
  3

 72
    65
 73
     0
 40
0.0
  0
LTYPE
  5
15
330
5
100
AcDbSymbolTableRecord
100
AcDbLinetypeTableRecord
  2
ByLayer
 70
     0
  3

 72
    65
 73
     0
 40
0.0
  0
LTYPE
  5
16
330
5
100
AcDbSymbolTableRecord
100
AcDbLinetypeTableRecord
  2
Continuous
 70
     0
  3
Solid line
 72
    65
 73
     0
 40
0.0
  0
LTYPE
  5
6E
330
5
100
AcDbSymbolTableRecord
100
AcDbLinetypeTableRecord
  2
HIDDEN
 70
     0
  3
Hidden __ __ __ __ __ __ __ __ __ __ __ __ __ __
 72
    65
 73
     2
 40
1.905
 49
1.27
 74
     0
 49
-0.635
 74
     0
  0
LTYPE
  5
6F
330
5
100
AcDbSymbolTableRecord
100
AcDbLinetypeTableRecord
  2
PHANTOM
 70
     0
  3
Phantom ______  __  __  ______  __  __  ______
 72
    65
 73
     6
 40
12.7
 49
6.35
 74
     0
 49
-1.27
 74
     0
 49
1.27
 74
     0
 49
-1.27
 74
     0
 49
1.27
 74
     0
 49
-1.27
 74
     0
  0
LTYPE
  5
70
330
5
100
AcDbSymbolTableRecord
100
AcDbLinetypeTableRecord
  2
CENTER
 70
     0
  3
Center ____ _ ____ _ ____ _ ____ _ ____ _ ____
 72
    65
 73
     4
 40
10.16
 49
6.35
 74
     0
 49
-1.27
 74
     0
 49
1.27
 74
     0
 49
-1.27
 74
     0
  0
LTYPE
  5
71
330
5
100
AcDbSymbolTableRecord
100
AcDbLinetypeTableRecord
  2
CENTERX2
 70
     0
  3
Center (2x) ________  __  ________  __  _____
 72
    65
 73
     4
 40
20.32
 49
12.7
 74
     0
 49
-2.54
 74
     0
 49
2.54
 74
     0
 49
-2.54
 74
     0
  0
LTYPE
  5
72
330
5
100
AcDbSymbolTableRecord
100
AcDbLinetypeTableRecord
  2
DOT2
 70
     0
  3
Dot (.5x) ........................................
 72
    65
 73
     2
 40
0.635
 49
0.0
 74
     0
 49
-0.635
 74
     0
  0
ENDTAB
  0
TABLE
  2
LAYER
  5
2
330
0
100
AcDbSymbolTable
 70
     1
  0
LAYER
  5
10
330
2
100
AcDbSymbolTableRecord
100
AcDbLayerTableRecord
  2
0
 70
     0
 62
     7
  6
Continuous
370
    -3
390
F
  0
ENDTAB
  0
TABLE
  2
STYLE
  5
3
330
0
100
AcDbSymbolTable
 70
     1
  0
STYLE
  5
11
330
3
100
AcDbSymbolTableRecord
100
AcDbTextStyleTableRecord
  2
Standard
 70
     0
 40
0.0
 41
1.0
 50
0.0
 71
     0
 42
7.0
  3
txt
  4

  0
ENDTAB
  0
TABLE
  2
VIEW
  5
6
330
0
100
AcDbSymbolTable
 70
     0
  0
ENDTAB
  0
TABLE
  2
UCS
  5
7
330
0
100
AcDbSymbolTable
 70
     0
  0
ENDTAB
  0
TABLE
  2
APPID
  5
9
330
0
100
AcDbSymbolTable
 70
     1
  0
APPID
  5
12
330
9
100
AcDbSymbolTableRecord
100
AcDbRegAppTableRecord
  2
ACAD
 70
     0
  0
ENDTAB
  0
TABLE
  2
DIMSTYLE
  5
A
330
0
100
AcDbSymbolTable
 70
     1
100
AcDbDimStyleTable
  0
DIMSTYLE
105
27
330
A
100
AcDbSymbolTableRecord
100
AcDbDimStyleTableRecord
  2
ISO-25
 70
     0
 41
2.5
 42
0.625
 43
3.75
 44
1.25
 73
     0
 74
     0
 77
     1
 78
     8
140
2.5
141
2.5
143
0.0393700787
147
0.625
171
     3
172
     1
178
     0
271
     2
272
     2
274
     3
278
    44
283
     0
284
     8
340
11
  0
ENDTAB
  0
TABLE
  2
BLOCK_RECORD
  5
1
330
0
100
AcDbSymbolTable
 70
     1
  0
BLOCK_RECORD
  5
1F
330
1
100
AcDbSymbolTableRecord
100
AcDbBlockTableRecord
  2
*Model_Space
340
22
  0
BLOCK_RECORD
  5
1B
330
1
100
AcDbSymbolTableRecord
100
AcDbBlockTableRecord
  2
*Paper_Space
340
1E
  0
BLOCK_RECORD
  5
23
330
1
100
AcDbSymbolTableRecord
100
AcDbBlockTableRecord
  2
*Paper_Space0
340
26
  0
ENDTAB
  0
ENDSEC
  0
SECTION
  2
BLOCKS
  0
BLOCK
  5
20
330
1F
100
AcDbEntity
  8
0
100
AcDbBlockBegin
  2
*Model_Space
 70
     0
 10
0.0
 20
0.0
 30
0.0
  3
*Model_Space
  1

  0
ENDBLK
  5
21
330
1F
100
AcDbEntity
  8
0
100
AcDbBlockEnd
  0
BLOCK
  5
1C
330
1B
100
AcDbEntity
 67
     1
  8
0
100
AcDbBlockBegin
  2
*Paper_Space
 70
     0
 10
0.0
 20
0.0
 30
0.0
  3
*Paper_Space
  1

  0
ENDBLK
  5
1D
330
1B
100
AcDbEntity
 67
     1
  8
0
100
AcDbBlockEnd
  0
BLOCK
  5
24
330
23
100
AcDbEntity
  8
0
100
AcDbBlockBegin
  2
*Paper_Space0
 70
     0
 10
0.0
 20
0.0
 30
0.0
  3
*Paper_Space0
  1

  0
ENDBLK
  5
25
330
23
100
AcDbEntity
  8
0
100
AcDbBlockEnd
  0
ENDSEC
  0
SECTION
  2
ENTITIES
  0
SPLINE
  5
73
330
1F
100
AcDbEntity
  8
0
  6
Continuous
 62
     7
370
    15
100
AcDbSpline
210
0.0
220
0.0
230
1.0
 70
     8
 71
     3
 72
    22
 73
    18
 74
     0
 42
0.000000001
 43
0.00000001
 40
0.0
 40
0.0
 40
0.0
 40
0.0
 40
0.125
 40
0.125
 40
0.25
 40
0.25
 40
0.375
 40
0.375
 40
0.5
 40
0.5
 40
0.625
 40
0.625
 40
0.75
 40
0.75
 40
0.875
 40
0.875
 40
1.0
 40
1.0
 40
1.0
 40
1.0
 10
216.3068731611603
 20
230.1311128211935
 30
0.0
 10
216.3068732875402
 20
230.3709451905625
 30
0.0
 10
216.3352292193275
 20
230.6053465459031
 30
0.0
 10
216.4458724622793
 20
231.0638193649262
 30
0.0
 10
216.5300373432368
 20
231.2907554611663
 30
0.0
 10
216.7467468782941
 20
231.7124306567409
 30
0.0
 10
216.8788366361838
 20
231.9088060467676
 30
0.0
 10
217.1920779977638
 20
232.2716624558399
 30
0.0
 10
217.3673714345081
 20
232.4312490201394
 30
0.0
 10
217.7527090733703
 20
232.7070404724847
 30
0.0
 10
217.9649287146252
 20
232.8235247798747
 30
0.0
 10
218.403755925632
 20
233.0004249067638
 30
0.0
 10
218.6348165969124
 20
233.0632250622151
 30
0.0
 10
219.1068901905805
 20
233.1324785426725
 30
0.0
 10
219.3432628413672
 20
233.1388161072365
 30
0.0
 10
219.8166721826247
 20
233.095558783791
 30
0.0
 10
220.0527985394222
 20
233.0453641415397
 30
0.0
 10
220.2796972961513
 20
232.967679559719
 30
0.0
  0
LINE
  5
74
330
1F
100
AcDbEntity
  8
0
  6
Continuous
 62
     7
370
    15
100
AcDbLine
 10
220.3217159878
 20
232.9402023584
 30
0.0
 11
220.2796947133
 21
232.9676800997
 31
0.0
  0
SPLINE
  5
75
330
1F
100
AcDbEntity
  8
0
  6
Continuous
 62
     7
370
    15
100
AcDbSpline
210
0.0
220
0.0
230
1.0
 70
     8
 71
     3
 72
    22
 73
    18
 74
     0
 42
0.000000001
 43
0.00000001
 40
0.0
 40
0.0
 40
0.0
 40
0.0
 40
0.125
 40
0.125
 40
0.25
 40
0.25
 40
0.375
 40
0.375
 40
0.5
 40
0.5
 40
0.625
 40
0.625
 40
0.75
 40
0.75
 40
0.875
 40
0.875
 40
1.0
 40
1.0
 40
1.0
 40
1.0
 10
216.3697310817465
 20
230.0965576559732
 30
0.0
 10
216.3697310893708
 20
230.33546676778
 30
0.0
 10
216.3978723013616
 20
230.5689858562204
 30
0.0
 10
216.5076705627126
 20
231.0257738447733
 30
0.0
 10
216.5911842828969
 20
231.2519137927593
 30
0.0
 10
216.8063212935154
 20
231.6724156336706
 30
0.0
 10
216.9374548026882
 20
231.8683079295323
 30
0.0
 10
217.2483457655215
 20
232.230464986747
 30
0.0
 10
217.422630908991
 20
232.3901711602405
 30
0.0
 10
217.805390549157
 20
232.6662376616273
 30
0.0
 10
218.016338204093
 20
232.7831666819335
 30
0.0
 10
218.4527403105546
 20
232.9614072536578
 30
0.0
 10
218.6822402241743
 20
233.0250437846123
 30
0.0
 10
219.1524646198858
 20
233.0966791834095
 30
0.0
 10
219.3879109909731
 20
233.1043586200539
 30
0.0
 10
219.8594616863365
 20
233.064316108784
 30
0.0
 10
220.0951269656116
 20
233.0159267343698
 30
0.0
 10
220.3217136859338
 20
232.9402009139805
 30
0.0
  0
LINE
  5
76
330
1F
100
AcDbEntity
  8
0
  6
Continuous
 62
     7
370
    15
100
AcDbLine
 10
216.3068737756
 20
230.1311136813
 30
0.0
 11
216.3697343241
 21
230.0965578885
 31
0.0
  0
LINE
  5
77
330
1F
100
AcDbEntity
  8
0
  6
Continuous
 62
     7
370
    15
100
AcDbLine
 10
216.3068737756
 20
312.131112221
 30
0.0
 11
216.3697343241
 21
312.0965564282
 31
0.0
  0
SPLINE
  5
78
330
1F
100
AcDbEntity
  8
0
  6
Continuous
 62
     7
370
    15
100
AcDbSpline
210
0.0
220
0.0
230
1.0
 70
     8
 71
     3
 72
    22
 73
    18
 74
     0
 42
0.000000001
 43
0.00000001
 40
0.0
 40
0.0
 40
0.0
 40
0.0
 40
0.125
 40
0.125
 40
0.25
 40
0.25
 40
0.375
 40
0.375
 40
0.5
 40
0.5
 40
0.625
 40
0.625
 40
0.75
 40
0.75
 40
0.875
 40
0.875
 40
1.0
 40
1.0
 40
1.0
 40
1.0
 10
216.3068731611603
 20
312.1311128211934
 30
0.0
 10
216.3068732875402
 20
312.3709451905626
 30
0.0
 10
216.335229219327
 20
312.6053465459003
 30
0.0
 10
216.4458724622784
 20
313.0638193649237
 30
0.0
 10
216.5300373432358
 20
313.290755461164
 30
0.0
 10
216.7467468782929
 20
313.7124306567391
 30
0.0
 10
216.8788366361825
 20
313.908806046766
 30
0.0
 10
217.1920779977624
 20
314.2716624558386
 30
0.0
 10
217.3673714345068
 20
314.4312490201384
 30
0.0
 10
217.7527090733689
 20
314.707040472484
 30
0.0
 10
217.964928714624
 20
314.8235247798742
 30
0.0
 10
218.4037559256309
 20
315.0004249067636
 30
0.0
 10
218.6348165969113
 20
315.0632250622149
 30
0.0
 10
219.1068901905798
 20
315.1324785426726
 30
0.0
 10
219.3432628413666
 20
315.1388161072366
 30
0.0
 10
219.8166721826243
 20
315.0955587837911
 30
0.0
 10
220.052798539422
 20
315.0453641415398
 30
0.0
 10
220.2796972961513
 20
314.967679559719
 30
0.0
  0
LINE
  5
79
330
1F
100
AcDbEntity
  8
0
  6
Continuous
 62
     7
370
    15
100
AcDbLine
 10
220.3217159878
 20
314.9402008981
 30
0.0
 11
220.2796947133
 21
314.9676786394
 31
0.0
  0
SPLINE
  5
7A
330
1F
100
AcDbEntity
  8
0
  6
Continuous
 62
     7
370
    15
100
AcDbSpline
210
0.0
220
0.0
230
1.0
 70
     8
 71
     3
 72
    22
 73
    18
 74
     0
 42
0.000000001
 43
0.00000001
 40
0.0
 40
0.0
 40
0.0
 40
0.0
 40
0.125
 40
0.125
 40
0.25
 40
0.25
 40
0.375
 40
0.375
 40
0.5
 40
0.5
 40
0.625
 40
0.625
 40
0.75
 40
0.75
 40
0.875
 40
0.875
 40
1.0
 40
1.0
 40
1.0
 40
1.0
 10
216.3697310817465
 20
312.0965576559732
 30
0.0
 10
216.3697310893708
 20
312.33546676778
 30
0.0
 10
216.3978723013616
 20
312.5689858562204
 30
0.0
 10
216.5076705627125
 20
313.0257738447733
 30
0.0
 10
216.5911842828968
 20
313.2519137927592
 30
0.0
 10
216.8063212935153
 20
313.6724156336706
 30
0.0
 10
216.9374548026882
 20
313.8683079295324
 30
0.0
 10
217.2483457655214
 20
314.230464986747
 30
0.0
 10
217.422630908991
 20
314.3901711602405
 30
0.0
 10
217.805390549157
 20
314.6662376616272
 30
0.0
 10
218.016338204093
 20
314.7831666819335
 30
0.0
 10
218.4527403105545
 20
314.9614072536578
 30
0.0
 10
218.6822402241743
 20
315.0250437846123
 30
0.0
 10
219.1524646198858
 20
315.0966791834095
 30
0.0
 10
219.387910990973
 20
315.1043586200539
 30
0.0
 10
219.8594616863364
 20
315.0643161087841
 30
0.0
 10
220.0951269656116
 20
315.0159267343698
 30
0.0
 10
220.3217136859338
 20
314.9402009139806
 30
0.0
  0
LINE
  5
7B
330
1F
100
AcDbEntity
  8
0
  6
Continuous
 62
     7
370
    15
100
AcDbLine
 10
435.0420918237
 20
248.3330944211
 30
0.0
 11
434.9792312752
 21
248.3676502139
 31
0.0
  0
SPLINE
  5
7C
330
1F
100
AcDbEntity
  8
0
  6
Continuous
 62
     7
370
    15
100
AcDbSpline
210
0.0
220
0.0
230
1.0
 70
     8
 71
     3
 72
    22
 73
    18
 74
     0
 42
0.000000001
 43
0.00000001
 40
0.0
 40
0.0
 40
0.0
 40
0.0
 40
0.125
 40
0.125
 40
0.25
 40
0.25
 40
0.375
 40
0.375
 40
0.5
 40
0.5
 40
0.625
 40
0.625
 40
0.75
 40
0.75
 40
0.875
 40
0.875
 40
1.0
 40
1.0
 40
1.0
 40
1.0
 10
435.04209243819
 20
248.3330938208729
 30
0.0
 10
435.0420923118098
 20
248.093261451668
 30
0.0
 10
435.0137363800559
 20
247.8588600958195
 30
0.0
 10
434.9030931363549
 20
247.4003872746716
 30
0.0
 10
434.8189282547538
 20
247.1734511778534
 30
0.0
 10
434.6022187202342
 20
246.7517759841527
 30
0.0
 10
434.4701289622379
 20
246.555400593818
 30
0.0
 10
434.1568875980387
 20
246.1925441825496
 30
0.0
 10
433.9815941642541
 20
246.0329576213891
 30
0.0
 10
433.596256524388
 20
245.757166168584
 30
0.0
 10
433.3840368836553
 20
245.6406818617159
 30
0.0
 10
432.9452096735955
 20
245.4637817353149
 30
0.0
 10
432.7141489995542
 20
245.4009815793293
 30
0.0
 10
432.2420754090818
 20
245.331728099546
 30
0.0
 10
432.0057027586197
 20
245.3253905347474
 30
0.0
 10
431.5322934154725
 20
245.3686478584116
 30
0.0
 10
431.2961670597555
 20
245.41884250058
 30
0.0
 10
431.0692683031822
 20
245.4965270823481
 30
0.0
  0
LINE
  5
7D
330
1F
100
AcDbEntity
  8
0
  6
Continuous
 62
     7
370
    15
100
AcDbLine
 10
431.0272496115
 20
245.5240057439
 30
0.0
 11
431.0692708861
 21
245.4965280027
 31
0.0
  0
SPLINE
  5
7E
330
1F
100
AcDbEntity
  8
0
  6
Continuous
 62
     7
370
    15
100
AcDbSpline
210
0.0
220
0.0
230
1.0
 70
     8
 71
     3
 72
    22
 73
    18
 74
     0
 42
0.000000001
 43
0.00000001
 40
0.0
 40
0.0
 40
0.0
 40
0.0
 40
0.125
 40
0.125
 40
0.25
 40
0.25
 40
0.375
 40
0.375
 40
0.5
 40
0.5
 40
0.625
 40
0.625
 40
0.75
 40
0.75
 40
0.875
 40
0.875
 40
1.0
 40
1.0
 40
1.0
 40
1.0
 10
434.9792345175967
 20
248.3676489860931
 30
0.0
 10
434.9792345099704
 20
248.1287398744545
 30
0.0
 10
434.9510932980122
 20
247.8952207855135
 30
0.0
 10
434.8412950359239
 20
247.4384327948612
 30
0.0
 10
434.7577813150788
 20
247.2122928462429
 30
0.0
 10
434.5426443050158
 20
246.7917910072429
 30
0.0
 10
434.4115107957546
 20
246.5958987110968
 30
0.0
 10
434.100619830381
 20
246.2337416517345
 30
0.0
 10
433.9263346897846
 20
246.074035481308
 30
0.0
 10
433.5435750487005
 20
245.7979689795012
 30
0.0
 10
433.3326273941644
 20
245.6810399596466
 30
0.0
 10
432.8962252887449
 20
245.5027993884481
 30
0.0
 10
432.6667253721932
 20
245.4391628568977
 30
0.0
 10
432.1965009797931
 20
245.367527458816
 30
0.0
 10
431.9610546090954
 20
245.3598480219393
 30
0.0
 10
431.4895039119971
 20
245.3998905333768
 30
0.0
 10
431.2538386335616
 20
245.448279907749
 30
0.0
 10
431.0272519133993
 20
245.5240057280851
 30
0.0
  0
SPLINE
  5
7F
330
1F
100
AcDbEntity
  8
0
  6
Continuous
 62
     7
370
    15
100
AcDbSpline
210
0.0
220
0.0
230
1.0
 70
     8
 71
     3
 72
    22
 73
    18
 74
     0
 42
0.000000001
 43
0.00000001
 40
0.0
 40
0.0
 40
0.0
 40
0.0
 40
0.125
 40
0.125
 40
0.25
 40
0.25
 40
0.375
 40
0.375
 40
0.5
 40
0.5
 40
0.625
 40
0.625
 40
0.75
 40
0.75
 40
0.875
 40
0.875
 40
1.0
 40
1.0
 40
1.0
 40
1.0
 10
435.04209243819
 20
330.3330938208728
 30
0.0
 10
435.0420923118098
 20
330.0932614516681
 30
0.0
 10
435.0137363800554
 20
329.8588600958166
 30
0.0
 10
434.903093136354
 20
329.4003872746691
 30
0.0
 10
434.8189282547527
 20
329.173451177851
 30
0.0
 10
434.6022187202329
 20
328.7517759841508
 30
0.0
 10
434.4701289622366
 20
328.5554005938163
 30
0.0
 10
434.1568875980373
 20
328.1925441825482
 30
0.0
 10
433.9815941642527
 20
328.032957621388
 30
0.0
 10
433.5962565243868
 20
327.7571661685832
 30
0.0
 10
433.384036883654
 20
327.6406818617153
 30
0.0
 10
432.9452096735944
 20
327.4637817353146
 30
0.0
 10
432.7141489995532
 20
327.4009815793292
 30
0.0
 10
432.2420754090809
 20
327.331728099546
 30
0.0
 10
432.0057027586191
 20
327.3253905347474
 30
0.0
 10
431.5322934154721
 20
327.3686478584117
 30
0.0
 10
431.2961670597554
 20
327.4188425005801
 30
0.0
 10
431.0692683031822
 20
327.4965270823481
 30
0.0
  0
LINE
  5
80
330
1F
100
AcDbEntity
  8
0
  6
Continuous
 62
     7
370
    15
100
AcDbLine
 10
431.0272496115
 20
327.5240042836
 30
0.0
 11
431.0692708861
 21
327.4965265424
 31
0.0
  0
SPLINE
  5
81
330
1F
100
AcDbEntity
  8
0
  6
Continuous
 62
     7
370
    15
100
AcDbSpline
210
0.0
220
0.0
230
1.0
 70
     8
 71
     3
 72
    22
 73
    18
 74
     0
 42
0.000000001
 43
0.00000001
 40
0.0
 40
0.0
 40
0.0
 40
0.0
 40
0.125
 40
0.125
 40
0.25
 40
0.25
 40
0.375
 40
0.375
 40
0.5
 40
0.5
 40
0.625
 40
0.625
 40
0.75
 40
0.75
 40
0.875
 40
0.875
 40
1.0
 40
1.0
 40
1.0
 40
1.0
 10
434.9792345175967
 20
330.3676489860932
 30
0.0
 10
434.9792345099704
 20
330.1287398744545
 30
0.0
 10
434.9510932980121
 20
329.8952207855135
 30
0.0
 10
434.8412950359238
 20
329.4384327948612
 30
0.0
 10
434.7577813150788
 20
329.2122928462429
 30
0.0
 10
434.5426443050158
 20
328.7917910072429
 30
0.0
 10
434.4115107957545
 20
328.5958987110968
 30
0.0
 10
434.100619830381
 20
328.2337416517345
 30
0.0
 10
433.9263346897846
 20
328.074035481308
 30
0.0
 10
433.5435750487005
 20
327.7979689795012
 30
0.0
 10
433.3326273941644
 20
327.6810399596466
 30
0.0
 10
432.8962252887449
 20
327.5027993884481
 30
0.0
 10
432.6667253721933
 20
327.4391628568978
 30
0.0
 10
432.1965009797931
 20
327.367527458816
 30
0.0
 10
431.9610546090954
 20
327.3598480219393
 30
0.0
 10
431.4895039119971
 20
327.3998905333768
 30
0.0
 10
431.2538386335616
 20
327.4482799077491
 30
0.0
 10
431.0272519133993
 20
327.5240057280852
 30
0.0
  0
LINE
  5
82
330
1F
100
AcDbEntity
  8
0
  6
Continuous
 62
     7
370
    15
100
AcDbLine
 10
435.0420918237
 20
330.3330929608
 30
0.0
 11
434.9792312752
 21
330.3676487536
 31
0.0
  0
LINE
  5
83
330
1F
100
AcDbEntity
  8
0
  6
Continuous
 62
     7
370
    15
100
AcDbLine
 10
431.0692708861
 20
314.9676786394
 30
0.0
 11
431.0272496115
 21
314.9402008981
 31
0.0
  0
SPLINE
  5
84
330
1F
100
AcDbEntity
  8
0
  6
Continuous
 62
     7
370
    15
100
AcDbSpline
210
0.0
220
0.0
230
1.0
 70
     8
 71
     3
 72
    22
 73
    18
 74
     0
 42
0.000000001
 43
0.00000001
 40
0.0
 40
0.0
 40
0.0
 40
0.0
 40
0.125
 40
0.125
 40
0.25
 40
0.25
 40
0.375
 40
0.375
 40
0.5
 40
0.5
 40
0.625
 40
0.625
 40
0.75
 40
0.75
 40
0.875
 40
0.875
 40
1.0
 40
1.0
 40
1.0
 40
1.0
 10
431.0692682721028
 20
314.9676795275725
 30
0.0
 10
431.2961674631613
 20
315.0453642603769
 30
0.0
 10
431.5271162216644
 20
315.0945165286851
 30
0.0
 10
431.9967167341862
 20
315.1385472572742
 30
0.0
 10
432.2386780577658
 20
315.1325825517307
 30
0.0
 10
432.7078665611638
 20
315.0645329849282
 30
0.0
 10
432.9364933832516
 20
315.0034053410463
 30
0.0
 10
433.3814071214513
 20
314.8251046917455
 30
0.0
 10
433.5893518459155
 20
314.7111870395553
 30
0.0
 10
433.9753961986648
 20
314.436453592527
 30
0.0
 10
434.1545559791225
 20
314.2736162882705
 30
0.0
 10
434.4644690908552
 20
313.9160904265085
 30
0.0
 10
434.598893944435
 20
313.718029288363
 30
0.0
 10
434.8177214881929
 20
313.2939564554317
 30
0.0
 10
434.9004238105359
 20
313.0724299388016
 30
0.0
 10
435.0130372944302
 20
312.6106211505221
 30
0.0
 10
435.0420923220804
 20
312.3709472168326
 30
0.0
 10
435.0420924513302
 20
312.1311128211634
 30
0.0
  0
LINE
  5
85
330
1F
100
AcDbEntity
  8
0
  6
Continuous
 62
     7
370
    15
100
AcDbLine
 10
434.9792312752
 20
312.0965564282
 30
0.0
 11
435.0420918237
 21
312.131112221
 31
0.0
  0
SPLINE
  5
86
330
1F
100
AcDbEntity
  8
0
  6
Continuous
 62
     7
370
    15
100
AcDbSpline
210
0.0
220
0.0
230
1.0
 70
     8
 71
     3
 72
    22
 73
    18
 74
     0
 42
0.000000001
 43
0.00000001
 40
0.0
 40
0.0
 40
0.0
 40
0.0
 40
0.125
 40
0.125
 40
0.25
 40
0.25
 40
0.375
 40
0.375
 40
0.5
 40
0.5
 40
0.625
 40
0.625
 40
0.75
 40
0.75
 40
0.875
 40
0.875
 40
1.0
 40
1.0
 40
1.0
 40
1.0
 10
431.027251834578
 20
314.9402008854004
 30
0.0
 10
431.2538390410514
 20
315.0159268751426
 30
0.0
 10
431.484237334421
 20
315.0633075880848
 30
0.0
 10
431.9522823234843
 20
315.1041584168526
 30
0.0
 10
432.1932319821219
 20
315.0967828740631
 30
0.0
 10
432.6602962487955
 20
315.0264094256767
 30
0.0
 10
432.887706364181
 20
314.9643579258359
 30
0.0
 10
433.3298894601784
 20
314.7848003696299
 30
0.0
 10
433.5367834856943
 20
314.6703533713317
 30
0.0
 10
433.9202418037457
 20
314.3953225036796
 30
0.0
 10
434.0982155288499
 20
314.2325234611577
 30
0.0
 10
434.4059962899683
 20
313.8754552014497
 30
0.0
 10
434.5392572705719
 20
313.6781619958577
 30
0.0
 10
434.7566390399293
 20
313.2550022684649
 30
0.0
 10
434.8386921547774
 20
313.0341778910971
 30
0.0
 10
434.9503731080542
 20
312.5743351889079
 30
0.0
 10
434.9792345112389
 20
312.3354688072889
 30
0.0
 10
434.9792345191551
 20
312.096557655513
 30
0.0
  0
LINE
  5
87
330
1F
100
AcDbEntity
  8
0
  6
Continuous
 62
     7
370
    15
100
AcDbLine
 10
220.2796947133
 20
245.4965280027
 30
0.0
 11
220.3217159878
 21
245.5240057439
 31
0.0
  0
SPLINE
  5
88
330
1F
100
AcDbEntity
  8
0
  6
Continuous
 62
     7
370
    15
100
AcDbSpline
210
0.0
220
0.0
230
1.0
 70
     8
 71
     3
 72
    22
 73
    18
 74
     0
 42
0.000000001
 43
0.00000001
 40
0.0
 40
0.0
 40
0.0
 40
0.0
 40
0.125
 40
0.125
 40
0.25
 40
0.25
 40
0.375
 40
0.375
 40
0.5
 40
0.5
 40
0.625
 40
0.625
 40
0.75
 40
0.75
 40
0.875
 40
0.875
 40
1.0
 40
1.0
 40
1.0
 40
1.0
 10
220.2796973272303
 20
245.4965271144938
 30
0.0
 10
220.0527981361717
 20
245.4188423816894
 30
0.0
 10
219.8218493776688
 20
245.3696901133812
 30
0.0
 10
219.3522488651469
 20
245.3256593847921
 30
0.0
 10
219.1102875415673
 20
245.3316240903357
 30
0.0
 10
218.6410990381694
 20
245.3996736571382
 30
0.0
 10
218.4124722160816
 20
245.46080130102
 30
0.0
 10
217.9675584778819
 20
245.6391019503209
 30
0.0
 10
217.7596137534179
 20
245.7530196025111
 30
0.0
 10
217.3735694006685
 20
246.0277530495395
 30
0.0
 10
217.1944096202108
 20
246.1905903537959
 30
0.0
 10
216.8844965084782
 20
246.5481162155579
 30
0.0
 10
216.7500716548984
 20
246.7461773537035
 30
0.0
 10
216.5312441111406
 20
247.1702501866347
 30
0.0
 10
216.4485417887975
 20
247.3917767032648
 30
0.0
 10
216.3359283049032
 20
247.8535854915443
 30
0.0
 10
216.3068732772531
 20
248.0932594252337
 30
0.0
 10
216.3068731480033
 20
248.3330938209029
 30
0.0
  0
LINE
  5
89
330
1F
100
AcDbEntity
  8
0
  6
Continuous
 62
     7
370
    15
100
AcDbLine
 10
216.3697343241
 20
248.3676502139
 30
0.0
 11
216.3068737756
 21
248.3330944211
 31
0.0
  0
SPLINE
  5
8A
330
1F
100
AcDbEntity
  8
0
  6
Continuous
 62
     7
370
    15
100
AcDbSpline
210
0.0
220
0.0
230
1.0
 70
     8
 71
     3
 72
    22
 73
    18
 74
     0
 42
0.000000001
 43
0.00000001
 40
0.0
 40
0.0
 40
0.0
 40
0.0
 40
0.125
 40
0.125
 40
0.25
 40
0.25
 40
0.375
 40
0.375
 40
0.5
 40
0.5
 40
0.625
 40
0.625
 40
0.75
 40
0.75
 40
0.875
 40
0.875
 40
1.0
 40
1.0
 40
1.0
 40
1.0
 10
220.3217137647553
 20
245.5240057566659
 30
0.0
 10
220.0951265582819
 20
245.4482797669238
 30
0.0
 10
219.8647282649123
 20
245.4008990539816
 30
0.0
 10
219.396683275849
 20
245.3600482252137
 30
0.0
 10
219.1557336172115
 20
245.3674237680033
 30
0.0
 10
218.6886693505378
 20
245.4377972163897
 30
0.0
 10
218.4612592351523
 20
245.4998487162305
 30
0.0
 10
218.0190761391551
 20
245.6794062724365
 30
0.0
 10
217.812182113639
 20
245.7938532707348
 30
0.0
 10
217.4287237955876
 20
246.0688841383868
 30
0.0
 10
217.2507500704833
 20
246.2316831809086
 30
0.0
 10
216.9429693093651
 20
246.5887514406166
 30
0.0
 10
216.8097083287616
 20
246.7860446462087
 30
0.0
 10
216.5923265594041
 20
247.2092043736015
 30
0.0
 10
216.510273444556
 20
247.4300287509692
 30
0.0
 10
216.3985924912793
 20
247.8898714531584
 30
0.0
 10
216.3697310880946
 20
248.1287378347775
 30
0.0
 10
216.3697310801785
 20
248.3676489865533
 30
0.0
  0
LINE
  5
8B
330
1F
100
AcDbEntity
  8
0
  6
Continuous
 62
     7
370
    15
100
AcDbLine
 10
220.2796947133
 20
327.4965265424
 30
0.0
 11
220.3217159878
 21
327.5240042836
 31
0.0
  0
SPLINE
  5
8C
330
1F
100
AcDbEntity
  8
0
  6
Continuous
 62
     7
370
    15
100
AcDbSpline
210
0.0
220
0.0
230
1.0
 70
     8
 71
     3
 72
    22
 73
    18
 74
     0
 42
0.000000001
 43
0.00000001
 40
0.0
 40
0.0
 40
0.0
 40
0.0
 40
0.125
 40
0.125
 40
0.25
 40
0.25
 40
0.375
 40
0.375
 40
0.5
 40
0.5
 40
0.625
 40
0.625
 40
0.75
 40
0.75
 40
0.875
 40
0.875
 40
1.0
 40
1.0
 40
1.0
 40
1.0
 10
220.2796973272303
 20
327.4965271144939
 30
0.0
 10
220.0527981361717
 20
327.4188423816894
 30
0.0
 10
219.8218493776688
 20
327.3696901133812
 30
0.0
 10
219.3522488651469
 20
327.3256593847921
 30
0.0
 10
219.1102875415673
 20
327.3316240903357
 30
0.0
 10
218.6410990381694
 20
327.3996736571382
 30
0.0
 10
218.4124722160816
 20
327.46080130102
 30
0.0
 10
217.9675584778819
 20
327.6391019503209
 30
0.0
 10
217.7596137534179
 20
327.7530196025111
 30
0.0
 10
217.3735694006685
 20
328.0277530495395
 30
0.0
 10
217.1944096202108
 20
328.1905903537959
 30
0.0
 10
216.8844965084781
 20
328.5481162155579
 30
0.0
 10
216.7500716548984
 20
328.7461773537035
 30
0.0
 10
216.5312441111406
 20
329.1702501866347
 30
0.0
 10
216.4485417887975
 20
329.3917767032648
 30
0.0
 10
216.3359283049032
 20
329.8535854915444
 30
0.0
 10
216.3068732772531
 20
330.0932594252338
 30
0.0
 10
216.3068731480033
 20
330.333093820903
 30
0.0
  0
LINE
  5
8D
330
1F
100
AcDbEntity
  8
0
  6
Continuous
 62
     7
370
    15
100
AcDbLine
 10
216.3697343241
 20
330.3676487536
 30
0.0
 11
216.3068737756
 21
330.3330929608
 31
0.0
  0
SPLINE
  5
8E
330
1F
100
AcDbEntity
  8
0
  6
Continuous
 62
     7
370
    15
100
AcDbSpline
210
0.0
220
0.0
230
1.0
 70
     8
 71
     3
 72
    22
 73
    18
 74
     0
 42
0.000000001
 43
0.00000001
 40
0.0
 40
0.0
 40
0.0
 40
0.0
 40
0.125
 40
0.125
 40
0.25
 40
0.25
 40
0.375
 40
0.375
 40
0.5
 40
0.5
 40
0.625
 40
0.625
 40
0.75
 40
0.75
 40
0.875
 40
0.875
 40
1.0
 40
1.0
 40
1.0
 40
1.0
 10
220.3217137647553
 20
327.524005756666
 30
0.0
 10
220.0951265582817
 20
327.4482797669237
 30
0.0
 10
219.8647282649118
 20
327.4008990539814
 30
0.0
 10
219.396683275848
 20
327.3600482252137
 30
0.0
 10
219.1557336172104
 20
327.3674237680034
 30
0.0
 10
218.6886693505363
 20
327.43779721639
 30
0.0
 10
218.4612592351506
 20
327.499848716231
 30
0.0
 10
218.019076139153
 20
327.6794062724375
 30
0.0
 10
217.812182113637
 20
327.793853270736
 30
0.0
 10
217.4287237955855
 20
328.0688841383886
 30
0.0
 10
217.2507500704812
 20
328.2316831809108
 30
0.0
 10
216.9429693093631
 20
328.5887514406194
 30
0.0
 10
216.8097083287596
 20
328.7860446462118
 30
0.0
 10
216.5923265594026
 20
329.2092043736052
 30
0.0
 10
216.5102734445547
 20
329.4300287509732
 30
0.0
 10
216.3985924912785
 20
329.889871453163
 30
0.0
 10
216.3697310880943
 20
330.1287378347806
 30
0.0
 10
216.3697310801785
 20
330.3676489865566
 30
0.0
  0
LINE
  5
8F
330
1F
100
AcDbEntity
  8
0
  6
Continuous
 62
     7
370
    15
100
AcDbLine
 10
431.0692708861
 20
232.9676800997
 30
0.0
 11
431.0272496115
 21
232.9402023584
 31
0.0
  0
SPLINE
  5
90
330
1F
100
AcDbEntity
  8
0
  6
Continuous
 62
     7
370
    15
100
AcDbSpline
210
0.0
220
0.0
230
1.0
 70
     8
 71
     3
 72
    22
 73
    18
 74
     0
 42
0.000000001
 43
0.00000001
 40
0.0
 40
0.0
 40
0.0
 40
0.0
 40
0.125
 40
0.125
 40
0.25
 40
0.25
 40
0.375
 40
0.375
 40
0.5
 40
0.5
 40
0.625
 40
0.625
 40
0.75
 40
0.75
 40
0.875
 40
0.875
 40
1.0
 40
1.0
 40
1.0
 40
1.0
 10
431.0692682721028
 20
232.9676795275725
 30
0.0
 10
431.2961674631613
 20
233.0453642603769
 30
0.0
 10
431.5271162216643
 20
233.0945165286851
 30
0.0
 10
431.9967167341863
 20
233.1385472572742
 30
0.0
 10
432.2386780577658
 20
233.1325825517307
 30
0.0
 10
432.7078665611638
 20
233.0645329849281
 30
0.0
 10
432.9364933832516
 20
233.0034053410463
 30
0.0
 10
433.3814071214513
 20
232.8251046917455
 30
0.0
 10
433.5893518459154
 20
232.7111870395552
 30
0.0
 10
433.9753961986648
 20
232.436453592527
 30
0.0
 10
434.1545559791224
 20
232.2736162882705
 30
0.0
 10
434.4644690908552
 20
231.9160904265084
 30
0.0
 10
434.5988939444349
 20
231.7180292883629
 30
0.0
 10
434.8177214881928
 20
231.2939564554316
 30
0.0
 10
434.9004238105358
 20
231.0724299388015
 30
0.0
 10
435.0130372944301
 20
230.610621150522
 30
0.0
 10
435.0420923220801
 20
230.3709472168325
 30
0.0
 10
435.0420924513301
 20
230.1311128211634
 30
0.0
  0
LINE
  5
91
330
1F
100
AcDbEntity
  8
0
  6
Continuous
 62
     7
370
    15
100
AcDbLine
 10
434.9792312752
 20
230.0965578885
 30
0.0
 11
435.0420918237
 21
230.1311136813
 31
0.0
  0
SPLINE
  5
92
330
1F
100
AcDbEntity
  8
0
  6
Continuous
 62
     7
370
    15
100
AcDbSpline
210
0.0
220
0.0
230
1.0
 70
     8
 71
     3
 72
    22
 73
    18
 74
     0
 42
0.000000001
 43
0.00000001
 40
0.0
 40
0.0
 40
0.0
 40
0.0
 40
0.125
 40
0.125
 40
0.25
 40
0.25
 40
0.375
 40
0.375
 40
0.5
 40
0.5
 40
0.625
 40
0.625
 40
0.75
 40
0.75
 40
0.875
 40
0.875
 40
1.0
 40
1.0
 40
1.0
 40
1.0
 10
431.027251834578
 20
232.9402008854005
 30
0.0
 10
431.2538390410516
 20
233.0159268751427
 30
0.0
 10
431.4842373344215
 20
233.0633075880849
 30
0.0
 10
431.9522823234852
 20
233.1041584168527
 30
0.0
 10
432.1932319821229
 20
233.096782874063
 30
0.0
 10
432.660296248797
 20
233.0264094256764
 30
0.0
 10
432.8877063641827
 20
232.9643579258354
 30
0.0
 10
433.3298894601803
 20
232.7848003696289
 30
0.0
 10
433.5367834856963
 20
232.6703533713305
 30
0.0
 10
433.9202418037479
 20
232.3953225036778
 30
0.0
 10
434.0982155288522
 20
232.2325234611556
 30
0.0
 10
434.4059962899703
 20
231.875455201447
 30
0.0
 10
434.5392572705737
 20
231.6781619958545
 30
0.0
 10
434.7566390399309
 20
231.2550022684611
 30
0.0
 10
434.8386921547788
 20
231.0341778910931
 30
0.0
 10
434.9503731080549
 20
230.5743351889032
 30
0.0
 10
434.9792345112392
 20
230.3354688072857
 30
0.0
 10
434.9792345191551
 20
230.0965576555098
 30
0.0
  0
LINE
  5
93
330
1F
100
AcDbEntity
  8
0
  6
Continuous
 62
     7
370
    15
100
AcDbLine
 10
434.9792312752
 20
330.3676487536
 30
0.0
 11
434.9792312752
 21
334.6670137376
 31
0.0
  0
ARC
  5
94
330
1F
100
AcDbEntity
  8
0
  6
Continuous
 62
     7
370
    15
100
AcDbCircle
 10
428.9244827997
 20
321.232103321
 30
0.0
 40
6.633978673677601
100
AcDbArc
 50
71.5202465267
 51
90.0
  0
LINE
  5
95
330
1F
100
AcDbEntity
  8
0
  6
Continuous
 62
     7
370
    15
100
AcDbLine
 10
426.9244830977
 20
327.8660827906
 30
0.0
 11
428.9244797002
 21
327.8660827906
 31
0.0
  0
ARC
  5
96
330
1F
100
AcDbEntity
  8
0
  6
Continuous
 62
     7
370
    15
100
AcDbCircle
 10
426.9244827997
 20
321.232103321
 30
0.0
 40
6.633978673677689
100
AcDbArc
 50
90.0
 51
270.0
  0
LINE
  5
97
330
1F
100
AcDbEntity
  8
0
  6
Continuous
 62
     7
370
    15
100
AcDbLine
 10
428.9244797002
 20
314.5981261165
 30
0.0
 11
426.9244830977
 21
314.5981261165
 31
0.0
  0
ARC
  5
98
330
1F
100
AcDbEntity
  8
0
  6
Continuous
 62
     7
370
    15
100
AcDbCircle
 10
428.9244827997
 20
321.232103321
 30
0.0
 40
6.633978673677871
100
AcDbArc
 50
270.0
 51
288.4797529309
  0
LINE
  5
99
330
1F
100
AcDbEntity
  8
0
  6
Continuous
 62
     7
370
    15
100
AcDbLine
 10
434.9792312752
 20
248.3676502139
 30
0.0
 11
434.9792312752
 21
312.0965564282
 31
0.0
  0
ARC
  5
9A
330
1F
100
AcDbEntity
  8
0
  6
Continuous
 62
     7
370
    15
100
AcDbCircle
 10
428.9244827997
 20
239.232103321
 30
0.0
 40
6.63397867367752
100
AcDbArc
 50
71.5202465267
 51
90.0
  0
LINE
  5
9B
330
1F
100
AcDbEntity
  8
0
  6
Continuous
 62
     7
370
    15
100
AcDbLine
 10
426.9244830977
 20
245.8660805256
 30
0.0
 11
428.9244797002
 21
245.8660805256
 31
0.0
  0
ARC
  5
9C
330
1F
100
AcDbEntity
  8
0
  6
Continuous
 62
     7
370
    15
100
AcDbCircle
 10
426.9244827997
 20
239.232103321
 30
0.0
 40
6.633978673677518
100
AcDbArc
 50
90.0
 51
270.0
  0
LINE
  5
9D
330
1F
100
AcDbEntity
  8
0
  6
Continuous
 62
     7
370
    15
100
AcDbLine
 10
428.9244797002
 20
232.5981238515
 30
0.0
 11
426.9244830977
 21
232.5981238515
 31
0.0
  0
ARC
  5
9E
330
1F
100
AcDbEntity
  8
0
  6
Continuous
 62
     7
370
    15
100
AcDbCircle
 10
428.9244827997
 20
239.232103321
 30
0.0
 40
6.633978673677871
100
AcDbArc
 50
270.0
 51
288.4797529309
  0
LINE
  5
9F
330
1F
100
AcDbEntity
  8
0
  6
Continuous
 62
     7
370
    15
100
AcDbLine
 10
434.9792312752
 20
225.7971929044
 30
0.0
 11
434.9792312752
 21
230.0965578885
 31
0.0
  0
ARC
  5
A0
330
1F
100
AcDbEntity
  8
0
  6
Continuous
 62
     7
370
    15
100
AcDbCircle
 10
428.7093929296
 20
225.7971931912
 30
0.0
 40
6.269841538983485
100
AcDbArc
 50
270.0
 51
0.0000000001
  0
LINE
  5
A1
330
1F
100
AcDbEntity
  8
0
  6
Continuous
 62
     7
370
    15
100
AcDbLine
 10
222.6395692598
 20
219.5273505182
 30
0.0
 11
428.7093963396
 21
219.5273505182
 31
0.0
  0
ARC
  5
A2
330
1F
100
AcDbEntity
  8
0
  6
Continuous
 62
     7
370
    15
100
AcDbCircle
 10
222.6395726698
 20
225.7971931912
 30
0.0
 40
6.269841538990988
100
AcDbArc
 50
179.9999999961
 51
270.0
  0
LINE
  5
A3
330
1F
100
AcDbEntity
  8
0
  6
Continuous
 62
     7
370
    15
100
AcDbLine
 10
216.3697343241
 20
230.0965578885
 30
0.0
 11
216.3697343241
 21
225.7971929044
 31
0.0
  0
ARC
  5
A4
330
1F
100
AcDbEntity
  8
0
  6
Continuous
 62
     7
370
    15
100
AcDbCircle
 10
222.4244827997
 20
239.232103321
 30
0.0
 40
6.633978673677197
100
AcDbArc
 50
251.5202465267
 51
270.0
  0
LINE
  5
A5
330
1F
100
AcDbEntity
  8
0
  6
Continuous
 62
     7
370
    15
100
AcDbLine
 10
224.4244825016
 20
232.5981238515
 30
0.0
 11
222.4244858991
 21
232.5981238515
 31
0.0
  0
ARC
  5
A6
330
1F
100
AcDbEntity
  8
0
  6
Continuous
 62
     7
370
    15
100
AcDbCircle
 10
224.4244827997
 20
239.232103321
 30
0.0
 40
6.633978673677689
100
AcDbArc
 50
270.0
 51
90.0
  0
LINE
  5
A7
330
1F
100
AcDbEntity
  8
0
  6
Continuous
 62
     7
370
    15
100
AcDbLine
 10
222.4244858991
 20
245.8660805256
 30
0.0
 11
224.4244825016
 21
245.8660805256
 31
0.0
  0
ARC
  5
A8
330
1F
100
AcDbEntity
  8
0
  6
Continuous
 62
     7
370
    15
100
AcDbCircle
 10
222.4244827997
 20
239.232103321
 30
0.0
 40
6.633978673677601
100
AcDbArc
 50
90.0
 51
108.4797529309
  0
LINE
  5
A9
330
1F
100
AcDbEntity
  8
0
  6
Continuous
 62
     7
370
    15
100
AcDbLine
 10
216.3697343241
 20
312.0965564282
 30
0.0
 11
216.3697343241
 21
248.3676502139
 31
0.0
  0
ARC
  5
AA
330
1F
100
AcDbEntity
  8
0
  6
Continuous
 62
     7
370
    15
100
AcDbCircle
 10
222.4244827997
 20
321.232103321
 30
0.0
 40
6.633978673677234
100
AcDbArc
 50
251.5202465267
 51
270.0
  0
LINE
  5
AB
330
1F
100
AcDbEntity
  8
0
  6
Continuous
 62
     7
370
    15
100
AcDbLine
 10
224.4244825016
 20
314.5981261165
 30
0.0
 11
222.4244858991
 21
314.5981261165
 31
0.0
  0
ARC
  5
AC
330
1F
100
AcDbEntity
  8
0
  6
Continuous
 62
     7
370
    15
100
AcDbCircle
 10
224.4244827997
 20
321.232103321
 30
0.0
 40
6.633978673677802
100
AcDbArc
 50
270.0
 51
90.0
  0
LINE
  5
AD
330
1F
100
AcDbEntity
  8
0
  6
Continuous
 62
     7
370
    15
100
AcDbLine
 10
222.4244858991
 20
327.8660827906
 30
0.0
 11
224.4244825016
 21
327.8660827906
 31
0.0
  0
ARC
  5
AE
330
1F
100
AcDbEntity
  8
0
  6
Continuous
 62
     7
370
    15
100
AcDbCircle
 10
222.4244827997
 20
321.232103321
 30
0.0
 40
6.633978673677601
100
AcDbArc
 50
90.0
 51
108.4797529309
  0
LINE
  5
AF
330
1F
100
AcDbEntity
  8
0
  6
Continuous
 62
     7
370
    15
100
AcDbLine
 10
216.3697343241
 20
334.6670137376
 30
0.0
 11
216.3697343241
 21
330.3676487536
 31
0.0
  0
ARC
  5
B0
330
1F
100
AcDbEntity
  8
0
  6
Continuous
 62
     7
370
    15
100
AcDbCircle
 10
222.6395726698
 20
334.6670134509
 30
0.0
 40
6.269841538983428
100
AcDbArc
 50
90.0
 51
179.9999999999
  0
LINE
  5
B1
330
1F
100
AcDbEntity
  8
0
  6
Continuous
 62
     7
370
    15
100
AcDbLine
 10
428.7093963396
 20
340.9368561239
 30
0.0
 11
222.6395692598
 21
340.9368561239
 31
0.0
  0
ARC
  5
B2
330
1F
100
AcDbEntity
  8
0
  6
Continuous
 62
     7
370
    15
100
AcDbCircle
 10
428.7093929296
 20
334.6670134509
 30
0.0
 40
6.269841538991045
100
AcDbArc
 50
0.0000000039
 51
90.0
  0
LINE
  5
B3
330
1F
100
AcDbEntity
  8
0
  6
Continuous
 62
     7
370
    15
100
AcDbLine
 10
416.7744826447
 20
221.0321033032
 30
0.0
 11
234.5744829546
 21
221.0321033032
 31
0.0
  0
ARC
  5
B4
330
1F
100
AcDbEntity
  8
0
  6
Continuous
 62
     7
370
    15
100
AcDbCircle
 10
416.7744827997
 20
223.032103321
 30
0.0
 40
2.0
100
AcDbArc
 50
270.0
 51
0.0000000004
  0
LINE
  5
B5
330
1F
100
AcDbEntity
  8
0
  6
Continuous
 62
     7
370
    15
100
AcDbLine
 10
418.7744792472
 20
239.4321018488
 30
0.0
 11
418.7744792472
 21
223.032103631
 31
0.0
  0
ARC
  5
B6
330
1F
100
AcDbEntity
  8
0
  6
Continuous
 62
     7
370
    15
100
AcDbCircle
 10
426.7744827997
 20
239.432103321
 30
0.0
 40
8.000000000000028
100
AcDbArc
 50
90.0
 51
180.0
  0
LINE
  5
B7
330
1F
100
AcDbEntity
  8
0
  6
Continuous
 62
     7
370
    15
100
AcDbLine
 10
431.474485613
 20
247.4321031601
 30
0.0
 11
426.7744805585
 21
247.4321031601
 31
0.0
  0
ARC
  5
B8
330
1F
100
AcDbEntity
  8
0
  6
Continuous
 62
     7
370
    15
100
AcDbCircle
 10
431.4744827997
 20
249.432103321
 30
0.0
 40
2.0
100
AcDbArc
 50
270.0
 51
0.0000000004
  0
LINE
  5
B9
330
1F
100
AcDbEntity
  8
0
  6
Continuous
 62
     7
370
    15
100
AcDbLine
 10
433.4744822155
 20
311.0321031541
 30
0.0
 11
433.4744822155
 21
249.4321034879
 31
0.0
  0
ARC
  5
BA
330
1F
100
AcDbEntity
  8
0
  6
Continuous
 62
     7
370
    15
100
AcDbCircle
 10
431.4744827997
 20
311.032103321
 30
0.0
 40
2.000000000000398
100
AcDbArc
 50
0.0
 51
90.0
  0
LINE
  5
BB
330
1F
100
AcDbEntity
  8
0
  6
Continuous
 62
     7
370
    15
100
AcDbLine
 10
426.7744805585
 20
313.032103482
 30
0.0
 11
431.474485613
 21
313.032103482
 31
0.0
  0
ARC
  5
BC
330
1F
100
AcDbEntity
  8
0
  6
Continuous
 62
     7
370
    15
100
AcDbCircle
 10
426.7744827997
 20
321.032103321
 30
0.0
 40
8.0
100
AcDbArc
 50
180.0
 51
270.0
  0
LINE
  5
BD
330
1F
100
AcDbEntity
  8
0
  6
Continuous
 62
     7
370
    15
100
AcDbLine
 10
418.7744792472
 20
337.4321030111
 30
0.0
 11
418.7744792472
 21
321.0321047933
 31
0.0
  0
ARC
  5
BE
330
1F
100
AcDbEntity
  8
0
  6
Continuous
 62
     7
370
    15
100
AcDbCircle
 10
416.7744827997
 20
337.432103321
 30
0.0
 40
2.000000000000739
100
AcDbArc
 50
0.0
 51
90.0
  0
LINE
  5
BF
330
1F
100
AcDbEntity
  8
0
  6
Continuous
 62
     7
370
    15
100
AcDbLine
 10
234.5744829546
 20
339.4321033389
 30
0.0
 11
416.7744826447
 21
339.4321033389
 31
0.0
  0
ARC
  5
C0
330
1F
100
AcDbEntity
  8
0
  6
Continuous
 62
     7
370
    15
100
AcDbCircle
 10
234.5744827997
 20
337.432103321
 30
0.0
 40
2.0
100
AcDbArc
 50
90.0
 51
179.9999999996
  0
LINE
  5
C1
330
1F
100
AcDbEntity
  8
0
  6
Continuous
 62
     7
370
    15
100
AcDbLine
 10
232.5744863521
 20
321.0321047933
 30
0.0
 11
232.5744863521
 21
337.4321030111
 31
0.0
  0
ARC
  5
C2
330
1F
100
AcDbEntity
  8
0
  6
Continuous
 62
     7
370
    15
100
AcDbCircle
 10
224.5744827997
 20
321.032103321
 30
0.0
 40
8.0
100
AcDbArc
 50
270.0
 51
0.0
  0
LINE
  5
C3
330
1F
100
AcDbEntity
  8
0
  6
Continuous
 62
     7
370
    15
100
AcDbLine
 10
219.8744799863
 20
313.032103482
 30
0.0
 11
224.5744850408
 21
313.032103482
 31
0.0
  0
ARC
  5
C4
330
1F
100
AcDbEntity
  8
0
  6
Continuous
 62
     7
370
    15
100
AcDbCircle
 10
219.8744827997
 20
311.032103321
 30
0.0
 40
2.0
100
AcDbArc
 50
90.0
 51
179.9999999996
  0
LINE
  5
C5
330
1F
100
AcDbEntity
  8
0
  6
Continuous
 62
     7
370
    15
100
AcDbLine
 10
217.8744833838
 20
249.4321034879
 30
0.0
 11
217.8744833838
 21
311.0321031541
 31
0.0
  0
ARC
  5
C6
330
1F
100
AcDbEntity
  8
0
  6
Continuous
 62
     7
370
    15
100
AcDbCircle
 10
219.8744827997
 20
249.432103321
 30
0.0
 40
2.000000000000426
100
AcDbArc
 50
180.0
 51
270.0
  0
LINE
  5
C7
330
1F
100
AcDbEntity
  8
0
  6
Continuous
 62
     7
370
    15
100
AcDbLine
 10
224.5744850408
 20
247.4321031601
 30
0.0
 11
219.8744799863
 21
247.4321031601
 31
0.0
  0
ARC
  5
C8
330
1F
100
AcDbEntity
  8
0
  6
Continuous
 62
     7
370
    15
100
AcDbCircle
 10
224.5744827997
 20
239.432103321
 30
0.0
 40
8.000000000000028
100
AcDbArc
 50
0.0
 51
90.0
  0
LINE
  5
C9
330
1F
100
AcDbEntity
  8
0
  6
Continuous
 62
     7
370
    15
100
AcDbLine
 10
232.5744863521
 20
223.032103631
 30
0.0
 11
232.5744863521
 21
239.4321018488
 31
0.0
  0
ARC
  5
CA
330
1F
100
AcDbEntity
  8
0
  6
Continuous
 62
     7
370
    15
100
AcDbCircle
 10
234.5744827997
 20
223.032103321
 30
0.0
 40
2.0
100
AcDbArc
 50
180.0
 51
270.0
  0
CIRCLE
  5
CB
330
1F
100
AcDbEntity
  8
0
  6
Continuous
 62
     7
370
    15
100
AcDbCircle
 10
223.6244827997
 20
226.232103321
 30
0.0
 40
4.083015593890963
  0
CIRCLE
  5
CC
330
1F
100
AcDbEntity
  8
0
  6
Continuous
 62
     7
370
    15
100
AcDbCircle
 10
223.6244827997
 20
334.232103321
 30
0.0
 40
4.083015593895084
  0
CIRCLE
  5
CD
330
1F
100
AcDbEntity
  8
0
  6
Continuous
 62
     7
370
    15
100
AcDbCircle
 10
427.7244827997
 20
334.232103321
 30
0.0
 40
4.083015593895084
  0
CIRCLE
  5
CE
330
1F
100
AcDbEntity
  8
0
  6
Continuous
 62
     7
370
    15
100
AcDbCircle
 10
427.7244827997
 20
226.232103321
 30
0.0
 40
4.083015593890963
  0
ARC
  5
CF
330
1F
100
AcDbEntity
  8
0
  6
Continuous
 62
     7
370
    15
100
AcDbCircle
 10
222.4244827997
 20
239.232103321
 30
0.0
 40
6.621412098902305
100
AcDbArc
 50
108.8999493934
 51
251.1000505307
  0
LINE
  5
D0
330
1F
100
AcDbEntity
  8
0
  6
Continuous
 62
     7
370
    15
100
AcDbLine
 10
222.4244858991
 20
245.8660805256
 30
0.0
 11
222.4244858991
 21
245.4821036787
 31
0.0
  0
ARC
  5
D1
330
1F
100
AcDbEntity
  8
0
  6
Continuous
 62
     7
370
    15
100
AcDbCircle
 10
222.4244827997
 20
239.232103321
 30
0.0
 40
6.25
100
AcDbArc
 50
90.0
 51
270.0
  0
LINE
  5
D2
330
1F
100
AcDbEntity
  8
0
  6
Continuous
 62
     7
370
    15
100
AcDbLine
 10
222.4244858991
 20
232.9821044237
 30
0.0
 11
222.4244858991
 21
232.5981238515
 31
0.0
  0
ARC
  5
D3
330
1F
100
AcDbEntity
  8
0
  6
Continuous
 62
     7
370
    15
100
AcDbCircle
 10
428.9244827997
 20
239.232103321
 30
0.0
 40
6.621412098902656
100
AcDbArc
 50
288.8999493934
 51
71.1000505307
  0
LINE
  5
D4
330
1F
100
AcDbEntity
  8
0
  6
Continuous
 62
     7
370
    15
100
AcDbLine
 10
428.9244797002
 20
232.5981238515
 30
0.0
 11
428.9244797002
 21
232.9821044237
 31
0.0
  0
ARC
  5
D5
330
1F
100
AcDbEntity
  8
0
  6
Continuous
 62
     7
370
    15
100
AcDbCircle
 10
428.9244827997
 20
239.232103321
 30
0.0
 40
6.25
100
AcDbArc
 50
270.0
 51
90.0
  0
LINE
  5
D6
330
1F
100
AcDbEntity
  8
0
  6
Continuous
 62
     7
370
    15
100
AcDbLine
 10
428.9244797002
 20
245.4821036787
 30
0.0
 11
428.9244797002
 21
245.8660805256
 31
0.0
  0
ARC
  5
D7
330
1F
100
AcDbEntity
  8
0
  6
Continuous
 62
     7
370
    15
100
AcDbCircle
 10
222.4244827997
 20
321.232103321
 30
0.0
 40
6.621412098902328
100
AcDbArc
 50
108.8999493934
 51
251.1000505307
  0
LINE
  5
D8
330
1F
100
AcDbEntity
  8
0
  6
Continuous
 62
     7
370
    15
100
AcDbLine
 10
222.4244858991
 20
327.8660827906
 30
0.0
 11
222.4244858991
 21
327.4821022183
 31
0.0
  0
ARC
  5
D9
330
1F
100
AcDbEntity
  8
0
  6
Continuous
 62
     7
370
    15
100
AcDbCircle
 10
222.4244827997
 20
321.232103321
 30
0.0
 40
6.25
100
AcDbArc
 50
90.0
 51
270.0
  0
LINE
  5
DA
330
1F
100
AcDbEntity
  8
0
  6
Continuous
 62
     7
370
    15
100
AcDbLine
 10
222.4244858991
 20
314.9821029634
 30
0.0
 11
222.4244858991
 21
314.5981261165
 31
0.0
  0
ARC
  5
DB
330
1F
100
AcDbEntity
  8
0
  6
Continuous
 62
     7
370
    15
100
AcDbCircle
 10
428.9244827997
 20
321.232103321
 30
0.0
 40
6.621412098902684
100
AcDbArc
 50
288.8999493934
 51
71.1000505307
  0
LINE
  5
DC
330
1F
100
AcDbEntity
  8
0
  6
Continuous
 62
     7
370
    15
100
AcDbLine
 10
428.9244797002
 20
314.5981261165
 30
0.0
 11
428.9244797002
 21
314.9821029634
 31
0.0
  0
ARC
  5
DD
330
1F
100
AcDbEntity
  8
0
  6
Continuous
 62
     7
370
    15
100
AcDbCircle
 10
428.9244827997
 20
321.232103321
 30
0.0
 40
6.25
100
AcDbArc
 50
270.0
 51
90.0
  0
LINE
  5
DE
330
1F
100
AcDbEntity
  8
0
  6
Continuous
 62
     7
370
    15
100
AcDbLine
 10
428.9244797002
 20
327.4821022183
 30
0.0
 11
428.9244797002
 21
327.8660827906
 31
0.0
  0
LINE
  5
DF
330
1F
100
AcDbEntity
  8
0
  6
Continuous
 62
     7
370
    15
100
AcDbLine
 10
224.4244825016
 20
327.8660827906
 30
0.0
 11
224.4244825016
 21
327.4821022183
 31
0.0
  0
LINE
  5
E0
330
1F
100
AcDbEntity
  8
0
  6
Continuous
 62
     7
370
    15
100
AcDbLine
 10
224.4244825016
 20
327.4821022183
 30
0.0
 11
222.4244858991
 21
327.4821022183
 31
0.0
  0
LINE
  5
E1
330
1F
100
AcDbEntity
  8
0
  6
Continuous
 62
     7
370
    15
100
AcDbLine
 10
426.9244830977
 20
232.5981238515
 30
0.0
 11
426.9244830977
 21
232.9821044237
 31
0.0
  0
LINE
  5
E2
330
1F
100
AcDbEntity
  8
0
  6
Continuous
 62
     7
370
    15
100
AcDbLine
 10
426.9244830977
 20
232.9821044237
 30
0.0
 11
428.9244797002
 21
232.9821044237
 31
0.0
  0
LINE
  5
E3
330
1F
100
AcDbEntity
  8
0
  6
Continuous
 62
     7
370
    15
100
AcDbLine
 10
224.4244825016
 20
245.8660805256
 30
0.0
 11
224.4244825016
 21
245.4821036787
 31
0.0
  0
LINE
  5
E4
330
1F
100
AcDbEntity
  8
0
  6
Continuous
 62
     7
370
    15
100
AcDbLine
 10
224.4244825016
 20
245.4821036787
 30
0.0
 11
222.4244858991
 21
245.4821036787
 31
0.0
  0
LINE
  5
E5
330
1F
100
AcDbEntity
  8
0
  6
Continuous
 62
     7
370
    15
100
AcDbLine
 10
426.9244830977
 20
314.5981261165
 30
0.0
 11
426.9244830977
 21
314.9821029634
 31
0.0
  0
LINE
  5
E6
330
1F
100
AcDbEntity
  8
0
  6
Continuous
 62
     7
370
    15
100
AcDbLine
 10
426.9244830977
 20
314.9821029634
 30
0.0
 11
428.9244797002
 21
314.9821029634
 31
0.0
  0
ARC
  5
E7
330
1F
100
AcDbEntity
  8
0
  6
Continuous
 62
     7
370
    15
100
AcDbCircle
 10
428.7093929296
 20
225.7971931912
 30
0.0
 40
6.332699023684143
100
AcDbArc
 50
270.0
 51
0.0
  0
LINE
  5
E8
330
1F
100
AcDbEntity
  8
0
  6
Continuous
 62
     7
370
    15
100
AcDbLine
 10
428.7093963396
 20
219.5273505182
 30
0.0
 11
428.7093963396
 21
219.464493695
 31
0.0
  0
LINE
  5
E9
330
1F
100
AcDbEntity
  8
0
  6
Continuous
 62
     7
370
    15
100
AcDbLine
 10
435.0420918237
 20
225.7971929044
 30
0.0
 11
434.9792312752
 21
225.7971929044
 31
0.0
  0
ARC
  5
EA
330
1F
100
AcDbEntity
  8
0
  6
Continuous
 62
     7
370
    15
100
AcDbCircle
 10
222.6395726698
 20
334.6670134509
 30
0.0
 40
6.332699023684199
100
AcDbArc
 50
90.0
 51
180.0
  0
LINE
  5
EB
330
1F
100
AcDbEntity
  8
0
  6
Continuous
 62
     7
370
    15
100
AcDbLine
 10
222.6395692598
 20
340.9368561239
 30
0.0
 11
222.6395692598
 21
340.9997129471
 31
0.0
  0
LINE
  5
EC
330
1F
100
AcDbEntity
  8
0
  6
Continuous
 62
     7
370
    15
100
AcDbLine
 10
216.3068737756
 20
334.6670137376
 30
0.0
 11
216.3697343241
 21
334.6670137376
 31
0.0
  0
LINE
  5
ED
330
1F
100
AcDbEntity
  8
0
  6
Continuous
 62
     7
370
    15
100
AcDbLine
 10
216.3068737756
 20
330.3330929608
 30
0.0
 11
216.3068737756
 21
334.6670137376
 31
0.0
  0
LINE
  5
EE
330
1F
100
AcDbEntity
  8
0
  6
Continuous
 62
     7
370
    15
100
AcDbLine
 10
435.0420918237
 20
230.1311136813
 30
0.0
 11
435.0420918237
 21
225.7971929044
 31
0.0
  0
LINE
  5
EF
330
1F
100
AcDbEntity
  8
0
  6
Continuous
 62
     7
370
    15
100
AcDbLine
 10
233.5694219839
 20
337.4321030111
 30
0.0
 11
232.5744863521
 21
337.4321030111
 31
0.0
  0
LINE
  5
F0
330
1F
100
AcDbEntity
  8
0
  6
Continuous
 62
     7
370
    15
100
AcDbLine
 10
234.5744829546
 20
338.4371639819
 30
0.0
 11
234.5744829546
 21
339.4321033389
 31
0.0
  0
ARC
  5
F1
330
1F
100
AcDbEntity
  8
0
  6
Continuous
 62
     7
370
    15
100
AcDbCircle
 10
234.5744827997
 20
337.432103321
 30
0.0
 40
1.005061299091722
100
AcDbArc
 50
90.0
 51
179.9999999983
  0
LINE
  5
F2
330
1F
100
AcDbEntity
  8
0
  6
Continuous
 62
     7
370
    15
100
AcDbLine
 10
233.5694219839
 20
321.0321047933
 30
0.0
 11
232.5744863521
 21
321.0321047933
 31
0.0
  0
LINE
  5
F3
330
1F
100
AcDbEntity
  8
0
  6
Continuous
 62
     7
370
    15
100
AcDbLine
 10
233.5694219839
 20
337.4321030111
 30
0.0
 11
233.5694219839
 21
321.0321047933
 31
0.0
  0
LINE
  5
F4
330
1F
100
AcDbEntity
  8
0
  6
Continuous
 62
     7
370
    15
100
AcDbLine
 10
417.7795436155
 20
223.032103631
 30
0.0
 11
418.7744792472
 21
223.032103631
 31
0.0
  0
LINE
  5
F5
330
1F
100
AcDbEntity
  8
0
  6
Continuous
 62
     7
370
    15
100
AcDbLine
 10
416.7744826447
 20
222.0270426602
 30
0.0
 11
416.7744826447
 21
221.0321033032
 31
0.0
  0
ARC
  5
F6
330
1F
100
AcDbEntity
  8
0
  6
Continuous
 62
     7
370
    15
100
AcDbCircle
 10
416.7744827997
 20
223.032103321
 30
0.0
 40
1.005061299092176
100
AcDbArc
 50
270.0
 51
0.0000000017
  0
LINE
  5
F7
330
1F
100
AcDbEntity
  8
0
  6
Continuous
 62
     7
370
    15
100
AcDbLine
 10
234.5744829546
 20
222.0270426602
 30
0.0
 11
234.5744829546
 21
221.0321033032
 31
0.0
  0
LINE
  5
F8
330
1F
100
AcDbEntity
  8
0
  6
Continuous
 62
     7
370
    15
100
AcDbLine
 10
233.5694219839
 20
223.032103631
 30
0.0
 11
232.5744863521
 21
223.032103631
 31
0.0
  0
ARC
  5
F9
330
1F
100
AcDbEntity
  8
0
  6
Continuous
 62
     7
370
    15
100
AcDbCircle
 10
234.5744827997
 20
223.032103321
 30
0.0
 40
1.005061299092006
100
AcDbArc
 50
179.9999999991
 51
270.0
  0
LINE
  5
FA
330
1F
100
AcDbEntity
  8
0
  6
Continuous
 62
     7
370
    15
100
AcDbLine
 10
417.7795436155
 20
239.4321018488
 30
0.0
 11
418.7744792472
 21
239.4321018488
 31
0.0
  0
LINE
  5
FB
330
1F
100
AcDbEntity
  8
0
  6
Continuous
 62
     7
370
    15
100
AcDbLine
 10
417.7795436155
 20
223.032103631
 30
0.0
 11
417.7795436155
 21
239.4321018488
 31
0.0
  0
LINE
  5
FC
330
1F
100
AcDbEntity
  8
0
  6
Continuous
 62
     7
370
    15
100
AcDbLine
 10
234.5744829546
 20
222.0270426602
 30
0.0
 11
416.7744826447
 21
222.0270426602
 31
0.0
  0
LINE
  5
FD
330
1F
100
AcDbEntity
  8
0
  6
Continuous
 62
     7
370
    15
100
AcDbLine
 10
416.7744826447
 20
338.4371639819
 30
0.0
 11
416.7744826447
 21
339.4321033389
 31
0.0
  0
LINE
  5
FE
330
1F
100
AcDbEntity
  8
0
  6
Continuous
 62
     7
370
    15
100
AcDbLine
 10
417.7795436155
 20
337.4321030111
 30
0.0
 11
418.7744792472
 21
337.4321030111
 31
0.0
  0
ARC
  5
FF
330
1F
100
AcDbEntity
  8
0
  6
Continuous
 62
     7
370
    15
100
AcDbCircle
 10
416.7744827997
 20
337.432103321
 30
0.0
 40
1.005061299092517
100
AcDbArc
 50
0.0000000009
 51
90.0
  0
LINE
  5
100
330
1F
100
AcDbEntity
  8
0
  6
Continuous
 62
     7
370
    15
100
AcDbLine
 10
416.7744826447
 20
338.4371639819
 30
0.0
 11
234.5744829546
 21
338.4371639819
 31
0.0
  0
LINE
  5
101
330
1F
100
AcDbEntity
  8
0
  6
Continuous
 62
     7
370
    15
100
AcDbLine
 10
426.7744805585
 20
312.1942596168
 30
0.0
 11
426.7744805585
 21
313.032103482
 31
0.0
  0
LINE
  5
102
330
1F
100
AcDbEntity
  8
0
  6
Continuous
 62
     7
370
    15
100
AcDbLine
 10
431.474485613
 20
312.1942596168
 30
0.0
 11
431.474485613
 21
313.032103482
 31
0.0
  0
LINE
  5
103
330
1F
100
AcDbEntity
  8
0
  6
Continuous
 62
     7
370
    15
100
AcDbLine
 10
431.474485613
 20
312.1942596168
 30
0.0
 11
426.7744805585
 21
312.1942596168
 31
0.0
  0
LINE
  5
104
330
1F
100
AcDbEntity
  8
0
  6
Continuous
 62
     7
370
    15
100
AcDbLine
 10
432.6366420757
 20
249.4321034879
 30
0.0
 11
433.4744822155
 21
249.4321034879
 31
0.0
  0
LINE
  5
105
330
1F
100
AcDbEntity
  8
0
  6
Continuous
 62
     7
370
    15
100
AcDbLine
 10
431.474485613
 20
248.2699470253
 30
0.0
 11
431.474485613
 21
247.4321031601
 31
0.0
  0
ARC
  5
106
330
1F
100
AcDbEntity
  8
0
  6
Continuous
 62
     7
370
    15
100
AcDbCircle
 10
431.4744827997
 20
249.432103321
 30
0.0
 40
1.162156883446016
100
AcDbArc
 50
270.0
 51
0.0000000007
  0
LINE
  5
107
330
1F
100
AcDbEntity
  8
0
  6
Continuous
 62
     7
370
    15
100
AcDbLine
 10
224.5744850408
 20
248.2699470253
 30
0.0
 11
224.5744850408
 21
247.4321031601
 31
0.0
  0
LINE
  5
108
330
1F
100
AcDbEntity
  8
0
  6
Continuous
 62
     7
370
    15
100
AcDbLine
 10
219.8744799863
 20
248.2699470253
 30
0.0
 11
219.8744799863
 21
247.4321031601
 31
0.0
  0
LINE
  5
109
330
1F
100
AcDbEntity
  8
0
  6
Continuous
 62
     7
370
    15
100
AcDbLine
 10
219.8744799863
 20
248.2699470253
 30
0.0
 11
224.5744850408
 21
248.2699470253
 31
0.0
  0
LINE
  5
10A
330
1F
100
AcDbEntity
  8
0
  6
Continuous
 62
     7
370
    15
100
AcDbLine
 10
432.6366420757
 20
311.0321031541
 30
0.0
 11
433.4744822155
 21
311.0321031541
 31
0.0
  0
LINE
  5
10B
330
1F
100
AcDbEntity
  8
0
  6
Continuous
 62
     7
370
    15
100
AcDbLine
 10
432.6366420757
 20
249.4321034879
 30
0.0
 11
432.6366420757
 21
253.4167950631
 31
0.0
  0
LINE
  5
10C
330
1F
100
AcDbEntity
  8
0
  6
Continuous
 62
     7
370
    15
100
AcDbLine
 10
432.4795465838
 20
253.5074928433
 30
0.0
 11
432.4795465838
 21
306.9567137987
 31
0.0
  0
LINE
  5
10D
330
1F
100
AcDbEntity
  8
0
  6
Continuous
 62
     7
370
    15
100
AcDbLine
 10
432.6366420757
 20
307.047411579
 30
0.0
 11
432.6366420757
 21
311.0321031541
 31
0.0
  0
LINE
  5
10E
330
1F
100
AcDbEntity
  8
0
  6
Continuous
 62
     7
370
    15
100
AcDbLine
 10
218.7123235237
 20
249.4321034879
 30
0.0
 11
217.8744833838
 21
249.4321034879
 31
0.0
  0
ARC
  5
10F
330
1F
100
AcDbEntity
  8
0
  6
Continuous
 62
     7
370
    15
100
AcDbCircle
 10
219.8744827997
 20
249.432103321
 30
0.0
 40
1.16215688344613
100
AcDbArc
 50
180.0
 51
270.0
  0
ARC
  5
110
330
1F
100
AcDbEntity
  8
0
  6
Continuous
 62
     7
370
    15
100
AcDbCircle
 10
431.4744827997
 20
311.032103321
 30
0.0
 40
1.16215688344613
100
AcDbArc
 50
0.0
 51
90.0
  0
LINE
  5
111
330
1F
100
AcDbEntity
  8
0
  6
Continuous
 62
     7
370
    15
100
AcDbLine
 10
218.7123235237
 20
311.0321031541
 30
0.0
 11
217.8744833838
 21
311.0321031541
 31
0.0
  0
LINE
  5
112
330
1F
100
AcDbEntity
  8
0
  6
Continuous
 62
     7
370
    15
100
AcDbLine
 10
219.8744799863
 20
312.1942596168
 30
0.0
 11
219.8744799863
 21
313.032103482
 31
0.0
  0
ARC
  5
113
330
1F
100
AcDbEntity
  8
0
  6
Continuous
 62
     7
370
    15
100
AcDbCircle
 10
219.8744827997
 20
311.032103321
 30
0.0
 40
1.162156883446386
100
AcDbArc
 50
90.0
 51
179.9999999993
  0
LINE
  5
114
330
1F
100
AcDbEntity
  8
0
  6
Continuous
 62
     7
370
    15
100
AcDbLine
 10
218.7123235237
 20
311.0321031541
 30
0.0
 11
218.7123235237
 21
307.047411579
 31
0.0
  0
LINE
  5
115
330
1F
100
AcDbEntity
  8
0
  6
Continuous
 62
     7
370
    15
100
AcDbLine
 10
218.8694190155
 20
306.9567137987
 30
0.0
 11
218.8694190155
 21
253.5074928433
 31
0.0
  0
LINE
  5
116
330
1F
100
AcDbEntity
  8
0
  6
Continuous
 62
     7
370
    15
100
AcDbLine
 10
218.7123235237
 20
253.4167950631
 30
0.0
 11
218.7123235237
 21
249.4321034879
 31
0.0
  0
ARC
  5
117
330
1F
100
AcDbEntity
  8
0
  6
Continuous
 62
     7
370
    15
100
AcDbCircle
 10
428.7093929296
 20
334.6670134509
 30
0.0
 40
6.332698924069462
100
AcDbArc
 50
0.0
 51
90.0
  0
LINE
  5
118
330
1F
100
AcDbEntity
  8
0
  6
Continuous
 62
     7
370
    15
100
AcDbLine
 10
434.9792312752
 20
334.6670137376
 30
0.0
 11
435.0420918237
 21
334.6670137376
 31
0.0
  0
LINE
  5
119
330
1F
100
AcDbEntity
  8
0
  6
Continuous
 62
     7
370
    15
100
AcDbLine
 10
428.7093963396
 20
340.9997129471
 30
0.0
 11
428.7093963396
 21
340.9368561239
 31
0.0
  0
LINE
  5
11A
330
1F
100
AcDbEntity
  8
0
  6
Continuous
 62
     7
370
    15
100
AcDbLine
 10
222.6395692598
 20
340.9997129471
 30
0.0
 11
428.7093963396
 21
340.9997129471
 31
0.0
  0
LINE
  5
11B
330
1F
100
AcDbEntity
  8
0
  6
Continuous
 62
     7
370
    15
100
AcDbLine
 10
222.6395692598
 20
219.464493695
 30
0.0
 11
222.6395692598
 21
219.5273505182
 31
0.0
  0
LINE
  5
11C
330
1F
100
AcDbEntity
  8
0
  6
Continuous
 62
     7
370
    15
100
AcDbLine
 10
428.7093963396
 20
219.464493695
 30
0.0
 11
222.6395692598
 21
219.464493695
 31
0.0
  0
ARC
  5
11D
330
1F
100
AcDbEntity
  8
0
  6
Continuous
 62
     7
370
    15
100
AcDbCircle
 10
222.6395726698
 20
225.7971931912
 30
0.0
 40
6.33269892406949
100
AcDbArc
 50
180.0
 51
270.0
  0
LINE
  5
11E
330
1F
100
AcDbEntity
  8
0
  6
Continuous
 62
     7
370
    15
100
AcDbLine
 10
216.3697343241
 20
225.7971929044
 30
0.0
 11
216.3068737756
 21
225.7971929044
 31
0.0
  0
LINE
  5
11F
330
1F
100
AcDbEntity
  8
0
  6
Continuous
 62
     7
370
    15
100
AcDbLine
 10
426.9244830977
 20
245.8660805256
 30
0.0
 11
426.9244830977
 21
245.4821036787
 31
0.0
  0
ARC
  5
120
330
1F
100
AcDbEntity
  8
0
  6
Continuous
 62
     7
370
    15
100
AcDbCircle
 10
426.9244827997
 20
239.232103321
 30
0.0
 40
6.25
100
AcDbArc
 50
90.0
 51
270.0
  0
LINE
  5
121
330
1F
100
AcDbEntity
  8
0
  6
Continuous
 62
     7
370
    15
100
AcDbLine
 10
426.9244830977
 20
327.8660827906
 30
0.0
 11
426.9244830977
 21
327.4821022183
 31
0.0
  0
ARC
  5
122
330
1F
100
AcDbEntity
  8
0
  6
Continuous
 62
     7
370
    15
100
AcDbCircle
 10
426.9244827997
 20
321.232103321
 30
0.0
 40
6.25
100
AcDbArc
 50
90.0
 51
270.0
  0
LINE
  5
123
330
1F
100
AcDbEntity
  8
0
  6
Continuous
 62
     7
370
    15
100
AcDbLine
 10
224.4244825016
 20
314.5981261165
 30
0.0
 11
224.4244825016
 21
314.9821029634
 31
0.0
  0
ARC
  5
124
330
1F
100
AcDbEntity
  8
0
  6
Continuous
 62
     7
370
    15
100
AcDbCircle
 10
224.4244827997
 20
321.232103321
 30
0.0
 40
6.250000000000512
100
AcDbArc
 50
270.0
 51
90.0
  0
LINE
  5
125
330
1F
100
AcDbEntity
  8
0
  6
Continuous
 62
     7
370
    15
100
AcDbLine
 10
224.4244825016
 20
232.5981238515
 30
0.0
 11
224.4244825016
 21
232.9821044237
 31
0.0
  0
ARC
  5
126
330
1F
100
AcDbEntity
  8
0
  6
Continuous
 62
     7
370
    15
100
AcDbCircle
 10
224.4244827997
 20
239.232103321
 30
0.0
 40
6.25
100
AcDbArc
 50
270.0
 51
90.0
  0
CIRCLE
  5
127
330
1F
100
AcDbEntity
  8
0
  6
Continuous
 62
     7
370
    15
100
AcDbCircle
 10
427.7244827997
 20
226.232103321
 30
0.0
 40
3.482555277526558
  0
LINE
  5
128
330
1F
100
AcDbEntity
  8
0
  6
Continuous
 62
     7
370
    15
100
AcDbLine
 10
224.5744850408
 20
313.032103482
 30
0.0
 11
224.5744850408
 21
312.1942596168
 31
0.0
  0
ARC
  5
129
330
1F
100
AcDbEntity
  8
0
  6
Continuous
 62
     7
370
    15
100
AcDbCircle
 10
224.5744827997
 20
321.032103321
 30
0.0
 40
8.994938700908193
100
AcDbArc
 50
306.6420853261
 51
0.0
  0
ARC
  5
12A
330
1F
100
AcDbEntity
  8
0
  6
Continuous
 62
     7
370
    15
100
AcDbCircle
 10
224.5744827997
 20
321.032103321
 30
0.0
 40
8.837843116554211
100
AcDbArc
 50
270.0
 51
306.7606967185
  0
ARC
  5
12B
330
1F
100
AcDbEntity
  8
0
  6
Continuous
 62
     7
370
    15
100
AcDbCircle
 10
426.7744827997
 20
321.032103321
 30
0.0
 40
8.994938700908108
100
AcDbArc
 50
180.0
 51
233.3579146739
  0
LINE
  5
12C
330
1F
100
AcDbEntity
  8
0
  6
Continuous
 62
     7
370
    15
100
AcDbLine
 10
418.7744792472
 20
321.0321047933
 30
0.0
 11
417.7795436155
 21
321.0321047933
 31
0.0
  0
ARC
  5
12D
330
1F
100
AcDbEntity
  8
0
  6
Continuous
 62
     7
370
    15
100
AcDbCircle
 10
426.7744827997
 20
321.032103321
 30
0.0
 40
8.837843116554229
100
AcDbArc
 50
233.2393032815
 51
270.0
  0
LINE
  5
12E
330
1F
100
AcDbEntity
  8
0
  6
Continuous
 62
     7
370
    15
100
AcDbLine
 10
426.7744805585
 20
247.4321031601
 30
0.0
 11
426.7744805585
 21
248.2699470253
 31
0.0
  0
ARC
  5
12F
330
1F
100
AcDbEntity
  8
0
  6
Continuous
 62
     7
370
    15
100
AcDbCircle
 10
426.7744827997
 20
239.432103321
 30
0.0
 40
8.994938700908222
100
AcDbArc
 50
126.6420853261
 51
180.0
  0
ARC
  5
130
330
1F
100
AcDbEntity
  8
0
  6
Continuous
 62
     7
370
    15
100
AcDbCircle
 10
426.7744827997
 20
239.432103321
 30
0.0
 40
8.837843116554268
100
AcDbArc
 50
90.0
 51
126.7606967185
  0
ARC
  5
131
330
1F
100
AcDbEntity
  8
0
  6
Continuous
 62
     7
370
    15
100
AcDbCircle
 10
224.5744827997
 20
239.432103321
 30
0.0
 40
8.994938700908193
100
AcDbArc
 50
0.0
 51
53.3579146739
  0
LINE
  5
132
330
1F
100
AcDbEntity
  8
0
  6
Continuous
 62
     7
370
    15
100
AcDbLine
 10
232.5744863521
 20
239.4321018488
 30
0.0
 11
233.5694219839
 21
239.4321018488
 31
0.0
  0
ARC
  5
133
330
1F
100
AcDbEntity
  8
0
  6
Continuous
 62
     7
370
    15
100
AcDbCircle
 10
224.5744827997
 20
239.432103321
 30
0.0
 40
8.837843116554268
100
AcDbArc
 50
53.2393032815
 51
90.0
  0
LINE
  5
134
330
1F
100
AcDbEntity
  8
0
  6
Continuous
 62
     7
370
    15
100
AcDbLine
 10
426.7744805585
 20
248.2699470253
 30
0.0
 11
431.474485613
 21
248.2699470253
 31
0.0
  0
CIRCLE
  5
135
330
1F
100
AcDbEntity
  8
0
  6
Continuous
 62
     7
370
    15
100
AcDbCircle
 10
223.6244827997
 20
334.232103321
 30
0.0
 40
3.482555277526842
  0
CIRCLE
  5
136
330
1F
100
AcDbEntity
  8
0
  6
Continuous
 62
     7
370
    15
100
AcDbCircle
 10
427.7244827997
 20
334.232103321
 30
0.0
 40
3.482555277526444
  0
LINE
  5
137
330
1F
100
AcDbEntity
  8
0
  6
Continuous
 62
     7
370
    15
100
AcDbLine
 10
233.5694219839
 20
239.4321018488
 30
0.0
 11
233.5694219839
 21
223.032103631
 31
0.0
  0
CIRCLE
  5
138
330
1F
100
AcDbEntity
  8
0
  6
Continuous
 62
     7
370
    15
100
AcDbCircle
 10
223.6244827997
 20
226.232103321
 30
0.0
 40
3.482555277526956
  0
LINE
  5
139
330
1F
100
AcDbEntity
  8
0
  6
Continuous
 62
     7
370
    15
100
AcDbLine
 10
417.7795436155
 20
321.0321047933
 30
0.0
 11
417.7795436155
 21
337.4321030111
 31
0.0
  0
LINE
  5
13A
330
1F
100
AcDbEntity
  8
0
  6
Continuous
 62
     7
370
    15
100
AcDbLine
 10
224.5744850408
 20
312.1942596168
 30
0.0
 11
219.8744799863
 21
312.1942596168
 31
0.0
  0
LINE
  5
13B
330
1F
100
AcDbEntity
  8
0
  6
Continuous
 62
     7
370
    15
100
AcDbLine
 10
428.9244797002
 20
327.4821022183
 30
0.0
 11
426.9244830977
 21
327.4821022183
 31
0.0
  0
LINE
  5
13C
330
1F
100
AcDbEntity
  8
0
  6
Continuous
 62
     7
370
    15
100
AcDbLine
 10
222.4244858991
 20
232.9821044237
 30
0.0
 11
224.4244825016
 21
232.9821044237
 31
0.0
  0
LINE
  5
13D
330
1F
100
AcDbEntity
  8
0
  6
Continuous
 62
     7
370
    15
100
AcDbLine
 10
428.9244797002
 20
245.4821036787
 30
0.0
 11
426.9244830977
 21
245.4821036787
 31
0.0
  0
LINE
  5
13E
330
1F
100
AcDbEntity
  8
0
  6
Continuous
 62
     7
370
    15
100
AcDbLine
 10
222.4244858991
 20
314.9821029634
 30
0.0
 11
224.4244825016
 21
314.9821029634
 31
0.0
  0
LINE
  5
13F
330
1F
100
AcDbEntity
  8
0
  6
Continuous
 62
     7
370
    15
100
AcDbLine
 10
216.3068737756
 20
225.7971929044
 30
0.0
 11
216.3068737756
 21
230.1311136813
 31
0.0
  0
LINE
  5
140
330
1F
100
AcDbEntity
  8
0
  6
Continuous
 62
     7
370
    15
100
AcDbLine
 10
435.0420918237
 20
334.6670137376
 30
0.0
 11
435.0420918237
 21
330.3330929608
 31
0.0
  0
LINE
  5
141
330
1F
100
AcDbEntity
  8
0
  6
Continuous
 62
     7
370
    15
100
AcDbLine
 10
435.0420918237
 20
312.131112221
 30
0.0
 11
435.0420918237
 21
248.3330944211
 31
0.0
  0
LINE
  5
142
330
1F
100
AcDbEntity
  8
0
  6
Continuous
 62
     7
370
    15
100
AcDbLine
 10
216.3068737756
 20
248.3330944211
 30
0.0
 11
216.3068737756
 21
312.131112221
 31
0.0
  0
CIRCLE
  5
143
330
1F
100
AcDbEntity
  8
0
  6
Continuous
 62
     7
370
    15
100
AcDbCircle
 10
223.6244827997
 20
226.232103321
 30
0.0
 40
3.325449350715274
  0
CIRCLE
  5
144
330
1F
100
AcDbEntity
  8
0
  6
Continuous
 62
     7
370
    15
100
AcDbCircle
 10
427.7244827997
 20
226.232103321
 30
0.0
 40
3.325449350714905
  0
CIRCLE
  5
145
330
1F
100
AcDbEntity
  8
0
  6
Continuous
 62
     7
370
    15
100
AcDbCircle
 10
223.6244827997
 20
334.232103321
 30
0.0
 40
3.325449350715246
  0
CIRCLE
  5
146
330
1F
100
AcDbEntity
  8
0
  6
Continuous
 62
     7
370
    15
100
AcDbCircle
 10
427.7244827997
 20
334.232103321
 30
0.0
 40
3.325449350714905
  0
LINE
  5
147
330
1F
100
AcDbEntity
  8
0
  6
Continuous
 62
     7
370
    15
100
AcDbLine
 10
222.6244818341
 20
342.6506833763
 30
0.0
 11
428.7244837653
 21
342.6506833763
 31
0.0
  0
ARC
  5
148
330
1F
100
AcDbEntity
  8
0
  6
Continuous
 62
     7
370
    15
100
AcDbCircle
 10
428.7244827997
 20
334.682103321
 30
0.0
 40
7.968580883129221
100
AcDbArc
 50
0.0
 51
90.0
  0
LINE
  5
149
330
1F
100
AcDbEntity
  8
0
  6
Continuous
 62
     7
370
    15
100
AcDbLine
 10
436.6930659782
 20
334.6821048886
 30
0.0
 11
436.6930659782
 21
225.7821017534
 31
0.0
  0
ARC
  5
14A
330
1F
100
AcDbEntity
  8
0
  6
Continuous
 62
     7
370
    15
100
AcDbCircle
 10
428.7244827997
 20
225.782103321
 30
0.0
 40
7.968580883129192
100
AcDbArc
 50
270.0
 51
0.0
  0
LINE
  5
14B
330
1F
100
AcDbEntity
  8
0
  6
Continuous
 62
     7
370
    15
100
AcDbLine
 10
428.7244837653
 20
217.8135232658
 30
0.0
 11
222.6244818341
 21
217.8135232658
 31
0.0
  0
ARC
  5
14C
330
1F
100
AcDbEntity
  8
0
  6
Continuous
 62
     7
370
    15
100
AcDbCircle
 10
222.6244827997
 20
225.782103321
 30
0.0
 40
7.968580883129221
100
AcDbArc
 50
180.0
 51
270.0
  0
LINE
  5
14D
330
1F
100
AcDbEntity
  8
0
  6
Continuous
 62
     7
370
    15
100
AcDbLine
 10
214.6558996211
 20
225.7821017534
 30
0.0
 11
214.6558996211
 21
334.6821048886
 31
0.0
  0
ARC
  5
14E
330
1F
100
AcDbEntity
  8
0
  6
Continuous
 62
     7
370
    15
100
AcDbCircle
 10
222.6244827997
 20
334.682103321
 30
0.0
 40
7.968580883129221
100
AcDbArc
 50
90.0
 51
180.0
  0
CIRCLE
  5
14F
330
1F
100
AcDbEntity
  8
0
  6
Continuous
 62
     7
370
    15
100
AcDbCircle
 10
427.7244827997
 20
226.232103321
 30
0.0
 40
2.5
  0
CIRCLE
  5
150
330
1F
100
AcDbEntity
  8
0
  6
Continuous
 62
     7
370
    15
100
AcDbCircle
 10
223.6244827997
 20
334.232103321
 30
0.0
 40
2.5
  0
CIRCLE
  5
151
330
1F
100
AcDbEntity
  8
0
  6
Continuous
 62
     7
370
    15
100
AcDbCircle
 10
223.6244827997
 20
226.232103321
 30
0.0
 40
2.5
  0
CIRCLE
  5
152
330
1F
100
AcDbEntity
  8
0
  6
Continuous
 62
     7
370
    15
100
AcDbCircle
 10
427.7244827997
 20
334.232103321
 30
0.0
 40
2.5
  0
CIRCLE
  5
153
330
1F
100
AcDbEntity
  8
0
  6
Continuous
 62
     7
370
    15
100
AcDbCircle
 10
422.2244827997
 20
306.232103321
 30
0.0
 40
2.90019448949289
  0
ARC
  5
154
330
1F
100
AcDbEntity
  8
0
  6
Continuous
 62
     7
370
    15
100
AcDbCircle
 10
422.2244827997
 20
254.232103321
 30
0.0
 40
4.500000000000043
100
AcDbArc
 50
59.9999999999
 51
78.4630409672
  0
LINE
  5
155
330
1F
100
AcDbEntity
  8
0
  6
Continuous
 62
     7
370
    15
100
AcDbLine
 10
432.6366420757
 20
253.4167950631
 30
0.0
 11
424.4744863283
 21
258.1292183728
 31
0.0
  0
LINE
  5
156
330
1F
100
AcDbEntity
  8
0
  6
Continuous
 62
     7
370
    15
100
AcDbLine
 10
421.4852612387
 20
246.5124705464
 30
0.0
 11
418.3273699056
 21
251.9821038128
 31
0.0
  0
ARC
  5
157
330
1F
100
AcDbEntity
  8
0
  6
Continuous
 62
     7
370
    15
100
AcDbCircle
 10
422.2244827997
 20
254.232103321
 30
0.0
 40
4.500000000000054
100
AcDbArc
 50
101.5369590328
 51
210.0
  0
LINE
  5
158
330
1F
100
AcDbEntity
  8
0
  6
Continuous
 62
     7
370
    15
100
AcDbLine
 10
421.32448516
 20
275.8230215528
 30
0.0
 11
421.32448516
 21
258.6411850185
 31
0.0
  0
ARC
  5
159
330
1F
100
AcDbEntity
  8
0
  6
Continuous
 62
     7
370
    15
100
AcDbCircle
 10
422.2244827997
 20
280.232103321
 30
0.0
 40
4.499999999999959
100
AcDbArc
 50
101.5369590328
 51
258.4630409672
  0
LINE
  5
15A
330
1F
100
AcDbEntity
  8
0
  6
Continuous
 62
     7
370
    15
100
AcDbLine
 10
421.32448516
 20
284.6411850893
 30
0.0
 11
421.32448516
 21
301.8230216236
 31
0.0
  0
ARC
  5
15B
330
1F
100
AcDbEntity
  8
0
  6
Continuous
 62
     7
370
    15
100
AcDbCircle
 10
422.2244827997
 20
306.232103321
 30
0.0
 40
4.500000000000004
100
AcDbArc
 50
150.0
 51
258.4630409672
  0
LINE
  5
15C
330
1F
100
AcDbEntity
  8
0
  6
Continuous
 62
     7
370
    15
100
AcDbLine
 10
421.4852612387
 20
313.9517360956
 30
0.0
 11
418.3273699056
 21
308.4821028293
 31
0.0
  0
LINE
  5
15D
330
1F
100
AcDbEntity
  8
0
  6
Continuous
 62
     7
370
    15
100
AcDbLine
 10
424.4744863283
 20
302.3349882693
 30
0.0
 11
432.6366420757
 21
307.047411579
 31
0.0
  0
ARC
  5
15E
330
1F
100
AcDbEntity
  8
0
  6
Continuous
 62
     7
370
    15
100
AcDbCircle
 10
422.2244827997
 20
306.232103321
 30
0.0
 40
4.500000000000082
100
AcDbArc
 50
281.5369590328
 51
300.0000000001
  0
LINE
  5
15F
330
1F
100
AcDbEntity
  8
0
  6
Continuous
 62
     7
370
    15
100
AcDbLine
 10
423.1244858276
 20
301.8230216236
 30
0.0
 11
423.1244858276
 21
284.6411850893
 31
0.0
  0
ARC
  5
160
330
1F
100
AcDbEntity
  8
0
  6
Continuous
 62
     7
370
    15
100
AcDbCircle
 10
422.2244827997
 20
280.232103321
 30
0.0
 40
4.499999999999959
100
AcDbArc
 50
281.5369590328
 51
78.4630409672
  0
LINE
  5
161
330
1F
100
AcDbEntity
  8
0
  6
Continuous
 62
     7
370
    15
100
AcDbLine
 10
423.1244858276
 20
258.6411850185
 30
0.0
 11
423.1244858276
 21
275.8230215528
 31
0.0
  0
CIRCLE
  5
162
330
1F
100
AcDbEntity
  8
0
  6
Continuous
 62
     7
370
    15
100
AcDbCircle
 10
422.2244827997
 20
280.232103321
 30
0.0
 40
2.900194489587307
  0
CIRCLE
  5
163
330
1F
100
AcDbEntity
  8
0
  6
Continuous
 62
     7
370
    15
100
AcDbCircle
 10
422.2244827997
 20
254.232103321
 30
0.0
 40
2.900194489528758
  0
CIRCLE
  5
164
330
1F
100
AcDbEntity
  8
0
  6
Continuous
 62
     7
370
    15
100
AcDbCircle
 10
229.1244827997
 20
254.232103321
 30
0.0
 40
2.900194489528758
  0
LINE
  5
165
330
1F
100
AcDbEntity
  8
0
  6
Continuous
 62
     7
370
    15
100
AcDbLine
 10
230.0244804393
 20
275.8230215528
 30
0.0
 11
230.0244804393
 21
258.6411850185
 31
0.0
  0
ARC
  5
166
330
1F
100
AcDbEntity
  8
0
  6
Continuous
 62
     7
370
    15
100
AcDbCircle
 10
229.1244827997
 20
254.232103321
 30
0.0
 40
4.500000000000043
100
AcDbArc
 50
330.0
 51
78.4630409672
  0
LINE
  5
167
330
1F
100
AcDbEntity
  8
0
  6
Continuous
 62
     7
370
    15
100
AcDbLine
 10
229.8637043606
 20
246.5124705464
 30
0.0
 11
233.0215956937
 21
251.9821038128
 31
0.0
  0
LINE
  5
168
330
1F
100
AcDbEntity
  8
0
  6
Continuous
 62
     7
370
    15
100
AcDbLine
 10
226.8744792711
 20
258.1292183728
 30
0.0
 11
218.7123235237
 21
253.4167950631
 31
0.0
  0
ARC
  5
169
330
1F
100
AcDbEntity
  8
0
  6
Continuous
 62
     7
370
    15
100
AcDbCircle
 10
229.1244827997
 20
254.232103321
 30
0.0
 40
4.500000000000092
100
AcDbArc
 50
101.5369590328
 51
120.0000000001
  0
LINE
  5
16A
330
1F
100
AcDbEntity
  8
0
  6
Continuous
 62
     7
370
    15
100
AcDbLine
 10
228.2244797718
 20
275.8230215528
 30
0.0
 11
228.2244797718
 21
258.6411850185
 31
0.0
  0
ARC
  5
16B
330
1F
100
AcDbEntity
  8
0
  6
Continuous
 62
     7
370
    15
100
AcDbCircle
 10
229.1244827997
 20
280.232103321
 30
0.0
 40
4.499999999999959
100
AcDbArc
 50
101.5369590328
 51
258.4630409672
  0
LINE
  5
16C
330
1F
100
AcDbEntity
  8
0
  6
Continuous
 62
     7
370
    15
100
AcDbLine
 10
228.2244797718
 20
301.8230216236
 30
0.0
 11
228.2244797718
 21
284.6411850893
 31
0.0
  0
ARC
  5
16D
330
1F
100
AcDbEntity
  8
0
  6
Continuous
 62
     7
370
    15
100
AcDbCircle
 10
229.1244827997
 20
306.232103321
 30
0.0
 40
4.500000000000009
100
AcDbArc
 50
239.9999999999
 51
258.4630409672
  0
LINE
  5
16E
330
1F
100
AcDbEntity
  8
0
  6
Continuous
 62
     7
370
    15
100
AcDbLine
 10
218.7123235237
 20
307.047411579
 30
0.0
 11
226.8744792711
 21
302.3349882693
 31
0.0
  0
LINE
  5
16F
330
1F
100
AcDbEntity
  8
0
  6
Continuous
 62
     7
370
    15
100
AcDbLine
 10
229.8637043606
 20
313.9517360956
 30
0.0
 11
233.0215956937
 21
308.4821028293
 31
0.0
  0
ARC
  5
170
330
1F
100
AcDbEntity
  8
0
  6
Continuous
 62
     7
370
    15
100
AcDbCircle
 10
229.1244827997
 20
306.232103321
 30
0.0
 40
4.500000000000026
100
AcDbArc
 50
281.5369590328
 51
30.0
  0
LINE
  5
171
330
1F
100
AcDbEntity
  8
0
  6
Continuous
 62
     7
370
    15
100
AcDbLine
 10
230.0244804393
 20
284.6411850893
 30
0.0
 11
230.0244804393
 21
301.8230216236
 31
0.0
  0
ARC
  5
172
330
1F
100
AcDbEntity
  8
0
  6
Continuous
 62
     7
370
    15
100
AcDbCircle
 10
229.1244827997
 20
280.232103321
 30
0.0
 40
4.499999999999959
100
AcDbArc
 50
281.5369590328
 51
78.4630409672
  0
CIRCLE
  5
173
330
1F
100
AcDbEntity
  8
0
  6
Continuous
 62
     7
370
    15
100
AcDbCircle
 10
229.1244827997
 20
280.232103321
 30
0.0
 40
2.900194489587307
  0
CIRCLE
  5
174
330
1F
100
AcDbEntity
  8
0
  6
Continuous
 62
     7
370
    15
100
AcDbCircle
 10
229.1244827997
 20
306.232103321
 30
0.0
 40
2.90019448949289
  0
CIRCLE
  5
175
330
1F
100
AcDbEntity
  8
0
  6
Continuous
 62
     7
370
    15
100
AcDbCircle
 10
229.1244827997
 20
254.232103321
 30
0.0
 40
2.399999999999949
  0
CIRCLE
  5
176
330
1F
100
AcDbEntity
  8
0
  6
Continuous
 62
     7
370
    15
100
AcDbCircle
 10
229.1244827997
 20
306.232103321
 30
0.0
 40
2.399999999999977
  0
CIRCLE
  5
177
330
1F
100
AcDbEntity
  8
0
  6
Continuous
 62
     7
370
    15
100
AcDbCircle
 10
422.2244827997
 20
306.232103321
 30
0.0
 40
2.399999999999977
  0
CIRCLE
  5
178
330
1F
100
AcDbEntity
  8
0
  6
Continuous
 62
     7
370
    15
100
AcDbCircle
 10
400.7244827997
 20
232.732103321
 30
0.0
 40
4.500000000000028
  0
CIRCLE
  5
179
330
1F
100
AcDbEntity
  8
0
  6
Continuous
 62
     7
370
    15
100
AcDbCircle
 10
400.7244827997
 20
232.732103321
 30
0.0
 40
2.900194489525632
  0
CIRCLE
  5
17A
330
1F
100
AcDbEntity
  8
0
  6
Continuous
 62
     7
370
    15
100
AcDbCircle
 10
350.6744827997
 20
327.732103321
 30
0.0
 40
2.900194489496016
  0
CIRCLE
  5
17B
330
1F
100
AcDbEntity
  8
0
  6
Continuous
 62
     7
370
    15
100
AcDbCircle
 10
350.6744827997
 20
327.732103321
 30
0.0
 40
4.5
  0
CIRCLE
  5
17C
330
1F
100
AcDbEntity
  8
0
  6
Continuous
 62
     7
370
    15
100
AcDbCircle
 10
422.2244827997
 20
254.232103321
 30
0.0
 40
2.399999999999949
  0
CIRCLE
  5
17D
330
1F
100
AcDbEntity
  8
0
  6
Continuous
 62
     7
370
    15
100
AcDbCircle
 10
422.2244827997
 20
280.232103321
 30
0.0
 40
2.399999999999977
  0
CIRCLE
  5
17E
330
1F
100
AcDbEntity
  8
0
  6
Continuous
 62
     7
370
    15
100
AcDbCircle
 10
350.6744827997
 20
232.732103321
 30
0.0
 40
4.500000000000028
  0
CIRCLE
  5
17F
330
1F
100
AcDbEntity
  8
0
  6
Continuous
 62
     7
370
    15
100
AcDbCircle
 10
350.6744827997
 20
232.732103321
 30
0.0
 40
2.900194489525632
  0
LINE
  5
180
330
1F
100
AcDbEntity
  8
0
  6
Continuous
 62
     7
370
    15
100
AcDbLine
 10
230.3387682806
 20
284.5651747317
 30
0.0
 11
230.3387682806
 21
301.8990324468
 31
0.0
  0
LINE
  5
181
330
1F
100
AcDbEntity
  8
0
  6
Continuous
 62
     7
370
    15
100
AcDbLine
 10
227.910199381
 20
284.5651747317
 30
0.0
 11
227.910199381
 21
301.8990324468
 31
0.0
  0
LINE
  5
182
330
1F
100
AcDbEntity
  8
0
  6
Continuous
 62
     7
370
    15
100
AcDbLine
 10
230.3387682806
 20
275.8990319104
 30
0.0
 11
230.3387682806
 21
258.5651741952
 31
0.0
  0
CIRCLE
  5
183
330
1F
100
AcDbEntity
  8
0
  6
Continuous
 62
     7
370
    15
100
AcDbCircle
 10
300.6744827997
 20
327.732103321
 30
0.0
 40
2.900194489496016
  0
CIRCLE
  5
184
330
1F
100
AcDbEntity
  8
0
  6
Continuous
 62
     7
370
    15
100
AcDbCircle
 10
300.6744827997
 20
327.732103321
 30
0.0
 40
4.5
  0
CIRCLE
  5
185
330
1F
100
AcDbEntity
  8
0
  6
Continuous
 62
     7
370
    15
100
AcDbCircle
 10
325.6744827997
 20
327.732103321
 30
0.0
 40
2.900194489496016
  0
CIRCLE
  5
186
330
1F
100
AcDbEntity
  8
0
  6
Continuous
 62
     7
370
    15
100
AcDbCircle
 10
325.6744827997
 20
327.732103321
 30
0.0
 40
4.5
  0
CIRCLE
  5
187
330
1F
100
AcDbEntity
  8
0
  6
Continuous
 62
     7
370
    15
100
AcDbCircle
 10
300.6744827997
 20
232.732103321
 30
0.0
 40
2.900194489525632
  0
CIRCLE
  5
188
330
1F
100
AcDbEntity
  8
0
  6
Continuous
 62
     7
370
    15
100
AcDbCircle
 10
300.6744827997
 20
232.732103321
 30
0.0
 40
4.500000000000028
  0
CIRCLE
  5
189
330
1F
100
AcDbEntity
  8
0
  6
Continuous
 62
     7
370
    15
100
AcDbCircle
 10
325.6744827997
 20
232.732103321
 30
0.0
 40
4.500000000000028
  0
CIRCLE
  5
18A
330
1F
100
AcDbEntity
  8
0
  6
Continuous
 62
     7
370
    15
100
AcDbCircle
 10
325.6744827997
 20
232.732103321
 30
0.0
 40
2.900194489525632
  0
CIRCLE
  5
18B
330
1F
100
AcDbEntity
  8
0
  6
Continuous
 62
     7
370
    15
100
AcDbCircle
 10
400.7244827997
 20
327.732103321
 30
0.0
 40
2.900194489496016
  0
CIRCLE
  5
18C
330
1F
100
AcDbEntity
  8
0
  6
Continuous
 62
     7
370
    15
100
AcDbCircle
 10
400.7244827997
 20
327.732103321
 30
0.0
 40
4.5
  0
CIRCLE
  5
18D
330
1F
100
AcDbEntity
  8
0
  6
Continuous
 62
     7
370
    15
100
AcDbCircle
 10
250.6244827997
 20
327.732103321
 30
0.0
 40
2.900194489496016
  0
CIRCLE
  5
18E
330
1F
100
AcDbEntity
  8
0
  6
Continuous
 62
     7
370
    15
100
AcDbCircle
 10
250.6244827997
 20
327.732103321
 30
0.0
 40
4.5
  0
CIRCLE
  5
18F
330
1F
100
AcDbEntity
  8
0
  6
Continuous
 62
     7
370
    15
100
AcDbCircle
 10
250.6244827997
 20
232.732103321
 30
0.0
 40
2.900194489525632
  0
CIRCLE
  5
190
330
1F
100
AcDbEntity
  8
0
  6
Continuous
 62
     7
370
    15
100
AcDbCircle
 10
250.6244827997
 20
232.732103321
 30
0.0
 40
4.500000000000028
  0
CIRCLE
  5
191
330
1F
100
AcDbEntity
  8
0
  6
Continuous
 62
     7
370
    15
100
AcDbCircle
 10
250.6244827997
 20
232.732103321
 30
0.0
 40
2.400000000000034
  0
CIRCLE
  5
192
330
1F
100
AcDbEntity
  8
0
  6
Continuous
 62
     7
370
    15
100
AcDbCircle
 10
229.1244827997
 20
280.232103321
 30
0.0
 40
2.399999999999977
  0
CIRCLE
  5
193
330
1F
100
AcDbEntity
  8
0
  6
Continuous
 62
     7
370
    15
100
AcDbCircle
 10
300.6744827997
 20
327.732103321
 30
0.0
 40
2.400000000000034
  0
CIRCLE
  5
194
330
1F
100
AcDbEntity
  8
0
  6
Continuous
 62
     7
370
    15
100
AcDbCircle
 10
350.6744827997
 20
327.732103321
 30
0.0
 40
2.400000000000034
  0
LINE
  5
195
330
1F
100
AcDbEntity
  8
0
  6
Continuous
 62
     7
370
    15
100
AcDbLine
 10
227.910199381
 20
258.5651741952
 30
0.0
 11
227.910199381
 21
275.8990319104
 31
0.0
  0
LINE
  5
196
330
1F
100
AcDbEntity
  8
0
  6
Continuous
 62
     7
370
    15
100
AcDbLine
 10
423.4387662183
 20
275.8990319104
 30
0.0
 11
423.4387662183
 21
258.5651741952
 31
0.0
  0
LINE
  5
197
330
1F
100
AcDbEntity
  8
0
  6
Continuous
 62
     7
370
    15
100
AcDbLine
 10
421.0101973187
 20
275.8990319104
 30
0.0
 11
421.0101973187
 21
258.5651741952
 31
0.0
  0
CIRCLE
  5
198
330
1F
100
AcDbEntity
  8
0
  6
Continuous
 62
     7
370
    15
100
AcDbCircle
 10
325.6744827997
 20
232.732103321
 30
0.0
 40
2.400000000000034
  0
CIRCLE
  5
199
330
1F
100
AcDbEntity
  8
0
  6
Continuous
 62
     7
370
    15
100
AcDbCircle
 10
325.6744827997
 20
327.732103321
 30
0.0
 40
2.400000000000034
  0
LINE
  5
19A
330
1F
100
AcDbEntity
  8
0
  6
Continuous
 62
     7
370
    15
100
AcDbLine
 10
421.0101973187
 20
301.8990324468
 30
0.0
 11
421.0101973187
 21
284.5651747317
 31
0.0
  0
CIRCLE
  5
19B
330
1F
100
AcDbEntity
  8
0
  6
Continuous
 62
     7
370
    15
100
AcDbCircle
 10
300.6744827997
 20
232.732103321
 30
0.0
 40
2.400000000000034
  0
CIRCLE
  5
19C
330
1F
100
AcDbEntity
  8
0
  6
Continuous
 62
     7
370
    15
100
AcDbCircle
 10
400.7244827997
 20
232.732103321
 30
0.0
 40
2.400000000000034
  0
CIRCLE
  5
19D
330
1F
100
AcDbEntity
  8
0
  6
Continuous
 62
     7
370
    15
100
AcDbCircle
 10
400.7244827997
 20
327.732103321
 30
0.0
 40
2.400000000000034
  0
CIRCLE
  5
19E
330
1F
100
AcDbEntity
  8
0
  6
Continuous
 62
     7
370
    15
100
AcDbCircle
 10
250.6244827997
 20
327.732103321
 30
0.0
 40
2.400000000000034
  0
LINE
  5
19F
330
1F
100
AcDbEntity
  8
0
  6
Continuous
 62
     7
370
    15
100
AcDbLine
 10
423.4387662183
 20
301.8990324468
 30
0.0
 11
423.4387662183
 21
284.5651747317
 31
0.0
  0
CIRCLE
  5
1A0
330
1F
100
AcDbEntity
  8
0
  6
Continuous
 62
     7
370
    15
100
AcDbCircle
 10
350.6744827997
 20
232.732103321
 30
0.0
 40
2.400000000000034
  0
ARC
  5
1A1
330
1F
100
AcDbEntity
  8
0
  6
Continuous
 62
     7
370
    15
100
AcDbCircle
 10
224.4244827997
 20
321.232103321
 30
0.0
 40
3.100000000000023
100
AcDbArc
 50
270.0
 51
90.0
  0
LINE
  5
1A2
330
1F
100
AcDbEntity
  8
0
  6
Continuous
 62
     7
370
    15
100
AcDbLine
 10
222.4244858991
 20
324.3321047754
 30
0.0
 11
224.4244825016
 21
324.3321047754
 31
0.0
  0
ARC
  5
1A3
330
1F
100
AcDbEntity
  8
0
  6
Continuous
 62
     7
370
    15
100
AcDbCircle
 10
222.4244827997
 20
321.232103321
 30
0.0
 40
3.100000000000023
100
AcDbArc
 50
90.0
 51
270.0
  0
LINE
  5
1A4
330
1F
100
AcDbEntity
  8
0
  6
Continuous
 62
     7
370
    15
100
AcDbLine
 10
224.4244825016
 20
318.1321041317
 30
0.0
 11
222.4244858991
 21
318.1321041317
 31
0.0
  0
LINE
  5
1A5
330
1F
100
AcDbEntity
  8
0
  6
Continuous
 62
     7
370
    15
100
AcDbLine
 10
428.9244797002
 20
318.1321041317
 30
0.0
 11
426.9244830977
 21
318.1321041317
 31
0.0
  0
ARC
  5
1A6
330
1F
100
AcDbEntity
  8
0
  6
Continuous
 62
     7
370
    15
100
AcDbCircle
 10
426.9244827997
 20
321.232103321
 30
0.0
 40
3.100000000000023
100
AcDbArc
 50
90.0
 51
270.0
  0
LINE
  5
1A7
330
1F
100
AcDbEntity
  8
0
  6
Continuous
 62
     7
370
    15
100
AcDbLine
 10
426.9244830977
 20
324.3321047754
 30
0.0
 11
428.9244797002
 21
324.3321047754
 31
0.0
  0
ARC
  5
1A8
330
1F
100
AcDbEntity
  8
0
  6
Continuous
 62
     7
370
    15
100
AcDbCircle
 10
428.9244827997
 20
321.232103321
 30
0.0
 40
3.100000000000023
100
AcDbArc
 50
270.0
 51
90.0
  0
LINE
  5
1A9
330
1F
100
AcDbEntity
  8
0
  6
Continuous
 62
     7
370
    15
100
AcDbLine
 10
428.9244797002
 20
236.1321018667
 30
0.0
 11
426.9244830977
 21
236.1321018667
 31
0.0
  0
ARC
  5
1AA
330
1F
100
AcDbEntity
  8
0
  6
Continuous
 62
     7
370
    15
100
AcDbCircle
 10
428.9244827997
 20
239.232103321
 30
0.0
 40
3.100000000000023
100
AcDbArc
 50
270.0
 51
90.0
  0
ARC
  5
1AB
330
1F
100
AcDbEntity
  8
0
  6
Continuous
 62
     7
370
    15
100
AcDbCircle
 10
426.9244827997
 20
239.232103321
 30
0.0
 40
3.100000000000023
100
AcDbArc
 50
90.0
 51
270.0
  0
LINE
  5
1AC
330
1F
100
AcDbEntity
  8
0
  6
Continuous
 62
     7
370
    15
100
AcDbLine
 10
426.9244830977
 20
242.3321025104
 30
0.0
 11
428.9244797002
 21
242.3321025104
 31
0.0
  0
LINE
  5
1AD
330
1F
100
AcDbEntity
  8
0
  6
Continuous
 62
     7
370
    15
100
AcDbLine
 10
222.4244858991
 20
242.3321025104
 30
0.0
 11
224.4244825016
 21
242.3321025104
 31
0.0
  0
ARC
  5
1AE
330
1F
100
AcDbEntity
  8
0
  6
Continuous
 62
     7
370
    15
100
AcDbCircle
 10
222.4244827997
 20
239.232103321
 30
0.0
 40
3.100000000000023
100
AcDbArc
 50
90.0
 51
270.0
  0
LINE
  5
1AF
330
1F
100
AcDbEntity
  8
0
  6
Continuous
 62
     7
370
    15
100
AcDbLine
 10
224.4244825016
 20
236.1321018667
 30
0.0
 11
222.4244858991
 21
236.1321018667
 31
0.0
  0
ARC
  5
1B0
330
1F
100
AcDbEntity
  8
0
  6
Continuous
 62
     7
370
    15
100
AcDbCircle
 10
224.4244827997
 20
239.232103321
 30
0.0
 40
3.100000000000023
100
AcDbArc
 50
270.0
 51
90.0
  0
LINE
  5
1B1
330
1F
100
AcDbEntity
  8
0
  6
Continuous
 62
     7
370
    15
100
AcDbLine
 10
99.0670121733
 20
245.3728148372
 30
0.0
 11
100.9189525371
 21
245.3368881375
 31
0.0
  0
LINE
  5
1B2
330
1F
100
AcDbEntity
  8
0
  6
Continuous
 62
     7
370
    15
100
AcDbLine
 10
99.0670121733
 20
327.3728133769
 30
0.0
 11
100.9189525371
 21
327.3368866772
 31
0.0
  0
LINE
  5
1B3
330
1F
100
AcDbEntity
  8
0
  6
Continuous
 62
     7
370
    15
100
AcDbLine
 10
100.9189525371
 20
315.1268602938
 30
0.0
 11
99.0666330922
 21
315.0908851654
 31
0.0
  0
LINE
  5
1B4
330
1F
100
AcDbEntity
  8
0
  6
Continuous
 62
     7
370
    15
100
AcDbLine
 10
100.9189525371
 20
233.1268617541
 30
0.0
 11
99.0666330922
 21
233.0908829004
 31
0.0
  0
LINE
  5
1B5
330
1F
100
AcDbEntity
  8
0
  6
Continuous
 62
     7
370
    15
100
AcDbLine
 10
160.1189532535
 20
275.2321034328
 30
0.0
 11
160.3689537601
 21
275.2321034328
 31
0.0
  0
LINE
  5
1B6
330
1F
100
AcDbEntity
  8
0
  6
Continuous
 62
     7
370
    15
100
AcDbLine
 10
160.3689537601
 20
285.2321032093
 30
0.0
 11
160.1189532535
 21
285.2321032093
 31
0.0
  0
LINE
  5
1B7
330
1F
100
AcDbEntity
  8
0
  6
Continuous
 62
     7
370
    15
100
AcDbLine
 10
160.1189532535
 20
218.8468629152
 30
0.0
 11
160.1189532535
 21
225.7821017534
 31
0.0
  0
LINE
  5
1B8
330
1F
100
AcDbEntity
  8
0
  6
Continuous
 62
     7
370
    15
100
AcDbLine
 10
100.9189525371
 20
217.8135232658
 30
0.0
 11
160.1189532535
 21
218.8468629152
 31
0.0
  0
LINE
  5
1B9
330
1F
100
AcDbEntity
  8
0
  6
Continuous
 62
     7
370
    15
100
AcDbLine
 10
100.9189525371
 20
225.7821017534
 30
0.0
 11
100.9189525371
 21
217.8135232658
 31
0.0
  0
LINE
  5
1BA
330
1F
100
AcDbEntity
  8
0
  6
Continuous
 62
     7
370
    15
100
AcDbLine
 10
100.9189525371
 20
225.7821017534
 30
0.0
 11
160.1189532535
 21
225.7821017534
 31
0.0
  0
LINE
  5
1BB
330
1F
100
AcDbEntity
  8
0
  6
Continuous
 62
     7
370
    15
100
AcDbLine
 10
160.1189532535
 20
225.7821017534
 30
0.0
 11
160.1189532535
 21
334.6821048886
 31
0.0
  0
LINE
  5
1BC
330
1F
100
AcDbEntity
  8
0
  6
Continuous
 62
     7
370
    15
100
AcDbLine
 10
100.9189525371
 20
334.6821048886
 30
0.0
 11
100.9189525371
 21
225.7821017534
 31
0.0
  0
LINE
  5
1BD
330
1F
100
AcDbEntity
  8
0
  6
Continuous
 62
     7
370
    15
100
AcDbLine
 10
100.9189525371
 20
334.6821048886
 30
0.0
 11
160.1189532535
 21
334.6821048886
 31
0.0
  0
LINE
  5
1BE
330
1F
100
AcDbEntity
  8
0
  6
Continuous
 62
     7
370
    15
100
AcDbLine
 10
160.1189532535
 20
334.6821048886
 30
0.0
 11
160.1189532535
 21
341.6173437268
 31
0.0
  0
LINE
  5
1BF
330
1F
100
AcDbEntity
  8
0
  6
Continuous
 62
     7
370
    15
100
AcDbLine
 10
100.9189525371
 20
342.6506833763
 30
0.0
 11
100.9189525371
 21
334.6821048886
 31
0.0
  0
LINE
  5
1C0
330
1F
100
AcDbEntity
  8
0
  6
Continuous
 62
     7
370
    15
100
AcDbLine
 10
100.9189525371
 20
342.6506833763
 30
0.0
 11
160.1189532535
 21
341.6173437268
 31
0.0
  0
LINE
  5
1C1
330
1F
100
AcDbEntity
  8
0
  6
Continuous
 62
     7
370
    15
100
AcDbLine
 10
100.9189525371
 20
248.3330944211
 30
0.0
 11
99.1189525683
 21
248.3676502139
 31
0.0
  0
SPLINE
  5
1C2
330
1F
100
AcDbEntity
  8
0
  6
Continuous
 62
     7
370
    15
100
AcDbSpline
210
0.0
220
0.0
230
1.0
 70
    24
 71
     3
 72
    12
 73
     8
 74
     0
 42
0.000000001
 43
0.00000001
 40
0.0
 40
0.0
 40
0.0
 40
0.0
 40
0.2474022005994253
 40
0.4681826361183996
 40
0.688910347830713
 40
0.909707446991008
 40
1.0
 40
1.0
 40
1.0
 40
1.0
 10
99.11895256804571
 20
248.3676502139145
 30
0.0
 10
99.11895256804571
 20
247.9896204668951
 30
0.0
 10
99.11895256804571
 20
247.2742389421474
 30
0.0
 10
99.11895256804571
 20
246.3588967787202
 30
0.0
 10
99.11895256804573
 20
245.7251430267377
 30
0.0
 10
99.11895256804571
 20
245.3942274570103
 30
0.0
 10
99.11895256804571
 20
245.4087420394432
 30
0.0
 10
99.11895256804571
 20
245.412954840141
 30
0.0
  0
LINE
  5
1C3
330
1F
100
AcDbEntity
  8
0
  6
Continuous
 62
     7
370
    15
100
AcDbLine
 10
100.9189525371
 20
330.3330929608
 30
0.0
 11
99.1189525683
 21
330.3676487536
 31
0.0
  0
SPLINE
  5
1C4
330
1F
100
AcDbEntity
  8
0
  6
Continuous
 62
     7
370
    15
100
AcDbSpline
210
0.0
220
0.0
230
1.0
 70
    24
 71
     3
 72
    12
 73
     8
 74
     0
 42
0.000000001
 43
0.00000001
 40
0.0
 40
0.0
 40
0.0
 40
0.0
 40
0.2474022029995151
 40
0.4681826406603172
 40
0.6889103545139468
 40
0.9097074558162311
 40
0.9999999999999999
 40
0.9999999999999999
 40
0.9999999999999999
 40
0.9999999999999999
 10
99.11895256804571
 20
330.3676487536007
 30
0.0
 10
99.11895256804571
 20
329.9896190316809
 30
0.0
 10
99.11895256804571
 20
329.2742375544316
 30
0.0
 10
99.11895256804571
 20
328.3588950641076
 30
0.0
 10
99.11895256804571
 20
327.7251425235302
 30
0.0
 10
99.11895256804571
 20
327.3942233203898
 30
0.0
 10
99.11895256804571
 20
327.4087428646036
 30
0.0
 10
99.11895256804571
 20
327.4129571051175
 30
0.0
  0
LINE
  5
1C5
330
1F
100
AcDbEntity
  8
0
  6
Continuous
 62
     7
370
    15
100
AcDbLine
 10
99.1189525683
 20
312.0965564282
 30
0.0
 11
100.9189525371
 21
312.131112221
 31
0.0
  0
SPLINE
  5
1C6
330
1F
100
AcDbEntity
  8
0
  6
Continuous
 62
     7
370
    15
100
AcDbSpline
210
0.0
220
0.0
230
1.0
 70
    24
 71
     3
 72
    13
 73
     9
 74
     0
 42
0.000000001
 43
0.00000001
 40
0.0
 40
0.0
 40
0.0
 40
0.0
 40
0.0058297848204682
 40
0.2274005439717629
 40
0.44881170564378
 40
0.6700542430814054
 40
0.8911874010431332
 40
1.0
 40
1.0
 40
1.0
 40
1.0
 10
99.11895256804571
 20
315.0869847864682
 30
0.0
 10
99.11895256804571
 20
315.0882019577938
 30
0.0
 10
99.11895256804571
 20
315.1356797687416
 30
0.0
 10
99.11895256804571
 20
314.8915865141907
 30
0.0
 10
99.11895256804571
 20
314.3800554306265
 30
0.0
 10
99.11895256804571
 20
313.5672913013663
 30
0.0
 10
99.11895256804571
 20
312.762896125701
 30
0.0
 10
99.11895256804571
 20
312.2618094730397
 30
0.0
 10
99.11895256804571
 20
312.0965564281518
 30
0.0
  0
LINE
  5
1C7
330
1F
100
AcDbEntity
  8
0
  6
Continuous
 62
     7
370
    15
100
AcDbLine
 10
99.118952568
 20
230.0965578885
 30
0.0
 11
100.9189525371
 21
230.1311136813
 31
0.0
  0
SPLINE
  5
1C8
330
1F
100
AcDbEntity
  8
0
  6
Continuous
 62
     7
370
    15
100
AcDbSpline
210
0.0
220
0.0
230
1.0
 70
    24
 71
     3
 72
    13
 73
     9
 74
     0
 42
0.000000001
 43
0.00000001
 40
0.0
 40
0.0
 40
0.0
 40
0.0
 40
0.0058296796885884
 40
0.2274005889334932
 40
0.4488114647118892
 40
0.6700547927117633
 40
0.8911873273327038
 40
1.0
 40
1.0
 40
1.0
 40
1.0
 10
99.11895256804571
 20
233.086986246782
 30
0.0
 10
99.11895256804571
 20
233.0882021571074
 30
0.0
 10
99.11895256804571
 20
233.1356316453236
 30
0.0
 10
99.11895256804571
 20
232.891604189127
 30
0.0
 10
99.11895256804571
 20
232.3800518085852
 30
0.0
 10
99.11895256804571
 20
231.5672914478028
 30
0.0
 10
99.11895256804571
 20
230.7628964143666
 30
0.0
 10
99.11895256804571
 20
230.2618109339763
 30
0.0
 10
99.11895256804571
 20
230.0965578884656
 30
0.0
  0
LINE
  5
1C9
330
1F
100
AcDbEntity
  8
0
  6
Continuous
 62
     7
370
    15
100
AcDbLine
 10
99.1189525683
 20
248.3676502139
 30
0.0
 11
99.1189525683
 21
312.0965564282
 31
0.0
  0
LINE
  5
1CA
330
1F
100
AcDbEntity
  8
0
  6
Continuous
 62
     7
370
    15
100
AcDbLine
 10
100.9189525371
 20
225.7971929044
 30
0.0
 11
99.118952568
 21
225.7971929044
 31
0.0
  0
LINE
  5
1CB
330
1F
100
AcDbEntity
  8
0
  6
Continuous
 62
     7
370
    15
100
AcDbLine
 10
99.118952568
 20
225.7971929044
 30
0.0
 11
99.118952568
 21
230.0965578885
 31
0.0
  0
LINE
  5
1CC
330
1F
100
AcDbEntity
  8
0
  6
Continuous
 62
     7
370
    15
100
AcDbLine
 10
99.118952568
 20
219.5273505182
 30
0.0
 11
100.9189525371
 21
219.464493695
 31
0.0
  0
LINE
  5
1CD
330
1F
100
AcDbEntity
  8
0
  6
Continuous
 62
     7
370
    15
100
AcDbLine
 10
99.118952568
 20
225.7971929044
 30
0.0
 11
99.118952568
 21
219.5273505182
 31
0.0
  0
LINE
  5
1CE
330
1F
100
AcDbEntity
  8
0
  6
Continuous
 62
     7
370
    15
100
AcDbLine
 10
99.1189525683
 20
334.6670137376
 30
0.0
 11
100.9189525371
 21
334.6670137376
 31
0.0
  0
LINE
  5
1CF
330
1F
100
AcDbEntity
  8
0
  6
Continuous
 62
     7
370
    15
100
AcDbLine
 10
99.1189525683
 20
330.3676487536
 30
0.0
 11
99.1189525683
 21
334.6670137376
 31
0.0
  0
LINE
  5
1D0
330
1F
100
AcDbEntity
  8
0
  6
Continuous
 62
     7
370
    15
100
AcDbLine
 10
100.9189525371
 20
340.9997129471
 30
0.0
 11
99.118952568
 21
340.9368561239
 31
0.0
  0
LINE
  5
1D1
330
1F
100
AcDbEntity
  8
0
  6
Continuous
 62
     7
370
    15
100
AcDbLine
 10
99.118952568
 20
340.9368561239
 30
0.0
 11
99.1189525683
 21
334.6670137376
 31
0.0
  0
LINE
  5
1D2
330
1F
100
AcDbEntity
  8
0
  6
Continuous
 62
     7
370
    15
100
AcDbLine
 10
161.1189515548
 20
310.1469182999
 30
0.0
 11
160.1189532535
 21
310.094510916
 31
0.0
  0
LINE
  5
1D3
330
1F
100
AcDbEntity
  8
0
  6
Continuous
 62
     7
370
    15
100
AcDbLine
 10
160.1189532535
 20
311.3927298815
 30
0.0
 11
161.1189515548
 21
311.3927298815
 31
0.0
  0
SPLINE
  5
1D4
330
1F
100
AcDbEntity
  8
0
  6
Continuous
 62
     7
370
    15
100
AcDbSpline
210
0.0
220
0.0
230
1.0
 70
    24
 71
     3
 72
    11
 73
     7
 74
     0
 42
0.000000001
 43
0.00000001
 40
0.0
 40
0.0
 40
0.0
 40
0.0
 40
0.250191077336
 40
0.4999983015407
 40
0.7498071011481
 40
1.000000000019848
 40
1.000000000019848
 40
1.000000000019848
 40
1.000000000019848
 10
161.1189525680457
 20
311.3927294954931
 30
0.0
 10
161.1189525680457
 20
311.2307102386366
 30
0.0
 10
161.1189525680457
 20
310.9027313805537
 30
0.0
 10
161.1189525680457
 20
310.4888117519017
 30
0.0
 10
161.1189525680457
 20
310.2116583230911
 30
0.0
 10
161.1189525680457
 20
310.1469188796021
 30
0.0
 10
161.1189525680457
 20
310.1469188795989
 30
0.0
  0
LINE
  5
1D5
330
1F
100
AcDbEntity
  8
0
  6
Continuous
 62
     7
370
    15
100
AcDbLine
 10
161.1189515548
 20
247.5269192488
 30
0.0
 11
160.1189532535
 21
247.4745118649
 31
0.0
  0
LINE
  5
1D6
330
1F
100
AcDbEntity
  8
0
  6
Continuous
 62
     7
370
    15
100
AcDbLine
 10
160.1189532535
 20
248.7727308304
 30
0.0
 11
161.1189515548
 21
248.7727308304
 31
0.0
  0
SPLINE
  5
1D7
330
1F
100
AcDbEntity
  8
0
  6
Continuous
 62
     7
370
    15
100
AcDbSpline
210
0.0
220
0.0
230
1.0
 70
    24
 71
     3
 72
    11
 73
     7
 74
     0
 42
0.000000001
 43
0.00000001
 40
0.0
 40
0.0
 40
0.0
 40
0.0
 40
0.250191077336
 40
0.4999983015406
 40
0.7498071011481
 40
1.000000000019867
 40
1.000000000019867
 40
1.000000000019867
 40
1.000000000019867
 10
161.1189525680457
 20
248.7727294954941
 30
0.0
 10
161.1189525680457
 20
248.6107102386373
 30
0.0
 10
161.1189525680457
 20
248.282731380554
 30
0.0
 10
161.1189525680457
 20
247.8688117519017
 30
0.0
 10
161.1189525680457
 20
247.591658323091
 30
0.0
 10
161.1189525680457
 20
247.5269188796022
 30
0.0
 10
161.1189525680457
 20
247.5269188795989
 30
0.0
  0
LINE
  5
1D8
330
1F
100
AcDbEntity
  8
0
  6
Continuous
 62
     7
370
    15
100
AcDbLine
 10
161.1189515548
 20
249.0714767606
 30
0.0
 11
160.1189532535
 21
249.0714767606
 31
0.0
  0
LINE
  5
1D9
330
1F
100
AcDbEntity
  8
0
  6
Continuous
 62
     7
370
    15
100
AcDbLine
 10
161.1189515548
 20
248.7727308304
 30
0.0
 11
161.1189515548
 21
249.0714767606
 31
0.0
  0
LINE
  5
1DA
330
1F
100
AcDbEntity
  8
0
  6
Continuous
 62
     7
370
    15
100
AcDbLine
 10
161.1189515548
 20
311.6914758117
 30
0.0
 11
160.1189532535
 21
311.6914758117
 31
0.0
  0
LINE
  5
1DB
330
1F
100
AcDbEntity
  8
0
  6
Continuous
 62
     7
370
    15
100
AcDbLine
 10
161.1189515548
 20
311.6914758117
 30
0.0
 11
161.1189515548
 21
311.3927298815
 31
0.0
  0
LINE
  5
1DC
330
1F
100
AcDbEntity
  8
0
  6
Continuous
 62
     7
370
    15
100
AcDbLine
 10
160.1189532535
 20
312.9896947772
 30
0.0
 11
161.1189515548
 21
312.9372873933
 31
0.0
  0
SPLINE
  5
1DD
330
1F
100
AcDbEntity
  8
0
  6
Continuous
 62
     7
370
    15
100
AcDbSpline
210
0.0
220
0.0
230
1.0
 70
    24
 71
     3
 72
    11
 73
     7
 74
     0
 42
0.000000001
 43
0.00000001
 40
0.0
 40
0.0
 40
0.0
 40
0.0
 40
0.250191077336
 40
0.4999983015407
 40
0.7498071011481
 40
1.0
 40
1.0
 40
1.0
 40
1.0
 10
161.1189525680457
 20
312.9372877624639
 30
0.0
 10
161.1189525680457
 20
312.9372877624673
 30
0.0
 10
161.1189525680457
 20
312.8725492497485
 30
0.0
 10
161.1189525680457
 20
312.5953983397046
 30
0.0
 10
161.1189525680457
 20
312.1814787208327
 30
0.0
 10
161.1189525680457
 20
311.8534975808343
 30
0.0
 10
161.1189525680457
 20
311.6914771465734
 30
0.0
  0
LINE
  5
1DE
330
1F
100
AcDbEntity
  8
0
  6
Continuous
 62
     7
370
    15
100
AcDbLine
 10
160.1189532535
 20
250.3696957261
 30
0.0
 11
161.1189515548
 21
250.3172883422
 31
0.0
  0
SPLINE
  5
1DF
330
1F
100
AcDbEntity
  8
0
  6
Continuous
 62
     7
370
    15
100
AcDbSpline
210
0.0
220
0.0
230
1.0
 70
    24
 71
     3
 72
    11
 73
     7
 74
     0
 42
0.000000001
 43
0.00000001
 40
0.0
 40
0.0
 40
0.0
 40
0.0
 40
0.250191077336
 40
0.4999983015407
 40
0.7498071011481
 40
1.0
 40
1.0
 40
1.0
 40
1.0
 10
161.1189525680457
 20
250.3172877624639
 30
0.0
 10
161.1189525680457
 20
250.3172877624679
 30
0.0
 10
161.1189525680457
 20
250.2525492497492
 30
0.0
 10
161.1189525680457
 20
249.9753983397046
 30
0.0
 10
161.1189525680457
 20
249.5614787208327
 30
0.0
 10
161.1189525680457
 20
249.2334975808343
 30
0.0
 10
161.1189525680457
 20
249.0714771465734
 30
0.0
  0
LINE
  5
1E0
330
1F
100
AcDbEntity
  8
0
  6
Continuous
 62
     7
370
    15
100
AcDbLine
 10
160.1189532535
 20
275.5821033039
 30
0.0
 11
160.3689537601
 21
275.5821033039
 31
0.0
  0
LINE
  5
1E1
330
1F
100
AcDbEntity
  8
0
  6
Continuous
 62
     7
370
    15
100
AcDbLine
 10
160.3689537601
 20
284.8821033382
 30
0.0
 11
160.1189532535
 21
284.8821033382
 31
0.0
  0
LINE
  5
1E2
330
1F
100
AcDbEntity
  8
0
  6
Continuous
 62
     7
370
    15
100
AcDbLine
 10
160.3689537601
 20
275.5821033039
 30
0.0
 11
160.3689537601
 21
284.8821033382
 31
0.0
  0
LINE
  5
1E3
330
1F
100
AcDbEntity
  8
0
  6
Continuous
 62
     7
370
    15
100
AcDbLine
 10
160.3689537601
 20
275.2321034328
 30
0.0
 11
160.3689537601
 21
275.5821033039
 31
0.0
  0
LINE
  5
1E4
330
1F
100
AcDbEntity
  8
0
  6
Continuous
 62
     7
370
    15
100
AcDbLine
 10
160.3689537601
 20
284.8821033382
 30
0.0
 11
160.3689537601
 21
285.2321032093
 31
0.0
  0
LINE
  5
1E5
330
1F
100
AcDbEntity
  8
0
  6
Continuous
 62
     7
370
    15
100
AcDbLine
 10
99.118952568
 20
315.29010624
 30
0.0
 11
99.118952568
 21
327.3984172971
 31
0.0
  0
LINE
  5
1E6
330
1F
100
AcDbEntity
  8
0
  6
Continuous
 62
     7
370
    15
100
AcDbLine
 10
99.118952568
 20
233.290103975
 30
0.0
 11
99.118952568
 21
245.3984187574
 31
0.0
  0
LINE
  5
1E7
330
1F
100
AcDbEntity
  8
0
  6
Continuous
 62
     7
370
    15
100
AcDbLine
 10
161.1189515548
 20
246.1762928993
 30
0.0
 11
160.1189532535
 21
246.1762928993
 31
0.0
  0
SPLINE
  5
1E8
330
1F
100
AcDbEntity
  8
0
  6
Continuous
 62
     7
370
    15
100
AcDbSpline
210
0.0
220
0.0
230
1.0
 70
    24
 71
     3
 72
    11
 73
     7
 74
     0
 42
0.000000001
 43
0.00000001
 40
0.0
 40
0.0
 40
0.0
 40
0.0
 40
0.250191077336
 40
0.4999983015407
 40
0.7498071011481
 40
1.0
 40
1.0
 40
1.0
 40
1.0
 10
161.1189525680457
 20
247.5269188795974
 30
0.0
 10
161.1189525680457
 20
247.5269188795977
 30
0.0
 10
161.1189525680457
 20
247.4567682897604
 30
0.0
 10
161.1189525680457
 20
247.1563115025317
 30
0.0
 10
161.1189525680457
 20
246.7071898001938
 30
0.0
 10
161.1189525680457
 20
246.3522675183497
 30
0.0
 10
161.1189525680457
 20
246.1762927051333
 30
0.0
  0
LINE
  5
1E9
330
1F
100
AcDbEntity
  8
0
  6
Continuous
 62
     7
370
    15
100
AcDbLine
 10
160.1189532535
 20
314.2879137427
 30
0.0
 11
161.1189515548
 21
314.2879137427
 31
0.0
  0
SPLINE
  5
1EA
330
1F
100
AcDbEntity
  8
0
  6
Continuous
 62
     7
370
    15
100
AcDbSpline
210
0.0
220
0.0
230
1.0
 70
    24
 71
     3
 72
    11
 73
     7
 74
     0
 42
0.000000001
 43
0.00000001
 40
0.0
 40
0.0
 40
0.0
 40
0.0
 40
0.250191077336
 40
0.4999983015407
 40
0.7498071011481
 40
1.0
 40
1.0
 40
1.0
 40
1.0
 10
161.1189525680457
 20
314.2879139369334
 30
0.0
 10
161.1189525680457
 20
314.1119404070669
 30
0.0
 10
161.1189525680457
 20
313.7570205900013
 30
0.0
 10
161.1189525680457
 20
313.3078988760508
 30
0.0
 10
161.1189525680457
 20
313.0074393620649
 30
0.0
 10
161.1189525680457
 20
312.9372877624647
 30
0.0
 10
161.1189525680457
 20
312.9372877624661
 30
0.0
  0
LINE
  5
1EB
330
1F
100
AcDbEntity
  8
0
  6
Continuous
 62
     7
370
    15
100
AcDbLine
 10
160.1189532535
 20
235.7727305622
 30
0.0
 11
161.1189515548
 21
235.7727305622
 31
0.0
  0
LINE
  5
1EC
330
1F
100
AcDbEntity
  8
0
  6
Continuous
 62
     7
370
    15
100
AcDbLine
 10
161.1189515548
 20
235.7727305622
 30
0.0
 11
161.1189515548
 21
246.1762928993
 31
0.0
  0
LINE
  5
1ED
330
1F
100
AcDbEntity
  8
0
  6
Continuous
 62
     7
370
    15
100
AcDbLine
 10
161.1189515548
 20
324.6914760799
 30
0.0
 11
160.1189532535
 21
324.6914760799
 31
0.0
  0
LINE
  5
1EE
330
1F
100
AcDbEntity
  8
0
  6
Continuous
 62
     7
370
    15
100
AcDbLine
 10
161.1189515548
 20
314.2879137427
 30
0.0
 11
161.1189515548
 21
324.6914760799
 31
0.0
  0
LINE
  5
1EF
330
1F
100
AcDbEntity
  8
0
  6
Continuous
 62
     7
370
    15
100
AcDbLine
 10
160.1189532535
 20
325.9896950454
 30
0.0
 11
161.1189515548
 21
325.9372876615
 31
0.0
  0
SPLINE
  5
1F0
330
1F
100
AcDbEntity
  8
0
  6
Continuous
 62
     7
370
    15
100
AcDbSpline
210
0.0
220
0.0
230
1.0
 70
    24
 71
     3
 72
    11
 73
     7
 74
     0
 42
0.000000001
 43
0.00000001
 40
0.0
 40
0.0
 40
0.0
 40
0.0
 40
0.250191077336
 40
0.4999983015406
 40
0.7498071011481
 40
1.0
 40
1.0
 40
1.0
 40
1.0
 10
161.1189525680457
 20
325.9372877624639
 30
0.0
 10
161.1189525680457
 20
325.9372877624651
 30
0.0
 10
161.1189525680457
 20
325.8725492497452
 30
0.0
 10
161.1189525680457
 20
325.5953983397046
 30
0.0
 10
161.1189525680457
 20
325.1814787208327
 30
0.0
 10
161.1189525680457
 20
324.8534975808343
 30
0.0
 10
161.1189525680457
 20
324.6914771465734
 30
0.0
  0
LINE
  5
1F1
330
1F
100
AcDbEntity
  8
0
  6
Continuous
 62
     7
370
    15
100
AcDbLine
 10
161.1189515548
 20
234.5269189806
 30
0.0
 11
160.1189532535
 21
234.4745115966
 31
0.0
  0
SPLINE
  5
1F2
330
1F
100
AcDbEntity
  8
0
  6
Continuous
 62
     7
370
    15
100
AcDbSpline
210
0.0
220
0.0
230
1.0
 70
    24
 71
     3
 72
    11
 73
     7
 74
     0
 42
0.000000001
 43
0.00000001
 40
0.0
 40
0.0
 40
0.0
 40
0.0
 40
0.250191077336
 40
0.4999983015406
 40
0.7498071011481
 40
1.0
 40
1.0
 40
1.0
 40
1.0
 10
161.1189525680457
 20
235.7727294954941
 30
0.0
 10
161.1189525680457
 20
235.6107102386373
 30
0.0
 10
161.1189525680457
 20
235.282731380554
 30
0.0
 10
161.1189525680457
 20
234.8688117519017
 30
0.0
 10
161.1189525680457
 20
234.5916583230923
 30
0.0
 10
161.1189525680457
 20
234.526918879603
 30
0.0
 10
161.1189525680457
 20
234.5269188795989
 30
0.0
  0
LINE
  5
1F3
330
1F
100
AcDbEntity
  8
0
  6
Continuous
 62
     7
370
    15
100
AcDbLine
 10
320.6744829114
 20
382.0696254871
 30
0.0
 11
320.6744829114
 21
381.8196249805
 31
0.0
  0
LINE
  5
1F4
330
1F
100
AcDbEntity
  8
0
  6
Continuous
 62
     7
370
    15
100
AcDbLine
 10
330.6744826879
 20
381.8196249805
 30
0.0
 11
330.6744826879
 21
382.0696254871
 31
0.0
  0
LINE
  5
1F5
330
1F
100
AcDbEntity
  8
0
  6
Continuous
 62
     7
370
    15
100
AcDbLine
 10
428.7244837653
 20
382.0696254871
 30
0.0
 11
435.6597226035
 21
382.0696254871
 31
0.0
  0
LINE
  5
1F6
330
1F
100
AcDbEntity
  8
0
  6
Continuous
 62
     7
370
    15
100
AcDbLine
 10
428.7244837653
 20
441.2696262035
 30
0.0
 11
428.7244837653
 21
382.0696254871
 31
0.0
  0
LINE
  5
1F7
330
1F
100
AcDbEntity
  8
0
  6
Continuous
 62
     7
370
    15
100
AcDbLine
 10
436.6930659782
 20
441.2696262035
 30
0.0
 11
428.7244837653
 21
441.2696262035
 31
0.0
  0
LINE
  5
1F8
330
1F
100
AcDbEntity
  8
0
  6
Continuous
 62
     7
370
    15
100
AcDbLine
 10
436.6930659782
 20
441.2696262035
 30
0.0
 11
435.6597226035
 21
382.0696254871
 31
0.0
  0
LINE
  5
1F9
330
1F
100
AcDbEntity
  8
0
  6
Continuous
 62
     7
370
    15
100
AcDbLine
 10
222.6244818341
 20
441.2696262035
 30
0.0
 11
222.6244818341
 21
382.0696254871
 31
0.0
  0
LINE
  5
1FA
330
1F
100
AcDbEntity
  8
0
  6
Continuous
 62
     7
370
    15
100
AcDbLine
 10
428.7244837653
 20
441.2696262035
 30
0.0
 11
222.6244818341
 21
441.2696262035
 31
0.0
  0
LINE
  5
1FB
330
1F
100
AcDbEntity
  8
0
  6
Continuous
 62
     7
370
    15
100
AcDbLine
 10
222.6244818341
 20
382.0696254871
 30
0.0
 11
428.7244837653
 21
382.0696254871
 31
0.0
  0
LINE
  5
1FC
330
1F
100
AcDbEntity
  8
0
  6
Continuous
 62
     7
370
    15
100
AcDbLine
 10
215.6892429959
 20
382.0696254871
 30
0.0
 11
222.6244818341
 21
382.0696254871
 31
0.0
  0
LINE
  5
1FD
330
1F
100
AcDbEntity
  8
0
  6
Continuous
 62
     7
370
    15
100
AcDbLine
 10
214.6558996211
 20
441.2696262035
 30
0.0
 11
215.6892429959
 21
382.0696254871
 31
0.0
  0
LINE
  5
1FE
330
1F
100
AcDbEntity
  8
0
  6
Continuous
 62
     7
370
    15
100
AcDbLine
 10
222.6244818341
 20
441.2696262035
 30
0.0
 11
214.6558996211
 21
441.2696262035
 31
0.0
  0
LINE
  5
1FF
330
1F
100
AcDbEntity
  8
0
  6
Continuous
 62
     7
370
    15
100
AcDbLine
 10
428.7093963396
 20
443.0696261726
 30
0.0
 11
428.7093963396
 21
441.2696262035
 31
0.0
  0
LINE
  5
200
330
1F
100
AcDbEntity
  8
0
  6
Continuous
 62
     7
370
    15
100
AcDbLine
 10
434.9792312752
 20
443.0696261726
 30
0.0
 11
428.7093963396
 21
443.0696261726
 31
0.0
  0
LINE
  5
201
330
1F
100
AcDbEntity
  8
0
  6
Continuous
 62
     7
370
    15
100
AcDbLine
 10
435.0420918237
 20
441.2696262035
 30
0.0
 11
434.9792312752
 21
443.0696261726
 31
0.0
  0
LINE
  5
202
330
1F
100
AcDbEntity
  8
0
  6
Continuous
 62
     7
370
    15
100
AcDbLine
 10
216.3697343241
 20
443.0696261724
 30
0.0
 11
216.3068737756
 21
441.2696262035
 31
0.0
  0
LINE
  5
203
330
1F
100
AcDbEntity
  8
0
  6
Continuous
 62
     7
370
    15
100
AcDbLine
 10
222.6395692598
 20
443.0696261726
 30
0.0
 11
216.3697343241
 21
443.0696261724
 31
0.0
  0
LINE
  5
204
330
1F
100
AcDbEntity
  8
0
  6
Continuous
 62
     7
370
    15
100
AcDbLine
 10
222.6395692598
 20
441.2696262035
 30
0.0
 11
222.6395692598
 21
443.0696261726
 31
0.0
  0
LINE
  5
205
330
1F
100
AcDbEntity
  8
0
  6
Continuous
 62
     7
370
    15
100
AcDbLine
 10
222.6395692598
 20
443.0696261726
 30
0.0
 11
428.7093963396
 21
443.0696261726
 31
0.0
  0
LINE
  5
206
330
1F
100
AcDbEntity
  8
0
  6
Continuous
 62
     7
370
    15
100
AcDbLine
 10
233.9151065718
 20
382.0696254871
 30
0.0
 11
233.9151065718
 21
381.0696271859
 31
0.0
  0
LINE
  5
207
330
1F
100
AcDbEntity
  8
0
  6
Continuous
 62
     7
370
    15
100
AcDbLine
 10
234.2138599526
 20
381.0696271859
 30
0.0
 11
234.2138599526
 21
382.0696254871
 31
0.0
  0
LINE
  5
208
330
1F
100
AcDbEntity
  8
0
  6
Continuous
 62
     7
370
    15
100
AcDbLine
 10
233.9151065718
 20
381.0696271859
 30
0.0
 11
234.2138599526
 21
381.0696271859
 31
0.0
  0
LINE
  5
209
330
1F
100
AcDbEntity
  8
0
  6
Continuous
 62
     7
370
    15
100
AcDbLine
 10
417.1351056467
 20
382.0696254871
 30
0.0
 11
417.1351056467
 21
381.0696271859
 31
0.0
  0
LINE
  5
20A
330
1F
100
AcDbEntity
  8
0
  6
Continuous
 62
     7
370
    15
100
AcDbLine
 10
417.4338590275
 20
381.0696271859
 30
0.0
 11
417.4338590275
 21
382.0696254871
 31
0.0
  0
LINE
  5
20B
330
1F
100
AcDbEntity
  8
0
  6
Continuous
 62
     7
370
    15
100
AcDbLine
 10
417.1351056467
 20
381.0696271859
 30
0.0
 11
417.4338590275
 21
381.0696271859
 31
0.0
  0
LINE
  5
20C
330
1F
100
AcDbEntity
  8
0
  6
Continuous
 62
     7
370
    15
100
AcDbLine
 10
235.5120714675
 20
382.0696254871
 30
0.0
 11
235.4596640836
 21
381.0696271859
 31
0.0
  0
SPLINE
  5
20D
330
1F
100
AcDbEntity
  8
0
  6
Continuous
 62
     7
370
    15
100
AcDbSpline
210
0.0
220
0.0
230
1.0
 70
    24
 71
     3
 72
    11
 73
     7
 74
     0
 42
0.000000001
 43
0.00000001
 40
0.0
 40
0.0
 40
0.0
 40
0.0
 40
0.250191077336
 40
0.4999983015406
 40
0.7498071011481
 40
1.0
 40
1.0
 40
1.0
 40
1.0
 10
235.4596672410972
 20
381.0696261725803
 30
0.0
 10
235.4596672410978
 20
381.0696261725803
 30
0.0
 10
235.3949287283734
 20
381.0696261725803
 30
0.0
 10
235.1177778183381
 20
381.0696261725803
 30
0.0
 10
234.7038581994662
 20
381.0696261725803
 30
0.0
 10
234.3758770594678
 20
381.0696261725803
 30
0.0
 10
234.2138566252069
 20
381.0696261725803
 30
0.0
  0
LINE
  5
20E
330
1F
100
AcDbEntity
  8
0
  6
Continuous
 62
     7
370
    15
100
AcDbLine
 10
418.7320779931
 20
382.0696254871
 30
0.0
 11
418.6796706091
 21
381.0696271859
 31
0.0
  0
SPLINE
  5
20F
330
1F
100
AcDbEntity
  8
0
  6
Continuous
 62
     7
370
    15
100
AcDbSpline
210
0.0
220
0.0
230
1.0
 70
    24
 71
     3
 72
    11
 73
     7
 74
     0
 42
0.000000001
 43
0.00000001
 40
0.0
 40
0.0
 40
0.0
 40
0.0
 40
0.250191077336
 40
0.4999983015406
 40
0.7498071011481
 40
1.0
 40
1.0
 40
1.0
 40
1.0
 10
418.6796672410974
 20
381.0696261725802
 30
0.0
 10
418.6796672410986
 20
381.0696261725803
 30
0.0
 10
418.6149287283787
 20
381.0696261725803
 30
0.0
 10
418.3377778183382
 20
381.0696261725803
 30
0.0
 10
417.9238581994662
 20
381.0696261725803
 30
0.0
 10
417.5958770594678
 20
381.0696261725802
 30
0.0
 10
417.4338566252069
 20
381.0696261725803
 30
0.0
  0
LINE
  5
210
330
1F
100
AcDbEntity
  8
0
  6
Continuous
 62
     7
370
    15
100
AcDbLine
 10
232.6692949902
 20
381.0696271859
 30
0.0
 11
232.6168876063
 21
382.0696254871
 31
0.0
  0
SPLINE
  5
211
330
1F
100
AcDbEntity
  8
0
  6
Continuous
 62
     7
370
    15
100
AcDbSpline
210
0.0
220
0.0
230
1.0
 70
    24
 71
     3
 72
    11
 73
     7
 74
     0
 42
0.000000001
 43
0.00000001
 40
0.0
 40
0.0
 40
0.0
 40
0.0
 40
0.250191077336
 40
0.4999983015406
 40
0.7498071011481
 40
1.0
 40
1.0
 40
1.0
 40
1.0
 10
233.9151089741277
 20
381.0696261725803
 30
0.0
 10
233.7530897172708
 20
381.0696261725803
 30
0.0
 10
233.4251108591876
 20
381.0696261725803
 30
0.0
 10
233.0111912305352
 20
381.0696261725803
 30
0.0
 10
232.7340378017257
 20
381.0696261725803
 30
0.0
 10
232.6692983582366
 20
381.0696261725803
 30
0.0
 10
232.6692983582324
 20
381.0696261725803
 30
0.0
  0
LINE
  5
212
330
1F
100
AcDbEntity
  8
0
  6
Continuous
 62
     7
370
    15
100
AcDbLine
 10
415.8893015157
 20
381.0696271859
 30
0.0
 11
415.8368941318
 21
382.0696254871
 31
0.0
  0
SPLINE
  5
213
330
1F
100
AcDbEntity
  8
0
  6
Continuous
 62
     7
370
    15
100
AcDbSpline
210
0.0
220
0.0
230
1.0
 70
    24
 71
     3
 72
    11
 73
     7
 74
     0
 42
0.000000001
 43
0.00000001
 40
0.0
 40
0.0
 40
0.0
 40
0.0
 40
0.250191077336
 40
0.4999983015406
 40
0.7498071011481
 40
1.0
 40
1.0
 40
1.0
 40
1.0
 10
417.1351089741277
 20
381.0696261725803
 30
0.0
 10
416.9730897172707
 20
381.0696261725803
 30
0.0
 10
416.6451108591875
 20
381.0696261725803
 30
0.0
 10
416.2311912305352
 20
381.0696261725803
 30
0.0
 10
415.9540378017258
 20
381.0696261725803
 30
0.0
 10
415.8892983582365
 20
381.0696261725803
 30
0.0
 10
415.8892983582324
 20
381.0696261725803
 30
0.0
  0
LINE
  5
214
330
1F
100
AcDbEntity
  8
0
  6
Continuous
 62
     7
370
    15
100
AcDbLine
 10
321.0244827825
 20
382.0696254871
 30
0.0
 11
321.0244827825
 21
381.8196249805
 31
0.0
  0
LINE
  5
215
330
1F
100
AcDbEntity
  8
0
  6
Continuous
 62
     7
370
    15
100
AcDbLine
 10
320.6744829114
 20
381.8196249805
 30
0.0
 11
321.0244827825
 21
381.8196249805
 31
0.0
  0
LINE
  5
216
330
1F
100
AcDbEntity
  8
0
  6
Continuous
 62
     7
370
    15
100
AcDbLine
 10
330.3244828168
 20
381.8196249805
 30
0.0
 11
330.3244828168
 21
382.0696254871
 31
0.0
  0
LINE
  5
217
330
1F
100
AcDbEntity
  8
0
  6
Continuous
 62
     7
370
    15
100
AcDbLine
 10
330.3244828168
 20
381.8196249805
 30
0.0
 11
330.6744826879
 21
381.8196249805
 31
0.0
  0
LINE
  5
218
330
1F
100
AcDbEntity
  8
0
  6
Continuous
 62
     7
370
    15
100
AcDbLine
 10
321.0244827825
 20
381.8196249805
 30
0.0
 11
330.3244828168
 21
381.8196249805
 31
0.0
  0
LINE
  5
219
330
1F
100
AcDbEntity
  8
0
  6
Continuous
 62
     7
370
    15
100
AcDbLine
 10
231.3186686408
 20
381.0696271859
 30
0.0
 11
231.3186686408
 21
382.0696254871
 31
0.0
  0
SPLINE
  5
21A
330
1F
100
AcDbEntity
  8
0
  6
Continuous
 62
     7
370
    15
100
AcDbSpline
210
0.0
220
0.0
230
1.0
 70
    24
 71
     3
 72
    11
 73
     7
 74
     0
 42
0.000000001
 43
0.00000001
 40
0.0
 40
0.0
 40
0.0
 40
0.0
 40
0.250191077336
 40
0.4999983015407
 40
0.7498071011481
 40
1.0
 40
1.0
 40
1.0
 40
1.0
 10
232.669298358231
 20
381.0696261725803
 30
0.0
 10
232.6692983582312
 20
381.0696261725803
 30
0.0
 10
232.599147768394
 20
381.0696261725803
 30
0.0
 10
232.2986909811652
 20
381.0696261725803
 30
0.0
 10
231.8495692788273
 20
381.0696261725803
 30
0.0
 10
231.4946469969832
 20
381.0696261725803
 30
0.0
 10
231.3186721837667
 20
381.0696261725803
 30
0.0
  0
LINE
  5
21B
330
1F
100
AcDbEntity
  8
0
  6
Continuous
 62
     7
370
    15
100
AcDbLine
 10
420.0302969586
 20
382.0696254871
 30
0.0
 11
420.0302969586
 21
381.0696271859
 31
0.0
  0
SPLINE
  5
21C
330
1F
100
AcDbEntity
  8
0
  6
Continuous
 62
     7
370
    15
100
AcDbSpline
210
0.0
220
0.0
230
1.0
 70
    24
 71
     3
 72
    11
 73
     7
 74
     0
 42
0.000000001
 43
0.00000001
 40
0.0
 40
0.0
 40
0.0
 40
0.0
 40
0.250191077336
 40
0.4999983015407
 40
0.7498071011481
 40
1.0
 40
1.0
 40
1.0
 40
1.0
 10
420.0302934155669
 20
381.0696261725802
 30
0.0
 10
419.8543198857003
 20
381.0696261725803
 30
0.0
 10
419.4994000686347
 20
381.0696261725803
 30
0.0
 10
419.0502783546843
 20
381.0696261725803
 30
0.0
 10
418.7498188406984
 20
381.0696261725803
 30
0.0
 10
418.6796672410982
 20
381.0696261725803
 30
0.0
 10
418.6796672410996
 20
381.0696261725803
 30
0.0
  0
LINE
  5
21D
330
1F
100
AcDbEntity
  8
0
  6
Continuous
 62
     7
370
    15
100
AcDbLine
 10
430.4338555705
 20
381.0696271859
 30
0.0
 11
430.4338555705
 21
382.0696254871
 31
0.0
  0
LINE
  5
21E
330
1F
100
AcDbEntity
  8
0
  6
Continuous
 62
     7
370
    15
100
AcDbLine
 10
420.0302969586
 20
381.0696271859
 30
0.0
 11
430.4338555705
 21
381.0696271859
 31
0.0
  0
LINE
  5
21F
330
1F
100
AcDbEntity
  8
0
  6
Continuous
 62
     7
370
    15
100
AcDbLine
 10
220.9151100289
 20
382.0696254871
 30
0.0
 11
220.9151100289
 21
381.0696271859
 31
0.0
  0
LINE
  5
220
330
1F
100
AcDbEntity
  8
0
  6
Continuous
 62
     7
370
    15
100
AcDbLine
 10
220.9151100289
 20
381.0696271859
 30
0.0
 11
231.3186686408
 21
381.0696271859
 31
0.0
  0
LINE
  5
221
330
1F
100
AcDbEntity
  8
0
  6
Continuous
 62
     7
370
    15
100
AcDbLine
 10
219.6692984473
 20
381.0696271859
 30
0.0
 11
219.6168910633
 21
382.0696254871
 31
0.0
  0
SPLINE
  5
222
330
1F
100
AcDbEntity
  8
0
  6
Continuous
 62
     7
370
    15
100
AcDbSpline
210
0.0
220
0.0
230
1.0
 70
    24
 71
     3
 72
    11
 73
     7
 74
     0
 42
0.000000001
 43
0.00000001
 40
0.0
 40
0.0
 40
0.0
 40
0.0
 40
0.250191077336
 40
0.4999983015407
 40
0.7498071011481
 40
1.0
 40
1.0
 40
1.0
 40
1.0
 10
220.9151089741592
 20
381.0696261725802
 30
0.0
 10
220.7530897173084
 20
381.0696261725802
 30
0.0
 10
220.4251108591872
 20
381.0696261725802
 30
0.0
 10
220.0111912305292
 20
381.0696261725802
 30
0.0
 10
219.734037801725
 20
381.0696261725802
 30
0.0
 10
219.6692983582364
 20
381.0696261725802
 30
0.0
 10
219.669298358247
 20
381.0696261725802
 30
0.0
  0
LINE
  5
223
330
1F
100
AcDbEntity
  8
0
  6
Continuous
 62
     7
370
    15
100
AcDbLine
 10
431.732074536
 20
382.0696254871
 30
0.0
 11
431.6796671521
 21
381.0696271859
 31
0.0
  0
SPLINE
  5
224
330
1F
100
AcDbEntity
  8
0
  6
Continuous
 62
     7
370
    15
100
AcDbSpline
210
0.0
220
0.0
230
1.0
 70
    24
 71
     3
 72
    11
 73
     7
 74
     0
 42
0.000000001
 43
0.00000001
 40
0.0
 40
0.0
 40
0.0
 40
0.0
 40
0.250191077336
 40
0.4999983015406
 40
0.7498071011481
 40
1.000000000019867
 40
1.000000000019867
 40
1.000000000019867
 40
1.000000000019867
 10
431.6796672411183
 20
381.0696261725803
 30
0.0
 10
431.6796672410812
 20
381.0696261725803
 30
0.0
 10
431.6149287283629
 20
381.0696261725803
 30
0.0
 10
431.337777818313
 20
381.0696261725803
 30
0.0
 10
430.9238581994626
 20
381.0696261725803
 30
0.0
 10
430.5958770594597
 20
381.0696261725802
 30
0.0
 10
430.4338566252055
 20
381.0696261725803
 30
0.0
  0
LINE
  5
225
330
1F
100
AcDbEntity
  8
0
  6
Continuous
 62
     7
370
    15
100
AcDbLine
 10
330.6744826879
 20
166.6570534797
 30
0.0
 11
330.6744826879
 21
166.9070539863
 31
0.0
  0
LINE
  5
226
330
1F
100
AcDbEntity
  8
0
  6
Continuous
 62
     7
370
    15
100
AcDbLine
 10
320.6744829114
 20
166.9070539863
 30
0.0
 11
320.6744829114
 21
166.6570534797
 31
0.0
  0
LINE
  5
227
330
1F
100
AcDbEntity
  8
0
  6
Continuous
 62
     7
370
    15
100
AcDbLine
 10
222.6244818341
 20
166.6570534797
 30
0.0
 11
215.6892429959
 21
166.6570534797
 31
0.0
  0
LINE
  5
228
330
1F
100
AcDbEntity
  8
0
  6
Continuous
 62
     7
370
    15
100
AcDbLine
 10
222.6244818341
 20
107.4570527633
 30
0.0
 11
222.6244818341
 21
166.6570534797
 31
0.0
  0
LINE
  5
229
330
1F
100
AcDbEntity
  8
0
  6
Continuous
 62
     7
370
    15
100
AcDbLine
 10
214.6558996211
 20
107.4570527633
 30
0.0
 11
222.6244818341
 21
107.4570527633
 31
0.0
  0
LINE
  5
22A
330
1F
100
AcDbEntity
  8
0
  6
Continuous
 62
     7
370
    15
100
AcDbLine
 10
215.6892429959
 20
166.6570534797
 30
0.0
 11
214.6558996211
 21
107.4570527633
 31
0.0
  0
LINE
  5
22B
330
1F
100
AcDbEntity
  8
0
  6
Continuous
 62
     7
370
    15
100
AcDbLine
 10
428.7244837653
 20
107.4570527633
 30
0.0
 11
428.7244837653
 21
166.6570534797
 31
0.0
  0
LINE
  5
22C
330
1F
100
AcDbEntity
  8
0
  6
Continuous
 62
     7
370
    15
100
AcDbLine
 10
222.6244818341
 20
107.4570527633
 30
0.0
 11
428.7244837653
 21
107.4570527633
 31
0.0
  0
LINE
  5
22D
330
1F
100
AcDbEntity
  8
0
  6
Continuous
 62
     7
370
    15
100
AcDbLine
 10
428.7244837653
 20
166.6570534797
 30
0.0
 11
222.6244818341
 21
166.6570534797
 31
0.0
  0
LINE
  5
22E
330
1F
100
AcDbEntity
  8
0
  6
Continuous
 62
     7
370
    15
100
AcDbLine
 10
435.6597226035
 20
166.6570534797
 30
0.0
 11
428.7244837653
 21
166.6570534797
 31
0.0
  0
LINE
  5
22F
330
1F
100
AcDbEntity
  8
0
  6
Continuous
 62
     7
370
    15
100
AcDbLine
 10
436.6930659782
 20
107.4570527633
 30
0.0
 11
435.6597226035
 21
166.6570534797
 31
0.0
  0
LINE
  5
230
330
1F
100
AcDbEntity
  8
0
  6
Continuous
 62
     7
370
    15
100
AcDbLine
 10
428.7244837653
 20
107.4570527633
 30
0.0
 11
436.6930659782
 21
107.4570527633
 31
0.0
  0
LINE
  5
231
330
1F
100
AcDbEntity
  8
0
  6
Continuous
 62
     7
370
    15
100
AcDbLine
 10
434.9792312752
 20
105.6570527944
 30
0.0
 11
435.0420918237
 21
107.4570527633
 31
0.0
  0
LINE
  5
232
330
1F
100
AcDbEntity
  8
0
  6
Continuous
 62
     7
370
    15
100
AcDbLine
 10
428.7093963396
 20
105.6570527942
 30
0.0
 11
434.9792312752
 21
105.6570527944
 31
0.0
  0
LINE
  5
233
330
1F
100
AcDbEntity
  8
0
  6
Continuous
 62
     7
370
    15
100
AcDbLine
 10
428.7093963396
 20
107.4570527633
 30
0.0
 11
428.7093963396
 21
105.6570527942
 31
0.0
  0
LINE
  5
234
330
1F
100
AcDbEntity
  8
0
  6
Continuous
 62
     7
370
    15
100
AcDbLine
 10
222.6395692598
 20
105.6570527942
 30
0.0
 11
222.6395692598
 21
107.4570527633
 31
0.0
  0
LINE
  5
235
330
1F
100
AcDbEntity
  8
0
  6
Continuous
 62
     7
370
    15
100
AcDbLine
 10
216.3697343241
 20
105.6570527942
 30
0.0
 11
222.6395692598
 21
105.6570527942
 31
0.0
  0
LINE
  5
236
330
1F
100
AcDbEntity
  8
0
  6
Continuous
 62
     7
370
    15
100
AcDbLine
 10
216.3068737756
 20
107.4570527633
 30
0.0
 11
216.3697343241
 21
105.6570527942
 31
0.0
  0
LINE
  5
237
330
1F
100
AcDbEntity
  8
0
  6
Continuous
 62
     7
370
    15
100
AcDbLine
 10
428.7093963396
 20
105.6570527942
 30
0.0
 11
222.6395692598
 21
105.6570527942
 31
0.0
  0
LINE
  5
238
330
1F
100
AcDbEntity
  8
0
  6
Continuous
 62
     7
370
    15
100
AcDbLine
 10
234.2138599526
 20
166.6570534797
 30
0.0
 11
234.2138599526
 21
167.6570517809
 31
0.0
  0
LINE
  5
239
330
1F
100
AcDbEntity
  8
0
  6
Continuous
 62
     7
370
    15
100
AcDbLine
 10
233.9151065718
 20
167.6570517809
 30
0.0
 11
233.9151065718
 21
166.6570534797
 31
0.0
  0
LINE
  5
23A
330
1F
100
AcDbEntity
  8
0
  6
Continuous
 62
     7
370
    15
100
AcDbLine
 10
234.2138599526
 20
167.6570517809
 30
0.0
 11
233.9151065718
 21
167.6570517809
 31
0.0
  0
LINE
  5
23B
330
1F
100
AcDbEntity
  8
0
  6
Continuous
 62
     7
370
    15
100
AcDbLine
 10
417.4338590275
 20
166.6570534797
 30
0.0
 11
417.4338590275
 21
167.6570517809
 31
0.0
  0
LINE
  5
23C
330
1F
100
AcDbEntity
  8
0
  6
Continuous
 62
     7
370
    15
100
AcDbLine
 10
417.1351056467
 20
167.6570517809
 30
0.0
 11
417.1351056467
 21
166.6570534797
 31
0.0
  0
LINE
  5
23D
330
1F
100
AcDbEntity
  8
0
  6
Continuous
 62
     7
370
    15
100
AcDbLine
 10
417.4338590275
 20
167.6570517809
 30
0.0
 11
417.1351056467
 21
167.6570517809
 31
0.0
  0
LINE
  5
23E
330
1F
100
AcDbEntity
  8
0
  6
Continuous
 62
     7
370
    15
100
AcDbLine
 10
415.8368941318
 20
166.6570534797
 30
0.0
 11
415.8893015157
 21
167.6570517809
 31
0.0
  0
SPLINE
  5
23F
330
1F
100
AcDbEntity
  8
0
  6
Continuous
 62
     7
370
    15
100
AcDbSpline
210
0.0
220
0.0
230
1.0
 70
    24
 71
     3
 72
    11
 73
     7
 74
     0
 42
0.000000001
 43
0.00000001
 40
0.0
 40
0.0
 40
0.0
 40
0.0
 40
0.250191077336
 40
0.4999983015406
 40
0.7498071011481
 40
1.0
 40
1.0
 40
1.0
 40
1.0
 10
415.8892983582361
 20
167.6570527942092
 30
0.0
 10
415.8892983582355
 20
167.6570527942092
 30
0.0
 10
415.9540368709599
 20
167.6570527942092
 30
0.0
 10
416.2311877809952
 20
167.6570527942092
 30
0.0
 10
416.6451073998671
 20
167.6570527942092
 30
0.0
 10
416.9730885398655
 20
167.6570527942092
 30
0.0
 10
417.1351089741264
 20
167.6570527942092
 30
0.0
  0
LINE
  5
240
330
1F
100
AcDbEntity
  8
0
  6
Continuous
 62
     7
370
    15
100
AcDbLine
 10
232.6168876063
 20
166.6570534797
 30
0.0
 11
232.6692949902
 21
167.6570517809
 31
0.0
  0
SPLINE
  5
241
330
1F
100
AcDbEntity
  8
0
  6
Continuous
 62
     7
370
    15
100
AcDbSpline
210
0.0
220
0.0
230
1.0
 70
    24
 71
     3
 72
    11
 73
     7
 74
     0
 42
0.000000001
 43
0.00000001
 40
0.0
 40
0.0
 40
0.0
 40
0.0
 40
0.250191077336
 40
0.4999983015406
 40
0.7498071011481
 40
1.0
 40
1.0
 40
1.0
 40
1.0
 10
232.6692983582359
 20
167.6570527942092
 30
0.0
 10
232.6692983582348
 20
167.6570527942092
 30
0.0
 10
232.7340368709546
 20
167.6570527942092
 30
0.0
 10
233.0111877809952
 20
167.6570527942092
 30
0.0
 10
233.4251073998671
 20
167.6570527942092
 30
0.0
 10
233.7530885398655
 20
167.6570527942092
 30
0.0
 10
233.9151089741264
 20
167.6570527942092
 30
0.0
  0
LINE
  5
242
330
1F
100
AcDbEntity
  8
0
  6
Continuous
 62
     7
370
    15
100
AcDbLine
 10
418.6796706091
 20
167.6570517809
 30
0.0
 11
418.7320779931
 21
166.6570534797
 31
0.0
  0
SPLINE
  5
243
330
1F
100
AcDbEntity
  8
0
  6
Continuous
 62
     7
370
    15
100
AcDbSpline
210
0.0
220
0.0
230
1.0
 70
    24
 71
     3
 72
    11
 73
     7
 74
     0
 42
0.000000001
 43
0.00000001
 40
0.0
 40
0.0
 40
0.0
 40
0.0
 40
0.250191077336
 40
0.4999983015406
 40
0.7498071011481
 40
1.0
 40
1.0
 40
1.0
 40
1.0
 10
417.4338566252056
 20
167.6570527942092
 30
0.0
 10
417.5958758820625
 20
167.6570527942092
 30
0.0
 10
417.9238547401458
 20
167.6570527942092
 30
0.0
 10
418.3377743687981
 20
167.6570527942092
 30
0.0
 10
418.6149277976075
 20
167.6570527942092
 30
0.0
 10
418.6796672410968
 20
167.6570527942092
 30
0.0
 10
418.6796672411009
 20
167.6570527942092
 30
0.0
  0
LINE
  5
244
330
1F
100
AcDbEntity
  8
0
  6
Continuous
 62
     7
370
    15
100
AcDbLine
 10
235.4596640836
 20
167.6570517809
 30
0.0
 11
235.5120714675
 21
166.6570534797
 31
0.0
  0
SPLINE
  5
245
330
1F
100
AcDbEntity
  8
0
  6
Continuous
 62
     7
370
    15
100
AcDbSpline
210
0.0
220
0.0
230
1.0
 70
    24
 71
     3
 72
    11
 73
     7
 74
     0
 42
0.000000001
 43
0.00000001
 40
0.0
 40
0.0
 40
0.0
 40
0.0
 40
0.250191077336
 40
0.4999983015406
 40
0.7498071011481
 40
1.0
 40
1.0
 40
1.0
 40
1.0
 10
234.2138566252057
 20
167.6570527942092
 30
0.0
 10
234.3758758820625
 20
167.6570527942092
 30
0.0
 10
234.7038547401458
 20
167.6570527942092
 30
0.0
 10
235.1177743687981
 20
167.6570527942092
 30
0.0
 10
235.3949277976075
 20
167.6570527942092
 30
0.0
 10
235.4596672410967
 20
167.6570527942092
 30
0.0
 10
235.4596672411009
 20
167.6570527942092
 30
0.0
  0
LINE
  5
246
330
1F
100
AcDbEntity
  8
0
  6
Continuous
 62
     7
370
    15
100
AcDbLine
 10
330.6744826879
 20
166.9070539863
 30
0.0
 11
330.3244828168
 21
166.9070539863
 31
0.0
  0
LINE
  5
247
330
1F
100
AcDbEntity
  8
0
  6
Continuous
 62
     7
370
    15
100
AcDbLine
 10
330.3244828168
 20
166.9070539863
 30
0.0
 11
330.3244828168
 21
166.6570534797
 31
0.0
  0
LINE
  5
248
330
1F
100
AcDbEntity
  8
0
  6
Continuous
 62
     7
370
    15
100
AcDbLine
 10
320.6744829114
 20
166.9070539863
 30
0.0
 11
321.0244827825
 21
166.9070539863
 31
0.0
  0
LINE
  5
249
330
1F
100
AcDbEntity
  8
0
  6
Continuous
 62
     7
370
    15
100
AcDbLine
 10
321.0244827825
 20
166.6570534797
 30
0.0
 11
321.0244827825
 21
166.9070539863
 31
0.0
  0
LINE
  5
24A
330
1F
100
AcDbEntity
  8
0
  6
Continuous
 62
     7
370
    15
100
AcDbLine
 10
330.3244828168
 20
166.9070539863
 30
0.0
 11
321.0244827825
 21
166.9070539863
 31
0.0
  0
LINE
  5
24B
330
1F
100
AcDbEntity
  8
0
  6
Continuous
 62
     7
370
    15
100
AcDbLine
 10
420.0302969586
 20
167.6570517809
 30
0.0
 11
420.0302969586
 21
166.6570534797
 31
0.0
  0
SPLINE
  5
24C
330
1F
100
AcDbEntity
  8
0
  6
Continuous
 62
     7
370
    15
100
AcDbSpline
210
0.0
220
0.0
230
1.0
 70
    24
 71
     3
 72
    11
 73
     7
 74
     0
 42
0.000000001
 43
0.00000001
 40
0.0
 40
0.0
 40
0.0
 40
0.0
 40
0.250191077336
 40
0.4999983015407
 40
0.7498071011481
 40
1.0
 40
1.0
 40
1.0
 40
1.0
 10
418.6796672411023
 20
167.6570527942092
 30
0.0
 10
418.679667241102
 20
167.6570527942092
 30
0.0
 10
418.7498178309393
 20
167.6570527942092
 30
0.0
 10
419.0502746181681
 20
167.6570527942092
 30
0.0
 10
419.4993963205059
 20
167.6570527942092
 30
0.0
 10
419.8543186023501
 20
167.6570527942092
 30
0.0
 10
420.0302934155666
 20
167.6570527942092
 30
0.0
  0
LINE
  5
24D
330
1F
100
AcDbEntity
  8
0
  6
Continuous
 62
     7
370
    15
100
AcDbLine
 10
231.3186686408
 20
166.6570534797
 30
0.0
 11
231.3186686408
 21
167.6570517809
 31
0.0
  0
SPLINE
  5
24E
330
1F
100
AcDbEntity
  8
0
  6
Continuous
 62
     7
370
    15
100
AcDbSpline
210
0.0
220
0.0
230
1.0
 70
    24
 71
     3
 72
    11
 73
     7
 74
     0
 42
0.000000001
 43
0.00000001
 40
0.0
 40
0.0
 40
0.0
 40
0.0
 40
0.250191077336
 40
0.4999983015407
 40
0.7498071011481
 40
1.0
 40
1.0
 40
1.0
 40
1.0
 10
231.3186721837664
 20
167.6570527942092
 30
0.0
 10
231.494645713633
 20
167.6570527942092
 30
0.0
 10
231.8495655306986
 20
167.6570527942092
 30
0.0
 10
232.298687244649
 20
167.6570527942092
 30
0.0
 10
232.5991467586349
 20
167.6570527942092
 30
0.0
 10
232.6692983582351
 20
167.6570527942092
 30
0.0
 10
232.6692983582337
 20
167.6570527942092
 30
0.0
  0
LINE
  5
24F
330
1F
100
AcDbEntity
  8
0
  6
Continuous
 62
     7
370
    15
100
AcDbLine
 10
430.4338555705
 20
166.6570534797
 30
0.0
 11
430.4338555705
 21
167.6570517809
 31
0.0
  0
LINE
  5
250
330
1F
100
AcDbEntity
  8
0
  6
Continuous
 62
     7
370
    15
100
AcDbLine
 10
430.4338555705
 20
167.6570517809
 30
0.0
 11
420.0302969586
 21
167.6570517809
 31
0.0
  0
LINE
  5
251
330
1F
100
AcDbEntity
  8
0
  6
Continuous
 62
     7
370
    15
100
AcDbLine
 10
220.9151100289
 20
167.6570517809
 30
0.0
 11
220.9151100289
 21
166.6570534797
 31
0.0
  0
LINE
  5
252
330
1F
100
AcDbEntity
  8
0
  6
Continuous
 62
     7
370
    15
100
AcDbLine
 10
231.3186686408
 20
167.6570517809
 30
0.0
 11
220.9151100289
 21
167.6570517809
 31
0.0
  0
LINE
  5
253
330
1F
100
AcDbEntity
  8
0
  6
Continuous
 62
     7
370
    15
100
AcDbLine
 10
431.6796671521
 20
167.6570517809
 30
0.0
 11
431.732074536
 21
166.6570534797
 31
0.0
  0
SPLINE
  5
254
330
1F
100
AcDbEntity
  8
0
  6
Continuous
 62
     7
370
    15
100
AcDbSpline
210
0.0
220
0.0
230
1.0
 70
    24
 71
     3
 72
    11
 73
     7
 74
     0
 42
0.000000001
 43
0.00000001
 40
0.0
 40
0.0
 40
0.0
 40
0.0
 40
0.250191077336
 40
0.4999983015407
 40
0.7498071011481
 40
1.0
 40
1.0
 40
1.0
 40
1.0
 10
430.4338566251741
 20
167.6570527942092
 30
0.0
 10
430.5958758820249
 20
167.6570527942092
 30
0.0
 10
430.9238547401461
 20
167.6570527942092
 30
0.0
 10
431.3377743688041
 20
167.6570527942092
 30
0.0
 10
431.6149277976083
 20
167.6570527942092
 30
0.0
 10
431.6796672410969
 20
167.6570527942092
 30
0.0
 10
431.6796672410862
 20
167.6570527942092
 30
0.0
  0
LINE
  5
255
330
1F
100
AcDbEntity
  8
0
  6
Continuous
 62
     7
370
    15
100
AcDbLine
 10
219.6168910633
 20
166.6570534797
 30
0.0
 11
219.6692984473
 21
167.6570517809
 31
0.0
  0
SPLINE
  5
256
330
1F
100
AcDbEntity
  8
0
  6
Continuous
 62
     7
370
    15
100
AcDbSpline
210
0.0
220
0.0
230
1.0
 70
    24
 71
     3
 72
    11
 73
     7
 74
     0
 42
0.000000001
 43
0.00000001
 40
0.0
 40
0.0
 40
0.0
 40
0.0
 40
0.250191077336
 40
0.4999983015407
 40
0.7498071011481
 40
1.000000000019843
 40
1.000000000019843
 40
1.000000000019843
 40
1.000000000019843
 10
219.6692983582151
 20
167.6570527942092
 30
0.0
 10
219.6692983582521
 20
167.6570527942092
 30
0.0
 10
219.7340368709704
 20
167.6570527942092
 30
0.0
 10
220.0111877810202
 20
167.6570527942092
 30
0.0
 10
220.4251073998707
 20
167.6570527942092
 30
0.0
 10
220.7530885398737
 20
167.6570527942092
 30
0.0
 10
220.9151089741278
 20
167.6570527942092
 30
0.0
  0
LINE
  5
257
330
1F
100
AcDbEntity
  8
0
  6
Continuous
 62
     7
370
    15
100
AcDbLine
 10
539.9854958615
 20
233.0913932652
 30
0.0
 11
538.1335554976
 21
233.1273199648
 31
0.0
  0
LINE
  5
258
330
1F
100
AcDbEntity
  8
0
  6
Continuous
 62
     7
370
    15
100
AcDbLine
 10
539.9854958615
 20
315.0913918049
 30
0.0
 11
538.1335554976
 21
315.1273185045
 31
0.0
  0
LINE
  5
259
330
1F
100
AcDbEntity
  8
0
  6
Continuous
 62
     7
370
    15
100
AcDbLine
 10
538.1335554976
 20
245.3373463482
 30
0.0
 11
539.9858749425
 21
245.3733214767
 31
0.0
  0
LINE
  5
25A
330
1F
100
AcDbEntity
  8
0
  6
Continuous
 62
     7
370
    15
100
AcDbLine
 10
538.1335554976
 20
327.3373448879
 30
0.0
 11
539.9858749425
 21
327.3733237416
 31
0.0
  0
LINE
  5
25B
330
1F
100
AcDbEntity
  8
0
  6
Continuous
 62
     7
370
    15
100
AcDbLine
 10
478.9335547813
 20
285.2321032093
 30
0.0
 11
478.6835542746
 21
285.2321032093
 31
0.0
  0
LINE
  5
25C
330
1F
100
AcDbEntity
  8
0
  6
Continuous
 62
     7
370
    15
100
AcDbLine
 10
478.6835542746
 20
275.2321034328
 30
0.0
 11
478.9335547813
 21
275.2321034328
 31
0.0
  0
LINE
  5
25D
330
1F
100
AcDbEntity
  8
0
  6
Continuous
 62
     7
370
    15
100
AcDbLine
 10
478.9335547813
 20
341.6173437268
 30
0.0
 11
478.9335547813
 21
334.6821048886
 31
0.0
  0
LINE
  5
25E
330
1F
100
AcDbEntity
  8
0
  6
Continuous
 62
     7
370
    15
100
AcDbLine
 10
538.1335554976
 20
342.6506833763
 30
0.0
 11
478.9335547813
 21
341.6173437268
 31
0.0
  0
LINE
  5
25F
330
1F
100
AcDbEntity
  8
0
  6
Continuous
 62
     7
370
    15
100
AcDbLine
 10
538.1335554976
 20
334.6821048886
 30
0.0
 11
538.1335554976
 21
342.6506833763
 31
0.0
  0
LINE
  5
260
330
1F
100
AcDbEntity
  8
0
  6
Continuous
 62
     7
370
    15
100
AcDbLine
 10
478.9335547813
 20
334.6821048886
 30
0.0
 11
538.1335554976
 21
334.6821048886
 31
0.0
  0
LINE
  5
261
330
1F
100
AcDbEntity
  8
0
  6
Continuous
 62
     7
370
    15
100
AcDbLine
 10
478.9335547813
 20
334.6821048886
 30
0.0
 11
478.9335547813
 21
225.7821017534
 31
0.0
  0
LINE
  5
262
330
1F
100
AcDbEntity
  8
0
  6
Continuous
 62
     7
370
    15
100
AcDbLine
 10
538.1335554976
 20
225.7821017534
 30
0.0
 11
538.1335554976
 21
334.6821048886
 31
0.0
  0
LINE
  5
263
330
1F
100
AcDbEntity
  8
0
  6
Continuous
 62
     7
370
    15
100
AcDbLine
 10
538.1335554976
 20
225.7821017534
 30
0.0
 11
478.9335547813
 21
225.7821017534
 31
0.0
  0
LINE
  5
264
330
1F
100
AcDbEntity
  8
0
  6
Continuous
 62
     7
370
    15
100
AcDbLine
 10
478.9335547813
 20
225.7821017534
 30
0.0
 11
478.9335547813
 21
218.8468629152
 31
0.0
  0
LINE
  5
265
330
1F
100
AcDbEntity
  8
0
  6
Continuous
 62
     7
370
    15
100
AcDbLine
 10
538.1335554976
 20
217.8135232658
 30
0.0
 11
538.1335554976
 21
225.7821017534
 31
0.0
  0
LINE
  5
266
330
1F
100
AcDbEntity
  8
0
  6
Continuous
 62
     7
370
    15
100
AcDbLine
 10
538.1335554976
 20
217.8135232658
 30
0.0
 11
478.9335547813
 21
218.8468629152
 31
0.0
  0
LINE
  5
267
330
1F
100
AcDbEntity
  8
0
  6
Continuous
 62
     7
370
    15
100
AcDbLine
 10
538.1335554976
 20
230.1311136813
 30
0.0
 11
539.9335554665
 21
230.0965578885
 31
0.0
  0
SPLINE
  5
268
330
1F
100
AcDbEntity
  8
0
  6
Continuous
 62
     7
370
    15
100
AcDbSpline
210
0.0
220
0.0
230
1.0
 70
    24
 71
     3
 72
    12
 73
     8
 74
     0
 42
0.000000001
 43
0.00000001
 40
0.0
 40
0.0
 40
0.0
 40
0.0
 40
0.2474022029995151
 40
0.4681826406603172
 40
0.6889103545139468
 40
0.9097074558162311
 40
0.9999999999999999
 40
0.9999999999999999
 40
0.9999999999999999
 40
0.9999999999999999
 10
539.9335554667118
 20
230.0965578884656
 30
0.0
 10
539.9335554667118
 20
230.4745876103854
 30
0.0
 10
539.9335554667118
 20
231.1899690876347
 30
0.0
 10
539.9335554667118
 20
232.1053115779587
 30
0.0
 10
539.9335554667118
 20
232.7390641185361
 30
0.0
 10
539.9335554667118
 20
233.0699833216765
 30
0.0
 10
539.9335554667118
 20
233.0554637774627
 30
0.0
 10
539.9335554667118
 20
233.0512495369488
 30
0.0
  0
LINE
  5
269
330
1F
100
AcDbEntity
  8
0
  6
Continuous
 62
     7
370
    15
100
AcDbLine
 10
538.1335554976
 20
312.131112221
 30
0.0
 11
539.9335554665
 21
312.0965564282
 31
0.0
  0
SPLINE
  5
26A
330
1F
100
AcDbEntity
  8
0
  6
Continuous
 62
     7
370
    15
100
AcDbSpline
210
0.0
220
0.0
230
1.0
 70
    24
 71
     3
 72
    12
 73
     8
 74
     0
 42
0.000000001
 43
0.00000001
 40
0.0
 40
0.0
 40
0.0
 40
0.0
 40
0.2474022005994253
 40
0.4681826361183996
 40
0.688910347830713
 40
0.909707446991008
 40
1.0
 40
1.0
 40
1.0
 40
1.0
 10
539.9335554667118
 20
312.0965564281518
 30
0.0
 10
539.9335554667118
 20
312.4745861751712
 30
0.0
 10
539.9335554667118
 20
313.1899676999189
 30
0.0
 10
539.9335554667118
 20
314.1053098633462
 30
0.0
 10
539.9335554667118
 20
314.7390636153286
 30
0.0
 10
539.9335554667118
 20
315.069979185056
 30
0.0
 10
539.9335554667118
 20
315.0554646026231
 30
0.0
 10
539.9335554667118
 20
315.0512518019253
 30
0.0
  0
LINE
  5
26B
330
1F
100
AcDbEntity
  8
0
  6
Continuous
 62
     7
370
    15
100
AcDbLine
 10
539.9335554665
 20
248.3676502139
 30
0.0
 11
538.1335554976
 21
248.3330944211
 31
0.0
  0
SPLINE
  5
26C
330
1F
100
AcDbEntity
  8
0
  6
Continuous
 62
     7
370
    15
100
AcDbSpline
210
0.0
220
0.0
230
1.0
 70
    24
 71
     3
 72
    13
 73
     9
 74
     0
 42
0.000000001
 43
0.00000001
 40
0.0
 40
0.0
 40
0.0
 40
0.0
 40
0.0058297848204682
 40
0.2274005439717629
 40
0.44881170564378
 40
0.6700542430814054
 40
0.8911874010431332
 40
1.0
 40
1.0
 40
1.0
 40
1.0
 10
539.9335554667118
 20
245.3772218555981
 30
0.0
 10
539.9335554667118
 20
245.3760046842724
 30
0.0
 10
539.9335554667118
 20
245.3285268733247
 30
0.0
 10
539.9335554667118
 20
245.5726201278756
 30
0.0
 10
539.9335554667118
 20
246.0841512114398
 30
0.0
 10
539.9335554667118
 20
246.8969153407
 30
0.0
 10
539.9335554667118
 20
247.7013105163653
 30
0.0
 10
539.9335554667118
 20
248.2023971690266
 30
0.0
 10
539.9335554667118
 20
248.3676502139145
 30
0.0
  0
LINE
  5
26D
330
1F
100
AcDbEntity
  8
0
  6
Continuous
 62
     7
370
    15
100
AcDbLine
 10
539.9335554667
 20
330.3676487536
 30
0.0
 11
538.1335554976
 21
330.3330929608
 31
0.0
  0
SPLINE
  5
26E
330
1F
100
AcDbEntity
  8
0
  6
Continuous
 62
     7
370
    15
100
AcDbSpline
210
0.0
220
0.0
230
1.0
 70
    24
 71
     3
 72
    13
 73
     9
 74
     0
 42
0.000000001
 43
0.00000001
 40
0.0
 40
0.0
 40
0.0
 40
0.0
 40
0.0058296796885884
 40
0.2274005889334932
 40
0.4488114647118892
 40
0.6700547927117633
 40
0.8911873273327038
 40
1.0
 40
1.0
 40
1.0
 40
1.0
 10
539.9335554667118
 20
327.3772203952843
 30
0.0
 10
539.9335554667118
 20
327.3760044849589
 30
0.0
 10
539.9335554667118
 20
327.3285749967427
 30
0.0
 10
539.9335554667118
 20
327.5726024529393
 30
0.0
 10
539.9335554667118
 20
328.0841548334811
 30
0.0
 10
539.9335554667118
 20
328.8969151942635
 30
0.0
 10
539.9335554667118
 20
329.7013102276997
 30
0.0
 10
539.9335554667118
 20
330.20239570809
 30
0.0
 10
539.9335554667118
 20
330.3676487536007
 30
0.0
  0
LINE
  5
26F
330
1F
100
AcDbEntity
  8
0
  6
Continuous
 62
     7
370
    15
100
AcDbLine
 10
539.9335554665
 20
312.0965564282
 30
0.0
 11
539.9335554665
 21
248.3676502139
 31
0.0
  0
LINE
  5
270
330
1F
100
AcDbEntity
  8
0
  6
Continuous
 62
     7
370
    15
100
AcDbLine
 10
538.1335554976
 20
334.6670137376
 30
0.0
 11
539.9335554667
 21
334.6670137376
 31
0.0
  0
LINE
  5
271
330
1F
100
AcDbEntity
  8
0
  6
Continuous
 62
     7
370
    15
100
AcDbLine
 10
539.9335554667
 20
334.6670137376
 30
0.0
 11
539.9335554667
 21
330.3676487536
 31
0.0
  0
LINE
  5
272
330
1F
100
AcDbEntity
  8
0
  6
Continuous
 62
     7
370
    15
100
AcDbLine
 10
539.9335554667
 20
340.9368561239
 30
0.0
 11
538.1335554976
 21
340.9997129471
 31
0.0
  0
LINE
  5
273
330
1F
100
AcDbEntity
  8
0
  6
Continuous
 62
     7
370
    15
100
AcDbLine
 10
539.9335554667
 20
334.6670137376
 30
0.0
 11
539.9335554667
 21
340.9368561239
 31
0.0
  0
LINE
  5
274
330
1F
100
AcDbEntity
  8
0
  6
Continuous
 62
     7
370
    15
100
AcDbLine
 10
539.9335554665
 20
225.7971929044
 30
0.0
 11
538.1335554976
 21
225.7971929044
 31
0.0
  0
LINE
  5
275
330
1F
100
AcDbEntity
  8
0
  6
Continuous
 62
     7
370
    15
100
AcDbLine
 10
539.9335554665
 20
230.0965578885
 30
0.0
 11
539.9335554665
 21
225.7971929044
 31
0.0
  0
LINE
  5
276
330
1F
100
AcDbEntity
  8
0
  6
Continuous
 62
     7
370
    15
100
AcDbLine
 10
538.1335554976
 20
219.464493695
 30
0.0
 11
539.9335554667
 21
219.5273505182
 31
0.0
  0
LINE
  5
277
330
1F
100
AcDbEntity
  8
0
  6
Continuous
 62
     7
370
    15
100
AcDbLine
 10
539.9335554667
 20
219.5273505182
 30
0.0
 11
539.9335554665
 21
225.7971929044
 31
0.0
  0
LINE
  5
278
330
1F
100
AcDbEntity
  8
0
  6
Continuous
 62
     7
370
    15
100
AcDbLine
 10
477.93355648
 20
250.3172883422
 30
0.0
 11
478.9335547813
 21
250.3696957261
 31
0.0
  0
LINE
  5
279
330
1F
100
AcDbEntity
  8
0
  6
Continuous
 62
     7
370
    15
100
AcDbLine
 10
478.9335547813
 20
249.0714767606
 30
0.0
 11
477.93355648
 21
249.0714767606
 31
0.0
  0
SPLINE
  5
27A
330
1F
100
AcDbEntity
  8
0
  6
Continuous
 62
     7
370
    15
100
AcDbSpline
210
0.0
220
0.0
230
1.0
 70
    24
 71
     3
 72
    11
 73
     7
 74
     0
 42
0.000000001
 43
0.00000001
 40
0.0
 40
0.0
 40
0.0
 40
0.0
 40
0.250191077336
 40
0.4999983015407
 40
0.7498071011481
 40
1.000000000019848
 40
1.000000000019848
 40
1.000000000019848
 40
1.000000000019848
 10
477.9335554667119
 20
249.0714771465732
 30
0.0
 10
477.9335554667119
 20
249.2334964034297
 30
0.0
 10
477.9335554667119
 20
249.5614752615126
 30
0.0
 10
477.9335554667119
 20
249.9753948901646
 30
0.0
 10
477.9335554667119
 20
250.2525483189752
 30
0.0
 10
477.9335554667119
 20
250.3172877624641
 30
0.0
 10
477.9335554667119
 20
250.3172877624674
 30
0.0
  0
LINE
  5
27B
330
1F
100
AcDbEntity
  8
0
  6
Continuous
 62
     7
370
    15
100
AcDbLine
 10
477.93355648
 20
312.9372873933
 30
0.0
 11
478.9335547813
 21
312.9896947772
 31
0.0
  0
LINE
  5
27C
330
1F
100
AcDbEntity
  8
0
  6
Continuous
 62
     7
370
    15
100
AcDbLine
 10
478.9335547813
 20
311.6914758117
 30
0.0
 11
477.93355648
 21
311.6914758117
 31
0.0
  0
SPLINE
  5
27D
330
1F
100
AcDbEntity
  8
0
  6
Continuous
 62
     7
370
    15
100
AcDbSpline
210
0.0
220
0.0
230
1.0
 70
    24
 71
     3
 72
    11
 73
     7
 74
     0
 42
0.000000001
 43
0.00000001
 40
0.0
 40
0.0
 40
0.0
 40
0.0
 40
0.250191077336
 40
0.4999983015407
 40
0.7498071011481
 40
1.000000000019843
 40
1.000000000019843
 40
1.000000000019843
 40
1.000000000019843
 10
477.9335554667119
 20
311.6914771465722
 30
0.0
 10
477.9335554667119
 20
311.853496403429
 30
0.0
 10
477.9335554667119
 20
312.1814752615123
 30
0.0
 10
477.9335554667119
 20
312.5953948901646
 30
0.0
 10
477.9335554667119
 20
312.8725483189752
 30
0.0
 10
477.9335554667119
 20
312.9372877624641
 30
0.0
 10
477.9335554667119
 20
312.9372877624674
 30
0.0
  0
LINE
  5
27E
330
1F
100
AcDbEntity
  8
0
  6
Continuous
 62
     7
370
    15
100
AcDbLine
 10
477.93355648
 20
311.3927298815
 30
0.0
 11
478.9335547813
 21
311.3927298815
 31
0.0
  0
LINE
  5
27F
330
1F
100
AcDbEntity
  8
0
  6
Continuous
 62
     7
370
    15
100
AcDbLine
 10
477.93355648
 20
311.6914758117
 30
0.0
 11
477.93355648
 21
311.3927298815
 31
0.0
  0
LINE
  5
280
330
1F
100
AcDbEntity
  8
0
  6
Continuous
 62
     7
370
    15
100
AcDbLine
 10
477.93355648
 20
248.7727308304
 30
0.0
 11
478.9335547813
 21
248.7727308304
 31
0.0
  0
LINE
  5
281
330
1F
100
AcDbEntity
  8
0
  6
Continuous
 62
     7
370
    15
100
AcDbLine
 10
477.93355648
 20
248.7727308304
 30
0.0
 11
477.93355648
 21
249.0714767606
 31
0.0
  0
LINE
  5
282
330
1F
100
AcDbEntity
  8
0
  6
Continuous
 62
     7
370
    15
100
AcDbLine
 10
478.9335547813
 20
310.094510916
 30
0.0
 11
477.93355648
 21
310.1469182999
 31
0.0
  0
SPLINE
  5
283
330
1F
100
AcDbEntity
  8
0
  6
Continuous
 62
     7
370
    15
100
AcDbSpline
210
0.0
220
0.0
230
1.0
 70
    24
 71
     3
 72
    11
 73
     7
 74
     0
 42
0.000000001
 43
0.00000001
 40
0.0
 40
0.0
 40
0.0
 40
0.0
 40
0.250191077336
 40
0.4999983015407
 40
0.7498071011481
 40
1.0
 40
1.0
 40
1.0
 40
1.0
 10
477.9335554667119
 20
310.1469188796024
 30
0.0
 10
477.9335554667119
 20
310.1469188795984
 30
0.0
 10
477.9335554667119
 20
310.211657392317
 30
0.0
 10
477.9335554667119
 20
310.4888083023616
 30
0.0
 10
477.9335554667119
 20
310.9027279212336
 30
0.0
 10
477.9335554667119
 20
311.230709061232
 30
0.0
 10
477.9335554667119
 20
311.3927294954929
 30
0.0
  0
LINE
  5
284
330
1F
100
AcDbEntity
  8
0
  6
Continuous
 62
     7
370
    15
100
AcDbLine
 10
478.9335547813
 20
247.4745118649
 30
0.0
 11
477.93355648
 21
247.5269192488
 31
0.0
  0
SPLINE
  5
285
330
1F
100
AcDbEntity
  8
0
  6
Continuous
 62
     7
370
    15
100
AcDbSpline
210
0.0
220
0.0
230
1.0
 70
    24
 71
     3
 72
    11
 73
     7
 74
     0
 42
0.000000001
 43
0.00000001
 40
0.0
 40
0.0
 40
0.0
 40
0.0
 40
0.250191077336
 40
0.4999983015407
 40
0.7498071011481
 40
1.0
 40
1.0
 40
1.0
 40
1.0
 10
477.9335554667119
 20
247.5269188796024
 30
0.0
 10
477.9335554667118
 20
247.5269188795989
 30
0.0
 10
477.9335554667118
 20
247.5916573923178
 30
0.0
 10
477.9335554667118
 20
247.8688083023617
 30
0.0
 10
477.9335554667118
 20
248.2827279212336
 30
0.0
 10
477.9335554667118
 20
248.610709061232
 30
0.0
 10
477.9335554667118
 20
248.7727294954929
 30
0.0
  0
LINE
  5
286
330
1F
100
AcDbEntity
  8
0
  6
Continuous
 62
     7
370
    15
100
AcDbLine
 10
478.6835542746
 20
285.2321032093
 30
0.0
 11
478.6835542746
 21
284.8821033382
 31
0.0
  0
LINE
  5
287
330
1F
100
AcDbEntity
  8
0
  6
Continuous
 62
     7
370
    15
100
AcDbLine
 10
478.6835542746
 20
284.8821033382
 30
0.0
 11
478.9335547813
 21
284.8821033382
 31
0.0
  0
LINE
  5
288
330
1F
100
AcDbEntity
  8
0
  6
Continuous
 62
     7
370
    15
100
AcDbLine
 10
478.9335547813
 20
275.5821033039
 30
0.0
 11
478.6835542746
 21
275.5821033039
 31
0.0
  0
LINE
  5
289
330
1F
100
AcDbEntity
  8
0
  6
Continuous
 62
     7
370
    15
100
AcDbLine
 10
478.6835542746
 20
275.2321034328
 30
0.0
 11
478.6835542746
 21
275.5821033039
 31
0.0
  0
LINE
  5
28A
330
1F
100
AcDbEntity
  8
0
  6
Continuous
 62
     7
370
    15
100
AcDbLine
 10
478.6835542746
 20
284.8821033382
 30
0.0
 11
478.6835542746
 21
275.5821033039
 31
0.0
  0
LINE
  5
28B
330
1F
100
AcDbEntity
  8
0
  6
Continuous
 62
     7
370
    15
100
AcDbLine
 10
539.9335554667
 20
245.1741004021
 30
0.0
 11
539.9335554667
 21
233.065789345
 31
0.0
  0
LINE
  5
28C
330
1F
100
AcDbEntity
  8
0
  6
Continuous
 62
     7
370
    15
100
AcDbLine
 10
539.9335554667
 20
327.1741026671
 30
0.0
 11
539.9335554667
 21
315.0657878847
 31
0.0
  0
LINE
  5
28D
330
1F
100
AcDbEntity
  8
0
  6
Continuous
 62
     7
370
    15
100
AcDbLine
 10
477.93355648
 20
314.2879137427
 30
0.0
 11
478.9335547813
 21
314.2879137427
 31
0.0
  0
SPLINE
  5
28E
330
1F
100
AcDbEntity
  8
0
  6
Continuous
 62
     7
370
    15
100
AcDbSpline
210
0.0
220
0.0
230
1.0
 70
    24
 71
     3
 72
    11
 73
     7
 74
     0
 42
0.000000001
 43
0.00000001
 40
0.0
 40
0.0
 40
0.0
 40
0.0
 40
0.250191077336
 40
0.4999983015407
 40
0.7498071011481
 40
1.0
 40
1.0
 40
1.0
 40
1.0
 10
477.9335554667119
 20
312.9372877624689
 30
0.0
 10
477.9335554667119
 20
312.9372877624686
 30
0.0
 10
477.9335554667119
 20
313.0074383523059
 30
0.0
 10
477.9335554667119
 20
313.3078951395347
 30
0.0
 10
477.9335554667119
 20
313.7570168418725
 30
0.0
 10
477.9335554667119
 20
314.1119391237166
 30
0.0
 10
477.9335554667119
 20
314.2879139369331
 30
0.0
  0
LINE
  5
28F
330
1F
100
AcDbEntity
  8
0
  6
Continuous
 62
     7
370
    15
100
AcDbLine
 10
478.9335547813
 20
246.1762928993
 30
0.0
 11
477.93355648
 21
246.1762928993
 31
0.0
  0
SPLINE
  5
290
330
1F
100
AcDbEntity
  8
0
  6
Continuous
 62
     7
370
    15
100
AcDbSpline
210
0.0
220
0.0
230
1.0
 70
    24
 71
     3
 72
    11
 73
     7
 74
     0
 42
0.000000001
 43
0.00000001
 40
0.0
 40
0.0
 40
0.0
 40
0.0
 40
0.250191077336
 40
0.4999983015407
 40
0.7498071011481
 40
1.0
 40
1.0
 40
1.0
 40
1.0
 10
477.9335554667119
 20
246.1762927051329
 30
0.0
 10
477.9335554667119
 20
246.3522662349995
 30
0.0
 10
477.9335554667119
 20
246.7071860520651
 30
0.0
 10
477.9335554667119
 20
247.1563077660155
 30
0.0
 10
477.9335554667119
 20
247.4567672800014
 30
0.0
 10
477.9335554667119
 20
247.5269188796017
 30
0.0
 10
477.9335554667119
 20
247.5269188796002
 30
0.0
  0
LINE
  5
291
330
1F
100
AcDbEntity
  8
0
  6
Continuous
 62
     7
370
    15
100
AcDbLine
 10
478.9335547813
 20
324.6914760799
 30
0.0
 11
477.93355648
 21
324.6914760799
 31
0.0
  0
LINE
  5
292
330
1F
100
AcDbEntity
  8
0
  6
Continuous
 62
     7
370
    15
100
AcDbLine
 10
477.93355648
 20
324.6914760799
 30
0.0
 11
477.93355648
 21
314.2879137427
 31
0.0
  0
LINE
  5
293
330
1F
100
AcDbEntity
  8
0
  6
Continuous
 62
     7
370
    15
100
AcDbLine
 10
477.93355648
 20
235.7727305622
 30
0.0
 11
478.9335547813
 21
235.7727305622
 31
0.0
  0
LINE
  5
294
330
1F
100
AcDbEntity
  8
0
  6
Continuous
 62
     7
370
    15
100
AcDbLine
 10
477.93355648
 20
246.1762928993
 30
0.0
 11
477.93355648
 21
235.7727305622
 31
0.0
  0
LINE
  5
295
330
1F
100
AcDbEntity
  8
0
  6
Continuous
 62
     7
370
    15
100
AcDbLine
 10
478.9335547813
 20
234.4745115966
 30
0.0
 11
477.93355648
 21
234.5269189806
 31
0.0
  0
SPLINE
  5
296
330
1F
100
AcDbEntity
  8
0
  6
Continuous
 62
     7
370
    15
100
AcDbSpline
210
0.0
220
0.0
230
1.0
 70
    24
 71
     3
 72
    11
 73
     7
 74
     0
 42
0.000000001
 43
0.00000001
 40
0.0
 40
0.0
 40
0.0
 40
0.0
 40
0.250191077336
 40
0.4999983015406
 40
0.7498071011481
 40
1.0
 40
1.0
 40
1.0
 40
1.0
 10
477.9335554667119
 20
234.5269188796024
 30
0.0
 10
477.9335554667119
 20
234.5269188796013
 30
0.0
 10
477.9335554667119
 20
234.5916573923211
 30
0.0
 10
477.9335554667119
 20
234.8688083023617
 30
0.0
 10
477.9335554667119
 20
235.2827279212336
 30
0.0
 10
477.9335554667119
 20
235.610709061232
 30
0.0
 10
477.9335554667119
 20
235.7727294954929
 30
0.0
  0
LINE
  5
297
330
1F
100
AcDbEntity
  8
0
  6
Continuous
 62
     7
370
    15
100
AcDbLine
 10
477.93355648
 20
325.9372876615
 30
0.0
 11
478.9335547813
 21
325.9896950454
 31
0.0
  0
SPLINE
  5
298
330
1F
100
AcDbEntity
  8
0
  6
Continuous
 62
     7
370
    15
100
AcDbSpline
210
0.0
220
0.0
230
1.0
 70
    24
 71
     3
 72
    11
 73
     7
 74
     0
 42
0.000000001
 43
0.00000001
 40
0.0
 40
0.0
 40
0.0
 40
0.0
 40
0.250191077336
 40
0.4999983015406
 40
0.7498071011481
 40
1.0
 40
1.0
 40
1.0
 40
1.0
 10
477.9335554667119
 20
324.6914771465722
 30
0.0
 10
477.9335554667119
 20
324.853496403429
 30
0.0
 10
477.9335554667119
 20
325.1814752615123
 30
0.0
 10
477.9335554667119
 20
325.5953948901646
 30
0.0
 10
477.9335554667119
 20
325.8725483189741
 30
0.0
 10
477.9335554667119
 20
325.9372877624632
 30
0.0
 10
477.9335554667119
 20
325.9372877624674
 30
0.0
  0
LINE
  5
299
330
1F
100
AcDbEntity
  8
0
  6
Continuous
 62
     7
370
    15
100
AcDbLine
 10
601.5463646414
 20
310.1469182999
 30
0.0
 11
601.5463646414
 21
310.094510916
 31
0.0
  0
SPLINE
  5
29A
330
1F
100
AcDbEntity
  8
0
  6
Continuous
 62
     7
370
    15
100
AcDbSpline
210
0.0
220
0.0
230
1.0
 70
     8
 71
     3
 72
    11
 73
     7
 74
     0
 42
0.000000001
 43
0.00000001
 40
0.0
 40
0.0
 40
0.0
 40
0.0
 40
0.250191077336
 40
0.4999983015407
 40
0.7498071011481
 40
1.000000000011871
 40
1.000000000011871
 40
1.000000000011871
 40
1.000000000011871
 10
600.2481451914683
 20
311.3927294954931
 30
0.0
 10
600.2481451914973
 20
311.2237331021316
 30
0.0
 10
600.3155897428106
 20
310.8822837645595
 30
0.0
 10
600.6043935914058
 20
310.4507630932599
 30
0.0
 10
601.0359142520554
 20
310.1619566218653
 30
0.0
 10
601.3773659629306
 20
310.0945111003198
 30
0.0
 10
601.5463635866882
 20
310.0945111003168
 30
0.0
  0
LINE
  5
29B
330
1F
100
AcDbEntity
  8
0
  6
Continuous
 62
     7
370
    15
100
AcDbLine
 10
600.2481456759
 20
311.3927298815
 30
0.0
 11
600.3005530598
 21
311.3927298815
 31
0.0
  0
SPLINE
  5
29C
330
1F
100
AcDbEntity
  8
0
  6
Continuous
 62
     7
370
    15
100
AcDbSpline
210
0.0
220
0.0
230
1.0
 70
     8
 71
     3
 72
    11
 73
     7
 74
     0
 42
0.000000001
 43
0.00000001
 40
0.0
 40
0.0
 40
0.0
 40
0.0
 40
0.250191077336
 40
0.4999983015407
 40
0.7498071011481
 40
1.000000000019848
 40
1.000000000019848
 40
1.000000000019848
 40
1.000000000019848
 10
600.300552970761
 20
311.3927294954931
 30
0.0
 10
600.3005529707982
 20
311.2307102386366
 30
0.0
 10
600.3652914835166
 20
310.9027313805537
 30
0.0
 10
600.6424423935662
 20
310.4888117519017
 30
0.0
 10
601.0563620124167
 20
310.2116583230911
 30
0.0
 10
601.3843431524197
 20
310.1469188796021
 30
0.0
 10
601.5463635866738
 20
310.1469188795989
 30
0.0
  0
LINE
  5
29D
330
1F
100
AcDbEntity
  8
0
  6
Continuous
 62
     7
370
    15
100
AcDbLine
 10
601.5463646414
 20
247.5269192488
 30
0.0
 11
601.5463646414
 21
247.4745118649
 31
0.0
  0
SPLINE
  5
29E
330
1F
100
AcDbEntity
  8
0
  6
Continuous
 62
     7
370
    15
100
AcDbSpline
210
0.0
220
0.0
230
1.0
 70
     8
 71
     3
 72
    11
 73
     7
 74
     0
 42
0.000000001
 43
0.00000001
 40
0.0
 40
0.0
 40
0.0
 40
0.0
 40
0.250191077336
 40
0.4999983015406
 40
0.7498071011481
 40
1.000000000011876
 40
1.000000000011876
 40
1.000000000011876
 40
1.000000000011876
 10
600.2481451914683
 20
248.7727294954928
 30
0.0
 10
600.2481451914973
 20
248.6037331021314
 30
0.0
 10
600.3155897428107
 20
248.2622837645594
 30
0.0
 10
600.6043935914058
 20
247.8307630932599
 30
0.0
 10
601.0359142520554
 20
247.5419566218653
 30
0.0
 10
601.3773659629306
 20
247.4745111003198
 30
0.0
 10
601.5463635866882
 20
247.4745111003168
 30
0.0
  0
LINE
  5
29F
330
1F
100
AcDbEntity
  8
0
  6
Continuous
 62
     7
370
    15
100
AcDbLine
 10
600.2481456759
 20
248.7727308304
 30
0.0
 11
600.3005530598
 21
248.7727308304
 31
0.0
  0
SPLINE
  5
2A0
330
1F
100
AcDbEntity
  8
0
  6
Continuous
 62
     7
370
    15
100
AcDbSpline
210
0.0
220
0.0
230
1.0
 70
     8
 71
     3
 72
    11
 73
     7
 74
     0
 42
0.000000001
 43
0.00000001
 40
0.0
 40
0.0
 40
0.0
 40
0.0
 40
0.250191077336
 40
0.4999983015406
 40
0.7498071011481
 40
1.000000000019867
 40
1.000000000019867
 40
1.000000000019867
 40
1.000000000019867
 10
600.300552970761
 20
248.7727294954941
 30
0.0
 10
600.3005529707981
 20
248.6107102386373
 30
0.0
 10
600.3652914835163
 20
248.282731380554
 30
0.0
 10
600.6424423935662
 20
247.8688117519017
 30
0.0
 10
601.0563620124166
 20
247.591658323091
 30
0.0
 10
601.3843431524197
 20
247.5269188796022
 30
0.0
 10
601.5463635866738
 20
247.5269188795989
 30
0.0
  0
LINE
  5
2A1
330
1F
100
AcDbEntity
  8
0
  6
Continuous
 62
     7
370
    15
100
AcDbLine
 10
600.3005530598
 20
311.6914758117
 30
0.0
 11
600.2481456759
 21
311.6914758117
 31
0.0
  0
SPLINE
  5
2A2
330
1F
100
AcDbEntity
  8
0
  6
Continuous
 62
     7
370
    15
100
AcDbSpline
210
0.0
220
0.0
230
1.0
 70
     8
 71
     3
 72
    11
 73
     7
 74
     0
 42
0.000000001
 43
0.00000001
 40
-0.0000000000256229
 40
-0.0000000000256229
 40
-0.0000000000256229
 40
-0.0000000000256229
 40
0.250191077336
 40
0.4999983015407
 40
0.7498071011481
 40
1.0
 40
1.0
 40
1.0
 40
1.0
 10
601.5463635866678
 20
312.9896955417472
 30
0.0
 10
601.3773671932979
 20
312.9896955417474
 30
0.0
 10
601.035917855749
 20
312.9222509904703
 30
0.0
 10
600.60439718445
 20
312.6334471418317
 30
0.0
 10
600.3155907130562
 20
312.2019264812266
 30
0.0
 10
600.2481451915013
 20
311.8604747703133
 30
0.0
 10
600.2481451915216
 20
311.6914771465733
 30
0.0
  0
LINE
  5
2A3
330
1F
100
AcDbEntity
  8
0
  6
Continuous
 62
     7
370
    15
100
AcDbLine
 10
601.5463646414
 20
312.9896947772
 30
0.0
 11
601.5463646414
 21
312.9372873933
 31
0.0
  0
SPLINE
  5
2A4
330
1F
100
AcDbEntity
  8
0
  6
Continuous
 62
     7
370
    15
100
AcDbSpline
210
0.0
220
0.0
230
1.0
 70
     8
 71
     3
 72
    11
 73
     7
 74
     0
 42
0.000000001
 43
0.00000001
 40
0.0
 40
0.0
 40
0.0
 40
0.0
 40
0.250191077336
 40
0.4999983015407
 40
0.7498071011481
 40
1.0
 40
1.0
 40
1.0
 40
1.0
 10
601.5463635867051
 20
312.9372877624639
 30
0.0
 10
601.3843443298543
 20
312.9372877624673
 30
0.0
 10
601.0563654717331
 20
312.8725492497485
 30
0.0
 10
600.6424458430752
 20
312.5953983397046
 30
0.0
 10
600.3652924142709
 20
312.1814787208327
 30
0.0
 10
600.3005529707824
 20
311.8534975808343
 30
0.0
 10
600.300552970793
 20
311.6914771465734
 30
0.0
  0
LINE
  5
2A5
330
1F
100
AcDbEntity
  8
0
  6
Continuous
 62
     7
370
    15
100
AcDbLine
 10
600.3005530598
 20
249.0714767606
 30
0.0
 11
600.2481456759
 21
249.0714767606
 31
0.0
  0
SPLINE
  5
2A6
330
1F
100
AcDbEntity
  8
0
  6
Continuous
 62
     7
370
    15
100
AcDbSpline
210
0.0
220
0.0
230
1.0
 70
     8
 71
     3
 72
    11
 73
     7
 74
     0
 42
0.000000001
 43
0.00000001
 40
-0.0000000000220562
 40
-0.0000000000220562
 40
-0.0000000000220562
 40
-0.0000000000220562
 40
0.250191077336
 40
0.4999983015407
 40
0.7498071011481
 40
1.0
 40
1.0
 40
1.0
 40
1.0
 10
601.5463635866678
 20
250.3696955417472
 30
0.0
 10
601.3773671932979
 20
250.3696955417474
 30
0.0
 10
601.035917855749
 20
250.3022509904703
 30
0.0
 10
600.60439718445
 20
250.0134471418316
 30
0.0
 10
600.3155907130562
 20
249.5819264812266
 30
0.0
 10
600.2481451915013
 20
249.2404747703133
 30
0.0
 10
600.2481451915216
 20
249.0714771465734
 30
0.0
  0
LINE
  5
2A7
330
1F
100
AcDbEntity
  8
0
  6
Continuous
 62
     7
370
    15
100
AcDbLine
 10
601.5463646414
 20
250.3696957261
 30
0.0
 11
601.5463646414
 21
250.3172883422
 31
0.0
  0
SPLINE
  5
2A8
330
1F
100
AcDbEntity
  8
0
  6
Continuous
 62
     7
370
    15
100
AcDbSpline
210
0.0
220
0.0
230
1.0
 70
     8
 71
     3
 72
    11
 73
     7
 74
     0
 42
0.000000001
 43
0.00000001
 40
0.0
 40
0.0
 40
0.0
 40
0.0
 40
0.250191077336
 40
0.4999983015407
 40
0.7498071011481
 40
1.0
 40
1.0
 40
1.0
 40
1.0
 10
601.5463635867088
 20
250.3172877624639
 30
0.0
 10
601.3843443298568
 20
250.3172877624679
 30
0.0
 10
601.0563654717342
 20
250.2525492497492
 30
0.0
 10
600.6424458430752
 20
249.9753983397046
 30
0.0
 10
600.3652924142709
 20
249.5614787208327
 30
0.0
 10
600.3005529707823
 20
249.2334975808343
 30
0.0
 10
600.300552970793
 20
249.0714771465734
 30
0.0
  0
LINE
  5
2A9
330
1F
100
AcDbEntity
  8
0
  6
Continuous
 62
     7
370
    15
100
AcDbLine
 10
613.3005496027
 20
314.2879137427
 30
0.0
 11
613.3005496027
 21
324.6914760799
 31
0.0
  0
SPLINE
  5
2AA
330
1F
100
AcDbEntity
  8
0
  6
Continuous
 62
     7
370
    15
100
AcDbSpline
210
0.0
220
0.0
230
1.0
 70
     8
 71
     3
 72
    11
 73
     7
 74
     0
 42
0.000000001
 43
0.00000001
 40
0.0
 40
0.0
 40
0.0
 40
0.0
 40
0.250191077336
 40
0.4999983015406
 40
0.7498071011481
 40
1.0
 40
1.0
 40
1.0
 40
1.0
 10
614.5463635866736
 20
325.9372877624639
 30
0.0
 10
614.3843443298167
 20
325.9372877624651
 30
0.0
 10
614.0563654717334
 20
325.8725492497452
 30
0.0
 10
613.6424458430812
 20
325.5953983397046
 30
0.0
 10
613.3652924142717
 20
325.1814787208327
 30
0.0
 10
613.3005529707824
 20
324.8534975808343
 30
0.0
 10
613.3005529707783
 20
324.6914771465734
 30
0.0
  0
LINE
  5
2AB
330
1F
100
AcDbEntity
  8
0
  6
Continuous
 62
     7
370
    15
100
AcDbLine
 10
614.5463611844
 20
325.9372876615
 30
0.0
 11
614.8451145651
 21
325.9372876615
 31
0.0
  0
SPLINE
  5
2AC
330
1F
100
AcDbEntity
  8
0
  6
Continuous
 62
     7
370
    15
100
AcDbSpline
210
0.0
220
0.0
230
1.0
 70
     8
 71
     3
 72
    11
 73
     7
 74
     0
 42
0.000000001
 43
0.00000001
 40
0.0
 40
0.0
 40
0.0
 40
0.0
 40
0.250191077336
 40
0.4999983015406
 40
0.7498071011481
 40
1.0
 40
1.0
 40
1.0
 40
1.0
 10
616.0909218536431
 20
324.6914771465722
 30
0.0
 10
616.0909218536437
 20
324.853496403429
 30
0.0
 10
616.0261833409194
 20
325.1814752615123
 30
0.0
 10
615.7490324308841
 20
325.5953948901646
 30
0.0
 10
615.3351128120121
 20
325.8725483189741
 30
0.0
 10
615.0071316720137
 20
325.9372877624633
 30
0.0
 10
614.8451112377529
 20
325.9372877624675
 30
0.0
  0
LINE
  5
2AD
330
1F
100
AcDbEntity
  8
0
  6
Continuous
 62
     7
370
    15
100
AcDbLine
 10
616.0909186962
 20
324.6914760799
 30
0.0
 11
616.0909186962
 21
313.0904005498
 31
0.0
  0
SPLINE
  5
2AE
330
1F
100
AcDbEntity
  8
0
  6
Continuous
 62
     7
370
    15
100
AcDbSpline
210
0.0
220
0.0
230
1.0
 70
     8
 71
     3
 72
    12
 73
     8
 74
     0
 42
0.000000001
 43
0.00000001
 40
0.0
 40
0.0
 40
0.0
 40
0.0
 40
0.2001971468402
 40
0.4001020534147
 40
0.5998959411986999
 40
0.7998020121212001
 40
1.0
 40
1.0
 40
1.0
 40
1.0
 10
613.14744102866
 20
310.1469188796007
 30
0.0
 10
613.4546796951869
 20
310.1469188795976
 30
0.0
 10
614.0733934499336
 20
310.244468121451
 30
0.0
 10
614.9067417249001
 20
310.6691982642514
 30
0.0
 10
615.5686381680686
 20
311.331092590189
 30
0.0
 10
615.9933717043036
 20
312.1644428604706
 30
0.0
 10
616.0909218536497
 20
312.7831597478353
 30
0.0
 10
616.0909218536463
 20
313.0903997045832
 30
0.0
  0
LINE
  5
2AF
330
1F
100
AcDbEntity
  8
0
  6
Continuous
 62
     7
370
    15
100
AcDbLine
 10
613.1474401715
 20
310.1469182999
 30
0.0
 11
601.5463646414
 21
310.1469182999
 31
0.0
  0
LINE
  5
2B0
330
1F
100
AcDbEntity
  8
0
  6
Continuous
 62
     7
370
    15
100
AcDbLine
 10
600.3005530598
 20
311.6914758117
 30
0.0
 11
600.3005530598
 21
311.3927298815
 31
0.0
  0
LINE
  5
2B1
330
1F
100
AcDbEntity
  8
0
  6
Continuous
 62
     7
370
    15
100
AcDbLine
 10
601.5463646414
 20
312.9372873933
 30
0.0
 11
611.9499232533
 21
312.9372873933
 31
0.0
  0
SPLINE
  5
2B2
330
1F
100
AcDbEntity
  8
0
  6
Continuous
 62
     7
370
    15
100
AcDbSpline
210
0.0
220
0.0
230
1.0
 70
     8
 71
     3
 72
    11
 73
     7
 74
     0
 42
0.000000001
 43
0.00000001
 40
0.0
 40
0.0
 40
0.0
 40
0.0
 40
0.250191077336
 40
0.4999983015407
 40
0.7498071011481
 40
1.0
 40
1.0
 40
1.0
 40
1.0
 10
613.300552970777
 20
314.2879139369334
 30
0.0
 10
613.3005529707772
 20
314.1119404070669
 30
0.0
 10
613.2304023809398
 20
313.7570205900013
 30
0.0
 10
612.9299455937111
 20
313.3078988760508
 30
0.0
 10
612.4808238913732
 20
313.0074393620649
 30
0.0
 10
612.1259016095291
 20
312.9372877624647
 30
0.0
 10
611.9499267963126
 20
312.9372877624661
 30
0.0
  0
LINE
  5
2B3
330
1F
100
AcDbEntity
  8
0
  6
Continuous
 62
     7
370
    15
100
AcDbLine
 10
600.3005530598
 20
248.7727308304
 30
0.0
 11
600.3005530598
 21
249.0714767606
 31
0.0
  0
LINE
  5
2B4
330
1F
100
AcDbEntity
  8
0
  6
Continuous
 62
     7
370
    15
100
AcDbLine
 10
600.2481456759
 20
249.0714767606
 30
0.0
 11
600.2481456759
 21
248.7727308304
 31
0.0
  0
LINE
  5
2B5
330
1F
100
AcDbEntity
  8
0
  6
Continuous
 62
     7
370
    15
100
AcDbLine
 10
601.5463646414
 20
250.3172883422
 30
0.0
 11
613.1474401715
 21
250.3172883422
 31
0.0
  0
SPLINE
  5
2B6
330
1F
100
AcDbEntity
  8
0
  6
Continuous
 62
     7
370
    15
100
AcDbSpline
210
0.0
220
0.0
230
1.0
 70
     8
 71
     3
 72
    12
 73
     8
 74
     0
 42
0.000000001
 43
0.00000001
 40
0.0
 40
0.0
 40
0.0
 40
0.0
 40
0.2001971468402
 40
0.4001020534147
 40
0.5998959411986999
 40
0.7998020121212001
 40
1.0
 40
1.0
 40
1.0
 40
1.0
 10
616.0909218536451
 20
247.3738069374805
 30
0.0
 10
616.0909218536482
 20
247.6810456040075
 30
0.0
 10
615.9933726117947
 20
248.2997593587542
 30
0.0
 10
615.5686424689943
 20
249.1331076337206
 30
0.0
 10
614.9067481430568
 20
249.7950040768891
 30
0.0
 10
614.0733978727751
 20
250.2197376131242
 30
0.0
 10
613.4546809854105
 20
250.3172877624702
 30
0.0
 10
613.1474410286626
 20
250.3172877624668
 30
0.0
  0
LINE
  5
2B7
330
1F
100
AcDbEntity
  8
0
  6
Continuous
 62
     7
370
    15
100
AcDbLine
 10
616.0909186962
 20
247.3738060922
 30
0.0
 11
616.0909186962
 21
235.7727305622
 31
0.0
  0
SPLINE
  5
2B8
330
1F
100
AcDbEntity
  8
0
  6
Continuous
 62
     7
370
    15
100
AcDbSpline
210
0.0
220
0.0
230
1.0
 70
     8
 71
     3
 72
    11
 73
     7
 74
     0
 42
0.000000001
 43
0.00000001
 40
0.0
 40
0.0
 40
0.0
 40
0.0
 40
0.250191077336
 40
0.4999983015406
 40
0.7498071011481
 40
1.0
 40
1.0
 40
1.0
 40
1.0
 10
614.8451112377516
 20
234.5269188796024
 30
0.0
 10
615.0071304946084
 20
234.5269188796013
 30
0.0
 10
615.3351093526917
 20
234.5916573923211
 30
0.0
 10
615.749028981344
 20
234.8688083023617
 30
0.0
 10
616.0261824101535
 20
235.2827279212336
 30
0.0
 10
616.0909218536427
 20
235.610709061232
 30
0.0
 10
616.0909218536469
 20
235.7727294954929
 30
0.0
  0
LINE
  5
2B9
330
1F
100
AcDbEntity
  8
0
  6
Continuous
 62
     7
370
    15
100
AcDbLine
 10
614.8451145651
 20
234.5269189806
 30
0.0
 11
614.5463611844
 21
234.5269189806
 31
0.0
  0
SPLINE
  5
2BA
330
1F
100
AcDbEntity
  8
0
  6
Continuous
 62
     7
370
    15
100
AcDbSpline
210
0.0
220
0.0
230
1.0
 70
     8
 71
     3
 72
    11
 73
     7
 74
     0
 42
0.000000001
 43
0.00000001
 40
0.0
 40
0.0
 40
0.0
 40
0.0
 40
0.250191077336
 40
0.4999983015406
 40
0.7498071011481
 40
1.0
 40
1.0
 40
1.0
 40
1.0
 10
613.3005529707818
 20
235.7727294954941
 30
0.0
 10
613.3005529707807
 20
235.6107102386373
 30
0.0
 10
613.3652914835006
 20
235.282731380554
 30
0.0
 10
613.642442393541
 20
234.8688117519017
 30
0.0
 10
614.056362012413
 20
234.5916583230923
 30
0.0
 10
614.3843431524114
 20
234.526918879603
 30
0.0
 10
614.5463635866722
 20
234.5269188795989
 30
0.0
  0
LINE
  5
2BB
330
1F
100
AcDbEntity
  8
0
  6
Continuous
 62
     7
370
    15
100
AcDbLine
 10
613.3005496027
 20
235.7727305622
 30
0.0
 11
613.3005496027
 21
246.1762928993
 31
0.0
  0
SPLINE
  5
2BC
330
1F
100
AcDbEntity
  8
0
  6
Continuous
 62
     7
370
    15
100
AcDbSpline
210
0.0
220
0.0
230
1.0
 70
     8
 71
     3
 72
    11
 73
     7
 74
     0
 42
0.000000001
 43
0.00000001
 40
0.0
 40
0.0
 40
0.0
 40
0.0
 40
0.250191077336
 40
0.4999983015407
 40
0.7498071011481
 40
1.0
 40
1.0
 40
1.0
 40
1.0
 10
611.9499267963124
 20
247.5269188795974
 30
0.0
 10
612.125900326179
 20
247.5269188795977
 30
0.0
 10
612.4808201432446
 20
247.4567682897604
 30
0.0
 10
612.929941857195
 20
247.1563115025317
 30
0.0
 10
613.2304013711807
 20
246.7071898001938
 30
0.0
 10
613.300552970781
 20
246.3522675183497
 30
0.0
 10
613.3005529707796
 20
246.1762927051333
 30
0.0
  0
LINE
  5
2BD
330
1F
100
AcDbEntity
  8
0
  6
Continuous
 62
     7
370
    15
100
AcDbLine
 10
611.9499232533
 20
247.5269192488
 30
0.0
 11
601.5463646414
 21
247.5269192488
 31
0.0
  0
LINE
  5
2BE
330
1F
100
AcDbEntity
  8
0
  6
Continuous
 62
     7
370
    15
100
AcDbLine
 10
600.2481456759
 20
311.6914758117
 30
0.0
 11
600.2481456759
 21
311.3927298815
 31
0.0
  0
LINE
  5
2BF
330
1F
100
AcDbEntity
  8
0
  6
Continuous
 62
     7
370
    15
100
AcDbLine
 10
613.1474401715
 20
310.094510916
 30
0.0
 11
613.1474401715
 21
310.1469182999
 31
0.0
  0
LINE
  5
2C0
330
1F
100
AcDbEntity
  8
0
  6
Continuous
 62
     7
370
    15
100
AcDbLine
 10
601.5463646414
 20
310.094510916
 30
0.0
 11
613.1474401715
 21
310.094510916
 31
0.0
  0
LINE
  5
2C1
330
1F
100
AcDbEntity
  8
0
  6
Continuous
 62
     7
370
    15
100
AcDbLine
 10
611.9499232533
 20
247.4745118649
 30
0.0
 11
611.9499232533
 21
247.5269192488
 31
0.0
  0
LINE
  5
2C2
330
1F
100
AcDbEntity
  8
0
  6
Continuous
 62
     7
370
    15
100
AcDbLine
 10
601.5463646414
 20
247.4745118649
 30
0.0
 11
611.9499232533
 21
247.4745118649
 31
0.0
  0
LINE
  5
2C3
330
1F
100
AcDbEntity
  8
0
  6
Continuous
 62
     7
370
    15
100
AcDbLine
 10
611.9499232533
 20
312.9372873933
 30
0.0
 11
611.9499232533
 21
312.9896947772
 31
0.0
  0
LINE
  5
2C4
330
1F
100
AcDbEntity
  8
0
  6
Continuous
 62
     7
370
    15
100
AcDbLine
 10
611.9499232533
 20
312.9896947772
 30
0.0
 11
601.5463646414
 21
312.9896947772
 31
0.0
  0
LINE
  5
2C5
330
1F
100
AcDbEntity
  8
0
  6
Continuous
 62
     7
370
    15
100
AcDbLine
 10
613.1474401715
 20
250.3696957261
 30
0.0
 11
601.5463646414
 21
250.3696957261
 31
0.0
  0
LINE
  5
2C6
330
1F
100
AcDbEntity
  8
0
  6
Continuous
 62
     7
370
    15
100
AcDbLine
 10
613.1474401715
 20
250.3172883422
 30
0.0
 11
613.1474401715
 21
250.3696957261
 31
0.0
  0
LINE
  5
2C7
330
1F
100
AcDbEntity
  8
0
  6
Continuous
 62
     7
370
    15
100
AcDbLine
 10
613.3005496027
 20
246.1762928993
 30
0.0
 11
613.2481422188
 21
246.1762928993
 31
0.0
  0
SPLINE
  5
2C8
330
1F
100
AcDbEntity
  8
0
  6
Continuous
 62
     7
370
    15
100
AcDbSpline
210
0.0
220
0.0
230
1.0
 70
     8
 71
     3
 72
    11
 73
     7
 74
     0
 42
0.000000001
 43
0.00000001
 40
0.0
 40
0.0
 40
0.0
 40
0.0
 40
0.250191077336
 40
0.4999983015407
 40
0.7498071011481
 40
1.0
 40
1.0
 40
1.0
 40
1.0
 10
611.9499267963121
 20
247.4745111003145
 30
0.0
 10
612.118923189672
 20
247.4745111003157
 30
0.0
 10
612.4603725272494
 20
247.4070665490367
 30
0.0
 10
612.8918931985503
 20
247.1182627004046
 30
0.0
 10
613.1806996699494
 20
246.6867420397919
 30
0.0
 10
613.248145191495
 20
246.3452903288732
 30
0.0
 10
613.2481451914955
 20
246.1762927051333
 30
0.0
  0
SPLINE
  5
2C9
330
1F
100
AcDbEntity
  8
0
  6
Continuous
 62
     7
370
    15
100
AcDbSpline
210
0.0
220
0.0
230
1.0
 70
     8
 71
     3
 72
    11
 73
     7
 74
     0
 42
0.000000001
 43
0.00000001
 40
0.0
 40
0.0
 40
0.0
 40
0.0
 40
0.250191077336
 40
0.4999983015407
 40
0.7498071011481
 40
1.0
 40
1.0
 40
1.0
 40
1.0
 10
613.2481451914939
 20
314.2879139369336
 30
0.0
 10
613.2481451914952
 20
314.1189175435737
 30
0.0
 10
613.1807006402162
 20
313.7774682059964
 30
0.0
 10
612.891896791584
 20
313.3459475346955
 30
0.0
 10
612.4603761309712
 20
313.0571410632963
 30
0.0
 10
612.1189244200526
 20
312.9896955417507
 30
0.0
 10
611.9499267963128
 20
312.9896955417503
 30
0.0
  0
LINE
  5
2CA
330
1F
100
AcDbEntity
  8
0
  6
Continuous
 62
     7
370
    15
100
AcDbLine
 10
613.2481422188
 20
314.2879137427
 30
0.0
 11
613.3005496027
 21
314.2879137427
 31
0.0
  0
SPLINE
  5
2CB
330
1F
100
AcDbEntity
  8
0
  6
Continuous
 62
     7
370
    15
100
AcDbSpline
210
0.0
220
0.0
230
1.0
 70
     8
 71
     3
 72
    12
 73
     8
 74
     0
 42
0.000000001
 43
0.00000001
 40
0.0
 40
0.0
 40
0.0
 40
0.0
 40
0.2001971468402
 40
0.4001020534147
 40
0.5998959411986999
 40
0.7998020121212001
 40
1.0
 40
1.0
 40
1.0
 40
1.0
 10
616.1433296329285
 20
247.3738069374839
 30
0.0
 10
616.14332963293
 20
247.6865935984047
 30
0.0
 10
616.0440654354721
 20
248.3161329270432
 30
0.0
 10
615.6117261152308
 20
249.1644553640457
 30
0.0
 10
614.9380959875784
 20
249.8380876464425
 30
0.0
 10
614.0897715193615
 20
250.2704304207337
 30
0.0
 10
613.4602290036146
 20
250.3696955417532
 30
0.0
 10
613.1474410286628
 20
250.3696955417491
 30
0.0
  0
LINE
  5
2CC
330
1F
100
AcDbEntity
  8
0
  6
Continuous
 62
     7
370
    15
100
AcDbLine
 10
616.1433260801
 20
247.3738060922
 30
0.0
 11
616.0909186962
 21
247.3738060922
 31
0.0
  0
LINE
  5
2CD
330
1F
100
AcDbEntity
  8
0
  6
Continuous
 62
     7
370
    15
100
AcDbLine
 10
614.5463611844
 20
234.5269189806
 30
0.0
 11
614.5463611844
 21
234.4745115966
 31
0.0
  0
SPLINE
  5
2CE
330
1F
100
AcDbEntity
  8
0
  6
Continuous
 62
     7
370
    15
100
AcDbSpline
210
0.0
220
0.0
230
1.0
 70
     8
 71
     3
 72
    11
 73
     7
 74
     0
 42
0.000000001
 43
0.00000001
 40
0.0
 40
0.0
 40
0.0
 40
0.0
 40
0.250191077336
 40
0.4999983015406
 40
0.7498071011481
 40
1.0
 40
1.0
 40
1.0
 40
1.0
 10
613.2481451914985
 20
235.7727294954928
 30
0.0
 10
613.248145191499
 20
235.6037331021314
 30
0.0
 10
613.3155897427765
 20
235.2622837645594
 30
0.0
 10
613.604393591414
 20
234.8307630932599
 30
0.0
 10
614.0359142520191
 20
234.541956621866
 30
0.0
 10
614.3773659629325
 20
234.4745111003203
 30
0.0
 10
614.5463635866723
 20
234.4745111003168
 30
0.0
  0
LINE
  5
2CF
330
1F
100
AcDbEntity
  8
0
  6
Continuous
 62
     7
370
    15
100
AcDbLine
 10
613.2481422188
 20
235.7727305622
 30
0.0
 11
613.3005496027
 21
235.7727305622
 31
0.0
  0
LINE
  5
2D0
330
1F
100
AcDbEntity
  8
0
  6
Continuous
 62
     7
370
    15
100
AcDbLine
 10
616.0909186962
 20
313.0904005498
 30
0.0
 11
616.1433260801
 21
313.0904005498
 31
0.0
  0
SPLINE
  5
2D1
330
1F
100
AcDbEntity
  8
0
  6
Continuous
 62
     7
370
    15
100
AcDbSpline
210
0.0
220
0.0
230
1.0
 70
     8
 71
     3
 72
    12
 73
     8
 74
     0
 42
0.000000001
 43
0.00000001
 40
0.0
 40
0.0
 40
0.0
 40
0.0
 40
0.2001971468402
 40
0.4001020534147
 40
0.5998959411986999
 40
0.7998020121212001
 40
1.0
 40
1.0
 40
1.0
 40
1.0
 10
613.1474410286634
 20
310.0945111003172
 30
0.0
 10
613.460227689584
 20
310.0945111003159
 30
0.0
 10
614.0897670182227
 20
310.1937752977735
 30
0.0
 10
614.938089455225
 20
310.6261146180149
 30
0.0
 10
615.6117217376219
 20
311.2997447456673
 30
0.0
 10
616.0440645119132
 20
312.1480692138843
 30
0.0
 10
616.1433296329326
 20
312.7776117296311
 30
0.0
 10
616.1433296329285
 20
313.090399704583
 30
0.0
  0
LINE
  5
2D2
330
1F
100
AcDbEntity
  8
0
  6
Continuous
 62
     7
370
    15
100
AcDbLine
 10
613.2481422188
 20
246.1762928993
 30
0.0
 11
613.2481422188
 21
235.7727305622
 31
0.0
  0
LINE
  5
2D3
330
1F
100
AcDbEntity
  8
0
  6
Continuous
 62
     7
370
    15
100
AcDbLine
 10
613.3005496027
 20
324.6914760799
 30
0.0
 11
613.2481422188
 21
324.6914760799
 31
0.0
  0
SPLINE
  5
2D4
330
1F
100
AcDbEntity
  8
0
  6
Continuous
 62
     7
370
    15
100
AcDbSpline
210
0.0
220
0.0
230
1.0
 70
     8
 71
     3
 72
    11
 73
     7
 74
     0
 42
0.000000001
 43
0.00000001
 40
0.0
 40
0.0
 40
0.0
 40
0.0
 40
0.250191077336
 40
0.4999983015406
 40
0.7498071011481
 40
1.0
 40
1.0
 40
1.0
 40
1.0
 10
614.5463635866721
 20
325.9896955417472
 30
0.0
 10
614.3773671933109
 20
325.9896955417468
 30
0.0
 10
614.0359178557388
 20
325.9222509904693
 30
0.0
 10
613.6043971844393
 20
325.6334471418317
 30
0.0
 10
613.3155907130454
 20
325.2019264812265
 30
0.0
 10
613.2481451914997
 20
324.8604747703133
 30
0.0
 10
613.2481451914962
 20
324.6914771465733
 30
0.0
  0
LINE
  5
2D5
330
1F
100
AcDbEntity
  8
0
  6
Continuous
 62
     7
370
    15
100
AcDbLine
 10
614.5463611844
 20
325.9896950454
 30
0.0
 11
614.5463611844
 21
325.9372876615
 31
0.0
  0
LINE
  5
2D6
330
1F
100
AcDbEntity
  8
0
  6
Continuous
 62
     7
370
    15
100
AcDbLine
 10
613.2481422188
 20
324.6914760799
 30
0.0
 11
613.2481422188
 21
314.2879137427
 31
0.0
  0
LINE
  5
2D7
330
1F
100
AcDbEntity
  8
0
  6
Continuous
 62
     7
370
    15
100
AcDbLine
 10
616.0909186962
 20
235.7727305622
 30
0.0
 11
616.1433260801
 21
235.7727305622
 31
0.0
  0
SPLINE
  5
2D8
330
1F
100
AcDbEntity
  8
0
  6
Continuous
 62
     7
370
    15
100
AcDbSpline
210
0.0
220
0.0
230
1.0
 70
     8
 71
     3
 72
    11
 73
     7
 74
     0
 42
0.000000001
 43
0.00000001
 40
0.0
 40
0.0
 40
0.0
 40
0.0
 40
0.250191077336
 40
0.4999983015406
 40
0.7498071011481
 40
1.0
 40
1.0
 40
1.0
 40
1.0
 10
614.8451112377529
 20
234.4745111003191
 30
0.0
 10
615.0141076311143
 20
234.4745111003196
 30
0.0
 10
615.3555569686863
 20
234.5419556515971
 30
0.0
 10
615.7870776399859
 20
234.8307595002346
 30
0.0
 10
616.0758841113797
 20
235.2622801608397
 30
0.0
 10
616.1433296329254
 20
235.603731871753
 30
0.0
 10
616.143329632929
 20
235.772729495493
 30
0.0
  0
LINE
  5
2D9
330
1F
100
AcDbEntity
  8
0
  6
Continuous
 62
     7
370
    15
100
AcDbLine
 10
614.8451145651
 20
234.4745115966
 30
0.0
 11
614.8451145651
 21
234.5269189806
 31
0.0
  0
LINE
  5
2DA
330
1F
100
AcDbEntity
  8
0
  6
Continuous
 62
     7
370
    15
100
AcDbLine
 10
614.5463611844
 20
234.4745115966
 30
0.0
 11
614.8451145651
 21
234.4745115966
 31
0.0
  0
LINE
  5
2DB
330
1F
100
AcDbEntity
  8
0
  6
Continuous
 62
     7
370
    15
100
AcDbLine
 10
614.8451145651
 20
325.9896950454
 30
0.0
 11
614.5463611844
 21
325.9896950454
 31
0.0
  0
LINE
  5
2DC
330
1F
100
AcDbEntity
  8
0
  6
Continuous
 62
     7
370
    15
100
AcDbLine
 10
614.8451145651
 20
325.9372876615
 30
0.0
 11
614.8451145651
 21
325.9896950454
 31
0.0
  0
SPLINE
  5
2DD
330
1F
100
AcDbEntity
  8
0
  6
Continuous
 62
     7
370
    15
100
AcDbSpline
210
0.0
220
0.0
230
1.0
 70
     8
 71
     3
 72
    11
 73
     7
 74
     0
 42
0.000000001
 43
0.00000001
 40
0.0
 40
0.0
 40
0.0
 40
0.0
 40
0.250191077336
 40
0.4999983015406
 40
0.7498071011481
 40
1.0
 40
1.0
 40
1.0
 40
1.0
 10
616.1433296329266
 20
324.6914771465736
 30
0.0
 10
616.1433296329262
 20
324.8604735399349
 30
0.0
 10
616.0758850816486
 20
325.2019228775069
 30
0.0
 10
615.7870812330111
 20
325.6334435488064
 30
0.0
 10
615.3555605724059
 20
325.9222500202003
 30
0.0
 10
615.0141088614927
 20
325.989695541746
 30
0.0
 10
614.8451112377528
 20
325.9896955417495
 30
0.0
  0
LINE
  5
2DE
330
1F
100
AcDbEntity
  8
0
  6
Continuous
 62
     7
370
    15
100
AcDbLine
 10
616.1433260801
 20
324.6914760799
 30
0.0
 11
616.0909186962
 21
324.6914760799
 31
0.0
  0
LINE
  5
2DF
330
1F
100
AcDbEntity
  8
0
  6
Continuous
 62
     7
370
    15
100
AcDbLine
 10
616.1433260801
 20
313.0904005498
 30
0.0
 11
616.1433260801
 21
324.6914760799
 31
0.0
  0
LINE
  5
2E0
330
1F
100
AcDbEntity
  8
0
  6
Continuous
 62
     7
370
    15
100
AcDbLine
 10
616.1433260801
 20
235.7727305622
 30
0.0
 11
616.1433260801
 21
247.3738060922
 31
0.0
  0
LINE
  5
2E1
330
1F
100
AcDbEntity
  8
0
  6
Continuous
 62
     7
370
    15
100
AcDbLine
 10
811.065110183
 20
250.3172883422
 30
0.0
 11
811.065110183
 21
250.3696957261
 31
0.0
  0
SPLINE
  5
2E2
330
1F
100
AcDbEntity
  8
0
  6
Continuous
 62
     7
370
    15
100
AcDbSpline
210
0.0
220
0.0
230
1.0
 70
     8
 71
     3
 72
    11
 73
     7
 74
     0
 42
0.000000001
 43
0.00000001
 40
0.0
 40
0.0
 40
0.0
 40
0.0
 40
0.250191077336
 40
0.4999983015407
 40
0.7498071011481
 40
1.000000000011871
 40
1.000000000011871
 40
1.000000000011871
 40
1.000000000011871
 10
812.3633296329568
 20
249.0714771465732
 30
0.0
 10
812.3633296329278
 20
249.2404735399347
 30
0.0
 10
812.2958850816145
 20
249.5819228775068
 30
0.0
 10
812.0070812330193
 20
250.0134435488064
 30
0.0
 10
811.5755605723698
 20
250.302250020201
 30
0.0
 10
811.2341088614945
 20
250.3696955417465
 30
0.0
 10
811.0651112377369
 20
250.3696955417495
 30
0.0
  0
LINE
  5
2E3
330
1F
100
AcDbEntity
  8
0
  6
Continuous
 62
     7
370
    15
100
AcDbLine
 10
812.3633291485
 20
249.0714767606
 30
0.0
 11
812.3109217646
 21
249.0714767606
 31
0.0
  0
SPLINE
  5
2E4
330
1F
100
AcDbEntity
  8
0
  6
Continuous
 62
     7
370
    15
100
AcDbSpline
210
0.0
220
0.0
230
1.0
 70
     8
 71
     3
 72
    11
 73
     7
 74
     0
 42
0.000000001
 43
0.00000001
 40
0.0
 40
0.0
 40
0.0
 40
0.0
 40
0.250191077336
 40
0.4999983015407
 40
0.7498071011481
 40
1.000000000019848
 40
1.000000000019848
 40
1.000000000019848
 40
1.000000000019848
 10
812.3109218536641
 20
249.0714771465732
 30
0.0
 10
812.310921853627
 20
249.2334964034297
 30
0.0
 10
812.2461833409086
 20
249.5614752615126
 30
0.0
 10
811.9690324308591
 20
249.9753948901646
 30
0.0
 10
811.5551128120086
 20
250.2525483189752
 30
0.0
 10
811.2271316720055
 20
250.3172877624641
 30
0.0
 10
811.0651112377514
 20
250.3172877624674
 30
0.0
  0
LINE
  5
2E5
330
1F
100
AcDbEntity
  8
0
  6
Continuous
 62
     7
370
    15
100
AcDbLine
 10
811.065110183
 20
312.9372873933
 30
0.0
 11
811.065110183
 21
312.9896947772
 31
0.0
  0
SPLINE
  5
2E6
330
1F
100
AcDbEntity
  8
0
  6
Continuous
 62
     7
370
    15
100
AcDbSpline
210
0.0
220
0.0
230
1.0
 70
     8
 71
     3
 72
    11
 73
     7
 74
     0
 42
0.000000001
 43
0.00000001
 40
0.0
 40
0.0
 40
0.0
 40
0.0
 40
0.250191077336
 40
0.4999983015407
 40
0.7498071011481
 40
1.000000000011887
 40
1.000000000011887
 40
1.000000000011887
 40
1.000000000011887
 10
812.3633296329568
 20
311.6914771465735
 30
0.0
 10
812.3633296329278
 20
311.8604735399349
 30
0.0
 10
812.2958850816144
 20
312.2019228775069
 30
0.0
 10
812.0070812330193
 20
312.6334435488064
 30
0.0
 10
811.5755605723698
 20
312.922250020201
 30
0.0
 10
811.2341088614945
 20
312.9896955417465
 30
0.0
 10
811.0651112377369
 20
312.9896955417495
 30
0.0
  0
LINE
  5
2E7
330
1F
100
AcDbEntity
  8
0
  6
Continuous
 62
     7
370
    15
100
AcDbLine
 10
812.3633291485
 20
311.6914758117
 30
0.0
 11
812.3109217646
 21
311.6914758117
 31
0.0
  0
SPLINE
  5
2E8
330
1F
100
AcDbEntity
  8
0
  6
Continuous
 62
     7
370
    15
100
AcDbSpline
210
0.0
220
0.0
230
1.0
 70
     8
 71
     3
 72
    11
 73
     7
 74
     0
 42
0.000000001
 43
0.00000001
 40
0.0
 40
0.0
 40
0.0
 40
0.0
 40
0.250191077336
 40
0.4999983015407
 40
0.7498071011481
 40
1.000000000019843
 40
1.000000000019843
 40
1.000000000019843
 40
1.000000000019843
 10
812.3109218536641
 20
311.6914771465722
 30
0.0
 10
812.3109218536271
 20
311.853496403429
 30
0.0
 10
812.2461833409088
 20
312.1814752615123
 30
0.0
 10
811.9690324308591
 20
312.5953948901646
 30
0.0
 10
811.5551128120087
 20
312.8725483189752
 30
0.0
 10
811.2271316720055
 20
312.9372877624641
 30
0.0
 10
811.0651112377514
 20
312.9372877624674
 30
0.0
  0
LINE
  5
2E9
330
1F
100
AcDbEntity
  8
0
  6
Continuous
 62
     7
370
    15
100
AcDbLine
 10
812.3109217646
 20
248.7727308304
 30
0.0
 11
812.3633291485
 21
248.7727308304
 31
0.0
  0
SPLINE
  5
2EA
330
1F
100
AcDbEntity
  8
0
  6
Continuous
 62
     7
370
    15
100
AcDbSpline
210
0.0
220
0.0
230
1.0
 70
     8
 71
     3
 72
    11
 73
     7
 74
     0
 42
0.000000001
 43
0.00000001
 40
-0.0000000000256218
 40
-0.0000000000256218
 40
-0.0000000000256218
 40
-0.0000000000256218
 40
0.250191077336
 40
0.4999983015407
 40
0.7498071011481
 40
1.0
 40
1.0
 40
1.0
 40
1.0
 10
811.0651112377574
 20
247.4745111003191
 30
0.0
 10
811.2341076311274
 20
247.4745111003189
 30
0.0
 10
811.5755569686762
 20
247.541955651596
 30
0.0
 10
812.0070776399751
 20
247.8307595002346
 30
0.0
 10
812.295884111369
 20
248.2622801608398
 30
0.0
 10
812.3633296329239
 20
248.603731871753
 30
0.0
 10
812.3633296329035
 20
248.7727294954929
 30
0.0
  0
LINE
  5
2EB
330
1F
100
AcDbEntity
  8
0
  6
Continuous
 62
     7
370
    15
100
AcDbLine
 10
811.065110183
 20
247.4745118649
 30
0.0
 11
811.065110183
 21
247.5269192488
 31
0.0
  0
SPLINE
  5
2EC
330
1F
100
AcDbEntity
  8
0
  6
Continuous
 62
     7
370
    15
100
AcDbSpline
210
0.0
220
0.0
230
1.0
 70
     8
 71
     3
 72
    11
 73
     7
 74
     0
 42
0.000000001
 43
0.00000001
 40
0.0
 40
0.0
 40
0.0
 40
0.0
 40
0.250191077336
 40
0.4999983015407
 40
0.7498071011481
 40
1.0
 40
1.0
 40
1.0
 40
1.0
 10
811.0651112377201
 20
247.5269188796024
 30
0.0
 10
811.2271304945708
 20
247.5269188795989
 30
0.0
 10
811.555109352692
 20
247.5916573923178
 30
0.0
 10
811.96902898135
 20
247.8688083023617
 30
0.0
 10
812.2461824101543
 20
248.2827279212336
 30
0.0
 10
812.3109218536429
 20
248.610709061232
 30
0.0
 10
812.3109218536322
 20
248.7727294954929
 30
0.0
  0
LINE
  5
2ED
330
1F
100
AcDbEntity
  8
0
  6
Continuous
 62
     7
370
    15
100
AcDbLine
 10
797.7663602593
 20
234.5269189806
 30
0.0
 11
797.7663602593
 21
234.4745115966
 31
0.0
  0
SPLINE
  5
2EE
330
1F
100
AcDbEntity
  8
0
  6
Continuous
 62
     7
370
    15
100
AcDbSpline
210
0.0
220
0.0
230
1.0
 70
     8
 71
     3
 72
    11
 73
     7
 74
     0
 42
0.000000001
 43
0.00000001
 40
0.0
 40
0.0
 40
0.0
 40
0.0
 40
0.250191077336
 40
0.4999983015406
 40
0.7498071011481
 40
1.0
 40
1.0
 40
1.0
 40
1.0
 10
796.4681451914986
 20
235.7727294954928
 30
0.0
 10
796.468145191499
 20
235.6037331021314
 30
0.0
 10
796.5355897427766
 20
235.2622837645594
 30
0.0
 10
796.8243935914142
 20
234.8307630932599
 30
0.0
 10
797.2559142520192
 20
234.541956621866
 30
0.0
 10
797.5973659629325
 20
234.4745111003203
 30
0.0
 10
797.7663635866725
 20
234.4745111003168
 30
0.0
  0
LINE
  5
2EF
330
1F
100
AcDbEntity
  8
0
  6
Continuous
 62
     7
370
    15
100
AcDbLine
 10
796.4681487443
 20
235.7727305622
 30
0.0
 11
796.5205561283
 21
235.7727305622
 31
0.0
  0
SPLINE
  5
2F0
330
1F
100
AcDbEntity
  8
0
  6
Continuous
 62
     7
370
    15
100
AcDbSpline
210
0.0
220
0.0
230
1.0
 70
     8
 71
     3
 72
    11
 73
     7
 74
     0
 42
0.000000001
 43
0.00000001
 40
0.0
 40
0.0
 40
0.0
 40
0.0
 40
0.250191077336
 40
0.4999983015406
 40
0.7498071011481
 40
1.0
 40
1.0
 40
1.0
 40
1.0
 10
796.5205529707821
 20
235.7727294954941
 30
0.0
 10
796.5205529707815
 20
235.6107102386373
 30
0.0
 10
796.5852914835059
 20
235.2827313805541
 30
0.0
 10
796.8624423935411
 20
234.8688117519017
 30
0.0
 10
797.2763620124131
 20
234.5916583230922
 30
0.0
 10
797.6043431524115
 20
234.526918879603
 30
0.0
 10
797.7663635866724
 20
234.5269188795989
 30
0.0
  0
LINE
  5
2F1
330
1F
100
AcDbEntity
  8
0
  6
Continuous
 62
     7
370
    15
100
AcDbLine
 10
799.4640346529
 20
310.1469182999
 30
0.0
 11
799.4640346529
 21
310.094510916
 31
0.0
  0
SPLINE
  5
2F2
330
1F
100
AcDbEntity
  8
0
  6
Continuous
 62
     7
370
    15
100
AcDbSpline
210
0.0
220
0.0
230
1.0
 70
     8
 71
     3
 72
    12
 73
     8
 74
     0
 42
0.000000001
 43
0.00000001
 40
0.0
 40
0.0
 40
0.0
 40
0.0
 40
0.2001971468402
 40
0.4001020534147
 40
0.5998959411986999
 40
0.7998020121212001
 40
1.0
 40
1.0
 40
1.0
 40
1.0
 10
796.4681451914967
 20
313.0903997045824
 30
0.0
 10
796.4681451914952
 20
312.7776130436616
 30
0.0
 10
796.567409388953
 20
312.1480737150231
 30
0.0
 10
796.9997487091944
 20
311.2997512780206
 30
0.0
 10
797.6733788368467
 20
310.6261189956238
 30
0.0
 10
798.5217033050636
 20
310.1937762213326
 30
0.0
 10
799.1512458208106
 20
310.0945111003131
 30
0.0
 10
799.4640337957624
 20
310.0945111003172
 30
0.0
  0
LINE
  5
2F3
330
1F
100
AcDbEntity
  8
0
  6
Continuous
 62
     7
370
    15
100
AcDbLine
 10
796.4681487443
 20
313.0904005498
 30
0.0
 11
796.5205561283
 21
313.0904005498
 31
0.0
  0
SPLINE
  5
2F4
330
1F
100
AcDbEntity
  8
0
  6
Continuous
 62
     7
370
    15
100
AcDbSpline
210
0.0
220
0.0
230
1.0
 70
     8
 71
     3
 72
    12
 73
     8
 74
     0
 42
0.000000001
 43
0.00000001
 40
0.0
 40
0.0
 40
0.0
 40
0.0
 40
0.2001971468402
 40
0.4001020534147
 40
0.5998959411986999
 40
0.7998020121212001
 40
1.0
 40
1.0
 40
1.0
 40
1.0
 10
796.52055297078
 20
313.0903997045858
 30
0.0
 10
796.520552970777
 20
312.7831610380588
 30
0.0
 10
796.6181022126304
 20
312.1644472833121
 30
0.0
 10
797.0428323554308
 20
311.3310990083456
 30
0.0
 10
797.7047266813684
 20
310.6692025651772
 30
0.0
 10
798.53807695165
 20
310.2444690289421
 30
0.0
 10
799.1567938390148
 20
310.1469188795961
 30
0.0
 10
799.4640337957626
 20
310.1469188795995
 30
0.0
  0
LINE
  5
2F5
330
1F
100
AcDbEntity
  8
0
  6
Continuous
 62
     7
370
    15
100
AcDbLine
 10
796.5205561283
 20
324.6914760799
 30
0.0
 11
796.4681487443
 21
324.6914760799
 31
0.0
  0
SPLINE
  5
2F6
330
1F
100
AcDbEntity
  8
0
  6
Continuous
 62
     7
370
    15
100
AcDbSpline
210
0.0
220
0.0
230
1.0
 70
     8
 71
     3
 72
    11
 73
     7
 74
     0
 42
0.000000001
 43
0.00000001
 40
0.0
 40
0.0
 40
0.0
 40
0.0
 40
0.250191077336
 40
0.4999983015406
 40
0.7498071011481
 40
1.0
 40
1.0
 40
1.0
 40
1.0
 10
797.7663635866722
 20
325.9896955417472
 30
0.0
 10
797.5973671933108
 20
325.9896955417468
 30
0.0
 10
797.2559178557387
 20
325.9222509904693
 30
0.0
 10
796.8243971844394
 20
325.6334471418317
 30
0.0
 10
796.5355907130455
 20
325.2019264812265
 30
0.0
 10
796.4681451914997
 20
324.8604747703133
 30
0.0
 10
796.4681451914962
 20
324.6914771465733
 30
0.0
  0
LINE
  5
2F7
330
1F
100
AcDbEntity
  8
0
  6
Continuous
 62
     7
370
    15
100
AcDbLine
 10
797.7663602593
 20
325.9896950454
 30
0.0
 11
797.7663602593
 21
325.9372876615
 31
0.0
  0
SPLINE
  5
2F8
330
1F
100
AcDbEntity
  8
0
  6
Continuous
 62
     7
370
    15
100
AcDbSpline
210
0.0
220
0.0
230
1.0
 70
     8
 71
     3
 72
    11
 73
     7
 74
     0
 42
0.000000001
 43
0.00000001
 40
0.0
 40
0.0
 40
0.0
 40
0.0
 40
0.250191077336
 40
0.4999983015406
 40
0.7498071011481
 40
1.0
 40
1.0
 40
1.0
 40
1.0
 10
797.7663635866736
 20
325.9372877624639
 30
0.0
 10
797.6043443298167
 20
325.9372877624651
 30
0.0
 10
797.2763654717336
 20
325.8725492497452
 30
0.0
 10
796.8624458430812
 20
325.5953983397046
 30
0.0
 10
796.5852924142717
 20
325.1814787208327
 30
0.0
 10
796.5205529707825
 20
324.8534975808343
 30
0.0
 10
796.5205529707783
 20
324.6914771465734
 30
0.0
  0
LINE
  5
2F9
330
1F
100
AcDbEntity
  8
0
  6
Continuous
 62
     7
370
    15
100
AcDbLine
 10
796.5205561283
 20
235.7727305622
 30
0.0
 11
796.5205561283
 21
247.3738060922
 31
0.0
  0
LINE
  5
2FA
330
1F
100
AcDbEntity
  8
0
  6
Continuous
 62
     7
370
    15
100
AcDbLine
 10
796.4681487443
 20
247.3738060922
 30
0.0
 11
796.4681487443
 21
235.7727305622
 31
0.0
  0
LINE
  5
2FB
330
1F
100
AcDbEntity
  8
0
  6
Continuous
 62
     7
370
    15
100
AcDbLine
 10
796.5205561283
 20
247.3738060922
 30
0.0
 11
796.4681487443
 21
247.3738060922
 31
0.0
  0
LINE
  5
2FC
330
1F
100
AcDbEntity
  8
0
  6
Continuous
 62
     7
370
    15
100
AcDbLine
 10
796.5205561283
 20
313.0904005498
 30
0.0
 11
796.5205561283
 21
324.6914760799
 31
0.0
  0
LINE
  5
2FD
330
1F
100
AcDbEntity
  8
0
  6
Continuous
 62
     7
370
    15
100
AcDbLine
 10
796.4681487443
 20
324.6914760799
 30
0.0
 11
796.4681487443
 21
313.0904005498
 31
0.0
  0
SPLINE
  5
2FE
330
1F
100
AcDbEntity
  8
0
  6
Continuous
 62
     7
370
    15
100
AcDbSpline
210
0.0
220
0.0
230
1.0
 70
     8
 71
     3
 72
    12
 73
     8
 74
     0
 42
0.000000001
 43
0.00000001
 40
0.0
 40
0.0
 40
0.0
 40
0.0
 40
0.2001971468402
 40
0.4001020534147
 40
0.5998959411986999
 40
0.7998020121212001
 40
1.0
 40
1.0
 40
1.0
 40
1.0
 10
799.4640337957618
 20
250.3696955417491
 30
0.0
 10
799.1512471348411
 20
250.3696955417505
 30
0.0
 10
798.5217078062025
 20
250.2704313442928
 30
0.0
 10
797.6733853692001
 20
249.8380920240514
 30
0.0
 10
796.9997530868033
 20
249.164461896399
 30
0.0
 10
796.567410312512
 20
248.3161374281821
 30
0.0
 10
796.4681451914926
 20
247.6865949124352
 30
0.0
 10
796.4681451914967
 20
247.3738069374833
 30
0.0
  0
LINE
  5
2FF
330
1F
100
AcDbEntity
  8
0
  6
Continuous
 62
     7
370
    15
100
AcDbLine
 10
799.4640346529
 20
250.3696957261
 30
0.0
 11
799.4640346529
 21
250.3172883422
 31
0.0
  0
SPLINE
  5
300
330
1F
100
AcDbEntity
  8
0
  6
Continuous
 62
     7
370
    15
100
AcDbSpline
210
0.0
220
0.0
230
1.0
 70
     8
 71
     3
 72
    12
 73
     8
 74
     0
 42
0.000000001
 43
0.00000001
 40
0.0
 40
0.0
 40
0.0
 40
0.0
 40
0.2001971468402
 40
0.4001020534147
 40
0.5998959411986999
 40
0.7998020121212001
 40
1.0
 40
1.0
 40
1.0
 40
1.0
 10
799.4640337957652
 20
250.3172877624656
 30
0.0
 10
799.1567951292383
 20
250.3172877624687
 30
0.0
 10
798.5380813744915
 20
250.2197385206154
 30
0.0
 10
797.704733099525
 20
249.7950083778149
 30
0.0
 10
797.0428366563567
 20
249.1331140518773
 30
0.0
 10
796.6181031201215
 20
248.2997637815957
 30
0.0
 10
796.5205529707755
 20
247.681046894231
 30
0.0
 10
796.5205529707789
 20
247.3738069374832
 30
0.0
  0
LINE
  5
301
330
1F
100
AcDbEntity
  8
0
  6
Continuous
 62
     7
370
    15
100
AcDbLine
 10
799.3109252217
 20
246.1762928993
 30
0.0
 11
799.3109252217
 21
235.7727305622
 31
0.0
  0
SPLINE
  5
302
330
1F
100
AcDbEntity
  8
0
  6
Continuous
 62
     7
370
    15
100
AcDbSpline
210
0.0
220
0.0
230
1.0
 70
     8
 71
     3
 72
    11
 73
     7
 74
     0
 42
0.000000001
 43
0.00000001
 40
0.0
 40
0.0
 40
0.0
 40
0.0
 40
0.250191077336
 40
0.4999983015406
 40
0.7498071011481
 40
1.0
 40
1.0
 40
1.0
 40
1.0
 10
798.0651112377516
 20
234.5269188796024
 30
0.0
 10
798.2271304946084
 20
234.5269188796013
 30
0.0
 10
798.5551093526917
 20
234.5916573923211
 30
0.0
 10
798.9690289813441
 20
234.8688083023617
 30
0.0
 10
799.2461824101534
 20
235.2827279212336
 30
0.0
 10
799.3109218536428
 20
235.610709061232
 30
0.0
 10
799.3109218536468
 20
235.7727294954929
 30
0.0
  0
LINE
  5
303
330
1F
100
AcDbEntity
  8
0
  6
Continuous
 62
     7
370
    15
100
AcDbLine
 10
798.0651136401
 20
234.5269189806
 30
0.0
 11
797.7663602593
 21
234.5269189806
 31
0.0
  0
LINE
  5
304
330
1F
100
AcDbEntity
  8
0
  6
Continuous
 62
     7
370
    15
100
AcDbLine
 10
799.4640346529
 20
250.3172883422
 30
0.0
 11
811.065110183
 21
250.3172883422
 31
0.0
  0
LINE
  5
305
330
1F
100
AcDbEntity
  8
0
  6
Continuous
 62
     7
370
    15
100
AcDbLine
 10
812.3109217646
 20
248.7727308304
 30
0.0
 11
812.3109217646
 21
249.0714767606
 31
0.0
  0
LINE
  5
306
330
1F
100
AcDbEntity
  8
0
  6
Continuous
 62
     7
370
    15
100
AcDbLine
 10
811.065110183
 20
247.5269192488
 30
0.0
 11
800.6615515711
 21
247.5269192488
 31
0.0
  0
SPLINE
  5
307
330
1F
100
AcDbEntity
  8
0
  6
Continuous
 62
     7
370
    15
100
AcDbSpline
210
0.0
220
0.0
230
1.0
 70
     8
 71
     3
 72
    11
 73
     7
 74
     0
 42
0.000000001
 43
0.00000001
 40
0.0
 40
0.0
 40
0.0
 40
0.0
 40
0.250191077336
 40
0.4999983015407
 40
0.7498071011481
 40
1.0
 40
1.0
 40
1.0
 40
1.0
 10
799.3109218536483
 20
246.1762927051329
 30
0.0
 10
799.3109218536481
 20
246.3522662349995
 30
0.0
 10
799.3810724434853
 20
246.7071860520651
 30
0.0
 10
799.6815292307141
 20
247.1563077660155
 30
0.0
 10
800.1306509330519
 20
247.4567672800014
 30
0.0
 10
800.485573214896
 20
247.5269188796017
 30
0.0
 10
800.6615480281125
 20
247.5269188796002
 30
0.0
  0
LINE
  5
308
330
1F
100
AcDbEntity
  8
0
  6
Continuous
 62
     7
370
    15
100
AcDbLine
 10
812.3109217646
 20
311.6914758117
 30
0.0
 11
812.3109217646
 21
311.3927298815
 31
0.0
  0
SPLINE
  5
309
330
1F
100
AcDbEntity
  8
0
  6
Continuous
 62
     7
370
    15
100
AcDbSpline
210
0.0
220
0.0
230
1.0
 70
     8
 71
     3
 72
    11
 73
     7
 74
     0
 42
0.000000001
 43
0.00000001
 40
0.0
 40
0.0
 40
0.0
 40
0.0
 40
0.250191077336
 40
0.4999983015407
 40
0.7498071011481
 40
1.0
 40
1.0
 40
1.0
 40
1.0
 10
811.0651112377163
 20
310.1469188796024
 30
0.0
 10
811.2271304945683
 20
310.1469188795984
 30
0.0
 10
811.5551093526909
 20
310.211657392317
 30
0.0
 10
811.96902898135
 20
310.4888083023616
 30
0.0
 10
812.2461824101542
 20
310.9027279212336
 30
0.0
 10
812.3109218536429
 20
311.230709061232
 30
0.0
 10
812.3109218536322
 20
311.3927294954929
 30
0.0
  0
LINE
  5
30A
330
1F
100
AcDbEntity
  8
0
  6
Continuous
 62
     7
370
    15
100
AcDbLine
 10
811.065110183
 20
310.1469182999
 30
0.0
 11
799.4640346529
 21
310.1469182999
 31
0.0
  0
LINE
  5
30B
330
1F
100
AcDbEntity
  8
0
  6
Continuous
 62
     7
370
    15
100
AcDbLine
 10
797.7663602593
 20
325.9372876615
 30
0.0
 11
798.0651136401
 21
325.9372876615
 31
0.0
  0
SPLINE
  5
30C
330
1F
100
AcDbEntity
  8
0
  6
Continuous
 62
     7
370
    15
100
AcDbSpline
210
0.0
220
0.0
230
1.0
 70
     8
 71
     3
 72
    11
 73
     7
 74
     0
 42
0.000000001
 43
0.00000001
 40
0.0
 40
0.0
 40
0.0
 40
0.0
 40
0.250191077336
 40
0.4999983015406
 40
0.7498071011481
 40
1.0
 40
1.0
 40
1.0
 40
1.0
 10
799.3109218536434
 20
324.6914771465722
 30
0.0
 10
799.3109218536445
 20
324.853496403429
 30
0.0
 10
799.2461833409245
 20
325.1814752615123
 30
0.0
 10
798.969032430884
 20
325.5953948901646
 30
0.0
 10
798.5551128120121
 20
325.8725483189741
 30
0.0
 10
798.2271316720138
 20
325.9372877624632
 30
0.0
 10
798.0651112377528
 20
325.9372877624674
 30
0.0
  0
LINE
  5
30D
330
1F
100
AcDbEntity
  8
0
  6
Continuous
 62
     7
370
    15
100
AcDbLine
 10
799.3109252217
 20
324.6914760799
 30
0.0
 11
799.3109252217
 21
314.2879137427
 31
0.0
  0
SPLINE
  5
30E
330
1F
100
AcDbEntity
  8
0
  6
Continuous
 62
     7
370
    15
100
AcDbSpline
210
0.0
220
0.0
230
1.0
 70
     8
 71
     3
 72
    11
 73
     7
 74
     0
 42
0.000000001
 43
0.00000001
 40
0.0
 40
0.0
 40
0.0
 40
0.0
 40
0.250191077336
 40
0.4999983015407
 40
0.7498071011481
 40
1.0
 40
1.0
 40
1.0
 40
1.0
 10
800.6615480281127
 20
312.9372877624689
 30
0.0
 10
800.4855744982463
 20
312.9372877624686
 30
0.0
 10
800.1306546811807
 20
313.0074383523059
 30
0.0
 10
799.6815329672302
 20
313.3078951395347
 30
0.0
 10
799.3810734532444
 20
313.7570168418725
 30
0.0
 10
799.3109218536441
 20
314.1119391237166
 30
0.0
 10
799.3109218536456
 20
314.2879139369331
 30
0.0
  0
LINE
  5
30F
330
1F
100
AcDbEntity
  8
0
  6
Continuous
 62
     7
370
    15
100
AcDbLine
 10
800.6615515711
 20
312.9372873933
 30
0.0
 11
811.065110183
 21
312.9372873933
 31
0.0
  0
LINE
  5
310
330
1F
100
AcDbEntity
  8
0
  6
Continuous
 62
     7
370
    15
100
AcDbLine
 10
799.3109252217
 20
235.7727305622
 30
0.0
 11
799.3633326056
 21
235.7727305622
 31
0.0
  0
SPLINE
  5
311
330
1F
100
AcDbEntity
  8
0
  6
Continuous
 62
     7
370
    15
100
AcDbSpline
210
0.0
220
0.0
230
1.0
 70
     8
 71
     3
 72
    11
 73
     7
 74
     0
 42
0.000000001
 43
0.00000001
 40
0.0
 40
0.0
 40
0.0
 40
0.0
 40
0.250191077336
 40
0.4999983015406
 40
0.7498071011481
 40
1.0
 40
1.0
 40
1.0
 40
1.0
 10
798.0651112377531
 20
234.4745111003191
 30
0.0
 10
798.2341076311144
 20
234.4745111003196
 30
0.0
 10
798.5755569686863
 20
234.5419556515971
 30
0.0
 10
799.0070776399858
 20
234.8307595002346
 30
0.0
 10
799.2958841113798
 20
235.2622801608397
 30
0.0
 10
799.3633296329255
 20
235.603731871753
 30
0.0
 10
799.363329632929
 20
235.772729495493
 30
0.0
  0
LINE
  5
312
330
1F
100
AcDbEntity
  8
0
  6
Continuous
 62
     7
370
    15
100
AcDbLine
 10
798.0651136401
 20
234.4745115966
 30
0.0
 11
798.0651136401
 21
234.5269189806
 31
0.0
  0
LINE
  5
313
330
1F
100
AcDbEntity
  8
0
  6
Continuous
 62
     7
370
    15
100
AcDbLine
 10
797.7663602593
 20
234.4745115966
 30
0.0
 11
798.0651136401
 21
234.4745115966
 31
0.0
  0
LINE
  5
314
330
1F
100
AcDbEntity
  8
0
  6
Continuous
 62
     7
370
    15
100
AcDbLine
 10
798.0651136401
 20
325.9896950454
 30
0.0
 11
797.7663602593
 21
325.9896950454
 31
0.0
  0
LINE
  5
315
330
1F
100
AcDbEntity
  8
0
  6
Continuous
 62
     7
370
    15
100
AcDbLine
 10
798.0651136401
 20
325.9372876615
 30
0.0
 11
798.0651136401
 21
325.9896950454
 31
0.0
  0
LINE
  5
316
330
1F
100
AcDbEntity
  8
0
  6
Continuous
 62
     7
370
    15
100
AcDbLine
 10
799.3109252217
 20
314.2879137427
 30
0.0
 11
799.3633326056
 21
314.2879137427
 31
0.0
  0
SPLINE
  5
317
330
1F
100
AcDbEntity
  8
0
  6
Continuous
 62
     7
370
    15
100
AcDbSpline
210
0.0
220
0.0
230
1.0
 70
     8
 71
     3
 72
    11
 73
     7
 74
     0
 42
0.000000001
 43
0.00000001
 40
0.0
 40
0.0
 40
0.0
 40
0.0
 40
0.250191077336
 40
0.4999983015407
 40
0.7498071011481
 40
1.0
 40
1.0
 40
1.0
 40
1.0
 10
800.6615480281131
 20
312.9896955417518
 30
0.0
 10
800.4925516347531
 20
312.9896955417506
 30
0.0
 10
800.1511022971758
 20
313.0571400930295
 30
0.0
 10
799.7195816258749
 20
313.3459439416616
 30
0.0
 10
799.4307751544758
 20
313.7774646022744
 30
0.0
 10
799.3633296329301
 20
314.1189163131931
 30
0.0
 10
799.3633296329297
 20
314.287913936933
 30
0.0
  0
LINE
  5
318
330
1F
100
AcDbEntity
  8
0
  6
Continuous
 62
     7
370
    15
100
AcDbLine
 10
800.6615515711
 20
312.9896947772
 30
0.0
 11
800.6615515711
 21
312.9372873933
 31
0.0
  0
LINE
  5
319
330
1F
100
AcDbEntity
  8
0
  6
Continuous
 62
     7
370
    15
100
AcDbLine
 10
800.6615515711
 20
247.5269192488
 30
0.0
 11
800.6615515711
 21
247.4745118649
 31
0.0
  0
SPLINE
  5
31A
330
1F
100
AcDbEntity
  8
0
  6
Continuous
 62
     7
370
    15
100
AcDbSpline
210
0.0
220
0.0
230
1.0
 70
     8
 71
     3
 72
    11
 73
     7
 74
     0
 42
0.000000001
 43
0.00000001
 40
0.0
 40
0.0
 40
0.0
 40
0.0
 40
0.250191077336
 40
0.4999983015407
 40
0.7498071011481
 40
1.0
 40
1.0
 40
1.0
 40
1.0
 10
799.3633296329313
 20
246.1762927051327
 30
0.0
 10
799.36332963293
 20
246.3452890984926
 30
0.0
 10
799.4307741842091
 20
246.6867384360699
 30
0.0
 10
799.7195780328411
 20
247.1182591073708
 30
0.0
 10
800.151098693454
 20
247.40706557877
 30
0.0
 10
800.4925504043725
 20
247.4745111003156
 30
0.0
 10
800.6615480281124
 20
247.4745111003161
 30
0.0
  0
LINE
  5
31B
330
1F
100
AcDbEntity
  8
0
  6
Continuous
 62
     7
370
    15
100
AcDbLine
 10
799.3633326056
 20
246.1762928993
 30
0.0
 11
799.3109252217
 21
246.1762928993
 31
0.0
  0
SPLINE
  5
31C
330
1F
100
AcDbEntity
  8
0
  6
Continuous
 62
     7
370
    15
100
AcDbSpline
210
0.0
220
0.0
230
1.0
 70
     8
 71
     3
 72
    11
 73
     7
 74
     0
 42
0.000000001
 43
0.00000001
 40
0.0
 40
0.0
 40
0.0
 40
0.0
 40
0.250191077336
 40
0.4999983015406
 40
0.7498071011481
 40
1.0
 40
1.0
 40
1.0
 40
1.0
 10
799.3633296329267
 20
324.6914771465736
 30
0.0
 10
799.3633296329261
 20
324.8604735399349
 30
0.0
 10
799.2958850816486
 20
325.2019228775069
 30
0.0
 10
799.0070812330111
 20
325.6334435488064
 30
0.0
 10
798.5755605724061
 20
325.9222500202003
 30
0.0
 10
798.2341088614927
 20
325.989695541746
 30
0.0
 10
798.0651112377528
 20
325.9896955417495
 30
0.0
  0
LINE
  5
31D
330
1F
100
AcDbEntity
  8
0
  6
Continuous
 62
     7
370
    15
100
AcDbLine
 10
799.3633326056
 20
324.6914760799
 30
0.0
 11
799.3109252217
 21
324.6914760799
 31
0.0
  0
LINE
  5
31E
330
1F
100
AcDbEntity
  8
0
  6
Continuous
 62
     7
370
    15
100
AcDbLine
 10
811.065110183
 20
250.3696957261
 30
0.0
 11
799.4640346529
 21
250.3696957261
 31
0.0
  0
LINE
  5
31F
330
1F
100
AcDbEntity
  8
0
  6
Continuous
 62
     7
370
    15
100
AcDbLine
 10
799.3633326056
 20
314.2879137427
 30
0.0
 11
799.3633326056
 21
324.6914760799
 31
0.0
  0
LINE
  5
320
330
1F
100
AcDbEntity
  8
0
  6
Continuous
 62
     7
370
    15
100
AcDbLine
 10
799.3633326056
 20
235.7727305622
 30
0.0
 11
799.3633326056
 21
246.1762928993
 31
0.0
  0
LINE
  5
321
330
1F
100
AcDbEntity
  8
0
  6
Continuous
 62
     7
370
    15
100
AcDbLine
 10
812.3109217646
 20
311.3927298815
 30
0.0
 11
812.3633291485
 21
311.3927298815
 31
0.0
  0
SPLINE
  5
322
330
1F
100
AcDbEntity
  8
0
  6
Continuous
 62
     7
370
    15
100
AcDbSpline
210
0.0
220
0.0
230
1.0
 70
     8
 71
     3
 72
    11
 73
     7
 74
     0
 42
0.000000001
 43
0.00000001
 40
-0.0000000000220739
 40
-0.0000000000220739
 40
-0.0000000000220739
 40
-0.0000000000220739
 40
0.250191077336
 40
0.4999983015407
 40
0.7498071011481
 40
1.0
 40
1.0
 40
1.0
 40
1.0
 10
811.0651112377574
 20
310.0945111003191
 30
0.0
 10
811.2341076311274
 20
310.0945111003189
 30
0.0
 10
811.5755569686762
 20
310.161955651596
 30
0.0
 10
812.0070776399751
 20
310.4507595002347
 30
0.0
 10
812.295884111369
 20
310.8822801608397
 30
0.0
 10
812.3633296329239
 20
311.223731871753
 30
0.0
 10
812.3633296329035
 20
311.392729495493
 30
0.0
  0
LINE
  5
323
330
1F
100
AcDbEntity
  8
0
  6
Continuous
 62
     7
370
    15
100
AcDbLine
 10
811.065110183
 20
310.094510916
 30
0.0
 11
811.065110183
 21
310.1469182999
 31
0.0
  0
LINE
  5
324
330
1F
100
AcDbEntity
  8
0
  6
Continuous
 62
     7
370
    15
100
AcDbLine
 10
799.4640346529
 20
310.094510916
 30
0.0
 11
811.065110183
 21
310.094510916
 31
0.0
  0
LINE
  5
325
330
1F
100
AcDbEntity
  8
0
  6
Continuous
 62
     7
370
    15
100
AcDbLine
 10
811.065110183
 20
312.9896947772
 30
0.0
 11
800.6615515711
 21
312.9896947772
 31
0.0
  0
LINE
  5
326
330
1F
100
AcDbEntity
  8
0
  6
Continuous
 62
     7
370
    15
100
AcDbLine
 10
800.6615515711
 20
247.4745118649
 30
0.0
 11
811.065110183
 21
247.4745118649
 31
0.0
  0
LINE
  5
327
330
1F
100
AcDbEntity
  8
0
  6
Continuous
 62
     7
370
    15
100
AcDbLine
 10
812.3633291485
 20
311.3927298815
 30
0.0
 11
812.3633291485
 21
311.6914758117
 31
0.0
  0
LINE
  5
328
330
1F
100
AcDbEntity
  8
0
  6
Continuous
 62
     7
370
    15
100
AcDbLine
 10
812.3633291485
 20
248.7727308304
 30
0.0
 11
812.3633291485
 21
249.0714767606
 31
0.0
  0
LINE
  5
329
330
1F
100
AcDbEntity
  8
0
  6
Continuous
 62
     7
370
    15
100
AcDbLine
 10
604.4057410123
 20
284.8821033382
 30
0.0
 11
604.4057410123
 21
280.5821033086
 31
0.0
  0
LINE
  5
32A
330
1F
100
AcDbEntity
  8
0
  6
Continuous
 62
     7
370
    15
100
AcDbLine
 10
604.4057410123
 20
280.5821033086
 30
0.0
 11
613.3557360532
 21
280.5821033086
 31
0.0
  0
ARC
  5
32B
330
1F
100
AcDbEntity
  8
0
  6
Continuous
 62
     7
370
    15
100
AcDbCircle
 10
613.3557374122
 20
280.232103321
 30
0.0
 40
0.3500000000000227
100
AcDbArc
 50
270.0
 51
90.0
  0
ARC
  5
32C
330
1F
100
AcDbEntity
  8
0
  6
Continuous
 62
     7
370
    15
100
AcDbCircle
 10
604.0557374122
 20
284.882103321
 30
0.0
 40
0.3500000000000227
100
AcDbArc
 50
0.0
 51
180.0
  0
LINE
  5
32D
330
1F
100
AcDbEntity
  8
0
  6
Continuous
 62
     7
370
    15
100
AcDbLine
 10
613.3557360532
 20
279.8821033335
 30
0.0
 11
604.4057410123
 21
279.8821033335
 31
0.0
  0
LINE
  5
32E
330
1F
100
AcDbEntity
  8
0
  6
Continuous
 62
     7
370
    15
100
AcDbLine
 10
604.4057410123
 20
279.8821033335
 30
0.0
 11
604.4057410123
 21
275.5821033039
 31
0.0
  0
LINE
  5
32F
330
1F
100
AcDbEntity
  8
0
  6
Continuous
 62
     7
370
    15
100
AcDbLine
 10
603.7057366135
 20
275.5821033039
 30
0.0
 11
603.7057366135
 21
284.8821033382
 31
0.0
  0
ARC
  5
330
330
1F
100
AcDbEntity
  8
0
  6
Continuous
 62
     7
370
    15
100
AcDbCircle
 10
604.0557374122
 20
275.582103321
 30
0.0
 40
0.3500000000000227
100
AcDbArc
 50
180.0
 51
0.0
  0
LINE
  5
331
330
1F
100
AcDbEntity
  8
0
  6
Continuous
 62
     7
370
    15
100
AcDbLine
 10
701.6557373951
 20
239.582104388
 30
0.0
 11
705.9557374247
 21
239.582104388
 31
0.0
  0
LINE
  5
332
330
1F
100
AcDbEntity
  8
0
  6
Continuous
 62
     7
370
    15
100
AcDbLine
 10
705.9557374247
 20
239.582104388
 30
0.0
 11
705.9557374247
 21
248.5321031541
 31
0.0
  0
ARC
  5
333
330
1F
100
AcDbEntity
  8
0
  6
Continuous
 62
     7
370
    15
100
AcDbCircle
 10
706.3057374122
 20
248.532103321
 30
0.0
 40
0.3500000000000227
100
AcDbArc
 50
0.0
 51
180.0
  0
LINE
  5
334
330
1F
100
AcDbEntity
  8
0
  6
Continuous
 62
     7
370
    15
100
AcDbLine
 10
706.6557373997
 20
248.5321031541
 30
0.0
 11
706.6557373997
 21
239.582104388
 31
0.0
  0
LINE
  5
335
330
1F
100
AcDbEntity
  8
0
  6
Continuous
 62
     7
370
    15
100
AcDbLine
 10
706.6557373997
 20
239.582104388
 30
0.0
 11
710.9557374293
 21
239.582104388
 31
0.0
  0
ARC
  5
336
330
1F
100
AcDbEntity
  8
0
  6
Continuous
 62
     7
370
    15
100
AcDbCircle
 10
710.9557374122
 20
239.232103321
 30
0.0
 40
0.3500000000000227
100
AcDbArc
 50
270.0
 51
90.0
  0
LINE
  5
337
330
1F
100
AcDbEntity
  8
0
  6
Continuous
 62
     7
370
    15
100
AcDbLine
 10
710.9557374293
 20
238.8821037144
 30
0.0
 11
701.6557373951
 21
238.8821037144
 31
0.0
  0
ARC
  5
338
330
1F
100
AcDbEntity
  8
0
  6
Continuous
 62
     7
370
    15
100
AcDbCircle
 10
701.6557374122
 20
239.232103321
 30
0.0
 40
0.3500000000000227
100
AcDbArc
 50
90.0
 51
270.0
  0
LINE
  5
339
330
1F
100
AcDbEntity
  8
0
  6
Continuous
 62
     7
370
    15
100
AcDbLine
 10
710.9557374293
 20
320.8821022541
 30
0.0
 11
706.6557373997
 21
320.8821022541
 31
0.0
  0
LINE
  5
33A
330
1F
100
AcDbEntity
  8
0
  6
Continuous
 62
     7
370
    15
100
AcDbLine
 10
706.6557373997
 20
320.8821022541
 30
0.0
 11
706.6557373997
 21
311.9321034879
 31
0.0
  0
ARC
  5
33B
330
1F
100
AcDbEntity
  8
0
  6
Continuous
 62
     7
370
    15
100
AcDbCircle
 10
706.3057374122
 20
311.932103321
 30
0.0
 40
0.3500000000000227
100
AcDbArc
 50
180.0
 51
0.0
  0
LINE
  5
33C
330
1F
100
AcDbEntity
  8
0
  6
Continuous
 62
     7
370
    15
100
AcDbLine
 10
705.9557374247
 20
311.9321034879
 30
0.0
 11
705.9557374247
 21
320.8821022541
 31
0.0
  0
LINE
  5
33D
330
1F
100
AcDbEntity
  8
0
  6
Continuous
 62
     7
370
    15
100
AcDbLine
 10
705.9557374247
 20
320.8821022541
 30
0.0
 11
701.6557373951
 21
320.8821022541
 31
0.0
  0
ARC
  5
33E
330
1F
100
AcDbEntity
  8
0
  6
Continuous
 62
     7
370
    15
100
AcDbCircle
 10
701.6557374122
 20
321.232103321
 30
0.0
 40
0.3500000000000227
100
AcDbArc
 50
90.0
 51
270.0
  0
LINE
  5
33F
330
1F
100
AcDbEntity
  8
0
  6
Continuous
 62
     7
370
    15
100
AcDbLine
 10
701.6557373951
 20
321.5821029276
 30
0.0
 11
710.9557374293
 21
321.5821029276
 31
0.0
  0
ARC
  5
340
330
1F
100
AcDbEntity
  8
0
  6
Continuous
 62
     7
370
    15
100
AcDbCircle
 10
710.9557374122
 20
321.232103321
 30
0.0
 40
0.3500000000000227
100
AcDbArc
 50
270.0
 51
90.0
  0
ARC
  5
341
330
1F
100
AcDbEntity
  8
0
  6
Continuous
 62
     7
370
    15
100
AcDbCircle
 10
808.5557374122
 20
284.882103321
 30
0.0
 40
0.3500000000000227
100
AcDbArc
 50
0.0
 51
180.0
  0
LINE
  5
342
330
1F
100
AcDbEntity
  8
0
  6
Continuous
 62
     7
370
    15
100
AcDbLine
 10
808.9057382109
 20
284.8821033382
 30
0.0
 11
808.9057382109
 21
275.5821033039
 31
0.0
  0
ARC
  5
343
330
1F
100
AcDbEntity
  8
0
  6
Continuous
 62
     7
370
    15
100
AcDbCircle
 10
808.5557374122
 20
275.582103321
 30
0.0
 40
0.3500000000000227
100
AcDbArc
 50
180.0
 51
0.0
  0
LINE
  5
344
330
1F
100
AcDbEntity
  8
0
  6
Continuous
 62
     7
370
    15
100
AcDbLine
 10
808.2057338121
 20
275.5821033039
 30
0.0
 11
808.2057338121
 21
279.8821033335
 31
0.0
  0
LINE
  5
345
330
1F
100
AcDbEntity
  8
0
  6
Continuous
 62
     7
370
    15
100
AcDbLine
 10
808.2057338121
 20
279.8821033335
 30
0.0
 11
799.2557387712
 21
279.8821033335
 31
0.0
  0
LINE
  5
346
330
1F
100
AcDbEntity
  8
0
  6
Continuous
 62
     7
370
    15
100
AcDbLine
 10
799.2557387712
 20
280.5821033086
 30
0.0
 11
808.2057338121
 21
280.5821033086
 31
0.0
  0
LINE
  5
347
330
1F
100
AcDbEntity
  8
0
  6
Continuous
 62
     7
370
    15
100
AcDbLine
 10
808.2057338121
 20
280.5821033086
 30
0.0
 11
808.2057338121
 21
284.8821033382
 31
0.0
  0
ARC
  5
348
330
1F
100
AcDbEntity
  8
0
  6
Continuous
 62
     7
370
    15
100
AcDbCircle
 10
799.2557374122
 20
280.232103321
 30
0.0
 40
0.3500000000000227
100
AcDbArc
 50
90.0
 51
270.0
  0
ARC
  5
349
330
1F
100
AcDbEntity
  8
0
  6
Continuous
 62
     7
370
    15
100
AcDbCircle
 10
603.2557374122
 20
225.782103321
 30
0.0
 40
6.935241039379093
100
AcDbArc
 50
180.0
 51
270.0
  0
LINE
  5
34A
330
1F
100
AcDbEntity
  8
0
  6
Continuous
 62
     7
370
    15
100
AcDbLine
 10
603.2557364466
 20
217.8135232658
 30
0.0
 11
603.2557364466
 21
218.8468629152
 31
0.0
  0
ARC
  5
34B
330
1F
100
AcDbEntity
  8
0
  6
Continuous
 62
     7
370
    15
100
AcDbCircle
 10
603.2557374122
 20
225.782103321
 30
0.0
 40
7.968580883129221
100
AcDbArc
 50
180.0
 51
270.0
  0
LINE
  5
34C
330
1F
100
AcDbEntity
  8
0
  6
Continuous
 62
     7
370
    15
100
AcDbLine
 10
595.2871542337
 20
225.7821017534
 30
0.0
 11
596.3204976084
 21
225.7821017534
 31
0.0
  0
ARC
  5
34D
330
1F
100
AcDbEntity
  8
0
  6
Continuous
 62
     7
370
    15
100
AcDbCircle
 10
603.2557374122
 20
334.682103321
 30
0.0
 40
6.935241039379093
100
AcDbArc
 50
90.0
 51
180.0
  0
LINE
  5
34E
330
1F
100
AcDbEntity
  8
0
  6
Continuous
 62
     7
370
    15
100
AcDbLine
 10
595.2871542337
 20
334.6821048886
 30
0.0
 11
596.3204976084
 21
334.6821048886
 31
0.0
  0
ARC
  5
34F
330
1F
100
AcDbEntity
  8
0
  6
Continuous
 62
     7
370
    15
100
AcDbCircle
 10
603.2557374122
 20
334.682103321
 30
0.0
 40
7.968580883129221
100
AcDbArc
 50
90.0
 51
180.0
  0
LINE
  5
350
330
1F
100
AcDbEntity
  8
0
  6
Continuous
 62
     7
370
    15
100
AcDbLine
 10
603.2557364466
 20
342.6506833763
 30
0.0
 11
603.2557364466
 21
341.6173437268
 31
0.0
  0
LINE
  5
351
330
1F
100
AcDbEntity
  8
0
  6
Continuous
 62
     7
370
    15
100
AcDbLine
 10
596.3204976084
 20
225.7821017534
 30
0.0
 11
596.3204976084
 21
334.6821048886
 31
0.0
  0
LINE
  5
352
330
1F
100
AcDbEntity
  8
0
  6
Continuous
 62
     7
370
    15
100
AcDbLine
 10
595.2871542337
 20
334.6821048886
 30
0.0
 11
595.2871542337
 21
225.7821017534
 31
0.0
  0
ARC
  5
353
330
1F
100
AcDbEntity
  8
0
  6
Continuous
 62
     7
370
    15
100
AcDbCircle
 10
605.0557374122
 20
321.232103321
 30
0.0
 40
3.100000000000023
100
AcDbArc
 50
270.0
 51
90.0
  0
LINE
  5
354
330
1F
100
AcDbEntity
  8
0
  6
Continuous
 62
     7
370
    15
100
AcDbLine
 10
605.0557371142
 20
324.3321047754
 30
0.0
 11
603.0557405117
 21
324.3321047754
 31
0.0
  0
ARC
  5
355
330
1F
100
AcDbEntity
  8
0
  6
Continuous
 62
     7
370
    15
100
AcDbCircle
 10
603.0557374122
 20
321.232103321
 30
0.0
 40
3.100000000000023
100
AcDbArc
 50
90.0
 51
270.0
  0
LINE
  5
356
330
1F
100
AcDbEntity
  8
0
  6
Continuous
 62
     7
370
    15
100
AcDbLine
 10
603.0557405117
 20
318.1321041317
 30
0.0
 11
605.0557371142
 21
318.1321041317
 31
0.0
  0
LINE
  5
357
330
1F
100
AcDbEntity
  8
0
  6
Continuous
 62
     7
370
    15
100
AcDbLine
 10
605.0557371142
 20
242.3321025104
 30
0.0
 11
603.0557405117
 21
242.3321025104
 31
0.0
  0
ARC
  5
358
330
1F
100
AcDbEntity
  8
0
  6
Continuous
 62
     7
370
    15
100
AcDbCircle
 10
603.0557374122
 20
239.232103321
 30
0.0
 40
3.100000000000023
100
AcDbArc
 50
90.0
 51
270.0
  0
LINE
  5
359
330
1F
100
AcDbEntity
  8
0
  6
Continuous
 62
     7
370
    15
100
AcDbLine
 10
603.0557405117
 20
236.1321018667
 30
0.0
 11
605.0557371142
 21
236.1321018667
 31
0.0
  0
ARC
  5
35A
330
1F
100
AcDbEntity
  8
0
  6
Continuous
 62
     7
370
    15
100
AcDbCircle
 10
605.0557374122
 20
239.232103321
 30
0.0
 40
3.100000000000023
100
AcDbArc
 50
270.0
 51
90.0
  0
ARC
  5
35B
330
1F
100
AcDbEntity
  8
0
  6
Continuous
 62
     7
370
    15
100
AcDbCircle
 10
807.5557374122
 20
239.232103321
 30
0.0
 40
3.100000000000023
100
AcDbArc
 50
90.0
 51
270.0
  0
LINE
  5
35C
330
1F
100
AcDbEntity
  8
0
  6
Continuous
 62
     7
370
    15
100
AcDbLine
 10
807.5557377102
 20
236.1321018667
 30
0.0
 11
809.5557343128
 21
236.1321018667
 31
0.0
  0
ARC
  5
35D
330
1F
100
AcDbEntity
  8
0
  6
Continuous
 62
     7
370
    15
100
AcDbCircle
 10
809.5557374122
 20
239.232103321
 30
0.0
 40
3.100000000000023
100
AcDbArc
 50
270.0
 51
90.0
  0
LINE
  5
35E
330
1F
100
AcDbEntity
  8
0
  6
Continuous
 62
     7
370
    15
100
AcDbLine
 10
809.5557343128
 20
242.3321025104
 30
0.0
 11
807.5557377102
 21
242.3321025104
 31
0.0
  0
LINE
  5
35F
330
1F
100
AcDbEntity
  8
0
  6
Continuous
 62
     7
370
    15
100
AcDbLine
 10
807.5557377102
 20
318.1321041317
 30
0.0
 11
809.5557343128
 21
318.1321041317
 31
0.0
  0
ARC
  5
360
330
1F
100
AcDbEntity
  8
0
  6
Continuous
 62
     7
370
    15
100
AcDbCircle
 10
809.5557374122
 20
321.232103321
 30
0.0
 40
3.100000000000023
100
AcDbArc
 50
270.0
 51
90.0
  0
LINE
  5
361
330
1F
100
AcDbEntity
  8
0
  6
Continuous
 62
     7
370
    15
100
AcDbLine
 10
809.5557343128
 20
324.3321047754
 30
0.0
 11
807.5557377102
 21
324.3321047754
 31
0.0
  0
ARC
  5
362
330
1F
100
AcDbEntity
  8
0
  6
Continuous
 62
     7
370
    15
100
AcDbCircle
 10
807.5557374122
 20
321.232103321
 30
0.0
 40
3.100000000000023
100
AcDbArc
 50
90.0
 51
270.0
  0
CIRCLE
  5
363
330
1F
100
AcDbEntity
  8
0
  6
Continuous
 62
     7
370
    15
100
AcDbCircle
 10
808.3557374122
 20
226.232103321
 30
0.0
 40
5.47362278433647
  0
CIRCLE
  5
364
330
1F
100
AcDbEntity
  8
0
  6
Continuous
 62
     7
370
    15
100
AcDbCircle
 10
808.3557374122
 20
334.232103321
 30
0.0
 40
5.473622784336499
  0
CIRCLE
  5
365
330
1F
100
AcDbEntity
  8
0
  6
Continuous
 62
     7
370
    15
100
AcDbCircle
 10
604.2557374122
 20
226.232103321
 30
0.0
 40
5.473622784336868
  0
LINE
  5
366
330
1F
100
AcDbEntity
  8
0
  6
Continuous
 62
     7
370
    15
100
AcDbLine
 10
816.290977216
 20
334.6821048886
 30
0.0
 11
816.290977216
 21
225.7821017534
 31
0.0
  0
ARC
  5
367
330
1F
100
AcDbEntity
  8
0
  6
Continuous
 62
     7
370
    15
100
AcDbCircle
 10
809.3557374122
 20
225.782103321
 30
0.0
 40
6.935241039379093
100
AcDbArc
 50
270.0
 51
0.0
  0
LINE
  5
368
330
1F
100
AcDbEntity
  8
0
  6
Continuous
 62
     7
370
    15
100
AcDbLine
 10
809.3557383778
 20
218.8468629152
 30
0.0
 11
603.2557364466
 21
218.8468629152
 31
0.0
  0
LINE
  5
369
330
1F
100
AcDbEntity
  8
0
  6
Continuous
 62
     7
370
    15
100
AcDbLine
 10
603.2557364466
 20
341.6173437268
 30
0.0
 11
809.3557383778
 21
341.6173437268
 31
0.0
  0
ARC
  5
36A
330
1F
100
AcDbEntity
  8
0
  6
Continuous
 62
     7
370
    15
100
AcDbCircle
 10
809.3557374122
 20
334.682103321
 30
0.0
 40
6.935241039379093
100
AcDbArc
 50
0.0
 51
90.0
  0
CIRCLE
  5
36B
330
1F
100
AcDbEntity
  8
0
  6
Continuous
 62
     7
370
    15
100
AcDbCircle
 10
604.2557374122
 20
334.232103321
 30
0.0
 40
5.473622784336897
  0
LINE
  5
36C
330
1F
100
AcDbEntity
  8
0
  6
Continuous
 62
     7
370
    15
100
AcDbLine
 10
809.3557383778
 20
342.6506833763
 30
0.0
 11
603.2557364466
 21
342.6506833763
 31
0.0
  0
LINE
  5
36D
330
1F
100
AcDbEntity
  8
0
  6
Continuous
 62
     7
370
    15
100
AcDbLine
 10
809.3557383778
 20
342.6506833763
 30
0.0
 11
809.3557383778
 21
341.6173437268
 31
0.0
  0
LINE
  5
36E
330
1F
100
AcDbEntity
  8
0
  6
Continuous
 62
     7
370
    15
100
AcDbLine
 10
809.3557383778
 20
217.8135232658
 30
0.0
 11
809.3557383778
 21
218.8468629152
 31
0.0
  0
LINE
  5
36F
330
1F
100
AcDbEntity
  8
0
  6
Continuous
 62
     7
370
    15
100
AcDbLine
 10
603.2557364466
 20
217.8135232658
 30
0.0
 11
809.3557383778
 21
217.8135232658
 31
0.0
  0
ARC
  5
370
330
1F
100
AcDbEntity
  8
0
  6
Continuous
 62
     7
370
    15
100
AcDbCircle
 10
809.3557374122
 20
334.682103321
 30
0.0
 40
7.968580883129221
100
AcDbArc
 50
0.0
 51
90.0
  0
LINE
  5
371
330
1F
100
AcDbEntity
  8
0
  6
Continuous
 62
     7
370
    15
100
AcDbLine
 10
816.290977216
 20
334.6821048886
 30
0.0
 11
817.3243205907
 21
334.6821048886
 31
0.0
  0
LINE
  5
372
330
1F
100
AcDbEntity
  8
0
  6
Continuous
 62
     7
370
    15
100
AcDbLine
 10
817.3243205907
 20
225.7821017534
 30
0.0
 11
816.290977216
 21
225.7821017534
 31
0.0
  0
ARC
  5
373
330
1F
100
AcDbEntity
  8
0
  6
Continuous
 62
     7
370
    15
100
AcDbCircle
 10
809.3557374122
 20
225.782103321
 30
0.0
 40
7.968580883129221
100
AcDbArc
 50
270.0
 51
0.0
  0
LINE
  5
374
330
1F
100
AcDbEntity
  8
0
  6
Continuous
 62
     7
370
    15
100
AcDbLine
 10
817.3243205907
 20
225.7821017534
 30
0.0
 11
817.3243205907
 21
334.6821048886
 31
0.0
  0
CIRCLE
  5
375
330
1F
100
AcDbEntity
  8
0
  6
Continuous
 62
     7
370
    15
100
AcDbCircle
 10
604.2557374122
 20
226.232103321
 30
0.0
 40
4.400000000000603
  0
CIRCLE
  5
376
330
1F
100
AcDbEntity
  8
0
  6
Continuous
 62
     7
370
    15
100
AcDbCircle
 10
604.2557374122
 20
334.232103321
 30
0.0
 40
4.400000000000603
  0
CIRCLE
  5
377
330
1F
100
AcDbEntity
  8
0
  6
Continuous
 62
     7
370
    15
100
AcDbCircle
 10
808.3557374122
 20
226.232103321
 30
0.0
 40
4.400000000000233
  0
CIRCLE
  5
378
330
1F
100
AcDbEntity
  8
0
  6
Continuous
 62
     7
370
    15
100
AcDbCircle
 10
808.3557374122
 20
334.232103321
 30
0.0
 40
4.400000000000261
  0
CIRCLE
  5
379
330
1F
100
AcDbEntity
  8
0
  6
Continuous
 62
     7
370
    15
100
AcDbCircle
 10
604.2557374122
 20
334.232103321
 30
0.0
 40
2.5
  0
CIRCLE
  5
37A
330
1F
100
AcDbEntity
  8
0
  6
Continuous
 62
     7
370
    15
100
AcDbCircle
 10
604.2557374122
 20
226.232103321
 30
0.0
 40
2.5
  0
CIRCLE
  5
37B
330
1F
100
AcDbEntity
  8
0
  6
Continuous
 62
     7
370
    15
100
AcDbCircle
 10
808.3557374122
 20
334.232103321
 30
0.0
 40
2.5
  0
CIRCLE
  5
37C
330
1F
100
AcDbEntity
  8
0
  6
Continuous
 62
     7
370
    15
100
AcDbCircle
 10
808.3557374122
 20
226.232103321
 30
0.0
 40
2.5
  0
ENDSEC
  0
SECTION
  2
OBJECTS
  0
DICTIONARY
  5
C
330
0
100
AcDbDictionary
281
     1
  3
ACAD_GROUP
350
D
  3
ACAD_LAYOUT
350
1A
  3
ACAD_MLINESTYLE
350
17
  3
ACAD_PLOTSETTINGS
350
19
  3
ACAD_PLOTSTYLENAME
350
E
  3
ACAD_SCALELIST
350
47
  0
DICTIONARY
  5
D
102
{ACAD_REACTORS
330
C
102
}
330
C
100
AcDbDictionary
281
     1
  0
DICTIONARY
  5
1A
102
{ACAD_REACTORS
330
C
102
}
330
C
100
AcDbDictionary
281
     1
  3
Layout1
350
1E
  3
Layout2
350
26
  3
Model
350
22
  0
DICTIONARY
  5
17
102
{ACAD_REACTORS
330
C
102
}
330
C
100
AcDbDictionary
281
     1
  3
Standard
350
18
  0
DICTIONARY
  5
19
102
{ACAD_REACTORS
330
C
102
}
330
C
100
AcDbDictionary
281
     1
  0
ACDBDICTIONARYWDFLT
  5
E
102
{ACAD_REACTORS
330
C
102
}
330
C
100
AcDbDictionary
281
     1
  3
Normal
350
F
100
AcDbDictionaryWithDefault
340
F
  0
DICTIONARY
  5
47
102
{ACAD_REACTORS
330
C
102
}
330
C
100
AcDbDictionary
281
     1
  3
A0
350
48
  3
A1
350
49
  3
A2
350
4A
  3
A3
350
4B
  3
A4
350
4C
  3
A5
350
4D
  3
A6
350
4E
  3
A7
350
4F
  3
A8
350
50
  3
A9
350
51
  3
B0
350
52
  3
B1
350
53
  3
B2
350
54
  3
B3
350
55
  3
B4
350
56
  3
B5
350
57
  3
B6
350
58
  3
B7
350
59
  3
B8
350
5A
  3
B9
350
5B
  3
C0
350
5C
  3
C1
350
5D
  3
C2
350
5E
  3
C3
350
5F
  3
C4
350
60
  3
C5
350
61
  3
C6
350
62
  3
C7
350
63
  3
C8
350
64
  3
C9
350
65
  3
D0
350
66
  3
D1
350
67
  3
D2
350
68
  0
LAYOUT
  5
1E
102
{ACAD_REACTORS
330
1A
102
}
330
1A
100
AcDbPlotSettings
  1

  2
none_device
  4

  6

 40
0.0
 41
0.0
 42
0.0
 43
0.0
 44
0.0
 45
0.0
 46
0.0
 47
0.0
 48
0.0
 49
0.0
140
0.0
141
0.0
142
1.0
143
1.0
 70
   688
 72
     1
 73
     0
 74
     5
  7

 75
    16
147
1.0
148
0.0
149
0.0
100
AcDbLayout
  1
Layout1
 70
     1
 71
     1
 10
0.0
 20
0.0
 11
420.0
 21
297.0
 12
0.0
 22
0.0
 32
0.0
 14
1.0000000000E+20
 24
1.0000000000E+20
 34
1.0000000000E+20
 15
-1.0000000000E+20
 25
-1.0000000000E+20
 35
-1.0000000000E+20
146
0.0
 13
0.0
 23
0.0
 33
0.0
 16
1.0
 26
0.0
 36
0.0
 17
0.0
 27
1.0
 37
0.0
 76
     0
330
1B
  0
LAYOUT
  5
26
102
{ACAD_REACTORS
330
1A
102
}
330
1A
100
AcDbPlotSettings
  1

  2
none_device
  4

  6

 40
0.0
 41
0.0
 42
0.0
 43
0.0
 44
0.0
 45
0.0
 46
0.0
 47
0.0
 48
0.0
 49
0.0
140
0.0
141
0.0
142
1.0
143
1.0
 70
   688
 72
     1
 73
     0
 74
     5
  7

 75
    16
147
1.0
148
0.0
149
0.0
100
AcDbLayout
  1
Layout2
 70
     1
 71
     2
 10
0.0
 20
0.0
 11
0.0
 21
0.0
 12
0.0
 22
0.0
 32
0.0
 14
0.0
 24
0.0
 34
0.0
 15
0.0
 25
0.0
 35
0.0
146
0.0
 13
0.0
 23
0.0
 33
0.0
 16
1.0
 26
0.0
 36
0.0
 17
0.0
 27
1.0
 37
0.0
 76
     0
330
23
  0
LAYOUT
  5
22
102
{ACAD_REACTORS
330
1A
102
}
330
1A
100
AcDbPlotSettings
  1

  2
none_device
  4
Letter_(8.50_x_11.00_Inches)
  6

 40
6.35
 41
6.35
 42
6.35000508
 43
6.35000508
 44
215.9
 45
279.4
 46
0.0
 47
0.0
 48
0.0
 49
0.0
140
0.0
141
0.0
142
1.0
143
1.0
 70
  1712
 72
     1
 73
     0
 74
     0
  7

 75
     0
147
1.0
148
0.0
149
0.0
100
AcDbLayout
  1
Model
 70
     1
 71
     0
 10
0.0
 20
0.0
 11
840.0
 21
594.0
 12
0.0
 22
0.0
 32
0.0
 14
0.0
 24
0.0
 34
0.0
 15
840.0
 25
594.0
 35
0.0
146
0.0
 13
0.0
 23
0.0
 33
0.0
 16
1.0
 26
0.0
 36
0.0
 17
0.0
 27
1.0
 37
0.0
 76
     0
330
1F
331
29
  0
MLINESTYLE
  5
18
102
{ACAD_REACTORS
330
17
102
}
330
17
100
AcDbMlineStyle
  2
Standard
 70
     0
  3

 62
   256
 51
90.0
 52
90.0
 71
     2
 49
0.5
 62
   256
  6
BYLAYER
 49
-0.5
 62
   256
  6
BYLAYER
  0
ACDBPLACEHOLDER
  5
F
102
{ACAD_REACTORS
330
E
102
}
330
E
  0
SCALE
  5
48
102
{ACAD_REACTORS
330
47
102
}
330
47
100
AcDbScale
 70
     0
300
1:1
140
1.0
141
1.0
290
     1
  0
SCALE
  5
49
102
{ACAD_REACTORS
330
47
102
}
330
47
100
AcDbScale
 70
     0
300
1:2
140
1.0
141
2.0
290
     0
  0
SCALE
  5
4A
102
{ACAD_REACTORS
330
47
102
}
330
47
100
AcDbScale
 70
     0
300
1:4
140
1.0
141
4.0
290
     0
  0
SCALE
  5
4B
102
{ACAD_REACTORS
330
47
102
}
330
47
100
AcDbScale
 70
     0
300
1:5
140
1.0
141
5.0
290
     0
  0
SCALE
  5
4C
102
{ACAD_REACTORS
330
47
102
}
330
47
100
AcDbScale
 70
     0
300
1:8
140
1.0
141
8.0
290
     0
  0
SCALE
  5
4D
102
{ACAD_REACTORS
330
47
102
}
330
47
100
AcDbScale
 70
     0
300
1:10
140
1.0
141
10.0
290
     0
  0
SCALE
  5
4E
102
{ACAD_REACTORS
330
47
102
}
330
47
100
AcDbScale
 70
     0
300
1:16
140
1.0
141
16.0
290
     0
  0
SCALE
  5
4F
102
{ACAD_REACTORS
330
47
102
}
330
47
100
AcDbScale
 70
     0
300
1:20
140
1.0
141
20.0
290
     0
  0
SCALE
  5
50
102
{ACAD_REACTORS
330
47
102
}
330
47
100
AcDbScale
 70
     0
300
1:30
140
1.0
141
30.0
290
     0
  0
SCALE
  5
51
102
{ACAD_REACTORS
330
47
102
}
330
47
100
AcDbScale
 70
     0
300
1:40
140
1.0
141
40.0
290
     0
  0
SCALE
  5
52
102
{ACAD_REACTORS
330
47
102
}
330
47
100
AcDbScale
 70
     0
300
1:50
140
1.0
141
50.0
290
     0
  0
SCALE
  5
53
102
{ACAD_REACTORS
330
47
102
}
330
47
100
AcDbScale
 70
     0
300
1:100
140
1.0
141
100.0
290
     0
  0
SCALE
  5
54
102
{ACAD_REACTORS
330
47
102
}
330
47
100
AcDbScale
 70
     0
300
2:1
140
2.0
141
1.0
290
     0
  0
SCALE
  5
55
102
{ACAD_REACTORS
330
47
102
}
330
47
100
AcDbScale
 70
     0
300
4:1
140
4.0
141
1.0
290
     0
  0
SCALE
  5
56
102
{ACAD_REACTORS
330
47
102
}
330
47
100
AcDbScale
 70
     0
300
8:1
140
8.0
141
1.0
290
     0
  0
SCALE
  5
57
102
{ACAD_REACTORS
330
47
102
}
330
47
100
AcDbScale
 70
     0
300
10:1
140
10.0
141
1.0
290
     0
  0
SCALE
  5
58
102
{ACAD_REACTORS
330
47
102
}
330
47
100
AcDbScale
 70
     0
300
100:1
140
100.0
141
1.0
290
     0
  0
SCALE
  5
59
102
{ACAD_REACTORS
330
47
102
}
330
47
100
AcDbScale
 70
     0
300
1/128" = 1'-0"
140
0.0078125
141
12.0
290
     0
  0
SCALE
  5
5A
102
{ACAD_REACTORS
330
47
102
}
330
47
100
AcDbScale
 70
     0
300
1/64" = 1'-0"
140
0.015625
141
12.0
290
     0
  0
SCALE
  5
5B
102
{ACAD_REACTORS
330
47
102
}
330
47
100
AcDbScale
 70
     0
300
1/32" = 1'-0"
140
0.03125
141
12.0
290
     0
  0
SCALE
  5
5C
102
{ACAD_REACTORS
330
47
102
}
330
47
100
AcDbScale
 70
     0
300
1/16" = 1'-0"
140
0.0625
141
12.0
290
     0
  0
SCALE
  5
5D
102
{ACAD_REACTORS
330
47
102
}
330
47
100
AcDbScale
 70
     0
300
3/32" = 1'-0"
140
0.09375
141
12.0
290
     0
  0
SCALE
  5
5E
102
{ACAD_REACTORS
330
47
102
}
330
47
100
AcDbScale
 70
     0
300
1/8" = 1'-0"
140
0.125
141
12.0
290
     0
  0
SCALE
  5
5F
102
{ACAD_REACTORS
330
47
102
}
330
47
100
AcDbScale
 70
     0
300
3/16" = 1'-0"
140
0.1875
141
12.0
290
     0
  0
SCALE
  5
60
102
{ACAD_REACTORS
330
47
102
}
330
47
100
AcDbScale
 70
     0
300
1/4" = 1'-0"
140
0.25
141
12.0
290
     0
  0
SCALE
  5
61
102
{ACAD_REACTORS
330
47
102
}
330
47
100
AcDbScale
 70
     0
300
3/8" = 1'-0"
140
0.375
141
12.0
290
     0
  0
SCALE
  5
62
102
{ACAD_REACTORS
330
47
102
}
330
47
100
AcDbScale
 70
     0
300
1/2" = 1'-0"
140
0.5
141
12.0
290
     0
  0
SCALE
  5
63
102
{ACAD_REACTORS
330
47
102
}
330
47
100
AcDbScale
 70
     0
300
3/4" = 1'-0"
140
0.75
141
12.0
290
     0
  0
SCALE
  5
64
102
{ACAD_REACTORS
330
47
102
}
330
47
100
AcDbScale
 70
     0
300
1" = 1'-0"
140
1.0
141
12.0
290
     0
  0
SCALE
  5
65
102
{ACAD_REACTORS
330
47
102
}
330
47
100
AcDbScale
 70
     0
300
1-1/2" = 1'-0"
140
1.5
141
12.0
290
     0
  0
SCALE
  5
66
102
{ACAD_REACTORS
330
47
102
}
330
47
100
AcDbScale
 70
     0
300
3" = 1'-0"
140
3.0
141
12.0
290
     0
  0
SCALE
  5
67
102
{ACAD_REACTORS
330
47
102
}
330
47
100
AcDbScale
 70
     0
300
6" = 1'-0"
140
6.0
141
12.0
290
     0
  0
SCALE
  5
68
102
{ACAD_REACTORS
330
47
102
}
330
47
100
AcDbScale
 70
     0
300
1'-0" = 1'-0"
140
12.0
141
12.0
290
     0
  0
ENDSEC
  0
EOF
