  0
SECTION
  2
HEADER
  9
$ACADVER
  1
AC1014
  9
$ACADMAINTVER
 70
     9
  9
$DWGCODEPAGE
  3
ANSI_1252
  9
$INSBASE
 10
0.0
 20
0.0
 30
0.0
  9
$EXTMIN
 10
0.0
 20
0.0
 30
0.0
  9
$EXTMAX
 10
630.0
 20
445.5
 30
0.0
  9
$LIMMIN
 10
0.0
 20
0.0
  9
$LIMMAX
 10
630.0
 20
445.5
  9
$ORTHOMODE
 70
     0
  9
$REGENMODE
 70
     1
  9
$FILLMODE
 70
     1
  9
$QTEXTMODE
 70
     0
  9
$MIRRTEXT
 70
     1
  9
$DRAGMODE
 70
     2
  9
$LTSCALE
 40
1.5
  9
$OSMODE
 70
    37
  9
$ATTMODE
 70
     1
  9
$TEXTSIZE
 40
5.25
  9
$TRACEWID
 40
1.0
  9
$TEXTSTYLE
  7
STANDARD
  9
$CLAYER
  8
0
  9
$CELTYPE
  6
BYLAYER
  9
$CECOLOR
 62
   256
  9
$CELTSCALE
 40
1.0
  9
$DELOBJ
 70
     1
  9
$DISPSILH
 70
     0
  9
$DIMSCALE
 40
1.0
  9
$DIMASZ
 40
9.0
  9
$DIMEXO
 40
1.5
  9
$DIMDLI
 40
3.75
  9
$DIMRND
 40
0.0
  9
$DIMDLE
 40
0.0
  9
$DIMEXE
 40
1.5
  9
$DIMTP
 40
0.0
  9
$DIMTM
 40
0.0
  9
$DIMTXT
 40
5.25
  9
$DIMCEN
 40
2.5
  9
$DIMTSZ
 40
0.0
  9
$DIMTOL
 70
     0
  9
$DIMLIM
 70
     0
  9
$DIMTIH
 70
     1
  9
$DIMTOH
 70
     1
  9
$DIMSE1
 70
     0
  9
$DIMSE2
 70
     0
  9
$DIMTAD
 70
     1
  9
$DIMZIN
 70
     0
  9
$DIMBLK
  1

  9
$DIMASO
 70
     1
  9
$DIMSHO
 70
     1
  9
$DIMPOST
  1

  9
$DIMAPOST
  1

  9
$DIMALT
 70
     0
  9
$DIMALTD
 70
     3
  9
$DIMALTF
 40
0.0393700787
  9
$DIMLFAC
 40
1.0
  9
$DIMTOFL
 70
     1
  9
$DIMTVP
 40
0.0
  9
$DIMTIX
 70
     0
  9
$DIMSOXD
 70
     0
  9
$DIMSAH
 70
     0
  9
$DIMBLK1
  1

  9
$DIMBLK2
  1

  9
$DIMSTYLE
  2
ISO-25
  9
$DIMCLRD
 70
     0
  9
$DIMCLRE
 70
     0
  9
$DIMCLRT
 70
     0
  9
$DIMTFAC
 40
1.0
  9
$DIMGAP
 40
2.286
  9
$DIMJUST
 70
     0
  9
$DIMSD1
 70
     0
  9
$DIMSD2
 70
     0
  9
$DIMTOLJ
 70
     0
  9
$DIMTZIN
 70
     0
  9
$DIMALTZ
 70
     0
  9
$DIMALTTZ
 70
     0
  9
$DIMFIT
 70
     3
  9
$DIMUPT
 70
     0
  9
$DIMUNIT
 70
     2
  9
$DIMDEC
 70
     2
  9
$DIMTDEC
 70
     2
  9
$DIMALTU
 70
     2
  9
$DIMALTTD
 70
     3
  9
$DIMTXSTY
  7
STANDARD
  9
$DIMAUNIT
 70
     0
  9
$LUNITS
 70
     2
  9
$LUPREC
 70
     2
  9
$SKETCHINC
 40
1.0
  9
$FILLETRAD
 40
10.0
  9
$AUNITS
 70
     0
  9
$AUPREC
 70
     2
  9
$MENU
  1
.
  9
$ELEVATION
 40
0.0
  9
$PELEVATION
 40
0.0
  9
$THICKNESS
 40
0.0
  9
$LIMCHECK
 70
     0
  9
$CHAMFERA
 40
10.0
  9
$CHAMFERB
 40
10.0
  9
$CHAMFERC
 40
20.0
  9
$CHAMFERD
 40
0.0
  9
$SKPOLY
 70
     0
  9
$TDCREATE
 40
2456689.422476482
  9
$TDUPDATE
 40
2456689.422477002
  9
$TDINDWG
 40
0.0000000116
  9
$TDUSRTIMER
 40
0.0000000116
  9
$USRTIMER
 70
     1
  9
$ANGBASE
 50
0.0
  9
$ANGDIR
 70
     0
  9
$PDMODE
 70
     0
  9
$PDSIZE
 40
-1.0
  9
$PLINEWID
 40
0.0
  9
$COORDS
 70
     1
  9
$SPLFRAME
 70
     0
  9
$SPLINETYPE
 70
     6
  9
$SPLINESEGS
 70
     8
  9
$ATTDIA
 70
     0
  9
$ATTREQ
 70
     1
  9
$HANDLING
 70
     1
  9
$HANDSEED
  5
2E6
  9
$SURFTAB1
 70
     6
  9
$SURFTAB2
 70
     6
  9
$SURFTYPE
 70
     6
  9
$SURFU
 70
     6
  9
$SURFV
 70
     6
  9
$UCSNAME
  2

  9
$UCSORG
 10
0.0
 20
0.0
 30
0.0
  9
$UCSXDIR
 10
1.0
 20
0.0
 30
0.0
  9
$UCSYDIR
 10
0.0
 20
1.0
 30
0.0
  9
$PUCSNAME
  2

  9
$PUCSORG
 10
0.0
 20
0.0
 30
0.0
  9
$PUCSXDIR
 10
1.0
 20
0.0
 30
0.0
  9
$PUCSYDIR
 10
0.0
 20
1.0
 30
0.0
  9
$USERI1
 70
     0
  9
$USERI2
 70
     0
  9
$USERI3
 70
     0
  9
$USERI4
 70
     0
  9
$USERI5
 70
     0
  9
$USERR1
 40
0.0
  9
$USERR2
 40
0.0
  9
$USERR3
 40
0.0
  9
$USERR4
 40
0.0
  9
$USERR5
 40
0.0
  9
$WORLDVIEW
 70
     1
  9
$SHADEDGE
 70
     3
  9
$SHADEDIF
 70
    70
  9
$TILEMODE
 70
     1
  9
$MAXACTVP
 70
    64
  9
$PINSBASE
 10
0.0
 20
0.0
 30
0.0
  9
$PLIMCHECK
 70
     0
  9
$PEXTMIN
 10
1.0000000000E+20
 20
1.0000000000E+20
 30
1.0000000000E+20
  9
$PEXTMAX
 10
-1.0000000000E+20
 20
-1.0000000000E+20
 30
-1.0000000000E+20
  9
$PLIMMIN
 10
0.0
 20
0.0
  9
$PLIMMAX
 10
420.0
 20
297.0
  9
$UNITMODE
 70
     0
  9
$VISRETAIN
 70
     1
  9
$PLINEGEN
 70
     0
  9
$PSLTSCALE
 70
     1
  9
$TREEDEPTH
 70
  3020
  9
$PICKSTYLE
 70
     1
  9
$CMLSTYLE
  2
STANDARD
  9
$CMLJUST
 70
     0
  9
$CMLSCALE
 40
20.0
  9
$PROXYGRAPHICS
 70
     1
  9
$MEASUREMENT
 70
     1
  0
ENDSEC
  0
SECTION
  2
CLASSES
  0
CLASS
  1
ACDBDICTIONARYWDFLT
  2
AcDbDictionaryWithDefault
  3
ObjectDBX Classes
 90
        0
280
     0
281
     0
  0
CLASS
  1
VISUALSTYLE
  2
AcDbVisualStyle
  3
ObjectDBX Classes
 90
     4095
280
     0
281
     0
  0
CLASS
  1
MATERIAL
  2
AcDbMaterial
  3
ObjectDBX Classes
 90
     1153
280
     0
281
     0
  0
CLASS
  1
XRECORD
  2
AcDbXrecord
  3
AutoCAD 2000
 90
        0
280
     0
281
     0
  0
CLASS
  1
LWPOLYLINE
  2
AcDbPolyline
  3
AutoCAD 2000
 90
        0
280
     0
281
     1
  0
CLASS
  1
HATCH
  2
AcDbHatch
  3
AutoCAD 2000
 90
        0
280
     0
281
     1
  0
ENDSEC
  0
SECTION
  2
TABLES
  0
TABLE
  2
VPORT
  5
8
330
0
100
AcDbSymbolTable
 70
     1
  0
VPORT
  5
29
330
8
100
AcDbSymbolTableRecord
100
AcDbViewportTableRecord
  2
*ACTIVE
 70
     0
 10
0.0
 20
0.0
 11
1.0
 21
1.0
 12
315.0
 22
222.75
 13
0.0
 23
0.0
 14
10.0
 24
10.0
 15
10.0
 25
10.0
 16
0.0
 26
0.0
 36
1.0
 17
0.0
 27
0.0
 37
0.0
 40
445.5
 41
1.4141414141
 42
50.0
 43
0.0
 44
0.0
 50
0.0
 51
0.0
 71
     0
 72
  2000
 73
     1
 74
     3
 75
     0
 76
     0
 77
     0
 78
     0
  0
ENDTAB
  0
TABLE
  2
LTYPE
  5
5
330
0
100
AcDbSymbolTable
 70
     6
  0
LTYPE
  5
14
330
5
100
AcDbSymbolTableRecord
100
AcDbLinetypeTableRecord
  2
BYBLOCK
 70
     0
  3

 72
    65
 73
     0
 40
0.0
  0
LTYPE
  5
15
330
5
100
AcDbSymbolTableRecord
100
AcDbLinetypeTableRecord
  2
BYLAYER
 70
     0
  3

 72
    65
 73
     0
 40
0.0
  0
LTYPE
  5
16
330
5
100
AcDbSymbolTableRecord
100
AcDbLinetypeTableRecord
  2
CONTINUOUS
 70
     0
  3
Solid line
 72
    65
 73
     0
 40
0.0
  0
LTYPE
  5
3F
330
5
100
AcDbSymbolTableRecord
100
AcDbLinetypeTableRecord
  2
HIDDEN
 70
     0
  3
Hidden __ __ __ __ __ __ __ __ __ __ __ __ __ __
 72
    65
 73
     2
 40
1.905
 49
1.27
 74
     0
 49
-0.635
 74
     0
  0
LTYPE
  5
40
330
5
100
AcDbSymbolTableRecord
100
AcDbLinetypeTableRecord
  2
PHANTOM
 70
     0
  3
Phantom ______  __  __  ______  __  __  ______
 72
    65
 73
     6
 40
12.7
 49
6.35
 74
     0
 49
-1.27
 74
     0
 49
1.27
 74
     0
 49
-1.27
 74
     0
 49
1.27
 74
     0
 49
-1.27
 74
     0
  0
LTYPE
  5
41
330
5
100
AcDbSymbolTableRecord
100
AcDbLinetypeTableRecord
  2
CENTER
 70
     0
  3
Center ____ _ ____ _ ____ _ ____ _ ____ _ ____
 72
    65
 73
     4
 40
10.16
 49
6.35
 74
     0
 49
-1.27
 74
     0
 49
1.27
 74
     0
 49
-1.27
 74
     0
  0
LTYPE
  5
42
330
5
100
AcDbSymbolTableRecord
100
AcDbLinetypeTableRecord
  2
CENTERX2
 70
     0
  3
Center (2x) ________  __  ________  __  _____
 72
    65
 73
     4
 40
20.32
 49
12.7
 74
     0
 49
-2.54
 74
     0
 49
2.54
 74
     0
 49
-2.54
 74
     0
  0
LTYPE
  5
43
330
5
100
AcDbSymbolTableRecord
100
AcDbLinetypeTableRecord
  2
DOT2
 70
     0
  3
Dot (.5x) ........................................
 72
    65
 73
     2
 40
0.635
 49
0.0
 74
     0
 49
-0.635
 74
     0
  0
ENDTAB
  0
TABLE
  2
LAYER
  5
2
330
0
100
AcDbSymbolTable
 70
     1
  0
LAYER
  5
10
330
2
100
AcDbSymbolTableRecord
100
AcDbLayerTableRecord
  2
0
 70
     0
 62
     7
  6
CONTINUOUS
  0
ENDTAB
  0
TABLE
  2
STYLE
  5
3
330
0
100
AcDbSymbolTable
 70
     1
  0
STYLE
  5
11
330
3
100
AcDbSymbolTableRecord
100
AcDbTextStyleTableRecord
  2
STANDARD
 70
     0
 40
0.0
 41
1.0
 50
0.0
 71
     0
 42
5.25
  3
txt
  4

  0
ENDTAB
  0
TABLE
  2
VIEW
  5
6
330
0
100
AcDbSymbolTable
 70
     0
  0
ENDTAB
  0
TABLE
  2
UCS
  5
7
330
0
100
AcDbSymbolTable
 70
     0
  0
ENDTAB
  0
TABLE
  2
APPID
  5
9
330
0
100
AcDbSymbolTable
 70
     1
  0
APPID
  5
12
330
9
100
AcDbSymbolTableRecord
100
AcDbRegAppTableRecord
  2
ACAD
 70
     0
  0
ENDTAB
  0
TABLE
  2
DIMSTYLE
  5
A
330
0
100
AcDbSymbolTable
 70
     1
  0
DIMSTYLE
105
27
330
A
100
AcDbSymbolTableRecord
100
AcDbDimStyleTableRecord
  2
ISO-25
 70
     0
  3

  4

  5

  6

  7

 40
1.0
 41
2.5
 42
0.625
 43
3.75
 44
1.25
 45
0.0
 46
0.0
 47
0.0
 48
0.0
140
2.5
141
2.5
142
0.0
143
0.0393700787
144
1.0
145
0.0
146
1.0
147
0.625
 71
     0
 72
     0
 73
     0
 74
     0
 75
     0
 76
     0
 77
     1
 78
     8
170
     0
171
     3
172
     1
173
     0
174
     0
175
     0
176
     0
177
     0
178
     0
270
     2
271
     2
272
     2
273
     2
274
     3
340
11
275
     0
280
     0
281
     0
282
     0
283
     0
284
     8
285
     0
286
     0
287
     3
288
     0
  0
ENDTAB
  0
TABLE
  2
BLOCK_RECORD
  5
1
330
0
100
AcDbSymbolTable
 70
     1
  0
BLOCK_RECORD
  5
1F
330
1
100
AcDbSymbolTableRecord
100
AcDbBlockTableRecord
  2
*MODEL_SPACE
  0
BLOCK_RECORD
  5
1B
330
1
100
AcDbSymbolTableRecord
100
AcDbBlockTableRecord
  2
*PAPER_SPACE
  0
BLOCK_RECORD
  5
23
330
1
100
AcDbSymbolTableRecord
100
AcDbBlockTableRecord
  2
*PAPER_SPACE0
  0
ENDTAB
  0
ENDSEC
  0
SECTION
  2
BLOCKS
  0
BLOCK
  5
20
330
1F
100
AcDbEntity
  8
0
100
AcDbBlockBegin
  2
*MODEL_SPACE
 70
     0
 10
0.0
 20
0.0
 30
0.0
  3
*MODEL_SPACE
  1

  0
ENDBLK
  5
21
330
1F
100
AcDbEntity
  8
0
100
AcDbBlockEnd
  0
BLOCK
  5
1C
330
1B
100
AcDbEntity
 67
     1
  8
0
100
AcDbBlockBegin
  2
*PAPER_SPACE
 70
     0
 10
0.0
 20
0.0
 30
0.0
  3
*PAPER_SPACE
  1

  0
ENDBLK
  5
1D
330
1B
100
AcDbEntity
 67
     1
  8
0
100
AcDbBlockEnd
  0
BLOCK
  5
24
330
23
100
AcDbEntity
  8
0
100
AcDbBlockBegin
  2
*PAPER_SPACE0
 70
     0
 10
0.0
 20
0.0
 30
0.0
  3
*PAPER_SPACE0
  1

  0
ENDBLK
  5
25
330
23
100
AcDbEntity
  8
0
100
AcDbBlockEnd
  0
ENDSEC
  0
SECTION
  2
ENTITIES
  0
ARC
  5
44
330
1F
100
AcDbEntity
  8
0
  6
CONTINUOUS
 62
     7
100
AcDbCircle
 10
150.1944843393
 20
184.2774898066
 30
0.0
 40
4.639278882354091
100
AcDbArc
 50
179.9999999998
 51
270.0
  0
LINE
  5
45
330
1F
100
AcDbEntity
  8
0
  6
CONTINUOUS
 62
     7
100
AcDbLine
 10
150.1944860023
 20
179.6120244755
 30
0.0
 11
150.1944860023
 21
179.6382095411
 31
0.0
  0
ARC
  5
46
330
1F
100
AcDbEntity
  8
0
  6
CONTINUOUS
 62
     7
100
AcDbCircle
 10
150.1944843393
 20
184.2774898066
 30
0.0
 40
4.665464803921481
100
AcDbArc
 50
180.0
 51
270.0
  0
LINE
  5
47
330
1F
100
AcDbEntity
  8
0
  6
CONTINUOUS
 62
     7
100
AcDbLine
 10
145.5552069049
 20
184.2774886384
 30
0.0
 11
145.5290181141
 21
184.2774886384
 31
0.0
  0
LINE
  5
48
330
1F
100
AcDbEntity
  8
0
  6
CONTINUOUS
 62
     7
100
AcDbLine
 10
150.1944860023
 20
179.6382095411
 30
0.0
 11
263.9944826763
 21
179.6382095411
 31
0.0
  0
LINE
  5
49
330
1F
100
AcDbEntity
  8
0
  6
CONTINUOUS
 62
     7
100
AcDbLine
 10
263.9944826763
 20
179.6382095411
 30
0.0
 11
263.9944826763
 21
179.6120244755
 31
0.0
  0
LINE
  5
4A
330
1F
100
AcDbEntity
  8
0
  6
CONTINUOUS
 62
     7
100
AcDbLine
 10
263.9944826763
 20
179.6120244755
 30
0.0
 11
150.1944860023
 21
179.6120244755
 31
0.0
  0
LINE
  5
4B
330
1F
100
AcDbEntity
  8
0
  6
CONTINUOUS
 62
     7
100
AcDbLine
 10
145.5290181141
 20
253.0774909749
 30
0.0
 11
145.5552069049
 21
253.0774909749
 31
0.0
  0
LINE
  5
4C
330
1F
100
AcDbEntity
  8
0
  6
CONTINUOUS
 62
     7
100
AcDbLine
 10
145.5552069049
 20
253.0774909749
 30
0.0
 11
145.5552069049
 21
200.9354557588
 31
0.0
  0
LINE
  5
4D
330
1F
100
AcDbEntity
  8
0
  6
CONTINUOUS
 62
     7
100
AcDbLine
 10
145.5552069049
 20
200.9354557588
 30
0.0
 11
145.5290181141
 21
200.9267292663
 31
0.0
  0
LINE
  5
4E
330
1F
100
AcDbEntity
  8
0
  6
CONTINUOUS
 62
     7
100
AcDbLine
 10
145.5290181141
 20
200.9267292663
 30
0.0
 11
145.5290181141
 21
253.0774909749
 31
0.0
  0
ELLIPSE
  5
4F
330
1F
100
AcDbEntity
  8
0
  6
CONTINUOUS
 62
     7
100
AcDbEllipse
 10
150.8530588935
 20
192.9360643609
 30
0.0
 11
-2.828642524523559
 21
-2.828642524523559
 31
0.0
210
0.0
220
0.0
230
1.0
 40
0.9999238505
 41
2.356232566402352
 42
3.926952740776311
  0
LINE
  5
50
330
1F
100
AcDbEntity
  8
0
  6
CONTINUOUS
 62
     7
100
AcDbLine
 10
149.555662046
 20
196.936216925
 30
0.0
 11
150.8533631962
 21
196.936216925
 31
0.0
  0
ELLIPSE
  5
51
330
1F
100
AcDbEntity
  8
0
  6
CONTINUOUS
 62
     7
100
AcDbEllipse
 10
149.5565766269
 20
200.936368988
 30
0.0
 11
3.796255538575196
 21
1.265161514272052
 31
0.0
210
0.0
220
0.0
230
1.0
 40
0.9996192872
 41
2.820017228190767
 42
4.390585120915484
  0
ARC
  5
52
330
1F
100
AcDbEntity
  8
0
  6
CONTINUOUS
 62
     7
100
AcDbCircle
 10
150.1944843393
 20
253.0774898066
 30
0.0
 40
4.639278882354091
100
AcDbArc
 50
90.0
 51
179.9999999991
  0
LINE
  5
53
330
1F
100
AcDbEntity
  8
0
  6
CONTINUOUS
 62
     7
100
AcDbLine
 10
263.9944826763
 20
257.7167700722
 30
0.0
 11
150.1944860023
 21
257.7167700722
 31
0.0
  0
ARC
  5
54
330
1F
100
AcDbEntity
  8
0
  6
CONTINUOUS
 62
     7
100
AcDbCircle
 10
263.9944843393
 20
253.0774898066
 30
0.0
 40
4.639278882354091
100
AcDbArc
 50
0.0000000002
 51
90.0
  0
LINE
  5
55
330
1F
100
AcDbEntity
  8
0
  6
CONTINUOUS
 62
     7
100
AcDbLine
 10
268.6337617736
 20
249.9010029926
 30
0.0
 11
268.6337617736
 21
253.0774909749
 31
0.0
  0
ELLIPSE
  5
56
330
1F
100
AcDbEntity
  8
0
  6
CONTINUOUS
 62
     7
100
AcDbEllipse
 10
267.6334204291
 20
249.9014595373
 30
0.0
 11
0.8324947319635498
 21
-0.5549260338396493
 31
0.0
210
0.0
220
0.0
230
1.0
 40
0.9995051766
 41
5.300561438683591
 42
6.870900914719296
  0
LINE
  5
57
330
1F
100
AcDbEntity
  8
0
  6
CONTINUOUS
 62
     7
100
AcDbLine
 10
259.3357575636
 20
248.9013064398
 30
0.0
 11
267.6338789564
 21
248.9013064398
 31
0.0
  0
LINE
  5
58
330
1F
100
AcDbEntity
  8
0
  6
CONTINUOUS
 62
     7
100
AcDbLine
 10
259.3357575636
 20
244.418610607
 30
0.0
 11
259.3357575636
 21
248.9013064398
 31
0.0
  0
ELLIPSE
  5
59
330
1F
100
AcDbEntity
  8
0
  6
CONTINUOUS
 62
     7
100
AcDbEllipse
 10
263.335909785
 20
244.4189152524
 30
0.0
 11
2.828642524523503
 21
2.82864252452356
 31
0.0
210
0.0
220
0.0
230
1.0
 40
0.9999238505
 41
2.356232566402344
 42
3.926952740776988
  0
LINE
  5
5A
330
1F
100
AcDbEntity
  8
0
  6
CONTINUOUS
 62
     7
100
AcDbLine
 10
264.6333066326
 20
240.4187626882
 30
0.0
 11
263.3356054824
 21
240.4187626882
 31
0.0
  0
ELLIPSE
  5
5B
330
1F
100
AcDbEntity
  8
0
  6
CONTINUOUS
 62
     7
100
AcDbEllipse
 10
264.6323920517
 20
236.4186106253
 30
0.0
 11
-3.796255538575168
 21
-1.265161514272052
 31
0.0
210
0.0
220
0.0
230
1.0
 40
0.9996192872
 41
2.820017228190759
 42
4.390585120915473
  0
LINE
  5
5C
330
1F
100
AcDbEntity
  8
0
  6
CONTINUOUS
 62
     7
100
AcDbLine
 10
268.6337617736
 20
184.2774886384
 30
0.0
 11
268.6337617736
 21
236.4195238545
 31
0.0
  0
ARC
  5
5D
330
1F
100
AcDbEntity
  8
0
  6
CONTINUOUS
 62
     7
100
AcDbCircle
 10
263.9944843393
 20
184.2774898066
 30
0.0
 40
4.639278882354091
100
AcDbArc
 50
270.0
 51
0.0000000009
  0
LINE
  5
5E
330
1F
100
AcDbEntity
  8
0
  6
CONTINUOUS
 62
     7
100
AcDbLine
 10
145.5552069049
 20
187.4539766206
 30
0.0
 11
145.5552069049
 21
184.2774886384
 31
0.0
  0
ELLIPSE
  5
5F
330
1F
100
AcDbEntity
  8
0
  6
CONTINUOUS
 62
     7
100
AcDbEllipse
 10
146.5555482494
 20
187.453520076
 30
0.0
 11
-0.8324947319635214
 21
0.5549260338396778
 31
0.0
210
0.0
220
0.0
230
1.0
 40
0.9995051766
 41
5.300561438683602
 42
6.870900914719478
  0
LINE
  5
60
330
1F
100
AcDbEntity
  8
0
  6
CONTINUOUS
 62
     7
100
AcDbLine
 10
154.8532111149
 20
188.4536731734
 30
0.0
 11
146.5550897222
 21
188.4536731734
 31
0.0
  0
LINE
  5
61
330
1F
100
AcDbEntity
  8
0
  6
CONTINUOUS
 62
     7
100
AcDbLine
 10
154.8532111149
 20
192.9363690062
 30
0.0
 11
154.8532111149
 21
188.4536731734
 31
0.0
  0
CIRCLE
  5
62
330
1F
100
AcDbEntity
  8
0
  6
CONTINUOUS
 62
     7
100
AcDbCircle
 10
264.3444843393
 20
183.9274898066
 30
0.0
 40
3.13092960784644
  0
CIRCLE
  5
63
330
1F
100
AcDbEntity
  8
0
  6
CONTINUOUS
 62
     7
100
AcDbCircle
 10
264.3444843393
 20
253.4274898066
 30
0.0
 40
3.130929607846411
  0
CIRCLE
  5
64
330
1F
100
AcDbEntity
  8
0
  6
CONTINUOUS
 62
     7
100
AcDbCircle
 10
149.8444843393
 20
183.9274898066
 30
0.0
 40
3.13092960784644
  0
CIRCLE
  5
65
330
1F
100
AcDbEntity
  8
0
  6
CONTINUOUS
 62
     7
100
AcDbCircle
 10
149.8444843393
 20
253.4274898066
 30
0.0
 40
3.130929607846411
  0
LINE
  5
66
330
1F
100
AcDbEntity
  8
0
  6
CONTINUOUS
 62
     7
100
AcDbLine
 10
263.3175415497
 20
239.4013076766
 30
0.0
 11
264.3686359327
 21
239.4013076766
 31
0.0
  0
ELLIPSE
  5
67
330
1F
100
AcDbEntity
  8
0
  6
CONTINUOUS
 62
     7
100
AcDbEllipse
 10
263.3190633821
 20
244.4020688494
 30
0.0
 11
3.536610945847883
 21
3.536610945847911
 31
0.0
210
0.0
220
0.0
230
1.0
 40
0.9996954599
 41
2.3563467834394
 42
3.926838523739658
  0
LINE
  5
68
330
1F
100
AcDbEntity
  8
0
  6
CONTINUOUS
 62
     7
100
AcDbLine
 10
258.318302552
 20
253.451640506
 30
0.0
 11
258.318302552
 21
244.4005448117
 31
0.0
  0
ELLIPSE
  5
69
330
1F
100
AcDbEntity
  8
0
  6
CONTINUOUS
 62
     7
100
AcDbEllipse
 10
256.1179666202
 20
253.4509720875
 30
0.0
 11
1.556108816173093
 21
1.556108816173065
 31
0.0
210
0.0
220
0.0
230
1.0
 40
0.9996954599
 41
5.497939437029737
 42
7.068431177329466
  0
LINE
  5
6A
330
1F
100
AcDbEntity
  8
0
  6
CONTINUOUS
 62
     7
100
AcDbLine
 10
157.3203330439
 20
255.6513089432
 30
0.0
 11
256.1186378401
 21
255.6513089432
 31
0.0
  0
ELLIPSE
  5
6B
330
1F
100
AcDbEntity
  8
0
  6
CONTINUOUS
 62
     7
100
AcDbEllipse
 10
157.3210020584
 20
253.4509720875
 30
0.0
 11
1.556108816173065
 21
-1.556108816173093
 31
0.0
210
0.0
220
0.0
230
1.0
 40
0.9996954599
 41
2.356346783439927
 42
3.926838523739692
  0
LINE
  5
6C
330
1F
100
AcDbEntity
  8
0
  6
CONTINUOUS
 62
     7
100
AcDbLine
 10
155.1206683319
 20
253.0505459501
 30
0.0
 11
155.1206683319
 21
253.451640506
 31
0.0
  0
ELLIPSE
  5
6D
330
1F
100
AcDbEntity
  8
0
  6
CONTINUOUS
 62
     7
100
AcDbEllipse
 10
150.1199052965
 20
253.0520688494
 30
0.0
 11
-3.536610945847883
 21
3.53661094584794
 31
0.0
210
0.0
220
0.0
230
1.0
 40
0.9996954599
 41
2.356346783439933
 42
3.926838523739849
  0
LINE
  5
6E
330
1F
100
AcDbEntity
  8
0
  6
CONTINUOUS
 62
     7
100
AcDbLine
 10
149.8203327458
 20
248.0513069524
 30
0.0
 11
150.1214293342
 21
248.0513069524
 31
0.0
  0
ELLIPSE
  5
6F
330
1F
100
AcDbEntity
  8
0
  6
CONTINUOUS
 62
     7
100
AcDbEllipse
 10
149.8210020584
 20
245.8509720875
 30
0.0
 11
-1.556108816173065
 21
1.556108816173065
 31
0.0
210
0.0
220
0.0
230
1.0
 40
0.9996954599
 41
5.497939437029729
 42
7.068431177329457
  0
LINE
  5
70
330
1F
100
AcDbEntity
  8
0
  6
CONTINUOUS
 62
     7
100
AcDbLine
 10
147.6206680339
 20
245.8516422405
 30
0.0
 11
147.6206680339
 21
200.1533366486
 31
0.0
  0
ELLIPSE
  5
71
330
1F
100
AcDbEntity
  8
0
  6
CONTINUOUS
 62
     7
100
AcDbEllipse
 10
149.8210020584
 20
200.1540075257
 30
0.0
 11
-1.556108816173065
 21
-1.556108816173065
 31
0.0
210
0.0
220
0.0
230
1.0
 40
0.9996954599
 41
5.497939437029742
 42
7.068431177329457
  0
LINE
  5
72
330
1F
100
AcDbEntity
  8
0
  6
CONTINUOUS
 62
     7
100
AcDbLine
 10
150.8714271288
 20
197.9536719366
 30
0.0
 11
149.8203327458
 21
197.9536719366
 31
0.0
  0
ELLIPSE
  5
73
330
1F
100
AcDbEntity
  8
0
  6
CONTINUOUS
 62
     7
100
AcDbEllipse
 10
150.8699052965
 20
192.9529107638
 30
0.0
 11
-3.536610945847883
 21
-3.536610945847883
 31
0.0
210
0.0
220
0.0
230
1.0
 40
0.9996954599
 41
2.356346783439402
 42
3.926838523739892
  0
LINE
  5
74
330
1F
100
AcDbEntity
  8
0
  6
CONTINUOUS
 62
     7
100
AcDbLine
 10
155.8706661265
 20
183.9033391072
 30
0.0
 11
155.8706661265
 21
192.9544348015
 31
0.0
  0
ELLIPSE
  5
75
330
1F
100
AcDbEntity
  8
0
  6
CONTINUOUS
 62
     7
100
AcDbEllipse
 10
158.0710020584
 20
183.9040075257
 30
0.0
 11
-1.556108816173093
 21
-1.556108816173065
 31
0.0
210
0.0
220
0.0
230
1.0
 40
0.9996954599
 41
5.497939437029741
 42
7.068431177329463
  0
LINE
  5
76
330
1F
100
AcDbEntity
  8
0
  6
CONTINUOUS
 62
     7
100
AcDbLine
 10
158.0703308385
 20
181.70367067
 30
0.0
 11
256.8686356347
 21
181.70367067
 31
0.0
  0
ELLIPSE
  5
77
330
1F
100
AcDbEntity
  8
0
  6
CONTINUOUS
 62
     7
100
AcDbEllipse
 10
256.8679666202
 20
183.9040075257
 30
0.0
 11
-1.556108816173065
 21
1.556108816173065
 31
0.0
210
0.0
220
0.0
230
1.0
 40
0.9996954599
 41
2.356346783439922
 42
3.926838523739666
  0
LINE
  5
78
330
1F
100
AcDbEntity
  8
0
  6
CONTINUOUS
 62
     7
100
AcDbLine
 10
259.0683003467
 20
184.3044336631
 30
0.0
 11
259.0683003467
 21
183.9033391072
 31
0.0
  0
ELLIPSE
  5
79
330
1F
100
AcDbEntity
  8
0
  6
CONTINUOUS
 62
     7
100
AcDbEllipse
 10
264.0690633821
 20
184.3029107638
 30
0.0
 11
3.536610945847883
 21
-3.536610945847911
 31
0.0
210
0.0
220
0.0
230
1.0
 40
0.9996954599
 41
2.356346783439415
 42
3.926838523739835
  0
LINE
  5
7A
330
1F
100
AcDbEntity
  8
0
  6
CONTINUOUS
 62
     7
100
AcDbLine
 10
264.3686359327
 20
189.3036726608
 30
0.0
 11
264.0675393444
 21
189.3036726608
 31
0.0
  0
ELLIPSE
  5
7B
330
1F
100
AcDbEntity
  8
0
  6
CONTINUOUS
 62
     7
100
AcDbEllipse
 10
264.3679666202
 20
191.5040075257
 30
0.0
 11
1.556108816173093
 21
-1.556108816173065
 31
0.0
210
0.0
220
0.0
230
1.0
 40
0.9996954599
 41
5.49793943702975
 42
7.068431177329431
  0
LINE
  5
7C
330
1F
100
AcDbEntity
  8
0
  6
CONTINUOUS
 62
     7
100
AcDbLine
 10
266.5683006447
 20
191.5033373727
 30
0.0
 11
266.5683006447
 21
237.2016429647
 31
0.0
  0
ELLIPSE
  5
7D
330
1F
100
AcDbEntity
  8
0
  6
CONTINUOUS
 62
     7
100
AcDbEllipse
 10
264.3679666202
 20
237.2009720875
 30
0.0
 11
-1.556108816173037
 21
-1.556108816173094
 31
0.0
210
0.0
220
0.0
230
1.0
 40
0.9996954599
 41
2.356346783439912
 42
3.926838523739625
  0
LINE
  5
7E
330
1F
100
AcDbEntity
  8
0
  6
CONTINUOUS
 62
     7
100
AcDbLine
 10
268.6599505644
 20
184.2774886384
 30
0.0
 11
268.6337617736
 21
184.2774886384
 31
0.0
  0
LINE
  5
7F
330
1F
100
AcDbEntity
  8
0
  6
CONTINUOUS
 62
     7
100
AcDbLine
 10
268.6337617736
 20
236.4195238545
 30
0.0
 11
268.6599505644
 21
236.428250347
 31
0.0
  0
LINE
  5
80
330
1F
100
AcDbEntity
  8
0
  6
CONTINUOUS
 62
     7
100
AcDbLine
 10
268.6599505644
 20
236.428250347
 30
0.0
 11
268.6599505644
 21
184.2774886384
 31
0.0
  0
ARC
  5
81
330
1F
100
AcDbEntity
  8
0
  6
CONTINUOUS
 62
     7
100
AcDbCircle
 10
150.1944843393
 20
253.0774898066
 30
0.0
 40
4.665464803921537
100
AcDbArc
 50
90.0
 51
179.9999999992
  0
LINE
  5
82
330
1F
100
AcDbEntity
  8
0
  6
CONTINUOUS
 62
     7
100
AcDbLine
 10
150.1944860023
 20
257.7167700722
 30
0.0
 11
150.1944860023
 21
257.7429551377
 31
0.0
  0
ARC
  5
83
330
1F
100
AcDbEntity
  8
0
  6
CONTINUOUS
 62
     7
100
AcDbCircle
 10
263.9944843393
 20
184.2774898066
 30
0.0
 40
4.665464803921481
100
AcDbArc
 50
270.0
 51
0.0000000008
  0
ELLIPSE
  5
84
330
1F
100
AcDbEntity
  8
0
  6
CONTINUOUS
 62
     7
100
AcDbEllipse
 10
149.5303907053
 20
200.9276421202
 30
0.0
 11
3.796255538575195
 21
1.265161514272023
 31
0.0
210
0.0
220
0.0
230
1.0
 40
0.9996192872
 41
2.820017228191918
 42
4.390585120915461
  0
LINE
  5
85
330
1F
100
AcDbEntity
  8
0
  6
CONTINUOUS
 62
     7
100
AcDbLine
 10
149.5294769805
 20
196.9274904325
 30
0.0
 11
149.555662046
 21
196.936216925
 31
0.0
  0
ELLIPSE
  5
86
330
1F
100
AcDbEntity
  8
0
  6
CONTINUOUS
 62
     7
100
AcDbEllipse
 10
264.6585779733
 20
236.4273374931
 30
0.0
 11
-3.796255538575223
 21
-1.265161514271995
 31
0.0
210
0.0
220
0.0
230
1.0
 40
0.9996192872
 41
2.820017228191926
 42
4.390585120915478
  0
LINE
  5
87
330
1F
100
AcDbEntity
  8
0
  6
CONTINUOUS
 62
     7
100
AcDbLine
 10
264.6594916981
 20
240.4274891808
 30
0.0
 11
264.6333066326
 21
240.4187626882
 31
0.0
  0
LINE
  5
88
330
1F
100
AcDbEntity
  8
0
  6
CONTINUOUS
 62
     7
100
AcDbLine
 10
262.7502506178
 20
238.8340167447
 30
0.0
 11
263.3175415497
 21
239.4013076766
 31
0.0
  0
LINE
  5
89
330
1F
100
AcDbEntity
  8
0
  6
CONTINUOUS
 62
     7
100
AcDbLine
 10
263.8013487261
 20
238.8340167447
 30
0.0
 11
264.3686359327
 21
239.4013076766
 31
0.0
  0
LINE
  5
8A
330
1F
100
AcDbEntity
  8
0
  6
CONTINUOUS
 62
     7
100
AcDbLine
 10
263.8013487261
 20
238.8340167447
 30
0.0
 11
262.7502506178
 21
238.8340167447
 31
0.0
  0
LINE
  5
8B
330
1F
100
AcDbEntity
  8
0
  6
CONTINUOUS
 62
     7
100
AcDbLine
 10
264.0675393444
 20
189.3036726608
 30
0.0
 11
263.5002521377
 21
189.8709617301
 31
0.0
  0
LINE
  5
8C
330
1F
100
AcDbEntity
  8
0
  6
CONTINUOUS
 62
     7
100
AcDbLine
 10
263.5002521377
 20
189.8709617301
 30
0.0
 11
263.8013487261
 21
189.8709617301
 31
0.0
  0
LINE
  5
8D
330
1F
100
AcDbEntity
  8
0
  6
CONTINUOUS
 62
     7
100
AcDbLine
 10
264.3686359327
 20
189.3036726608
 30
0.0
 11
263.8013487261
 21
189.8709617301
 31
0.0
  0
ELLIPSE
  5
8E
330
1F
100
AcDbEntity
  8
0
  6
CONTINUOUS
 62
     7
100
AcDbEllipse
 10
150.7919252962
 20
252.3800488497
 30
0.0
 11
-3.536610945847883
 21
3.536610945847911
 31
0.0
210
0.0
220
0.0
230
1.0
 40
0.9996954599
 41
3.457822523916582
 42
3.926838523739831
  0
ELLIPSE
  5
8F
330
1F
100
AcDbEntity
  8
0
  6
CONTINUOUS
 62
     7
100
AcDbEllipse
 10
150.6871949066
 20
252.4847792393
 30
0.0
 11
-3.536610945847883
 21
3.53661094584794
 31
0.0
210
0.0
220
0.0
230
1.0
 40
0.9996954599
 41
2.356346783439935
 42
3.47326009148839
  0
LINE
  5
90
330
1F
100
AcDbEntity
  8
0
  6
CONTINUOUS
 62
     7
100
AcDbLine
 10
150.1214293342
 20
248.0513069524
 30
0.0
 11
150.6887165409
 21
247.4840178831
 31
0.0
  0
LINE
  5
91
330
1F
100
AcDbEntity
  8
0
  6
CONTINUOUS
 62
     7
100
AcDbLine
 10
155.79268835
 20
252.378525932
 30
0.0
 11
155.1206683319
 21
253.0505459501
 31
0.0
  0
LINE
  5
92
330
1F
100
AcDbEntity
  8
0
  6
CONTINUOUS
 62
     7
100
AcDbLine
 10
155.79268835
 20
252.7796204879
 30
0.0
 11
155.1206683319
 21
253.451640506
 31
0.0
  0
LINE
  5
93
330
1F
100
AcDbEntity
  8
0
  6
CONTINUOUS
 62
     7
100
AcDbLine
 10
155.79268835
 20
252.7796204879
 30
0.0
 11
155.79268835
 21
252.378525932
 31
0.0
  0
LINE
  5
94
330
1F
100
AcDbEntity
  8
0
  6
CONTINUOUS
 62
     7
100
AcDbLine
 10
151.4387180608
 20
198.5209628685
 30
0.0
 11
150.8714271288
 21
197.9536719366
 31
0.0
  0
LINE
  5
95
330
1F
100
AcDbEntity
  8
0
  6
CONTINUOUS
 62
     7
100
AcDbLine
 10
150.3876199525
 20
198.5209628685
 30
0.0
 11
149.8203327458
 21
197.9536719366
 31
0.0
  0
LINE
  5
96
330
1F
100
AcDbEntity
  8
0
  6
CONTINUOUS
 62
     7
100
AcDbLine
 10
150.3876199525
 20
198.5209628685
 30
0.0
 11
151.4387180608
 21
198.5209628685
 31
0.0
  0
LINE
  5
97
330
1F
100
AcDbEntity
  8
0
  6
CONTINUOUS
 62
     7
100
AcDbLine
 10
150.6887165409
 20
247.4840178831
 30
0.0
 11
150.3876199525
 21
247.4840178831
 31
0.0
  0
LINE
  5
98
330
1F
100
AcDbEntity
  8
0
  6
CONTINUOUS
 62
     7
100
AcDbLine
 10
149.8203327458
 20
248.0513069524
 30
0.0
 11
150.3876199525
 21
247.4840178831
 31
0.0
  0
LINE
  5
99
330
1F
100
AcDbEntity
  8
0
  6
CONTINUOUS
 62
     7
100
AcDbLine
 10
258.3962803286
 20
184.9764536812
 30
0.0
 11
259.0683003467
 21
184.3044336631
 31
0.0
  0
LINE
  5
9A
330
1F
100
AcDbEntity
  8
0
  6
CONTINUOUS
 62
     7
100
AcDbLine
 10
258.3962803286
 20
184.5753591253
 30
0.0
 11
259.0683003467
 21
183.9033391072
 31
0.0
  0
LINE
  5
9B
330
1F
100
AcDbEntity
  8
0
  6
CONTINUOUS
 62
     7
100
AcDbLine
 10
258.3962803286
 20
184.5753591253
 30
0.0
 11
258.3962803286
 21
184.9764536812
 31
0.0
  0
ELLIPSE
  5
9C
330
1F
100
AcDbEntity
  8
0
  6
CONTINUOUS
 62
     7
100
AcDbEllipse
 10
151.4371949066
 20
193.520200374
 30
0.0
 11
-3.536610945847883
 21
-3.53661094584794
 31
0.0
210
0.0
220
0.0
230
1.0
 40
0.9996954599
 41
3.067198047652462
 42
3.926838523739881
  0
ELLIPSE
  5
9D
330
1F
100
AcDbEntity
  8
0
  6
CONTINUOUS
 62
     7
100
AcDbEllipse
 10
151.5419252962
 20
193.6249307635
 30
0.0
 11
-3.536610945847912
 21
-3.536610945847941
 31
0.0
210
0.0
220
0.0
230
1.0
 40
0.9996954599
 41
2.356346783439396
 42
3.098723577617275
  0
LINE
  5
9E
330
1F
100
AcDbEntity
  8
0
  6
CONTINUOUS
 62
     7
100
AcDbLine
 10
155.8706661265
 20
192.9544348015
 30
0.0
 11
156.5426861446
 21
193.6264548196
 31
0.0
  0
ELLIPSE
  5
9F
330
1F
100
AcDbEntity
  8
0
  6
CONTINUOUS
 62
     7
100
AcDbEllipse
 10
262.7517737719
 20
243.8347792393
 30
0.0
 11
3.536610945847883
 21
3.536610945847911
 31
0.0
210
0.0
220
0.0
230
1.0
 40
0.9996954599
 41
3.067198047652466
 42
3.926838523739656
  0
ELLIPSE
  5
A0
330
1F
100
AcDbEntity
  8
0
  6
CONTINUOUS
 62
     7
100
AcDbEllipse
 10
262.6470433824
 20
243.7300488497
 30
0.0
 11
3.536610945847883
 21
3.53661094584794
 31
0.0
210
0.0
220
0.0
230
1.0
 40
0.9996954599
 41
2.356346783439396
 42
3.098723577617263
  0
LINE
  5
A1
330
1F
100
AcDbEntity
  8
0
  6
CONTINUOUS
 62
     7
100
AcDbLine
 10
258.318302552
 20
244.4005448117
 30
0.0
 11
257.6462825339
 21
243.7285247936
 31
0.0
  0
ELLIPSE
  5
A2
330
1F
100
AcDbEntity
  8
0
  6
CONTINUOUS
 62
     7
100
AcDbEllipse
 10
263.3970433824
 20
184.9749307635
 30
0.0
 11
3.536610945847883
 21
-3.536610945847883
 31
0.0
210
0.0
220
0.0
230
1.0
 40
0.9996954599
 41
3.457822523916573
 42
3.926838523739817
  0
ELLIPSE
  5
A3
330
1F
100
AcDbEntity
  8
0
  6
CONTINUOUS
 62
     7
100
AcDbEllipse
 10
263.5017737719
 20
184.870200374
 30
0.0
 11
3.536610945847883
 21
-3.536610945847911
 31
0.0
210
0.0
220
0.0
230
1.0
 40
0.9996954599
 41
2.356346783439415
 42
3.473260091488392
  0
ELLIPSE
  5
A4
330
1F
100
AcDbEntity
  8
0
  6
CONTINUOUS
 62
     7
100
AcDbEllipse
 10
157.9930220581
 20
252.7789520878
 30
0.0
 11
1.556108816173065
 21
-1.556108816173093
 31
0.0
210
0.0
220
0.0
230
1.0
 40
0.9996954599
 41
2.356346783439931
 42
3.926838523739687
  0
LINE
  5
A5
330
1F
100
AcDbEntity
  8
0
  6
CONTINUOUS
 62
     7
100
AcDbLine
 10
157.3203330439
 20
255.6513089432
 30
0.0
 11
157.992353062
 21
254.9792889251
 31
0.0
  0
ELLIPSE
  5
A6
330
1F
100
AcDbEntity
  8
0
  6
CONTINUOUS
 62
     7
100
AcDbEllipse
 10
256.1959466205
 20
184.5760275254
 30
0.0
 11
-1.556108816173093
 21
1.556108816173065
 31
0.0
210
0.0
220
0.0
230
1.0
 40
0.9996954599
 41
2.356346783439908
 42
3.926838523739661
  0
LINE
  5
A7
330
1F
100
AcDbEntity
  8
0
  6
CONTINUOUS
 62
     7
100
AcDbLine
 10
256.8686356347
 20
181.70367067
 30
0.0
 11
256.1966156166
 21
182.3756906881
 31
0.0
  0
LINE
  5
A8
330
1F
100
AcDbEntity
  8
0
  6
CONTINUOUS
 62
     7
100
AcDbLine
 10
147.6206680339
 20
200.1533366486
 30
0.0
 11
148.292688052
 21
200.8253566667
 31
0.0
  0
ELLIPSE
  5
A9
330
1F
100
AcDbEntity
  8
0
  6
CONTINUOUS
 62
     7
100
AcDbEllipse
 10
150.4930220581
 20
200.8260275254
 30
0.0
 11
-1.556108816173094
 21
-1.556108816173094
 31
0.0
210
0.0
220
0.0
230
1.0
 40
0.9996954599
 41
5.497939437029733
 42
6.591150963473522
  0
ELLIPSE
  5
AA
330
1F
100
AcDbEntity
  8
0
  6
CONTINUOUS
 62
     7
100
AcDbEllipse
 10
150.3882916685
 20
200.7212971359
 30
0.0
 11
-1.556108816173065
 21
-1.556108816173093
 31
0.0
210
0.0
220
0.0
230
1.0
 40
0.9996954599
 41
0.3108171846776682
 42
0.7852458701498539
  0
ELLIPSE
  5
AB
330
1F
100
AcDbEntity
  8
0
  6
CONTINUOUS
 62
     7
100
AcDbEllipse
 10
150.3882916685
 20
245.2836824774
 30
0.0
 11
-1.556108816173065
 21
1.556108816173065
 31
0.0
210
0.0
220
0.0
230
1.0
 40
0.9996954599
 41
5.497939437029742
 42
5.76930410969397
  0
ELLIPSE
  5
AC
330
1F
100
AcDbEntity
  8
0
  6
CONTINUOUS
 62
     7
100
AcDbEllipse
 10
150.4930220581
 20
245.1789520878
 30
0.0
 11
-1.556108816173093
 21
1.556108816173065
 31
0.0
210
0.0
220
0.0
230
1.0
 40
0.9996954599
 41
5.860926823468046
 42
7.068431177329448
  0
LINE
  5
AD
330
1F
100
AcDbEntity
  8
0
  6
CONTINUOUS
 62
     7
100
AcDbLine
 10
148.292688052
 20
245.1796222224
 30
0.0
 11
147.6206680339
 21
245.8516422405
 31
0.0
  0
ELLIPSE
  5
AE
330
1F
100
AcDbEntity
  8
0
  6
CONTINUOUS
 62
     7
100
AcDbEllipse
 10
263.6959466205
 20
236.5289520878
 30
0.0
 11
-1.556108816173094
 21
-1.556108816173094
 31
0.0
210
0.0
220
0.0
230
1.0
 40
0.9996954599
 41
2.356346783439912
 42
3.449558309883743
  0
ELLIPSE
  5
AF
330
1F
100
AcDbEntity
  8
0
  6
CONTINUOUS
 62
     7
100
AcDbEllipse
 10
263.80067701
 20
236.6336824774
 30
0.0
 11
-1.556108816173093
 21
-1.556108816173065
 31
0.0
210
0.0
220
0.0
230
1.0
 40
0.9996954599
 41
3.452409838267493
 42
3.926838523739692
  0
LINE
  5
B0
330
1F
100
AcDbEntity
  8
0
  6
CONTINUOUS
 62
     7
100
AcDbLine
 10
266.5683006447
 20
237.2016429647
 30
0.0
 11
265.8962806266
 21
236.5296229466
 31
0.0
  0
ELLIPSE
  5
B1
330
1F
100
AcDbEntity
  8
0
  6
CONTINUOUS
 62
     7
100
AcDbEllipse
 10
263.80067701
 20
192.0712971359
 30
0.0
 11
1.556108816173094
 21
-1.556108816173094
 31
0.0
210
0.0
220
0.0
230
1.0
 40
0.9996954599
 41
5.49793943702972
 42
5.76930410969395
  0
ELLIPSE
  5
B2
330
1F
100
AcDbEntity
  8
0
  6
CONTINUOUS
 62
     7
100
AcDbEllipse
 10
263.6959466205
 20
192.1760275254
 30
0.0
 11
1.556108816173093
 21
-1.556108816173065
 31
0.0
210
0.0
220
0.0
230
1.0
 40
0.9996954599
 41
5.860926823468042
 42
7.06843117732944
  0
LINE
  5
B3
330
1F
100
AcDbEntity
  8
0
  6
CONTINUOUS
 62
     7
100
AcDbLine
 10
265.8962806266
 20
192.1753573908
 30
0.0
 11
266.5683006447
 21
191.5033373727
 31
0.0
  0
LINE
  5
B4
330
1F
100
AcDbEntity
  8
0
  6
CONTINUOUS
 62
     7
100
AcDbLine
 10
156.5426861446
 20
193.6264548196
 30
0.0
 11
156.5426861446
 21
184.5753591253
 31
0.0
  0
LINE
  5
B5
330
1F
100
AcDbEntity
  8
0
  6
CONTINUOUS
 62
     7
100
AcDbLine
 10
155.8706661265
 20
183.9033391072
 30
0.0
 11
156.5426861446
 21
184.5753591253
 31
0.0
  0
LINE
  5
B6
330
1F
100
AcDbEntity
  8
0
  6
CONTINUOUS
 62
     7
100
AcDbLine
 10
257.6462825339
 20
243.7285247936
 30
0.0
 11
257.6462825339
 21
252.7796204879
 31
0.0
  0
LINE
  5
B7
330
1F
100
AcDbEntity
  8
0
  6
CONTINUOUS
 62
     7
100
AcDbLine
 10
258.318302552
 20
253.451640506
 30
0.0
 11
257.6462825339
 21
252.7796204879
 31
0.0
  0
LINE
  5
B8
330
1F
100
AcDbEntity
  8
0
  6
CONTINUOUS
 62
     7
100
AcDbLine
 10
255.446617822
 20
254.9792889251
 30
0.0
 11
256.1186378401
 21
255.6513089432
 31
0.0
  0
LINE
  5
B9
330
1F
100
AcDbEntity
  8
0
  6
CONTINUOUS
 62
     7
100
AcDbLine
 10
157.992353062
 20
254.9792889251
 30
0.0
 11
255.446617822
 21
254.9792889251
 31
0.0
  0
ELLIPSE
  5
BA
330
1F
100
AcDbEntity
  8
0
  6
CONTINUOUS
 62
     7
100
AcDbEllipse
 10
158.7430220581
 20
184.5760275254
 30
0.0
 11
-1.556108816173094
 21
-1.556108816173094
 31
0.0
210
0.0
220
0.0
230
1.0
 40
0.9996954599
 41
5.497939437029733
 42
7.068431177329454
  0
LINE
  5
BB
330
1F
100
AcDbEntity
  8
0
  6
CONTINUOUS
 62
     7
100
AcDbLine
 10
158.7423508566
 20
182.3756906881
 30
0.0
 11
158.0703308385
 21
181.70367067
 31
0.0
  0
ELLIPSE
  5
BC
330
1F
100
AcDbEntity
  8
0
  6
CONTINUOUS
 62
     7
100
AcDbEllipse
 10
255.4459466205
 20
252.7789520878
 30
0.0
 11
1.556108816173065
 21
1.556108816173065
 31
0.0
210
0.0
220
0.0
230
1.0
 40
0.9996954599
 41
5.497939437029733
 42
7.068431177329466
  0
LINE
  5
BD
330
1F
100
AcDbEntity
  8
0
  6
CONTINUOUS
 62
     7
100
AcDbLine
 10
256.1966156166
 20
182.3756906881
 30
0.0
 11
158.7423508566
 21
182.3756906881
 31
0.0
  0
LINE
  5
BE
330
1F
100
AcDbEntity
  8
0
  6
CONTINUOUS
 62
     7
100
AcDbLine
 10
268.6599505644
 20
249.8835481449
 30
0.0
 11
268.6337617736
 21
249.9010029926
 31
0.0
  0
ELLIPSE
  5
BF
330
1F
100
AcDbEntity
  8
0
  6
CONTINUOUS
 62
     7
100
AcDbEllipse
 10
267.6596063507
 20
249.8840044723
 30
0.0
 11
0.8324947319634931
 21
-0.5549260338396494
 31
0.0
210
0.0
220
0.0
230
1.0
 40
0.9995051766
 41
5.300561438684028
 42
6.87090091471929
  0
LINE
  5
C0
330
1F
100
AcDbEntity
  8
0
  6
CONTINUOUS
 62
     7
100
AcDbLine
 10
267.6338789564
 20
248.9013064398
 30
0.0
 11
267.6600640219
 21
248.8838515922
 31
0.0
  0
LINE
  5
C1
330
1F
100
AcDbEntity
  8
0
  6
CONTINUOUS
 62
     7
100
AcDbLine
 10
145.5290181141
 20
187.4714314683
 30
0.0
 11
145.5552069049
 21
187.4539766206
 31
0.0
  0
ELLIPSE
  5
C2
330
1F
100
AcDbEntity
  8
0
  6
CONTINUOUS
 62
     7
100
AcDbEllipse
 10
146.5293623279
 20
187.4709751409
 30
0.0
 11
-0.8324947319635498
 21
0.5549260338396493
 31
0.0
210
0.0
220
0.0
230
1.0
 40
0.9995051766
 41
5.300561438683967
 42
6.870900914719459
  0
LINE
  5
C3
330
1F
100
AcDbEntity
  8
0
  6
CONTINUOUS
 62
     7
100
AcDbLine
 10
146.5550897222
 20
188.4536731734
 30
0.0
 11
146.5289046567
 21
188.4711280211
 31
0.0
  0
LINE
  5
C4
330
1F
100
AcDbEntity
  8
0
  6
CONTINUOUS
 62
     7
100
AcDbLine
 10
268.6599505644
 20
253.0774909749
 30
0.0
 11
268.6599505644
 21
249.8835481449
 31
0.0
  0
LINE
  5
C5
330
1F
100
AcDbEntity
  8
0
  6
CONTINUOUS
 62
     7
100
AcDbLine
 10
268.6337617736
 20
253.0774909749
 30
0.0
 11
268.6599505644
 21
253.0774909749
 31
0.0
  0
LINE
  5
C6
330
1F
100
AcDbEntity
  8
0
  6
CONTINUOUS
 62
     7
100
AcDbLine
 10
145.5290181141
 20
184.2774886384
 30
0.0
 11
145.5290181141
 21
187.4714314683
 31
0.0
  0
LINE
  5
C7
330
1F
100
AcDbEntity
  8
0
  6
CONTINUOUS
 62
     7
100
AcDbLine
 10
265.8962806266
 20
236.5296229466
 30
0.0
 11
265.8962806266
 21
192.1753573908
 31
0.0
  0
LINE
  5
C8
330
1F
100
AcDbEntity
  8
0
  6
CONTINUOUS
 62
     7
100
AcDbLine
 10
148.292688052
 20
200.8253566667
 30
0.0
 11
148.292688052
 21
245.1796222224
 31
0.0
  0
LINE
  5
C9
330
1F
100
AcDbEntity
  8
0
  6
CONTINUOUS
 62
     7
100
AcDbLine
 10
150.5435606044
 20
196.6264124705
 30
0.0
 11
150.8533631962
 21
196.936216925
 31
0.0
  0
LINE
  5
CA
330
1F
100
AcDbEntity
  8
0
  6
CONTINUOUS
 62
     7
100
AcDbLine
 10
154.5434085231
 20
192.6265645518
 30
0.0
 11
154.8532111149
 21
192.9363690062
 31
0.0
  0
ELLIPSE
  5
CB
330
1F
100
AcDbEntity
  8
0
  6
CONTINUOUS
 62
     7
100
AcDbEllipse
 10
150.543255087
 20
192.6262605543
 30
0.0
 11
-2.828642524523559
 21
-2.828642524523559
 31
0.0
210
0.0
220
0.0
230
1.0
 40
0.9999238505
 41
2.356232566402619
 42
3.926952740776306
  0
LINE
  5
CC
330
1F
100
AcDbEntity
  8
0
  6
CONTINUOUS
 62
     7
100
AcDbLine
 10
263.6454080742
 20
240.7285671427
 30
0.0
 11
263.3356054824
 21
240.4187626882
 31
0.0
  0
LINE
  5
CD
330
1F
100
AcDbEntity
  8
0
  6
CONTINUOUS
 62
     7
100
AcDbLine
 10
263.6454080742
 20
240.7285671427
 30
0.0
 11
265.043557952
 21
240.7285671427
 31
0.0
  0
LINE
  5
CE
330
1F
100
AcDbEntity
  8
0
  6
CONTINUOUS
 62
     7
100
AcDbLine
 10
265.3446359139
 20
240.4274891808
 30
0.0
 11
265.043557952
 21
240.7285671427
 31
0.0
  0
LINE
  5
CF
330
1F
100
AcDbEntity
  8
0
  6
CONTINUOUS
 62
     7
100
AcDbLine
 10
265.3446359139
 20
240.4274891808
 30
0.0
 11
264.6594916981
 21
240.4274891808
 31
0.0
  0
LINE
  5
D0
330
1F
100
AcDbEntity
  8
0
  6
CONTINUOUS
 62
     7
100
AcDbLine
 10
154.5434085231
 20
189.0733267858
 30
0.0
 11
154.8532111149
 21
188.4536731734
 31
0.0
  0
LINE
  5
D1
330
1F
100
AcDbEntity
  8
0
  6
CONTINUOUS
 62
     7
100
AcDbLine
 10
154.5434085231
 20
192.6265645518
 30
0.0
 11
154.5434085231
 21
189.0733267858
 31
0.0
  0
LINE
  5
D2
330
1F
100
AcDbEntity
  8
0
  6
CONTINUOUS
 62
     7
100
AcDbLine
 10
154.5434085231
 20
189.0733267858
 30
0.0
 11
145.1455628079
 21
189.0733267858
 31
0.0
  0
LINE
  5
D3
330
1F
100
AcDbEntity
  8
0
  6
CONTINUOUS
 62
     7
100
AcDbLine
 10
146.5289046567
 20
188.4711280211
 30
0.0
 11
144.8444848459
 21
188.4711280211
 31
0.0
  0
LINE
  5
D4
330
1F
100
AcDbEntity
  8
0
  6
CONTINUOUS
 62
     7
100
AcDbLine
 10
145.1455628079
 20
189.0733267858
 30
0.0
 11
144.8444848459
 21
188.4711280211
 31
0.0
  0
LINE
  5
D5
330
1F
100
AcDbEntity
  8
0
  6
CONTINUOUS
 62
     7
100
AcDbLine
 10
150.5435606044
 20
196.6264124705
 30
0.0
 11
149.1454107266
 21
196.6264124705
 31
0.0
  0
LINE
  5
D6
330
1F
100
AcDbEntity
  8
0
  6
CONTINUOUS
 62
     7
100
AcDbLine
 10
148.8443327647
 20
196.9274904325
 30
0.0
 11
149.1454107266
 21
196.6264124705
 31
0.0
  0
LINE
  5
D7
330
1F
100
AcDbEntity
  8
0
  6
CONTINUOUS
 62
     7
100
AcDbLine
 10
148.8443327647
 20
196.9274904325
 30
0.0
 11
149.5294769805
 21
196.9274904325
 31
0.0
  0
LINE
  5
D8
330
1F
100
AcDbEntity
  8
0
  6
CONTINUOUS
 62
     7
100
AcDbLine
 10
259.6455601554
 20
248.2816528275
 30
0.0
 11
269.0434058707
 21
248.2816528275
 31
0.0
  0
LINE
  5
D9
330
1F
100
AcDbEntity
  8
0
  6
CONTINUOUS
 62
     7
100
AcDbLine
 10
259.6455601554
 20
248.2816528275
 30
0.0
 11
259.3357575636
 21
248.9013064398
 31
0.0
  0
LINE
  5
DA
330
1F
100
AcDbEntity
  8
0
  6
CONTINUOUS
 62
     7
100
AcDbLine
 10
267.6600640219
 20
248.8838515922
 30
0.0
 11
269.3444838326
 21
248.8838515922
 31
0.0
  0
LINE
  5
DB
330
1F
100
AcDbEntity
  8
0
  6
CONTINUOUS
 62
     7
100
AcDbLine
 10
269.0434058707
 20
248.2816528275
 30
0.0
 11
269.3444838326
 21
248.8838515922
 31
0.0
  0
LINE
  5
DC
330
1F
100
AcDbEntity
  8
0
  6
CONTINUOUS
 62
     7
100
AcDbLine
 10
259.6455601554
 20
244.7284150614
 30
0.0
 11
259.3357575636
 21
244.418610607
 31
0.0
  0
LINE
  5
DD
330
1F
100
AcDbEntity
  8
0
  6
CONTINUOUS
 62
     7
100
AcDbLine
 10
259.6455601554
 20
244.7284150614
 30
0.0
 11
259.6455601554
 21
248.2816528275
 31
0.0
  0
ELLIPSE
  5
DE
330
1F
100
AcDbEntity
  8
0
  6
CONTINUOUS
 62
     7
100
AcDbEllipse
 10
263.6457135916
 20
244.7287190589
 30
0.0
 11
2.828642524523559
 21
2.828642524523588
 31
0.0
210
0.0
220
0.0
230
1.0
 40
0.9999238505
 41
2.356232566402599
 42
3.926952740777012
  0
LINE
  5
DF
330
1F
100
AcDbEntity
  8
0
  6
CONTINUOUS
 62
     7
100
AcDbLine
 10
263.9944826763
 20
257.7429551377
 30
0.0
 11
263.9944826763
 21
257.7167700722
 31
0.0
  0
LINE
  5
E0
330
1F
100
AcDbEntity
  8
0
  6
CONTINUOUS
 62
     7
100
AcDbLine
 10
150.1944860023
 20
257.7429551377
 30
0.0
 11
263.9944826763
 21
257.7429551377
 31
0.0
  0
ARC
  5
E1
330
1F
100
AcDbEntity
  8
0
  6
CONTINUOUS
 62
     7
100
AcDbCircle
 10
263.9944843393
 20
253.0774898066
 30
0.0
 40
4.665464803921537
100
AcDbArc
 50
0.0
 51
90.0
  0
CIRCLE
  5
E2
330
1F
100
AcDbEntity
  8
0
  6
CONTINUOUS
 62
     7
100
AcDbCircle
 10
264.3444843393
 20
183.9274898066
 30
0.0
 40
2.999999999999631
  0
CIRCLE
  5
E3
330
1F
100
AcDbEntity
  8
0
  6
CONTINUOUS
 62
     7
100
AcDbCircle
 10
264.3444843393
 20
253.4274898066
 30
0.0
 40
2.999999999999631
  0
CIRCLE
  5
E4
330
1F
100
AcDbEntity
  8
0
  6
CONTINUOUS
 62
     7
100
AcDbCircle
 10
149.8444843393
 20
183.9274898066
 30
0.0
 40
2.999999999999631
  0
CIRCLE
  5
E5
330
1F
100
AcDbEntity
  8
0
  6
CONTINUOUS
 62
     7
100
AcDbCircle
 10
149.8444843393
 20
253.4274898066
 30
0.0
 40
2.999999999999631
  0
LINE
  5
E6
330
1F
100
AcDbEntity
  8
0
  6
CONTINUOUS
 62
     7
100
AcDbLine
 10
143.5944823127
 20
183.9265364899
 30
0.0
 11
143.5944823127
 21
253.4284431233
 31
0.0
  0
ELLIPSE
  5
E7
330
1F
100
AcDbEntity
  8
0
  6
CONTINUOUS
 62
     7
100
AcDbEllipse
 10
149.8454363896
 20
253.4265377563
 30
0.0
 11
4.420763682309912
 21
-4.420763682309912
 31
0.0
210
0.0
220
0.0
230
1.0
 40
0.9996954599
 41
2.356346783439929
 42
3.926838523740031
  0
LINE
  5
E8
330
1F
100
AcDbEntity
  8
0
  6
CONTINUOUS
 62
     7
100
AcDbLine
 10
149.8435338538
 20
259.6774909391
 30
0.0
 11
264.3454348248
 21
259.6774909391
 31
0.0
  0
ELLIPSE
  5
E9
330
1F
100
AcDbEntity
  8
0
  6
CONTINUOUS
 62
     7
100
AcDbEllipse
 10
264.343532289
 20
253.4265377563
 30
0.0
 11
-4.420763682309826
 21
-4.420763682309911
 31
0.0
210
0.0
220
0.0
230
1.0
 40
0.9996954599
 41
2.35634678343956
 42
3.926838523739661
  0
LINE
  5
EA
330
1F
100
AcDbEntity
  8
0
  6
CONTINUOUS
 62
     7
100
AcDbLine
 10
270.5944863658
 20
253.4284431233
 30
0.0
 11
270.5944863658
 21
183.9265364899
 31
0.0
  0
ELLIPSE
  5
EB
330
1F
100
AcDbEntity
  8
0
  6
CONTINUOUS
 62
     7
100
AcDbEllipse
 10
264.343532289
 20
183.9284418569
 30
0.0
 11
-4.420763682309826
 21
4.420763682309911
 31
0.0
210
0.0
220
0.0
230
1.0
 40
0.9996954599
 41
2.356346783439597
 42
3.926838523740032
  0
LINE
  5
EC
330
1F
100
AcDbEntity
  8
0
  6
CONTINUOUS
 62
     7
100
AcDbLine
 10
264.3454348248
 20
177.6774886741
 30
0.0
 11
149.8435338538
 21
177.6774886741
 31
0.0
  0
ELLIPSE
  5
ED
330
1F
100
AcDbEntity
  8
0
  6
CONTINUOUS
 62
     7
100
AcDbEllipse
 10
149.8454363896
 20
183.9284418569
 30
0.0
 11
4.420763682309912
 21
4.420763682309912
 31
0.0
210
0.0
220
0.0
230
1.0
 40
0.9996954599
 41
2.356346783439569
 42
3.926838523740031
  0
ELLIPSE
  5
EE
330
1F
100
AcDbEntity
  8
0
  6
CONTINUOUS
 62
     7
100
AcDbEllipse
 10
148.8446366528
 20
192.9273374931
 30
0.0
 11
2.828642524523588
 21
-2.828642524523588
 31
0.0
210
0.0
220
0.0
230
1.0
 40
0.9999238505
 41
2.356232566403258
 42
3.926952740776143
  0
LINE
  5
EF
330
1F
100
AcDbEntity
  8
0
  6
CONTINUOUS
 62
     7
100
AcDbLine
 10
144.8444848459
 20
188.4711280211
 30
0.0
 11
144.8444848459
 21
192.9276425137
 31
0.0
  0
ELLIPSE
  5
F0
330
1F
100
AcDbEntity
  8
0
  6
CONTINUOUS
 62
     7
100
AcDbEllipse
 10
265.3443320257
 20
244.4276421202
 30
0.0
 11
-2.828642524523559
 21
2.828642524523559
 31
0.0
210
0.0
220
0.0
230
1.0
 40
0.9999238505
 41
2.356232566403472
 42
3.926952740776128
  0
LINE
  5
F1
330
1F
100
AcDbEntity
  8
0
  6
CONTINUOUS
 62
     7
100
AcDbLine
 10
269.3444838326
 20
248.8838515922
 30
0.0
 11
269.3444838326
 21
244.4273370995
 31
0.0
  0
ELLIPSE
  5
F2
330
1F
100
AcDbEntity
  8
0
  6
CONTINUOUS
 62
     7
100
AcDbEllipse
 10
149.1457135916
 20
192.6262605543
 30
0.0
 11
2.828642524523559
 21
-2.828642524523559
 31
0.0
210
0.0
220
0.0
230
1.0
 40
0.9999238505
 41
2.356232566403299
 42
3.926952740775996
  0
LINE
  5
F3
330
1F
100
AcDbEntity
  8
0
  6
CONTINUOUS
 62
     7
100
AcDbLine
 10
144.8444848459
 20
192.9276425137
 30
0.0
 11
145.1455628079
 21
192.6265645518
 31
0.0
  0
ELLIPSE
  5
F4
330
1F
100
AcDbEntity
  8
0
  6
CONTINUOUS
 62
     7
100
AcDbEllipse
 10
265.043255087
 20
244.7287190589
 30
0.0
 11
-2.828642524523559
 21
2.828642524523559
 31
0.0
210
0.0
220
0.0
230
1.0
 40
0.9999238505
 41
2.356232566403472
 42
3.926952740775993
  0
LINE
  5
F5
330
1F
100
AcDbEntity
  8
0
  6
CONTINUOUS
 62
     7
100
AcDbLine
 10
269.3444838326
 20
244.4273370995
 30
0.0
 11
269.0434058707
 21
244.7284150614
 31
0.0
  0
LINE
  5
F6
330
1F
100
AcDbEntity
  8
0
  6
CONTINUOUS
 62
     7
100
AcDbLine
 10
145.1455628079
 20
189.0733267858
 30
0.0
 11
145.1455628079
 21
192.6265645518
 31
0.0
  0
LINE
  5
F7
330
1F
100
AcDbEntity
  8
0
  6
CONTINUOUS
 62
     7
100
AcDbLine
 10
269.0434058707
 20
248.2816528275
 30
0.0
 11
269.0434058707
 21
244.7284150614
 31
0.0
  0
CIRCLE
  5
F8
330
1F
100
AcDbEntity
  8
0
  6
CONTINUOUS
 62
     7
100
AcDbCircle
 10
264.3444843393
 20
183.9274898066
 30
0.0
 40
2.100163814684208
  0
CIRCLE
  5
F9
330
1F
100
AcDbEntity
  8
0
  6
CONTINUOUS
 62
     7
100
AcDbCircle
 10
264.3444843393
 20
253.4274898066
 30
0.0
 40
2.100163814632367
  0
CIRCLE
  5
FA
330
1F
100
AcDbEntity
  8
0
  6
CONTINUOUS
 62
     7
100
AcDbCircle
 10
149.8444843393
 20
253.4274898066
 30
0.0
 40
1.599999999999966
  0
CIRCLE
  5
FB
330
1F
100
AcDbEntity
  8
0
  6
CONTINUOUS
 62
     7
100
AcDbCircle
 10
149.8444843393
 20
253.4274898066
 30
0.0
 40
2.100163814684208
  0
CIRCLE
  5
FC
330
1F
100
AcDbEntity
  8
0
  6
CONTINUOUS
 62
     7
100
AcDbCircle
 10
264.3444843393
 20
183.9274898066
 30
0.0
 40
1.599999999999994
  0
CIRCLE
  5
FD
330
1F
100
AcDbEntity
  8
0
  6
CONTINUOUS
 62
     7
100
AcDbCircle
 10
149.8444843393
 20
183.9274898066
 30
0.0
 40
2.100163814632339
  0
CIRCLE
  5
FE
330
1F
100
AcDbEntity
  8
0
  6
CONTINUOUS
 62
     7
100
AcDbCircle
 10
264.3444843393
 20
253.4274898066
 30
0.0
 40
1.599999999999966
  0
CIRCLE
  5
FF
330
1F
100
AcDbEntity
  8
0
  6
CONTINUOUS
 62
     7
100
AcDbCircle
 10
149.8444843393
 20
183.9274898066
 30
0.0
 40
1.599999999999994
  0
ARC
  5
100
330
1F
100
AcDbEntity
  8
0
  6
CONTINUOUS
 62
     7
100
AcDbCircle
 10
182.0944839668
 20
249.677489719
 30
0.0
 40
2.150211483240168
100
AcDbArc
 50
180.0000111646
 51
359.9999888354
  0
ARC
  5
101
330
1F
100
AcDbEntity
  8
0
  6
CONTINUOUS
 62
     7
100
AcDbCircle
 10
182.0944839668
 20
249.677488881
 30
0.0
 40
2.150211483240168
100
AcDbArc
 50
0.0000111646
 51
179.9999888354
  0
ARC
  5
102
330
1F
100
AcDbEntity
  8
0
  6
CONTINUOUS
 62
     7
100
AcDbCircle
 10
182.0944839668
 20
249.6774899625
 30
0.0
 40
1.849999651312947
100
AcDbArc
 50
359.9999794824
 51
180.0000205176
  0
ARC
  5
103
330
1F
100
AcDbEntity
  8
0
  6
CONTINUOUS
 62
     7
100
AcDbCircle
 10
182.0944839668
 20
249.6774892584
 30
0.0
 40
1.849999651312829
100
AcDbArc
 50
179.9999987116
 51
0.0000012884
  0
CIRCLE
  5
104
330
1F
100
AcDbEntity
  8
0
  6
CONTINUOUS
 62
     7
100
AcDbCircle
 10
182.0944843393
 20
249.6774898066
 30
0.0
 40
4.0
  0
CIRCLE
  5
105
330
1F
100
AcDbEntity
  8
0
  6
CONTINUOUS
 62
     7
100
AcDbCircle
 10
207.0944843393
 20
249.6774898066
 30
0.0
 40
4.0
  0
ARC
  5
106
330
1F
100
AcDbEntity
  8
0
  6
CONTINUOUS
 62
     7
100
AcDbCircle
 10
207.0944843393
 20
249.677489628
 30
0.0
 40
2.150211716070796
100
AcDbArc
 50
180.0000087417
 51
359.9999912583
  0
ARC
  5
107
330
1F
100
AcDbEntity
  8
0
  6
CONTINUOUS
 62
     7
100
AcDbCircle
 10
207.0944843393
 20
249.6774889719
 30
0.0
 40
2.150211716070796
100
AcDbArc
 50
0.0000087417
 51
179.9999912583
  0
ARC
  5
108
330
1F
100
AcDbEntity
  8
0
  6
CONTINUOUS
 62
     7
100
AcDbCircle
 10
207.0944843393
 20
249.6774893616
 30
0.0
 40
1.850000000558795
100
AcDbArc
 50
359.999998093
 51
180.000001907
  0
ARC
  5
109
330
1F
100
AcDbEntity
  8
0
  6
CONTINUOUS
 62
     7
100
AcDbCircle
 10
207.0944843393
 20
249.6774898593
 30
0.0
 40
1.850000000558878
100
AcDbArc
 50
180.0000173221
 51
359.9999826779
  0
CIRCLE
  5
10A
330
1F
100
AcDbEntity
  8
0
  6
CONTINUOUS
 62
     7
100
AcDbCircle
 10
232.0944843393
 20
249.6774898066
 30
0.0
 40
4.0
  0
ARC
  5
10B
330
1F
100
AcDbEntity
  8
0
  6
CONTINUOUS
 62
     7
100
AcDbCircle
 10
232.0944847118
 20
249.677489719
 30
0.0
 40
2.150211483240197
100
AcDbArc
 50
180.0000111646
 51
359.9999888354
  0
ARC
  5
10C
330
1F
100
AcDbEntity
  8
0
  6
CONTINUOUS
 62
     7
100
AcDbCircle
 10
232.0944847118
 20
249.677488881
 30
0.0
 40
2.150211483240197
100
AcDbArc
 50
0.0000111646
 51
179.9999888354
  0
ARC
  5
10D
330
1F
100
AcDbEntity
  8
0
  6
CONTINUOUS
 62
     7
100
AcDbCircle
 10
232.0944847118
 20
249.6774899625
 30
0.0
 40
1.849999651312975
100
AcDbArc
 50
359.9999794824
 51
180.0000205176
  0
ARC
  5
10E
330
1F
100
AcDbEntity
  8
0
  6
CONTINUOUS
 62
     7
100
AcDbCircle
 10
232.0944847118
 20
249.6774892584
 30
0.0
 40
1.849999651312857
100
AcDbArc
 50
179.9999987116
 51
0.0000012884
  0
ARC
  5
10F
330
1F
100
AcDbEntity
  8
0
  6
CONTINUOUS
 62
     7
100
AcDbCircle
 10
232.0944847118
 20
187.6774907322
 30
0.0
 40
2.150211483240197
100
AcDbArc
 50
180.0000111646
 51
359.9999888354
  0
ARC
  5
110
330
1F
100
AcDbEntity
  8
0
  6
CONTINUOUS
 62
     7
100
AcDbCircle
 10
232.0944847118
 20
187.6774898943
 30
0.0
 40
2.150211483240197
100
AcDbArc
 50
0.0000111646
 51
179.9999888354
  0
ARC
  5
111
330
1F
100
AcDbEntity
  8
0
  6
CONTINUOUS
 62
     7
100
AcDbCircle
 10
232.0944847118
 20
187.6774903549
 30
0.0
 40
1.849999651312857
100
AcDbArc
 50
359.9999987116
 51
180.0000012884
  0
ARC
  5
112
330
1F
100
AcDbEntity
  8
0
  6
CONTINUOUS
 62
     7
100
AcDbCircle
 10
232.0944847118
 20
187.6774896508
 30
0.0
 40
1.849999651312975
100
AcDbArc
 50
179.9999794824
 51
0.0000205176
  0
CIRCLE
  5
113
330
1F
100
AcDbEntity
  8
0
  6
CONTINUOUS
 62
     7
100
AcDbCircle
 10
232.0944843393
 20
187.6774898066
 30
0.0
 40
4.0
  0
ARC
  5
114
330
1F
100
AcDbEntity
  8
0
  6
CONTINUOUS
 62
     7
100
AcDbCircle
 10
207.0944843393
 20
187.6774906413
 30
0.0
 40
2.150211716070796
100
AcDbArc
 50
180.0000087417
 51
359.9999912583
  0
ARC
  5
115
330
1F
100
AcDbEntity
  8
0
  6
CONTINUOUS
 62
     7
100
AcDbCircle
 10
207.0944843393
 20
187.6774899852
 30
0.0
 40
2.150211716070796
100
AcDbArc
 50
0.0000087417
 51
179.9999912583
  0
ARC
  5
116
330
1F
100
AcDbEntity
  8
0
  6
CONTINUOUS
 62
     7
100
AcDbCircle
 10
207.0944843393
 20
187.677489754
 30
0.0
 40
1.850000000558878
100
AcDbArc
 50
0.0000173221
 51
179.9999826779
  0
ARC
  5
117
330
1F
100
AcDbEntity
  8
0
  6
CONTINUOUS
 62
     7
100
AcDbCircle
 10
207.0944843393
 20
187.6774902517
 30
0.0
 40
1.850000000558795
100
AcDbArc
 50
179.999998093
 51
0.000001907
  0
CIRCLE
  5
118
330
1F
100
AcDbEntity
  8
0
  6
CONTINUOUS
 62
     7
100
AcDbCircle
 10
207.0944843393
 20
187.6774898066
 30
0.0
 40
4.0
  0
ARC
  5
119
330
1F
100
AcDbEntity
  8
0
  6
CONTINUOUS
 62
     7
100
AcDbCircle
 10
182.0944839668
 20
187.6774907322
 30
0.0
 40
2.150211483240168
100
AcDbArc
 50
180.0000111646
 51
359.9999888354
  0
ARC
  5
11A
330
1F
100
AcDbEntity
  8
0
  6
CONTINUOUS
 62
     7
100
AcDbCircle
 10
182.0944839668
 20
187.6774898943
 30
0.0
 40
2.150211483240168
100
AcDbArc
 50
0.0000111646
 51
179.9999888354
  0
ARC
  5
11B
330
1F
100
AcDbEntity
  8
0
  6
CONTINUOUS
 62
     7
100
AcDbCircle
 10
182.0944839668
 20
187.6774903549
 30
0.0
 40
1.849999651312829
100
AcDbArc
 50
359.9999987116
 51
180.0000012884
  0
ARC
  5
11C
330
1F
100
AcDbEntity
  8
0
  6
CONTINUOUS
 62
     7
100
AcDbCircle
 10
182.0944839668
 20
187.6774896508
 30
0.0
 40
1.849999651312947
100
AcDbArc
 50
179.9999794824
 51
0.0000205176
  0
CIRCLE
  5
11D
330
1F
100
AcDbEntity
  8
0
  6
CONTINUOUS
 62
     7
100
AcDbCircle
 10
182.0944843393
 20
187.6774898066
 30
0.0
 40
4.0
  0
CIRCLE
  5
11E
330
1F
100
AcDbEntity
  8
0
  6
CONTINUOUS
 62
     7
100
AcDbCircle
 10
154.0944843393
 20
233.6774898066
 30
0.0
 40
2.100127766351733
  0
ARC
  5
11F
330
1F
100
AcDbEntity
  8
0
  6
CONTINUOUS
 62
     7
100
AcDbCircle
 10
154.0944849651
 20
233.6774906906
 30
0.0
 40
1.800000667572434
100
AcDbArc
 50
180.0000388089
 51
359.9999611911
  0
ARC
  5
120
330
1F
100
AcDbEntity
  8
0
  6
CONTINUOUS
 62
     7
100
AcDbCircle
 10
154.0944849651
 20
233.677488873
 30
0.0
 40
1.800000667572121
100
AcDbArc
 50
0.0000190456
 51
179.9999809544
  0
CIRCLE
  5
121
330
1F
100
AcDbEntity
  8
0
  6
CONTINUOUS
 62
     7
100
AcDbCircle
 10
154.0944843393
 20
242.6774898066
 30
0.0
 40
2.100127766365574
  0
ARC
  5
122
330
1F
100
AcDbEntity
  8
0
  6
CONTINUOUS
 62
     7
100
AcDbCircle
 10
154.0944849651
 20
242.677490924
 30
0.0
 40
1.800000667572251
100
AcDbArc
 50
180.0000289272
 51
359.9999710728
  0
ARC
  5
123
330
1F
100
AcDbEntity
  8
0
  6
CONTINUOUS
 62
     7
100
AcDbCircle
 10
154.0944849651
 20
242.6774891065
 30
0.0
 40
1.800000667572251
100
AcDbArc
 50
0.0000289272
 51
179.9999710728
  0
CIRCLE
  5
124
330
1F
100
AcDbEntity
  8
0
  6
CONTINUOUS
 62
     7
100
AcDbCircle
 10
154.0944843393
 20
218.6774898066
 30
0.0
 40
2.100127766326665
  0
ARC
  5
125
330
1F
100
AcDbEntity
  8
0
  6
CONTINUOUS
 62
     7
100
AcDbCircle
 10
154.0944849651
 20
218.677490793
 30
0.0
 40
1.80000066757232
100
AcDbArc
 50
180.0000334031
 51
359.9999686024
  0
ARC
  5
126
330
1F
100
AcDbEntity
  8
0
  6
CONTINUOUS
 62
     7
100
AcDbCircle
 10
154.0944849651
 20
218.6774888202
 30
0.0
 40
1.800000667572327
100
AcDbArc
 50
0.0000334031
 51
179.9999686024
  0
CIRCLE
  5
127
330
1F
100
AcDbEntity
  8
0
  6
CONTINUOUS
 62
     7
100
AcDbCircle
 10
154.0944843393
 20
203.6774898066
 30
0.0
 40
2.100127766352841
  0
ARC
  5
128
330
1F
100
AcDbEntity
  8
0
  6
CONTINUOUS
 62
     7
100
AcDbCircle
 10
154.0944849651
 20
203.6774907402
 30
0.0
 40
1.800000667572121
100
AcDbArc
 50
180.0000190456
 51
359.9999809544
  0
ARC
  5
129
330
1F
100
AcDbEntity
  8
0
  6
CONTINUOUS
 62
     7
100
AcDbCircle
 10
154.0944849651
 20
203.6774889227
 30
0.0
 40
1.800000667572434
100
AcDbArc
 50
0.0000388089
 51
179.9999611911
  0
CIRCLE
  5
12A
330
1F
100
AcDbEntity
  8
0
  6
CONTINUOUS
 62
     7
100
AcDbCircle
 10
260.0944843393
 20
233.6774898066
 30
0.0
 40
2.10012776635287
  0
ARC
  5
12B
330
1F
100
AcDbEntity
  8
0
  6
CONTINUOUS
 62
     7
100
AcDbCircle
 10
260.0944837134
 20
233.677488873
 30
0.0
 40
1.800000667572178
100
AcDbArc
 50
0.0000190456
 51
179.9999809544
  0
ARC
  5
12C
330
1F
100
AcDbEntity
  8
0
  6
CONTINUOUS
 62
     7
100
AcDbCircle
 10
260.0944837134
 20
233.6774906906
 30
0.0
 40
1.800000667572491
100
AcDbArc
 50
180.0000388089
 51
359.9999611911
  0
ARC
  5
12D
330
1F
100
AcDbEntity
  8
0
  6
CONTINUOUS
 62
     7
100
AcDbCircle
 10
154.0944843393
 20
218.6774898066
 30
0.0
 40
3.999999999999994
100
AcDbArc
 50
100.8069228749
 51
259.1930771251
  0
LINE
  5
12E
330
1F
100
AcDbEntity
  8
0
  6
CONTINUOUS
 62
     7
100
AcDbLine
 10
153.3444834452
 20
229.7484313815
 30
0.0
 11
153.3444834452
 21
222.6065483621
 31
0.0
  0
ARC
  5
12F
330
1F
100
AcDbEntity
  8
0
  6
CONTINUOUS
 62
     7
100
AcDbCircle
 10
154.0944843393
 20
233.6774898066
 30
0.0
 40
4.000000000002228
100
AcDbArc
 50
115.8419327632
 51
259.1930771251
  0
ARC
  5
130
330
1F
100
AcDbEntity
  8
0
  6
CONTINUOUS
 62
     7
100
AcDbCircle
 10
151.9150348675
 20
238.1774898066
 30
0.0
 40
1.000000000000438
100
AcDbArc
 50
295.841932763
 51
348.3642149055
  0
ARC
  5
131
330
1F
100
AcDbEntity
  8
0
  6
CONTINUOUS
 62
     7
100
AcDbCircle
 10
151.9150348675
 20
238.1774898066
 30
0.0
 40
1.000000000000427
100
AcDbArc
 50
11.6357850945
 51
64.158067237
  0
LINE
  5
132
330
1F
100
AcDbEntity
  8
0
  6
CONTINUOUS
 62
     7
100
AcDbLine
 10
155.1823032599
 20
250.2921510234
 30
0.0
 11
155.2526739936
 21
250.3299031152
 31
0.0
  0
LINE
  5
133
330
1F
100
AcDbEntity
  8
0
  6
CONTINUOUS
 62
     7
100
AcDbLine
 10
155.2526739936
 20
250.3299031152
 30
0.0
 11
155.2526739936
 21
246.5061459436
 31
0.0
  0
ARC
  5
134
330
1F
100
AcDbEntity
  8
0
  6
CONTINUOUS
 62
     7
100
AcDbCircle
 10
154.0944843393
 20
218.6774898066
 30
0.0
 40
3.999999999999994
100
AcDbArc
 50
280.8069228749
 51
79.1930771251
  0
LINE
  5
135
330
1F
100
AcDbEntity
  8
0
  6
CONTINUOUS
 62
     7
100
AcDbLine
 10
154.8444827598
 20
207.6065482317
 30
0.0
 11
154.8444827598
 21
214.7484312511
 31
0.0
  0
LINE
  5
136
330
1F
100
AcDbEntity
  8
0
  6
CONTINUOUS
 62
     7
100
AcDbLine
 10
155.2268055778
 20
196.7842474326
 30
0.0
 11
155.2268055778
 21
199.8411051675
 31
0.0
  0
LINE
  5
137
330
1F
100
AcDbEntity
  8
0
  6
CONTINUOUS
 62
     7
100
AcDbLine
 10
151.2857911687
 20
200.8294656619
 30
0.0
 11
149.3825142782
 21
198.7639803185
 31
0.0
  0
LINE
  5
138
330
1F
100
AcDbEntity
  8
0
  6
CONTINUOUS
 62
     7
100
AcDbLine
 10
152.8944832783
 20
237.9757992669
 30
0.0
 11
152.8944832783
 21
238.3791792884
 31
0.0
  0
ARC
  5
139
330
1F
100
AcDbEntity
  8
0
  6
CONTINUOUS
 62
     7
100
AcDbCircle
 10
154.0944843393
 20
203.6774898066
 30
0.0
 40
4.000000000000801
100
AcDbArc
 50
286.4441350255
 51
79.1930771251
  0
LINE
  5
13A
330
1F
100
AcDbEntity
  8
0
  6
CONTINUOUS
 62
     7
100
AcDbLine
 10
149.6340682309
 20
247.3156291737
 30
0.0
 11
151.326370756
 21
245.5649718388
 31
0.0
  0
ARC
  5
13B
330
1F
100
AcDbEntity
  8
0
  6
CONTINUOUS
 62
     7
100
AcDbCircle
 10
154.0944843393
 20
233.6774898066
 30
0.0
 40
4.000000000002228
100
AcDbArc
 50
280.8069228749
 51
64.1580672368
  0
ARC
  5
13C
330
1F
100
AcDbEntity
  8
0
  6
CONTINUOUS
 62
     7
100
AcDbCircle
 10
154.0944843393
 20
242.6774898066
 30
0.0
 40
4.000000000000629
100
AcDbArc
 50
133.790889492
 51
244.1580672368
  0
ARC
  5
13D
330
1F
100
AcDbEntity
  8
0
  6
CONTINUOUS
 62
     7
100
AcDbCircle
 10
154.0944843393
 20
203.6774898066
 30
0.0
 40
4.000000000000106
100
AcDbArc
 50
100.8069228749
 51
225.3983573516
  0
LINE
  5
13E
330
1F
100
AcDbEntity
  8
0
  6
CONTINUOUS
 62
     7
100
AcDbLine
 10
153.3444834452
 20
214.7484312511
 30
0.0
 11
153.3444834452
 21
207.6065482317
 31
0.0
  0
LINE
  5
13F
330
1F
100
AcDbEntity
  8
0
  6
CONTINUOUS
 62
     7
100
AcDbLine
 10
154.8444827598
 20
222.6065483621
 30
0.0
 11
154.8444827598
 21
229.7484313815
 31
0.0
  0
ARC
  5
140
330
1F
100
AcDbEntity
  8
0
  6
CONTINUOUS
 62
     7
100
AcDbCircle
 10
156.2739338111
 20
238.1774898066
 30
0.0
 40
0.9999999999999626
100
AcDbArc
 50
115.8419327631
 51
244.1580672369
  0
ARC
  5
141
330
1F
100
AcDbEntity
  8
0
  6
CONTINUOUS
 62
     7
100
AcDbCircle
 10
154.0944843393
 20
242.6774898066
 30
0.0
 40
4.000000000001484
100
AcDbArc
 50
295.8419327632
 51
73.169164968
  0
LINE
  5
142
330
1F
100
AcDbEntity
  8
0
  6
CONTINUOUS
 62
     7
100
AcDbLine
 10
149.7978543442
 20
247.4034994586
 30
0.0
 11
149.6340682309
 21
247.3156291737
 31
0.0
  0
CIRCLE
  5
143
330
1F
100
AcDbEntity
  8
0
  6
CONTINUOUS
 62
     7
100
AcDbCircle
 10
260.0944843393
 20
218.6774898066
 30
0.0
 40
2.100127766326665
  0
ARC
  5
144
330
1F
100
AcDbEntity
  8
0
  6
CONTINUOUS
 62
     7
100
AcDbCircle
 10
260.0944837134
 20
218.6774888202
 30
0.0
 40
1.800000667572349
100
AcDbArc
 50
0.0000334031
 51
179.9999686024
  0
ARC
  5
145
330
1F
100
AcDbEntity
  8
0
  6
CONTINUOUS
 62
     7
100
AcDbCircle
 10
260.0944837134
 20
218.677490793
 30
0.0
 40
1.800000667572384
100
AcDbArc
 50
180.0000334031
 51
359.9999686024
  0
LINE
  5
146
330
1F
100
AcDbEntity
  8
0
  6
CONTINUOUS
 62
     7
100
AcDbLine
 10
260.8444852334
 20
222.6065483621
 30
0.0
 11
260.8444852334
 21
229.7484313815
 31
0.0
  0
LINE
  5
147
330
1F
100
AcDbEntity
  8
0
  6
CONTINUOUS
 62
     7
100
AcDbLine
 10
264.3911143344
 20
189.9514801546
 30
0.0
 11
264.5549004477
 21
190.0393504395
 31
0.0
  0
CIRCLE
  5
148
330
1F
100
AcDbEntity
  8
0
  6
CONTINUOUS
 62
     7
100
AcDbCircle
 10
260.0944843393
 20
194.6774898066
 30
0.0
 40
2.100127766365603
  0
CIRCLE
  5
149
330
1F
100
AcDbEntity
  8
0
  6
CONTINUOUS
 62
     7
100
AcDbCircle
 10
260.0944843393
 20
203.6774898066
 30
0.0
 40
2.100127766351676
  0
LINE
  5
14A
330
1F
100
AcDbEntity
  8
0
  6
CONTINUOUS
 62
     7
100
AcDbLine
 10
259.0066654187
 20
187.0628285899
 30
0.0
 11
258.9362946849
 21
187.025076498
 31
0.0
  0
LINE
  5
14B
330
1F
100
AcDbEntity
  8
0
  6
CONTINUOUS
 62
     7
100
AcDbLine
 10
258.9621631008
 20
240.5707321807
 30
0.0
 11
258.9621631008
 21
237.5138744458
 31
0.0
  0
ARC
  5
14C
330
1F
100
AcDbEntity
  8
0
  6
CONTINUOUS
 62
     7
100
AcDbCircle
 10
260.0944843393
 20
194.6774898066
 30
0.0
 40
4.000000000000604
100
AcDbArc
 50
313.790889492
 51
64.1580672368
  0
LINE
  5
14D
330
1F
100
AcDbEntity
  8
0
  6
CONTINUOUS
 62
     7
100
AcDbLine
 10
262.9031775098
 20
236.5255139514
 30
0.0
 11
264.8064544004
 21
238.5909992947
 31
0.0
  0
ARC
  5
14E
330
1F
100
AcDbEntity
  8
0
  6
CONTINUOUS
 62
     7
100
AcDbCircle
 10
260.0944843393
 20
218.6774898066
 30
0.0
 40
3.999999999999966
100
AcDbArc
 50
100.8069228749
 51
259.1930771251
  0
LINE
  5
14F
330
1F
100
AcDbEntity
  8
0
  6
CONTINUOUS
 62
     7
100
AcDbLine
 10
259.3444859188
 20
214.7484312511
 30
0.0
 11
259.3444859188
 21
207.6065482317
 31
0.0
  0
ARC
  5
150
330
1F
100
AcDbEntity
  8
0
  6
CONTINUOUS
 62
     7
100
AcDbCircle
 10
260.0944843393
 20
194.6774898066
 30
0.0
 40
4.000000000001467
100
AcDbArc
 50
115.8419327632
 51
253.169164968
  0
ARC
  5
151
330
1F
100
AcDbEntity
  8
0
  6
CONTINUOUS
 62
     7
100
AcDbCircle
 10
260.0944843393
 20
203.6774898066
 30
0.0
 40
4.000000000002228
100
AcDbArc
 50
295.8419327632
 51
79.1930771251
  0
ARC
  5
152
330
1F
100
AcDbEntity
  8
0
  6
CONTINUOUS
 62
     7
100
AcDbCircle
 10
260.0944843393
 20
233.6774898066
 30
0.0
 40
4.000000000000106
100
AcDbArc
 50
280.8069228749
 51
45.3983573516
  0
ARC
  5
153
330
1F
100
AcDbEntity
  8
0
  6
CONTINUOUS
 62
     7
100
AcDbCircle
 10
260.0944843393
 20
218.6774898066
 30
0.0
 40
3.999999999999966
100
AcDbArc
 50
280.8069228749
 51
79.1930771251
  0
LINE
  5
154
330
1F
100
AcDbEntity
  8
0
  6
CONTINUOUS
 62
     7
100
AcDbLine
 10
260.8444852334
 20
207.6065482317
 30
0.0
 11
260.8444852334
 21
214.7484312511
 31
0.0
  0
LINE
  5
155
330
1F
100
AcDbEntity
  8
0
  6
CONTINUOUS
 62
     7
100
AcDbLine
 10
258.9362946849
 20
187.025076498
 30
0.0
 11
258.9362946849
 21
190.8488336696
 31
0.0
  0
LINE
  5
156
330
1F
100
AcDbEntity
  8
0
  6
CONTINUOUS
 62
     7
100
AcDbLine
 10
261.2944854003
 20
199.3791803463
 30
0.0
 11
261.2944854003
 21
198.9758003249
 31
0.0
  0
ARC
  5
157
330
1F
100
AcDbEntity
  8
0
  6
CONTINUOUS
 62
     7
100
AcDbCircle
 10
262.2739338111
 20
199.1774898066
 30
0.0
 40
1.000000000000433
100
AcDbArc
 50
191.6357850945
 51
244.158067237
  0
LINE
  5
158
330
1F
100
AcDbEntity
  8
0
  6
CONTINUOUS
 62
     7
100
AcDbLine
 10
264.5549004477
 20
190.0393504395
 30
0.0
 11
262.8625979226
 21
191.7900077744
 31
0.0
  0
ARC
  5
159
330
1F
100
AcDbEntity
  8
0
  6
CONTINUOUS
 62
     7
100
AcDbCircle
 10
260.0944843393
 20
233.6774898066
 30
0.0
 40
4.000000000000766
100
AcDbArc
 50
106.4441350255
 51
259.1930771251
  0
ARC
  5
15A
330
1F
100
AcDbEntity
  8
0
  6
CONTINUOUS
 62
     7
100
AcDbCircle
 10
257.9150348675
 20
199.1774898066
 30
0.0
 40
0.9999999999999626
100
AcDbArc
 50
295.8419327631
 51
64.1580672369
  0
ARC
  5
15B
330
1F
100
AcDbEntity
  8
0
  6
CONTINUOUS
 62
     7
100
AcDbCircle
 10
262.2739338111
 20
199.1774898066
 30
0.0
 40
1.000000000000438
100
AcDbArc
 50
115.841932763
 51
168.3642149055
  0
ARC
  5
15C
330
1F
100
AcDbEntity
  8
0
  6
CONTINUOUS
 62
     7
100
AcDbCircle
 10
260.0944843393
 20
203.6774898066
 30
0.0
 40
4.000000000002228
100
AcDbArc
 50
100.8069228749
 51
244.1580672368
  0
LINE
  5
15D
330
1F
100
AcDbEntity
  8
0
  6
CONTINUOUS
 62
     7
100
AcDbLine
 10
259.3444859188
 20
229.7484313815
 30
0.0
 11
259.3444859188
 21
222.6065483621
 31
0.0
  0
ARC
  5
15E
330
1F
100
AcDbEntity
  8
0
  6
CONTINUOUS
 62
     7
100
AcDbCircle
 10
260.0944837134
 20
203.6774889227
 30
0.0
 40
1.800000667572491
100
AcDbArc
 50
0.0000388089
 51
179.9999611911
  0
ARC
  5
15F
330
1F
100
AcDbEntity
  8
0
  6
CONTINUOUS
 62
     7
100
AcDbCircle
 10
260.0944837134
 20
203.6774907402
 30
0.0
 40
1.800000667572178
100
AcDbArc
 50
180.0000190456
 51
359.9999809544
  0
ARC
  5
160
330
1F
100
AcDbEntity
  8
0
  6
CONTINUOUS
 62
     7
100
AcDbCircle
 10
260.0944837134
 20
194.6774886892
 30
0.0
 40
1.800000667572308
100
AcDbArc
 50
0.0000289272
 51
179.9999710728
  0
ARC
  5
161
330
1F
100
AcDbEntity
  8
0
  6
CONTINUOUS
 62
     7
100
AcDbCircle
 10
260.0944837134
 20
194.6774905068
 30
0.0
 40
1.800000667572308
100
AcDbArc
 50
180.0000289272
 51
359.9999710728
  0
LINE
  5
162
330
1F
100
AcDbEntity
  8
0
  6
CONTINUOUS
 62
     7
100
AcDbLine
 10
265.0944826704
 20
246.777490501
 30
0.0
 11
263.5944833558
 21
246.777490501
 31
0.0
  0
LINE
  5
163
330
1F
100
AcDbEntity
  8
0
  6
CONTINUOUS
 62
     7
100
AcDbLine
 10
263.5944833558
 20
246.8822195872
 30
0.0
 11
263.5944833558
 21
246.777490501
 31
0.0
  0
LINE
  5
164
330
1F
100
AcDbEntity
  8
0
  6
CONTINUOUS
 62
     7
100
AcDbLine
 10
265.0944826704
 20
246.8822195872
 30
0.0
 11
263.5944833558
 21
246.8822195872
 31
0.0
  0
LINE
  5
165
330
1F
100
AcDbEntity
  8
0
  6
CONTINUOUS
 62
     7
100
AcDbLine
 10
265.0944826704
 20
246.777490501
 30
0.0
 11
265.0944826704
 21
246.8822195872
 31
0.0
  0
ARC
  5
166
330
1F
100
AcDbEntity
  8
0
  6
CONTINUOUS
 62
     7
100
AcDbCircle
 10
149.0944843393
 20
192.6774898066
 30
0.0
 40
2.20473038956959
100
AcDbArc
 50
90.0
 51
270.0
  0
LINE
  5
167
330
1F
100
AcDbEntity
  8
0
  6
CONTINUOUS
 62
     7
100
AcDbLine
 10
149.0944860082
 20
190.4727600261
 30
0.0
 11
150.5944853228
 21
190.4727600261
 31
0.0
  0
ARC
  5
168
330
1F
100
AcDbEntity
  8
0
  6
CONTINUOUS
 62
     7
100
AcDbCircle
 10
150.5944843393
 20
192.6774898066
 30
0.0
 40
2.204730389569988
100
AcDbArc
 50
270.0
 51
90.0
  0
LINE
  5
169
330
1F
100
AcDbEntity
  8
0
  6
CONTINUOUS
 62
     7
100
AcDbLine
 10
150.5944853228
 20
194.8822203769
 30
0.0
 11
149.0944860082
 21
194.8822203769
 31
0.0
  0
ARC
  5
16A
330
1F
100
AcDbEntity
  8
0
  6
CONTINUOUS
 62
     7
100
AcDbCircle
 10
265.0944843393
 20
244.6774898066
 30
0.0
 40
2.204730389569619
100
AcDbArc
 50
270.0
 51
90.0
  0
ARC
  5
16B
330
1F
100
AcDbEntity
  8
0
  6
CONTINUOUS
 62
     7
100
AcDbCircle
 10
263.5944843393
 20
244.6774898066
 30
0.0
 40
2.20473038956996
100
AcDbArc
 50
90.0
 51
270.0
  0
LINE
  5
16C
330
1F
100
AcDbEntity
  8
0
  6
CONTINUOUS
 62
     7
100
AcDbLine
 10
263.5944833558
 20
242.4727592363
 30
0.0
 11
265.0944826704
 21
242.4727592363
 31
0.0
  0
LINE
  5
16D
330
1F
100
AcDbEntity
  8
0
  6
CONTINUOUS
 62
     7
100
AcDbLine
 10
150.5944853228
 20
190.4727600261
 30
0.0
 11
150.5944853228
 21
190.5774891122
 31
0.0
  0
ARC
  5
16E
330
1F
100
AcDbEntity
  8
0
  6
CONTINUOUS
 62
     7
100
AcDbCircle
 10
150.5944843393
 20
192.6774898066
 30
0.0
 40
2.099999999999596
100
AcDbArc
 50
270.0
 51
90.0
  0
LINE
  5
16F
330
1F
100
AcDbEntity
  8
0
  6
CONTINUOUS
 62
     7
100
AcDbLine
 10
150.5944853228
 20
194.7774894281
 30
0.0
 11
150.5944853228
 21
194.8822203769
 31
0.0
  0
ARC
  5
170
330
1F
100
AcDbEntity
  8
0
  6
CONTINUOUS
 62
     7
100
AcDbCircle
 10
263.5944843393
 20
244.6774898066
 30
0.0
 40
2.099999999999596
100
AcDbArc
 50
90.0
 51
270.0
  0
LINE
  5
171
330
1F
100
AcDbEntity
  8
0
  6
CONTINUOUS
 62
     7
100
AcDbLine
 10
263.5944833558
 20
242.5774901851
 30
0.0
 11
263.5944833558
 21
242.4727592363
 31
0.0
  0
LINE
  5
172
330
1F
100
AcDbEntity
  8
0
  6
CONTINUOUS
 62
     7
100
AcDbLine
 10
149.0944860082
 20
190.5774891122
 30
0.0
 11
150.5944853228
 21
190.5774891122
 31
0.0
  0
LINE
  5
173
330
1F
100
AcDbEntity
  8
0
  6
CONTINUOUS
 62
     7
100
AcDbLine
 10
149.0944860082
 20
190.5774891122
 30
0.0
 11
149.0944860082
 21
190.4727600261
 31
0.0
  0
ARC
  5
174
330
1F
100
AcDbEntity
  8
0
  6
CONTINUOUS
 62
     7
100
AcDbCircle
 10
265.0944843393
 20
244.6774898066
 30
0.0
 40
2.099999999999596
100
AcDbArc
 50
270.0
 51
90.0
  0
LINE
  5
175
330
1F
100
AcDbEntity
  8
0
  6
CONTINUOUS
 62
     7
100
AcDbLine
 10
265.0944826704
 20
242.4727592363
 30
0.0
 11
265.0944826704
 21
242.5774901851
 31
0.0
  0
LINE
  5
176
330
1F
100
AcDbEntity
  8
0
  6
CONTINUOUS
 62
     7
100
AcDbLine
 10
263.5944833558
 20
242.5774901851
 30
0.0
 11
265.0944826704
 21
242.5774901851
 31
0.0
  0
ARC
  5
177
330
1F
100
AcDbEntity
  8
0
  6
CONTINUOUS
 62
     7
100
AcDbCircle
 10
149.0944843393
 20
192.6774898066
 30
0.0
 40
2.099999999999596
100
AcDbArc
 50
90.0
 51
270.0
  0
LINE
  5
178
330
1F
100
AcDbEntity
  8
0
  6
CONTINUOUS
 62
     7
100
AcDbLine
 10
149.0944860082
 20
194.8822203769
 30
0.0
 11
149.0944860082
 21
194.7774894281
 31
0.0
  0
LINE
  5
179
330
1F
100
AcDbEntity
  8
0
  6
CONTINUOUS
 62
     7
100
AcDbLine
 10
150.5944853228
 20
194.7774894281
 30
0.0
 11
149.0944860082
 21
194.7774894281
 31
0.0
  0
CIRCLE
  5
17A
330
1F
100
AcDbEntity
  8
0
  6
CONTINUOUS
 62
     7
100
AcDbCircle
 10
163.0944843393
 20
242.6774898066
 30
0.0
 40
3.900000000000006
  0
ARC
  5
17B
330
1F
100
AcDbEntity
  8
0
  6
CONTINUOUS
 62
     7
100
AcDbCircle
 10
163.0944843393
 20
242.6774898066
 30
0.0
 40
3.500000000000028
100
AcDbArc
 50
0.0
 51
180.0
  0
ARC
  5
17C
330
1F
100
AcDbEntity
  8
0
  6
CONTINUOUS
 62
     7
100
AcDbCircle
 10
163.0944843393
 20
242.6774898066
 30
0.0
 40
3.500000000000028
100
AcDbArc
 50
180.0
 51
0.0
  0
ARC
  5
17D
330
1F
100
AcDbEntity
  8
0
  6
CONTINUOUS
 62
     7
100
AcDbCircle
 10
250.2844843393
 20
192.6774898066
 30
0.0
 40
0.2000000000000171
100
AcDbArc
 50
180.0
 51
0.0
  0
LINE
  5
17E
330
1F
100
AcDbEntity
  8
0
  6
CONTINUOUS
 62
     7
100
AcDbLine
 10
250.0844833952
 20
192.6774892702
 30
0.0
 11
250.0844833952
 21
196.6774899258
 31
0.0
  0
ARC
  5
17F
330
1F
100
AcDbEntity
  8
0
  6
CONTINUOUS
 62
     7
100
AcDbCircle
 10
250.2844843393
 20
196.6774898066
 30
0.0
 40
0.2000000000000171
100
AcDbArc
 50
0.0
 51
180.0
  0
LINE
  5
180
330
1F
100
AcDbEntity
  8
0
  6
CONTINUOUS
 62
     7
100
AcDbLine
 10
250.4844827157
 20
196.6774899258
 30
0.0
 11
250.4844827157
 21
192.6774892702
 31
0.0
  0
ARC
  5
181
330
1F
100
AcDbEntity
  8
0
  6
CONTINUOUS
 62
     7
100
AcDbCircle
 10
251.0944843393
 20
194.6774898066
 30
0.0
 40
3.500000000000057
100
AcDbArc
 50
180.0
 51
0.0
  0
ARC
  5
182
330
1F
100
AcDbEntity
  8
0
  6
CONTINUOUS
 62
     7
100
AcDbCircle
 10
251.0944843393
 20
194.6774898066
 30
0.0
 40
3.500000000000057
100
AcDbArc
 50
0.0
 51
180.0
  0
CIRCLE
  5
183
330
1F
100
AcDbEntity
  8
0
  6
CONTINUOUS
 62
     7
100
AcDbCircle
 10
251.0944843393
 20
194.6774898066
 30
0.0
 40
3.900000000000034
  0
LINE
  5
184
330
1F
100
AcDbEntity
  8
0
  6
CONTINUOUS
 62
     7
100
AcDbLine
 10
251.4944834214
 20
194.8774892583
 30
0.0
 11
253.594485442
 21
194.8774892583
 31
0.0
  0
ARC
  5
185
330
1F
100
AcDbEntity
  8
0
  6
CONTINUOUS
 62
     7
100
AcDbCircle
 10
253.5944843393
 20
194.6774898066
 30
0.0
 40
0.2000000000000171
100
AcDbArc
 50
270.0
 51
90.0
  0
LINE
  5
186
330
1F
100
AcDbEntity
  8
0
  6
CONTINUOUS
 62
     7
100
AcDbLine
 10
253.594485442
 20
194.4774899378
 30
0.0
 11
251.4944834214
 21
194.4774899378
 31
0.0
  0
LINE
  5
187
330
1F
100
AcDbEntity
  8
0
  6
CONTINUOUS
 62
     7
100
AcDbLine
 10
251.4944834214
 20
194.4774899378
 30
0.0
 11
251.4944834214
 21
191.9274896129
 31
0.0
  0
ARC
  5
188
330
1F
100
AcDbEntity
  8
0
  6
CONTINUOUS
 62
     7
100
AcDbCircle
 10
251.2944843393
 20
191.9274898066
 30
0.0
 40
0.2000000000000455
100
AcDbArc
 50
180.0
 51
0.0
  0
LINE
  5
189
330
1F
100
AcDbEntity
  8
0
  6
CONTINUOUS
 62
     7
100
AcDbLine
 10
251.0944841009
 20
191.9274896129
 30
0.0
 11
251.0944841009
 21
197.4274895831
 31
0.0
  0
ARC
  5
18A
330
1F
100
AcDbEntity
  8
0
  6
CONTINUOUS
 62
     7
100
AcDbCircle
 10
251.2944843393
 20
197.4274898066
 30
0.0
 40
0.2000000000000455
100
AcDbArc
 50
0.0
 51
180.0
  0
LINE
  5
18B
330
1F
100
AcDbEntity
  8
0
  6
CONTINUOUS
 62
     7
100
AcDbLine
 10
251.4944834214
 20
197.4274895831
 30
0.0
 11
251.4944834214
 21
194.8774892583
 31
0.0
  0
LINE
  5
18C
330
1F
100
AcDbEntity
  8
0
  6
CONTINUOUS
 62
     7
100
AcDbLine
 10
248.5744854014
 20
193.1774902835
 30
0.0
 11
248.5744854014
 21
196.1774889126
 31
0.0
  0
ARC
  5
18D
330
1F
100
AcDbEntity
  8
0
  6
CONTINUOUS
 62
     7
100
AcDbCircle
 10
248.7744843393
 20
196.1774898066
 30
0.0
 40
0.2000000000000455
100
AcDbArc
 50
0.0
 51
180.0
  0
ARC
  5
18E
330
1F
100
AcDbEntity
  8
0
  6
CONTINUOUS
 62
     7
100
AcDbCircle
 10
248.7744843393
 20
193.1774898066
 30
0.0
 40
0.2000000000000455
100
AcDbArc
 50
180.0
 51
0.0
  0
LINE
  5
18F
330
1F
100
AcDbEntity
  8
0
  6
CONTINUOUS
 62
     7
100
AcDbLine
 10
248.974484722
 20
196.1774889126
 30
0.0
 11
248.974484722
 21
193.1774902835
 31
0.0
  0
ARC
  5
190
330
1F
100
AcDbEntity
  8
0
  6
CONTINUOUS
 62
     7
100
AcDbCircle
 10
165.4144843393
 20
241.1774898066
 30
0.0
 40
0.2000000000000171
100
AcDbArc
 50
180.0
 51
0.0
  0
ARC
  5
191
330
1F
100
AcDbEntity
  8
0
  6
CONTINUOUS
 62
     7
100
AcDbCircle
 10
165.4144843393
 20
244.1774898066
 30
0.0
 40
0.2000000000000171
100
AcDbArc
 50
0.0
 51
180.0
  0
LINE
  5
192
330
1F
100
AcDbEntity
  8
0
  6
CONTINUOUS
 62
     7
100
AcDbLine
 10
165.2144839566
 20
241.1774907007
 30
0.0
 11
165.2144839566
 21
244.1774893298
 31
0.0
  0
LINE
  5
193
330
1F
100
AcDbEntity
  8
0
  6
CONTINUOUS
 62
     7
100
AcDbLine
 10
165.6144832771
 20
244.1774893298
 30
0.0
 11
165.6144832771
 21
241.1774907007
 31
0.0
  0
LINE
  5
194
330
1F
100
AcDbEntity
  8
0
  6
CONTINUOUS
 62
     7
100
AcDbLine
 10
163.7044859629
 20
240.6774896874
 30
0.0
 11
163.7044859629
 21
244.6774903431
 31
0.0
  0
ARC
  5
195
330
1F
100
AcDbEntity
  8
0
  6
CONTINUOUS
 62
     7
100
AcDbCircle
 10
163.9044843393
 20
244.6774898066
 30
0.0
 40
0.2000000000000171
100
AcDbArc
 50
0.0
 51
180.0
  0
ARC
  5
196
330
1F
100
AcDbEntity
  8
0
  6
CONTINUOUS
 62
     7
100
AcDbCircle
 10
163.9044843393
 20
240.6774898066
 30
0.0
 40
0.2000000000000171
100
AcDbArc
 50
180.0
 51
0.0
  0
LINE
  5
197
330
1F
100
AcDbEntity
  8
0
  6
CONTINUOUS
 62
     7
100
AcDbLine
 10
164.1044852834
 20
244.6774903431
 30
0.0
 11
164.1044852834
 21
240.6774896874
 31
0.0
  0
LINE
  5
198
330
1F
100
AcDbEntity
  8
0
  6
CONTINUOUS
 62
     7
100
AcDbLine
 10
162.6944852572
 20
242.8774896755
 30
0.0
 11
162.6944852572
 21
245.4274900003
 31
0.0
  0
ARC
  5
199
330
1F
100
AcDbEntity
  8
0
  6
CONTINUOUS
 62
     7
100
AcDbCircle
 10
162.8944843393
 20
245.4274898066
 30
0.0
 40
0.2000000000000455
100
AcDbArc
 50
0.0
 51
180.0
  0
LINE
  5
19A
330
1F
100
AcDbEntity
  8
0
  6
CONTINUOUS
 62
     7
100
AcDbLine
 10
163.0944845777
 20
245.4274900003
 30
0.0
 11
163.0944845777
 21
239.9274900301
 31
0.0
  0
ARC
  5
19B
330
1F
100
AcDbEntity
  8
0
  6
CONTINUOUS
 62
     7
100
AcDbCircle
 10
162.8944843393
 20
239.9274898066
 30
0.0
 40
0.2000000000000455
100
AcDbArc
 50
180.0
 51
0.0
  0
LINE
  5
19C
330
1F
100
AcDbEntity
  8
0
  6
CONTINUOUS
 62
     7
100
AcDbLine
 10
160.5944832366
 20
242.8774896755
 30
0.0
 11
162.6944852572
 21
242.8774896755
 31
0.0
  0
ARC
  5
19D
330
1F
100
AcDbEntity
  8
0
  6
CONTINUOUS
 62
     7
100
AcDbCircle
 10
160.5944843393
 20
242.6774898066
 30
0.0
 40
0.2000000000000171
100
AcDbArc
 50
90.0
 51
270.0
  0
LINE
  5
19E
330
1F
100
AcDbEntity
  8
0
  6
CONTINUOUS
 62
     7
100
AcDbLine
 10
162.6944852572
 20
242.477490355
 30
0.0
 11
160.5944832366
 21
242.477490355
 31
0.0
  0
LINE
  5
19F
330
1F
100
AcDbEntity
  8
0
  6
CONTINUOUS
 62
     7
100
AcDbLine
 10
162.6944852572
 20
239.9274900301
 30
0.0
 11
162.6944852572
 21
242.477490355
 31
0.0
  0
ARC
  5
1A0
330
1F
100
AcDbEntity
  8
0
  6
CONTINUOUS
 62
     7
100
AcDbCircle
 10
182.0944831403
 20
187.6774903133
 30
0.0
 40
1.61110982298875
100
AcDbArc
 50
89.9999706103
 51
270.0000293897
  0
ARC
  5
1A1
330
1F
100
AcDbEntity
  8
0
  6
CONTINUOUS
 62
     7
100
AcDbCircle
 10
182.0944854141
 20
187.6774903133
 30
0.0
 40
1.611109822989189
100
AcDbArc
 50
269.9999485299
 51
90.0000514701
  0
ARC
  5
1A2
330
1F
100
AcDbEntity
  8
0
  6
CONTINUOUS
 62
     7
100
AcDbCircle
 10
232.0944832645
 20
249.6774893
 30
0.0
 40
1.611109822989189
100
AcDbArc
 50
89.9999485299
 51
270.0000514701
  0
ARC
  5
1A3
330
1F
100
AcDbEntity
  8
0
  6
CONTINUOUS
 62
     7
100
AcDbCircle
 10
232.0944855382
 20
249.6774893
 30
0.0
 40
1.61110982298875
100
AcDbArc
 50
269.9999706103
 51
90.0000293897
  0
ARC
  5
1A4
330
1F
100
AcDbEntity
  8
0
  6
CONTINUOUS
 62
     7
100
AcDbCircle
 10
207.0944829308
 20
249.6774893
 30
0.0
 40
1.611109822989154
100
AcDbArc
 50
89.99994991
 51
270.00005009
  0
ARC
  5
1A5
330
1F
100
AcDbEntity
  8
0
  6
CONTINUOUS
 62
     7
100
AcDbCircle
 10
207.0944857478
 20
249.6774893
 30
0.0
 40
1.611109822989154
100
AcDbArc
 50
269.99994991
 51
90.00005009
  0
ARC
  5
1A6
330
1F
100
AcDbEntity
  8
0
  6
CONTINUOUS
 62
     7
100
AcDbCircle
 10
207.0944829308
 20
187.6774903133
 30
0.0
 40
1.611109822989154
100
AcDbArc
 50
89.99994991
 51
270.00005009
  0
ARC
  5
1A7
330
1F
100
AcDbEntity
  8
0
  6
CONTINUOUS
 62
     7
100
AcDbCircle
 10
207.0944857478
 20
187.6774903133
 30
0.0
 40
1.611109822989154
100
AcDbArc
 50
269.99994991
 51
90.00005009
  0
ARC
  5
1A8
330
1F
100
AcDbEntity
  8
0
  6
CONTINUOUS
 62
     7
100
AcDbCircle
 10
182.0944831403
 20
249.6774893
 30
0.0
 40
1.61110982298875
100
AcDbArc
 50
89.9999706103
 51
270.0000293897
  0
ARC
  5
1A9
330
1F
100
AcDbEntity
  8
0
  6
CONTINUOUS
 62
     7
100
AcDbCircle
 10
182.0944854141
 20
249.6774893
 30
0.0
 40
1.611109822989189
100
AcDbArc
 50
269.9999485299
 51
90.0000514701
  0
ARC
  5
1AA
330
1F
100
AcDbEntity
  8
0
  6
CONTINUOUS
 62
     7
100
AcDbCircle
 10
232.0944832645
 20
187.6774903133
 30
0.0
 40
1.611109822989189
100
AcDbArc
 50
89.9999485299
 51
270.0000514701
  0
ARC
  5
1AB
330
1F
100
AcDbEntity
  8
0
  6
CONTINUOUS
 62
     7
100
AcDbCircle
 10
232.0944855382
 20
187.6774903133
 30
0.0
 40
1.61110982298875
100
AcDbArc
 50
269.9999706103
 51
90.0000293897
  0
LINE
  5
1AC
330
1F
100
AcDbEntity
  8
0
  6
CONTINUOUS
 62
     7
100
AcDbLine
 10
111.2971516715
 20
223.6774896949
 30
0.0
 11
111.0471511649
 21
223.6774896949
 31
0.0
  0
LINE
  5
1AD
330
1F
100
AcDbEntity
  8
0
  6
CONTINUOUS
 62
     7
100
AcDbLine
 10
111.0471511649
 20
213.6774899184
 30
0.0
 11
111.2971516715
 21
213.6774899184
 31
0.0
  0
LINE
  5
1AE
330
1F
100
AcDbEntity
  8
0
  6
CONTINUOUS
 62
     7
100
AcDbLine
 10
112.0471494661
 20
249.6774893
 30
0.0
 11
111.0471511649
 21
249.6774893
 31
0.0
  0
LINE
  5
1AF
330
1F
100
AcDbEntity
  8
0
  6
CONTINUOUS
 62
     7
100
AcDbLine
 10
111.0471511649
 20
239.6774895235
 30
0.0
 11
112.0471494661
 21
239.6774895235
 31
0.0
  0
LINE
  5
1B0
330
1F
100
AcDbEntity
  8
0
  6
CONTINUOUS
 62
     7
100
AcDbLine
 10
111.0471511649
 20
187.6774903133
 30
0.0
 11
112.0471494661
 21
187.6774903133
 31
0.0
  0
LINE
  5
1B1
330
1F
100
AcDbEntity
  8
0
  6
CONTINUOUS
 62
     7
100
AcDbLine
 10
112.0471494661
 20
197.6774900897
 30
0.0
 11
111.0471511649
 21
197.6774900897
 31
0.0
  0
LINE
  5
1B2
330
1F
100
AcDbEntity
  8
0
  6
CONTINUOUS
 62
     7
100
AcDbLine
 10
111.0471511649
 20
252.7215134098
 30
0.0
 11
111.0471511649
 21
258.9705612256
 31
0.0
  0
LINE
  5
1B3
330
1F
100
AcDbEntity
  8
0
  6
CONTINUOUS
 62
     7
100
AcDbLine
 10
70.5471510457
 20
253.4284431233
 30
0.0
 11
111.0471511649
 21
252.7215134098
 31
0.0
  0
LINE
  5
1B4
330
1F
100
AcDbEntity
  8
0
  6
CONTINUOUS
 62
     7
100
AcDbLine
 10
70.5471510457
 20
259.6774909391
 30
0.0
 11
70.5471510457
 21
253.4284431233
 31
0.0
  0
LINE
  5
1B5
330
1F
100
AcDbEntity
  8
0
  6
CONTINUOUS
 62
     7
100
AcDbLine
 10
111.0471511649
 20
258.9705612256
 30
0.0
 11
70.5471510457
 21
259.6774909391
 31
0.0
  0
LINE
  5
1B6
330
1F
100
AcDbEntity
  8
0
  6
CONTINUOUS
 62
     7
100
AcDbLine
 10
111.0471511649
 20
178.3844183876
 30
0.0
 11
111.0471511649
 21
184.6334662034
 31
0.0
  0
LINE
  5
1B7
330
1F
100
AcDbEntity
  8
0
  6
CONTINUOUS
 62
     7
100
AcDbLine
 10
70.5471510457
 20
177.6774886741
 30
0.0
 11
111.0471511649
 21
178.3844183876
 31
0.0
  0
LINE
  5
1B8
330
1F
100
AcDbEntity
  8
0
  6
CONTINUOUS
 62
     7
100
AcDbLine
 10
70.5471510457
 20
183.9265364899
 30
0.0
 11
70.5471510457
 21
177.6774886741
 31
0.0
  0
LINE
  5
1B9
330
1F
100
AcDbEntity
  8
0
  6
CONTINUOUS
 62
     7
100
AcDbLine
 10
70.5471510457
 20
183.9265364899
 30
0.0
 11
111.0471511649
 21
184.6334662034
 31
0.0
  0
LINE
  5
1BA
330
1F
100
AcDbEntity
  8
0
  6
CONTINUOUS
 62
     7
100
AcDbLine
 10
111.0471511649
 20
184.6334662034
 30
0.0
 11
111.0471511649
 21
252.7215134098
 31
0.0
  0
LINE
  5
1BB
330
1F
100
AcDbEntity
  8
0
  6
CONTINUOUS
 62
     7
100
AcDbLine
 10
70.5471510457
 20
253.4284431233
 30
0.0
 11
70.5471510457
 21
183.9265364899
 31
0.0
  0
LINE
  5
1BC
330
1F
100
AcDbEntity
  8
0
  6
CONTINUOUS
 62
     7
100
AcDbLine
 10
112.0471494661
 20
236.9274895384
 30
0.0
 11
111.0471511649
 21
236.9274895384
 31
0.0
  0
LINE
  5
1BD
330
1F
100
AcDbEntity
  8
0
  6
CONTINUOUS
 62
     7
100
AcDbLine
 10
112.0471494661
 20
238.9274898662
 30
0.0
 11
111.0471511649
 21
238.9274898662
 31
0.0
  0
LINE
  5
1BE
330
1F
100
AcDbEntity
  8
0
  6
CONTINUOUS
 62
     7
100
AcDbLine
 10
112.0471494661
 20
236.9274895384
 30
0.0
 11
112.0471494661
 21
238.9274898662
 31
0.0
  0
LINE
  5
1BF
330
1F
100
AcDbEntity
  8
0
  6
CONTINUOUS
 62
     7
100
AcDbLine
 10
69.5471509982
 20
236.4195238545
 30
0.0
 11
70.5471510457
 21
236.428250347
 31
0.0
  0
LINE
  5
1C0
330
1F
100
AcDbEntity
  8
0
  6
CONTINUOUS
 62
     7
100
AcDbLine
 10
69.5471509982
 20
240.4187626882
 30
0.0
 11
69.5471509982
 21
236.4195238545
 31
0.0
  0
LINE
  5
1C1
330
1F
100
AcDbEntity
  8
0
  6
CONTINUOUS
 62
     7
100
AcDbLine
 10
70.5471510457
 20
240.4274891808
 30
0.0
 11
69.5471509982
 21
240.4187626882
 31
0.0
  0
LINE
  5
1C2
330
1F
100
AcDbEntity
  8
0
  6
CONTINUOUS
 62
     7
100
AcDbLine
 10
70.5471510456
 20
184.2774886384
 30
0.0
 11
69.5471509982
 21
184.2774886384
 31
0.0
  0
LINE
  5
1C3
330
1F
100
AcDbEntity
  8
0
  6
CONTINUOUS
 62
     7
100
AcDbLine
 10
69.5471509982
 20
184.2774886384
 30
0.0
 11
69.5471509982
 21
236.4195238545
 31
0.0
  0
LINE
  5
1C4
330
1F
100
AcDbEntity
  8
0
  6
CONTINUOUS
 62
     7
100
AcDbLine
 10
69.5471509982
 20
257.7167700722
 30
0.0
 11
69.5471509982
 21
253.0774909749
 31
0.0
  0
LINE
  5
1C5
330
1F
100
AcDbEntity
  8
0
  6
CONTINUOUS
 62
     7
100
AcDbLine
 10
70.5471510457
 20
257.7429551377
 30
0.0
 11
69.5471509982
 21
257.7167700722
 31
0.0
  0
LINE
  5
1C6
330
1F
100
AcDbEntity
  8
0
  6
CONTINUOUS
 62
     7
100
AcDbLine
 10
69.5471509982
 20
253.0774909749
 30
0.0
 11
70.5471510457
 21
253.0774909749
 31
0.0
  0
LINE
  5
1C7
330
1F
100
AcDbEntity
  8
0
  6
CONTINUOUS
 62
     7
100
AcDbLine
 10
69.5471509982
 20
184.2774886384
 30
0.0
 11
69.5471509982
 21
179.6382095411
 31
0.0
  0
LINE
  5
1C8
330
1F
100
AcDbEntity
  8
0
  6
CONTINUOUS
 62
     7
100
AcDbLine
 10
69.5471509982
 20
179.6382095411
 30
0.0
 11
70.5471510457
 21
179.6120244755
 31
0.0
  0
LINE
  5
1C9
330
1F
100
AcDbEntity
  8
0
  6
CONTINUOUS
 62
     7
100
AcDbLine
 10
70.5471510457
 20
249.8835481449
 30
0.0
 11
69.5471509982
 21
249.9010029926
 31
0.0
  0
LINE
  5
1CA
330
1F
100
AcDbEntity
  8
0
  6
CONTINUOUS
 62
     7
100
AcDbLine
 10
69.5471509982
 20
249.9010029926
 30
0.0
 11
69.5471509982
 21
253.0774909749
 31
0.0
  0
LINE
  5
1CB
330
1F
100
AcDbEntity
  8
0
  6
CONTINUOUS
 62
     7
100
AcDbLine
 10
69.5471509982
 20
249.9010029926
 30
0.0
 11
69.5471509982
 21
248.9013064398
 31
0.0
  0
LINE
  5
1CC
330
1F
100
AcDbEntity
  8
0
  6
CONTINUOUS
 62
     7
100
AcDbLine
 10
69.5471509982
 20
248.9013064398
 30
0.0
 11
70.5471510457
 21
248.8838515922
 31
0.0
  0
LINE
  5
1CD
330
1F
100
AcDbEntity
  8
0
  6
CONTINUOUS
 62
     7
100
AcDbLine
 10
111.2971516715
 20
223.3274898238
 30
0.0
 11
111.2971516715
 21
223.6774896949
 31
0.0
  0
LINE
  5
1CE
330
1F
100
AcDbEntity
  8
0
  6
CONTINUOUS
 62
     7
100
AcDbLine
 10
111.2971516715
 20
223.3274898238
 30
0.0
 11
111.0471511649
 21
223.3274898238
 31
0.0
  0
LINE
  5
1CF
330
1F
100
AcDbEntity
  8
0
  6
CONTINUOUS
 62
     7
100
AcDbLine
 10
111.2971516715
 20
214.0274897895
 30
0.0
 11
111.0471511649
 21
214.0274897895
 31
0.0
  0
LINE
  5
1D0
330
1F
100
AcDbEntity
  8
0
  6
CONTINUOUS
 62
     7
100
AcDbLine
 10
111.2971516715
 20
213.6774899184
 30
0.0
 11
111.2971516715
 21
214.0274897895
 31
0.0
  0
LINE
  5
1D1
330
1F
100
AcDbEntity
  8
0
  6
CONTINUOUS
 62
     7
100
AcDbLine
 10
111.2971516715
 20
214.0274897895
 30
0.0
 11
111.2971516715
 21
223.3274898238
 31
0.0
  0
LINE
  5
1D2
330
1F
100
AcDbEntity
  8
0
  6
CONTINUOUS
 62
     7
100
AcDbLine
 10
69.5471509982
 20
240.4187626882
 30
0.0
 11
69.5471509982
 21
244.418610607
 31
0.0
  0
LINE
  5
1D3
330
1F
100
AcDbEntity
  8
0
  6
CONTINUOUS
 62
     7
100
AcDbLine
 10
69.5471509982
 20
244.418610607
 30
0.0
 11
69.5471509982
 21
248.9013064398
 31
0.0
  0
LINE
  5
1D4
330
1F
100
AcDbEntity
  8
0
  6
CONTINUOUS
 62
     7
100
AcDbLine
 10
112.0471494661
 20
248.6774891361
 30
0.0
 11
112.0471494661
 21
249.6774893
 31
0.0
  0
LINE
  5
1D5
330
1F
100
AcDbEntity
  8
0
  6
CONTINUOUS
 62
     7
100
AcDbLine
 10
112.0471494661
 20
248.6774891361
 30
0.0
 11
111.0471511649
 21
248.6774891361
 31
0.0
  0
LINE
  5
1D6
330
1F
100
AcDbEntity
  8
0
  6
CONTINUOUS
 62
     7
100
AcDbLine
 10
112.0471494661
 20
239.6774895235
 30
0.0
 11
112.0471494661
 21
240.6774896874
 31
0.0
  0
LINE
  5
1D7
330
1F
100
AcDbEntity
  8
0
  6
CONTINUOUS
 62
     7
100
AcDbLine
 10
111.0471511649
 20
240.6774896874
 30
0.0
 11
112.0471494661
 21
240.6774896874
 31
0.0
  0
LINE
  5
1D8
330
1F
100
AcDbEntity
  8
0
  6
CONTINUOUS
 62
     7
100
AcDbLine
 10
111.0471511649
 20
188.6774904772
 30
0.0
 11
112.0471494661
 21
188.6774904772
 31
0.0
  0
LINE
  5
1D9
330
1F
100
AcDbEntity
  8
0
  6
CONTINUOUS
 62
     7
100
AcDbLine
 10
112.0471494661
 20
196.6774899258
 30
0.0
 11
111.0471511649
 21
196.6774899258
 31
0.0
  0
LINE
  5
1DA
330
1F
100
AcDbEntity
  8
0
  6
CONTINUOUS
 62
     7
100
AcDbLine
 10
112.0471494661
 20
188.6774904772
 30
0.0
 11
112.0471494661
 21
196.6774899258
 31
0.0
  0
LINE
  5
1DB
330
1F
100
AcDbEntity
  8
0
  6
CONTINUOUS
 62
     7
100
AcDbLine
 10
112.0471494661
 20
240.6774896874
 30
0.0
 11
112.0471494661
 21
248.6774891361
 31
0.0
  0
LINE
  5
1DC
330
1F
100
AcDbEntity
  8
0
  6
CONTINUOUS
 62
     7
100
AcDbLine
 10
112.0471494661
 20
187.6774903133
 30
0.0
 11
112.0471494661
 21
188.6774904772
 31
0.0
  0
LINE
  5
1DD
330
1F
100
AcDbEntity
  8
0
  6
CONTINUOUS
 62
     7
100
AcDbLine
 10
112.0471494661
 20
196.6774899258
 30
0.0
 11
112.0471494661
 21
197.6774900897
 31
0.0
  0
LINE
  5
1DE
330
1F
100
AcDbEntity
  8
0
  6
CONTINUOUS
 62
     7
100
AcDbLine
 10
112.0471494661
 20
198.427489747
 30
0.0
 11
112.0471494661
 21
200.4274900748
 31
0.0
  0
LINE
  5
1DF
330
1F
100
AcDbEntity
  8
0
  6
CONTINUOUS
 62
     7
100
AcDbLine
 10
112.0471494661
 20
198.427489747
 30
0.0
 11
111.0471511649
 21
198.427489747
 31
0.0
  0
LINE
  5
1E0
330
1F
100
AcDbEntity
  8
0
  6
CONTINUOUS
 62
     7
100
AcDbLine
 10
111.0471511649
 20
200.4274900748
 30
0.0
 11
112.0471494661
 21
200.4274900748
 31
0.0
  0
LINE
  5
1E1
330
1F
100
AcDbEntity
  8
0
  6
CONTINUOUS
 62
     8
100
AcDbLine
 10
70.5471510457
 20
244.4273370995
 30
0.0
 11
69.5471509982
 21
244.418610607
 31
0.0
  0
LINE
  5
1E2
330
1F
100
AcDbEntity
  8
0
  6
CONTINUOUS
 62
     7
100
AcDbLine
 10
202.094484451
 20
307.695509982
 30
0.0
 11
202.094484451
 21
307.4455094754
 31
0.0
  0
LINE
  5
1E3
330
1F
100
AcDbEntity
  8
0
  6
CONTINUOUS
 62
     7
100
AcDbLine
 10
212.0944842275
 20
307.4455094754
 30
0.0
 11
212.0944842275
 21
307.695509982
 31
0.0
  0
LINE
  5
1E4
330
1F
100
AcDbEntity
  8
0
  6
CONTINUOUS
 62
     7
100
AcDbLine
 10
154.3444854718
 20
306.6955116808
 30
0.0
 11
154.3444854718
 21
307.695509982
 31
0.0
  0
LINE
  5
1E5
330
1F
100
AcDbEntity
  8
0
  6
CONTINUOUS
 62
     7
100
AcDbLine
 10
145.3444858592
 20
307.695509982
 30
0.0
 11
145.3444858592
 21
306.6955116808
 31
0.0
  0
LINE
  5
1E6
330
1F
100
AcDbEntity
  8
0
  6
CONTINUOUS
 62
     7
100
AcDbLine
 10
259.8444832068
 20
307.4455094754
 30
0.0
 11
259.8444832068
 21
306.6955116808
 31
0.0
  0
LINE
  5
1E7
330
1F
100
AcDbEntity
  8
0
  6
CONTINUOUS
 62
     7
100
AcDbLine
 10
268.8444828194
 20
306.6955116808
 30
0.0
 11
268.8444828194
 21
307.695509982
 31
0.0
  0
LINE
  5
1E8
330
1F
100
AcDbEntity
  8
0
  6
CONTINUOUS
 62
     7
100
AcDbLine
 10
144.3014157515
 20
307.695509982
 30
0.0
 11
150.5504635673
 21
307.695509982
 31
0.0
  0
LINE
  5
1E9
330
1F
100
AcDbEntity
  8
0
  6
CONTINUOUS
 62
     7
100
AcDbLine
 10
143.5944823127
 20
348.1955101013
 30
0.0
 11
144.3014157515
 21
307.695509982
 31
0.0
  0
LINE
  5
1EA
330
1F
100
AcDbEntity
  8
0
  6
CONTINUOUS
 62
     7
100
AcDbLine
 10
149.8435338538
 20
348.1955101013
 30
0.0
 11
150.5504635673
 21
307.695509982
 31
0.0
  0
LINE
  5
1EB
330
1F
100
AcDbEntity
  8
0
  6
CONTINUOUS
 62
     7
100
AcDbLine
 10
149.8435338538
 20
348.1955101013
 30
0.0
 11
143.5944823127
 21
348.1955101013
 31
0.0
  0
LINE
  5
1EC
330
1F
100
AcDbEntity
  8
0
  6
CONTINUOUS
 62
     7
100
AcDbLine
 10
263.6385051113
 20
307.695509982
 30
0.0
 11
269.8875529271
 21
307.695509982
 31
0.0
  0
LINE
  5
1ED
330
1F
100
AcDbEntity
  8
0
  6
CONTINUOUS
 62
     7
100
AcDbLine
 10
264.3454348248
 20
348.1955101013
 30
0.0
 11
263.6385051113
 21
307.695509982
 31
0.0
  0
LINE
  5
1EE
330
1F
100
AcDbEntity
  8
0
  6
CONTINUOUS
 62
     7
100
AcDbLine
 10
270.5944863658
 20
348.1955101013
 30
0.0
 11
269.8875529271
 21
307.695509982
 31
0.0
  0
LINE
  5
1EF
330
1F
100
AcDbEntity
  8
0
  6
CONTINUOUS
 62
     7
100
AcDbLine
 10
270.5944863658
 20
348.1955101013
 30
0.0
 11
264.3454348248
 21
348.1955101013
 31
0.0
  0
LINE
  5
1F0
330
1F
100
AcDbEntity
  8
0
  6
CONTINUOUS
 62
     7
100
AcDbLine
 10
150.5504635673
 20
307.695509982
 30
0.0
 11
263.6385051113
 21
307.695509982
 31
0.0
  0
LINE
  5
1F1
330
1F
100
AcDbEntity
  8
0
  6
CONTINUOUS
 62
     7
100
AcDbLine
 10
264.3454348248
 20
348.1955101013
 30
0.0
 11
149.8435338538
 21
348.1955101013
 31
0.0
  0
LINE
  5
1F2
330
1F
100
AcDbEntity
  8
0
  6
CONTINUOUS
 62
     7
100
AcDbLine
 10
268.6337617736
 20
349.1955101488
 30
0.0
 11
263.9944826763
 21
349.1955101488
 31
0.0
  0
LINE
  5
1F3
330
1F
100
AcDbEntity
  8
0
  6
CONTINUOUS
 62
     7
100
AcDbLine
 10
268.6599505644
 20
348.1955101013
 30
0.0
 11
268.6337617736
 21
349.1955101488
 31
0.0
  0
LINE
  5
1F4
330
1F
100
AcDbEntity
  8
0
  6
CONTINUOUS
 62
     7
100
AcDbLine
 10
263.9944826763
 20
349.1955101488
 30
0.0
 11
263.9944826763
 21
348.1955101013
 31
0.0
  0
LINE
  5
1F5
330
1F
100
AcDbEntity
  8
0
  6
CONTINUOUS
 62
     7
100
AcDbLine
 10
150.1944860023
 20
349.1955101488
 30
0.0
 11
145.5552069049
 21
349.1955101488
 31
0.0
  0
LINE
  5
1F6
330
1F
100
AcDbEntity
  8
0
  6
CONTINUOUS
 62
     7
100
AcDbLine
 10
150.1944860023
 20
348.1955101013
 30
0.0
 11
150.1944860023
 21
349.1955101488
 31
0.0
  0
LINE
  5
1F7
330
1F
100
AcDbEntity
  8
0
  6
CONTINUOUS
 62
     7
100
AcDbLine
 10
145.5552069049
 20
349.1955101488
 30
0.0
 11
145.5290181141
 21
348.1955101013
 31
0.0
  0
LINE
  5
1F8
330
1F
100
AcDbEntity
  8
0
  6
CONTINUOUS
 62
     7
100
AcDbLine
 10
150.1944860023
 20
349.1955101488
 30
0.0
 11
263.9944826763
 21
349.1955101488
 31
0.0
  0
LINE
  5
1F9
330
1F
100
AcDbEntity
  8
0
  6
CONTINUOUS
 62
     7
100
AcDbLine
 10
154.8444827598
 20
306.6955116808
 30
0.0
 11
154.8444827598
 21
307.695509982
 31
0.0
  0
LINE
  5
1FA
330
1F
100
AcDbEntity
  8
0
  6
CONTINUOUS
 62
     7
100
AcDbLine
 10
156.8444830876
 20
306.6955116808
 30
0.0
 11
156.8444830876
 21
307.695509982
 31
0.0
  0
LINE
  5
1FB
330
1F
100
AcDbEntity
  8
0
  6
CONTINUOUS
 62
     7
100
AcDbLine
 10
154.8444827598
 20
306.6955116808
 30
0.0
 11
156.8444830876
 21
306.6955116808
 31
0.0
  0
LINE
  5
1FC
330
1F
100
AcDbEntity
  8
0
  6
CONTINUOUS
 62
     7
100
AcDbLine
 10
257.344485591
 20
306.6955116808
 30
0.0
 11
259.3444859188
 21
306.6955116808
 31
0.0
  0
LINE
  5
1FD
330
1F
100
AcDbEntity
  8
0
  6
CONTINUOUS
 62
     7
100
AcDbLine
 10
257.344485591
 20
306.6955116808
 30
0.0
 11
257.344485591
 21
307.695509982
 31
0.0
  0
LINE
  5
1FE
330
1F
100
AcDbEntity
  8
0
  6
CONTINUOUS
 62
     7
100
AcDbLine
 10
259.3444859188
 20
307.695509982
 30
0.0
 11
259.3444859188
 21
306.6955116808
 31
0.0
  0
LINE
  5
1FF
330
1F
100
AcDbEntity
  8
0
  6
CONTINUOUS
 62
     7
100
AcDbLine
 10
202.4444843222
 20
307.4455094754
 30
0.0
 11
202.4444843222
 21
307.695509982
 31
0.0
  0
LINE
  5
200
330
1F
100
AcDbEntity
  8
0
  6
CONTINUOUS
 62
     7
100
AcDbLine
 10
202.094484451
 20
307.4455094754
 30
0.0
 11
202.4444843222
 21
307.4455094754
 31
0.0
  0
LINE
  5
201
330
1F
100
AcDbEntity
  8
0
  6
CONTINUOUS
 62
     7
100
AcDbLine
 10
211.7444843564
 20
307.4455094754
 30
0.0
 11
211.7444843564
 21
307.695509982
 31
0.0
  0
LINE
  5
202
330
1F
100
AcDbEntity
  8
0
  6
CONTINUOUS
 62
     7
100
AcDbLine
 10
202.4444843222
 20
307.4455094754
 30
0.0
 11
211.7444843564
 21
307.4455094754
 31
0.0
  0
LINE
  5
203
330
1F
100
AcDbEntity
  8
0
  6
CONTINUOUS
 62
     7
100
AcDbLine
 10
211.7444843564
 20
307.4455094754
 30
0.0
 11
212.0944842275
 21
307.4455094754
 31
0.0
  0
LINE
  5
204
330
1F
100
AcDbEntity
  8
0
  6
CONTINUOUS
 62
     7
100
AcDbLine
 10
153.3444834452
 20
306.6955116808
 30
0.0
 11
154.3444854718
 21
306.6955116808
 31
0.0
  0
LINE
  5
205
330
1F
100
AcDbEntity
  8
0
  6
CONTINUOUS
 62
     7
100
AcDbLine
 10
153.3444834452
 20
306.6955116808
 30
0.0
 11
153.3444834452
 21
307.695509982
 31
0.0
  0
LINE
  5
206
330
1F
100
AcDbEntity
  8
0
  6
CONTINUOUS
 62
     7
100
AcDbLine
 10
145.3444858592
 20
306.6955116808
 30
0.0
 11
146.3444841605
 21
306.6955116808
 31
0.0
  0
LINE
  5
207
330
1F
100
AcDbEntity
  8
0
  6
CONTINUOUS
 62
     7
100
AcDbLine
 10
146.3444841605
 20
306.6955116808
 30
0.0
 11
146.3444841605
 21
307.695509982
 31
0.0
  0
LINE
  5
208
330
1F
100
AcDbEntity
  8
0
  6
CONTINUOUS
 62
     7
100
AcDbLine
 10
146.3444841605
 20
306.6955116808
 30
0.0
 11
153.3444834452
 21
306.6955116808
 31
0.0
  0
LINE
  5
209
330
1F
100
AcDbEntity
  8
0
  6
CONTINUOUS
 62
     7
100
AcDbLine
 10
263.9944826763
 20
307.4455094754
 30
0.0
 11
264.6944833499
 21
307.4455094754
 31
0.0
  0
LINE
  5
20A
330
1F
100
AcDbEntity
  8
0
  6
CONTINUOUS
 62
     7
100
AcDbLine
 10
263.9944826763
 20
307.4455094754
 30
0.0
 11
263.9944826763
 21
307.695509982
 31
0.0
  0
LINE
  5
20B
330
1F
100
AcDbEntity
  8
0
  6
CONTINUOUS
 62
     7
100
AcDbLine
 10
264.6944833499
 20
307.4455094754
 30
0.0
 11
264.6944833499
 21
307.695509982
 31
0.0
  0
LINE
  5
20C
330
1F
100
AcDbEntity
  8
0
  6
CONTINUOUS
 62
     7
100
AcDbLine
 10
154.4944842856
 20
307.4455094754
 30
0.0
 11
154.4944842856
 21
307.695509982
 31
0.0
  0
LINE
  5
20D
330
1F
100
AcDbEntity
  8
0
  6
CONTINUOUS
 62
     7
100
AcDbLine
 10
154.4944842856
 20
307.4455094754
 30
0.0
 11
154.8444827598
 21
307.4455094754
 31
0.0
  0
LINE
  5
20E
330
1F
100
AcDbEntity
  8
0
  6
CONTINUOUS
 62
     7
100
AcDbLine
 10
259.6944843929
 20
307.4455094754
 30
0.0
 11
259.6944843929
 21
307.695509982
 31
0.0
  0
LINE
  5
20F
330
1F
100
AcDbEntity
  8
0
  6
CONTINUOUS
 62
     7
100
AcDbLine
 10
259.3444859188
 20
307.4455094754
 30
0.0
 11
259.6944843929
 21
307.4455094754
 31
0.0
  0
LINE
  5
210
330
1F
100
AcDbEntity
  8
0
  6
CONTINUOUS
 62
     7
100
AcDbLine
 10
154.3444854718
 20
307.4455094754
 30
0.0
 11
154.4944842856
 21
307.4455094754
 31
0.0
  0
LINE
  5
211
330
1F
100
AcDbEntity
  8
0
  6
CONTINUOUS
 62
     7
100
AcDbLine
 10
259.6944843929
 20
307.4455094754
 30
0.0
 11
263.9944826763
 21
307.4455094754
 31
0.0
  0
LINE
  5
212
330
1F
100
AcDbEntity
  8
0
  6
CONTINUOUS
 62
     7
100
AcDbLine
 10
260.8444852334
 20
306.6955116808
 30
0.0
 11
267.8444845181
 21
306.6955116808
 31
0.0
  0
LINE
  5
213
330
1F
100
AcDbEntity
  8
0
  6
CONTINUOUS
 62
     7
100
AcDbLine
 10
267.8444845181
 20
306.6955116808
 30
0.0
 11
267.8444845181
 21
307.695509982
 31
0.0
  0
LINE
  5
214
330
1F
100
AcDbEntity
  8
0
  6
CONTINUOUS
 62
     7
100
AcDbLine
 10
259.8444832068
 20
306.6955116808
 30
0.0
 11
260.8444852334
 21
306.6955116808
 31
0.0
  0
LINE
  5
215
330
1F
100
AcDbEntity
  8
0
  6
CONTINUOUS
 62
     7
100
AcDbLine
 10
267.8444845181
 20
306.6955116808
 30
0.0
 11
268.8444828194
 21
306.6955116808
 31
0.0
  0
LINE
  5
216
330
1F
100
AcDbEntity
  8
0
  6
CONTINUOUS
 62
     8
100
AcDbLine
 10
260.8444852334
 20
307.4455094754
 30
0.0
 11
260.8444852334
 21
306.6955116808
 31
0.0
  0
LINE
  5
217
330
1F
100
AcDbEntity
  8
0
  6
CONTINUOUS
 62
     7
100
AcDbLine
 10
212.0944842275
 20
134.9207606994
 30
0.0
 11
212.0944842275
 21
135.170761206
 31
0.0
  0
LINE
  5
218
330
1F
100
AcDbEntity
  8
0
  6
CONTINUOUS
 62
     7
100
AcDbLine
 10
202.094484451
 20
135.170761206
 30
0.0
 11
202.094484451
 21
134.9207606994
 31
0.0
  0
LINE
  5
219
330
1F
100
AcDbEntity
  8
0
  6
CONTINUOUS
 62
     7
100
AcDbLine
 10
268.8444828194
 20
134.9207606994
 30
0.0
 11
268.8444828194
 21
135.9207590007
 31
0.0
  0
LINE
  5
21A
330
1F
100
AcDbEntity
  8
0
  6
CONTINUOUS
 62
     7
100
AcDbLine
 10
259.8444832068
 20
135.9207590007
 30
0.0
 11
259.8444832068
 21
134.9207606994
 31
0.0
  0
LINE
  5
21B
330
1F
100
AcDbEntity
  8
0
  6
CONTINUOUS
 62
     7
100
AcDbLine
 10
145.3444858592
 20
135.9207590007
 30
0.0
 11
145.3444858592
 21
134.9207606994
 31
0.0
  0
LINE
  5
21C
330
1F
100
AcDbEntity
  8
0
  6
CONTINUOUS
 62
     7
100
AcDbLine
 10
154.3444854718
 20
135.170761206
 30
0.0
 11
154.3444854718
 21
135.9207590007
 31
0.0
  0
LINE
  5
21D
330
1F
100
AcDbEntity
  8
0
  6
CONTINUOUS
 62
     7
100
AcDbLine
 10
269.8875529271
 20
134.9207606994
 30
0.0
 11
263.6385051113
 21
134.9207606994
 31
0.0
  0
LINE
  5
21E
330
1F
100
AcDbEntity
  8
0
  6
CONTINUOUS
 62
     7
100
AcDbLine
 10
270.5944863658
 20
94.4207605802
 30
0.0
 11
269.8875529271
 21
134.9207606994
 31
0.0
  0
LINE
  5
21F
330
1F
100
AcDbEntity
  8
0
  6
CONTINUOUS
 62
     7
100
AcDbLine
 10
264.3454348248
 20
94.4207605802
 30
0.0
 11
270.5944863658
 21
94.4207605802
 31
0.0
  0
LINE
  5
220
330
1F
100
AcDbEntity
  8
0
  6
CONTINUOUS
 62
     7
100
AcDbLine
 10
263.6385051113
 20
134.9207606994
 30
0.0
 11
264.3454348248
 21
94.4207605802
 31
0.0
  0
LINE
  5
221
330
1F
100
AcDbEntity
  8
0
  6
CONTINUOUS
 62
     7
100
AcDbLine
 10
150.5504635673
 20
134.9207606994
 30
0.0
 11
144.3014157515
 21
134.9207606994
 31
0.0
  0
LINE
  5
222
330
1F
100
AcDbEntity
  8
0
  6
CONTINUOUS
 62
     7
100
AcDbLine
 10
149.8435338538
 20
94.4207605802
 30
0.0
 11
150.5504635673
 21
134.9207606994
 31
0.0
  0
LINE
  5
223
330
1F
100
AcDbEntity
  8
0
  6
CONTINUOUS
 62
     7
100
AcDbLine
 10
143.5944823127
 20
94.4207605802
 30
0.0
 11
149.8435338538
 21
94.4207605802
 31
0.0
  0
LINE
  5
224
330
1F
100
AcDbEntity
  8
0
  6
CONTINUOUS
 62
     7
100
AcDbLine
 10
143.5944823127
 20
94.4207605802
 30
0.0
 11
144.3014157515
 21
134.9207606994
 31
0.0
  0
LINE
  5
225
330
1F
100
AcDbEntity
  8
0
  6
CONTINUOUS
 62
     7
100
AcDbLine
 10
263.6385051113
 20
134.9207606994
 30
0.0
 11
150.5504635673
 21
134.9207606994
 31
0.0
  0
LINE
  5
226
330
1F
100
AcDbEntity
  8
0
  6
CONTINUOUS
 62
     7
100
AcDbLine
 10
149.8435338538
 20
94.4207605802
 30
0.0
 11
264.3454348248
 21
94.4207605802
 31
0.0
  0
LINE
  5
227
330
1F
100
AcDbEntity
  8
0
  6
CONTINUOUS
 62
     7
100
AcDbLine
 10
145.5552069049
 20
93.4207605327
 30
0.0
 11
150.1944860023
 21
93.4207605327
 31
0.0
  0
LINE
  5
228
330
1F
100
AcDbEntity
  8
0
  6
CONTINUOUS
 62
     7
100
AcDbLine
 10
145.5290181141
 20
94.4207605802
 30
0.0
 11
145.5552069049
 21
93.4207605327
 31
0.0
  0
LINE
  5
229
330
1F
100
AcDbEntity
  8
0
  6
CONTINUOUS
 62
     7
100
AcDbLine
 10
150.1944860023
 20
93.4207605327
 30
0.0
 11
150.1944860023
 21
94.4207605802
 31
0.0
  0
LINE
  5
22A
330
1F
100
AcDbEntity
  8
0
  6
CONTINUOUS
 62
     7
100
AcDbLine
 10
263.9944826763
 20
93.4207605327
 30
0.0
 11
268.6337617736
 21
93.4207605327
 31
0.0
  0
LINE
  5
22B
330
1F
100
AcDbEntity
  8
0
  6
CONTINUOUS
 62
     7
100
AcDbLine
 10
263.9944826763
 20
94.4207605802
 30
0.0
 11
263.9944826763
 21
93.4207605327
 31
0.0
  0
LINE
  5
22C
330
1F
100
AcDbEntity
  8
0
  6
CONTINUOUS
 62
     7
100
AcDbLine
 10
268.6337617736
 20
93.4207605327
 30
0.0
 11
268.6599505644
 21
94.4207605802
 31
0.0
  0
LINE
  5
22D
330
1F
100
AcDbEntity
  8
0
  6
CONTINUOUS
 62
     7
100
AcDbLine
 10
263.9944826763
 20
93.4207605327
 30
0.0
 11
150.1944860023
 21
93.4207605327
 31
0.0
  0
LINE
  5
22E
330
1F
100
AcDbEntity
  8
0
  6
CONTINUOUS
 62
     7
100
AcDbLine
 10
259.3444859188
 20
135.9207590007
 30
0.0
 11
259.3444859188
 21
134.9207606994
 31
0.0
  0
LINE
  5
22F
330
1F
100
AcDbEntity
  8
0
  6
CONTINUOUS
 62
     7
100
AcDbLine
 10
257.344485591
 20
135.9207590007
 30
0.0
 11
257.344485591
 21
134.9207606994
 31
0.0
  0
LINE
  5
230
330
1F
100
AcDbEntity
  8
0
  6
CONTINUOUS
 62
     7
100
AcDbLine
 10
259.3444859188
 20
135.9207590007
 30
0.0
 11
257.344485591
 21
135.9207590007
 31
0.0
  0
LINE
  5
231
330
1F
100
AcDbEntity
  8
0
  6
CONTINUOUS
 62
     7
100
AcDbLine
 10
156.8444830876
 20
135.9207590007
 30
0.0
 11
156.8444830876
 21
134.9207606994
 31
0.0
  0
LINE
  5
232
330
1F
100
AcDbEntity
  8
0
  6
CONTINUOUS
 62
     7
100
AcDbLine
 10
154.8444827598
 20
134.9207606994
 30
0.0
 11
154.8444827598
 21
135.9207590007
 31
0.0
  0
LINE
  5
233
330
1F
100
AcDbEntity
  8
0
  6
CONTINUOUS
 62
     7
100
AcDbLine
 10
156.8444830876
 20
135.9207590007
 30
0.0
 11
154.8444827598
 21
135.9207590007
 31
0.0
  0
LINE
  5
234
330
1F
100
AcDbEntity
  8
0
  6
CONTINUOUS
 62
     7
100
AcDbLine
 10
211.7444843564
 20
135.170761206
 30
0.0
 11
212.0944842275
 21
135.170761206
 31
0.0
  0
LINE
  5
235
330
1F
100
AcDbEntity
  8
0
  6
CONTINUOUS
 62
     7
100
AcDbLine
 10
211.7444843564
 20
135.170761206
 30
0.0
 11
211.7444843564
 21
134.9207606994
 31
0.0
  0
LINE
  5
236
330
1F
100
AcDbEntity
  8
0
  6
CONTINUOUS
 62
     7
100
AcDbLine
 10
202.4444843222
 20
135.170761206
 30
0.0
 11
202.094484451
 21
135.170761206
 31
0.0
  0
LINE
  5
237
330
1F
100
AcDbEntity
  8
0
  6
CONTINUOUS
 62
     7
100
AcDbLine
 10
202.4444843222
 20
135.170761206
 30
0.0
 11
202.4444843222
 21
134.9207606994
 31
0.0
  0
LINE
  5
238
330
1F
100
AcDbEntity
  8
0
  6
CONTINUOUS
 62
     7
100
AcDbLine
 10
211.7444843564
 20
135.170761206
 30
0.0
 11
202.4444843222
 21
135.170761206
 31
0.0
  0
LINE
  5
239
330
1F
100
AcDbEntity
  8
0
  6
CONTINUOUS
 62
     7
100
AcDbLine
 10
268.8444828194
 20
135.9207590007
 30
0.0
 11
267.8444845181
 21
135.9207590007
 31
0.0
  0
LINE
  5
23A
330
1F
100
AcDbEntity
  8
0
  6
CONTINUOUS
 62
     7
100
AcDbLine
 10
267.8444845181
 20
135.9207590007
 30
0.0
 11
267.8444845181
 21
134.9207606994
 31
0.0
  0
LINE
  5
23B
330
1F
100
AcDbEntity
  8
0
  6
CONTINUOUS
 62
     7
100
AcDbLine
 10
267.8444845181
 20
135.9207590007
 30
0.0
 11
260.8444852334
 21
135.9207590007
 31
0.0
  0
LINE
  5
23C
330
1F
100
AcDbEntity
  8
0
  6
CONTINUOUS
 62
     7
100
AcDbLine
 10
260.8444852334
 20
135.9207590007
 30
0.0
 11
260.8444852334
 21
134.9207606994
 31
0.0
  0
LINE
  5
23D
330
1F
100
AcDbEntity
  8
0
  6
CONTINUOUS
 62
     7
100
AcDbLine
 10
260.8444852334
 20
135.9207590007
 30
0.0
 11
259.8444832068
 21
135.9207590007
 31
0.0
  0
LINE
  5
23E
330
1F
100
AcDbEntity
  8
0
  6
CONTINUOUS
 62
     7
100
AcDbLine
 10
149.4944853287
 20
135.170761206
 30
0.0
 11
150.1944860023
 21
135.170761206
 31
0.0
  0
LINE
  5
23F
330
1F
100
AcDbEntity
  8
0
  6
CONTINUOUS
 62
     7
100
AcDbLine
 10
150.1944860023
 20
134.9207606994
 30
0.0
 11
150.1944860023
 21
135.170761206
 31
0.0
  0
LINE
  5
240
330
1F
100
AcDbEntity
  8
0
  6
CONTINUOUS
 62
     7
100
AcDbLine
 10
149.4944853287
 20
135.170761206
 30
0.0
 11
149.4944853287
 21
134.9207606994
 31
0.0
  0
LINE
  5
241
330
1F
100
AcDbEntity
  8
0
  6
CONTINUOUS
 62
     7
100
AcDbLine
 10
259.6944843929
 20
135.170761206
 30
0.0
 11
259.6944843929
 21
134.9207606994
 31
0.0
  0
LINE
  5
242
330
1F
100
AcDbEntity
  8
0
  6
CONTINUOUS
 62
     7
100
AcDbLine
 10
259.6944843929
 20
135.170761206
 30
0.0
 11
259.3444859188
 21
135.170761206
 31
0.0
  0
LINE
  5
243
330
1F
100
AcDbEntity
  8
0
  6
CONTINUOUS
 62
     7
100
AcDbLine
 10
259.8444832068
 20
135.170761206
 30
0.0
 11
259.6944843929
 21
135.170761206
 31
0.0
  0
LINE
  5
244
330
1F
100
AcDbEntity
  8
0
  6
CONTINUOUS
 62
     7
100
AcDbLine
 10
154.4944842856
 20
135.170761206
 30
0.0
 11
154.4944842856
 21
134.9207606994
 31
0.0
  0
LINE
  5
245
330
1F
100
AcDbEntity
  8
0
  6
CONTINUOUS
 62
     7
100
AcDbLine
 10
154.8444827598
 20
135.170761206
 30
0.0
 11
154.4944842856
 21
135.170761206
 31
0.0
  0
LINE
  5
246
330
1F
100
AcDbEntity
  8
0
  6
CONTINUOUS
 62
     7
100
AcDbLine
 10
154.4944842856
 20
135.170761206
 30
0.0
 11
150.1944860023
 21
135.170761206
 31
0.0
  0
LINE
  5
247
330
1F
100
AcDbEntity
  8
0
  6
CONTINUOUS
 62
     7
100
AcDbLine
 10
153.3444834452
 20
135.9207590007
 30
0.0
 11
146.3444841605
 21
135.9207590007
 31
0.0
  0
LINE
  5
248
330
1F
100
AcDbEntity
  8
0
  6
CONTINUOUS
 62
     7
100
AcDbLine
 10
146.3444841605
 20
135.9207590007
 30
0.0
 11
146.3444841605
 21
134.9207606994
 31
0.0
  0
LINE
  5
249
330
1F
100
AcDbEntity
  8
0
  6
CONTINUOUS
 62
     7
100
AcDbLine
 10
146.3444841605
 20
135.9207590007
 30
0.0
 11
145.3444858592
 21
135.9207590007
 31
0.0
  0
LINE
  5
24A
330
1F
100
AcDbEntity
  8
0
  6
CONTINUOUS
 62
     7
100
AcDbLine
 10
154.3444854718
 20
135.9207590007
 30
0.0
 11
153.3444834452
 21
135.9207590007
 31
0.0
  0
LINE
  5
24B
330
1F
100
AcDbEntity
  8
0
  6
CONTINUOUS
 62
     8
100
AcDbLine
 10
153.3444834452
 20
135.170761206
 30
0.0
 11
153.3444834452
 21
135.9207590007
 31
0.0
  0
LINE
  5
24C
330
1F
100
AcDbEntity
  8
0
  6
CONTINUOUS
 62
     7
100
AcDbLine
 10
314.1700859365
 20
213.6774899184
 30
0.0
 11
314.4200864431
 21
213.6774899184
 31
0.0
  0
LINE
  5
24D
330
1F
100
AcDbEntity
  8
0
  6
CONTINUOUS
 62
     7
100
AcDbLine
 10
314.4200864431
 20
223.6774896949
 30
0.0
 11
314.1700859365
 21
223.6774896949
 31
0.0
  0
LINE
  5
24E
330
1F
100
AcDbEntity
  8
0
  6
CONTINUOUS
 62
     7
100
AcDbLine
 10
313.4200881418
 20
239.6774895235
 30
0.0
 11
314.4200864431
 21
239.6774895235
 31
0.0
  0
LINE
  5
24F
330
1F
100
AcDbEntity
  8
0
  6
CONTINUOUS
 62
     7
100
AcDbLine
 10
313.4200881418
 20
187.6774903133
 30
0.0
 11
314.4200864431
 21
187.6774903133
 31
0.0
  0
LINE
  5
250
330
1F
100
AcDbEntity
  8
0
  6
CONTINUOUS
 62
     7
100
AcDbLine
 10
314.4200864431
 20
249.6774893
 30
0.0
 11
313.4200881418
 21
249.6774893
 31
0.0
  0
LINE
  5
251
330
1F
100
AcDbEntity
  8
0
  6
CONTINUOUS
 62
     7
100
AcDbLine
 10
314.4200864431
 20
197.6774900897
 30
0.0
 11
313.4200881418
 21
197.6774900897
 31
0.0
  0
LINE
  5
252
330
1F
100
AcDbEntity
  8
0
  6
CONTINUOUS
 62
     7
100
AcDbLine
 10
314.4200864431
 20
184.6334662034
 30
0.0
 11
314.4200864431
 21
178.3844183876
 31
0.0
  0
LINE
  5
253
330
1F
100
AcDbEntity
  8
0
  6
CONTINUOUS
 62
     7
100
AcDbLine
 10
354.9200865623
 20
183.9265364899
 30
0.0
 11
314.4200864431
 21
184.6334662034
 31
0.0
  0
LINE
  5
254
330
1F
100
AcDbEntity
  8
0
  6
CONTINUOUS
 62
     7
100
AcDbLine
 10
354.9200865623
 20
177.6774886741
 30
0.0
 11
354.9200865623
 21
183.9265364899
 31
0.0
  0
LINE
  5
255
330
1F
100
AcDbEntity
  8
0
  6
CONTINUOUS
 62
     7
100
AcDbLine
 10
354.9200865623
 20
177.6774886741
 30
0.0
 11
314.4200864431
 21
178.3844183876
 31
0.0
  0
LINE
  5
256
330
1F
100
AcDbEntity
  8
0
  6
CONTINUOUS
 62
     7
100
AcDbLine
 10
314.4200864431
 20
258.9705612256
 30
0.0
 11
314.4200864431
 21
252.7215134098
 31
0.0
  0
LINE
  5
257
330
1F
100
AcDbEntity
  8
0
  6
CONTINUOUS
 62
     7
100
AcDbLine
 10
354.9200865623
 20
259.6774909391
 30
0.0
 11
314.4200864431
 21
258.9705612256
 31
0.0
  0
LINE
  5
258
330
1F
100
AcDbEntity
  8
0
  6
CONTINUOUS
 62
     7
100
AcDbLine
 10
354.9200865623
 20
253.4284431233
 30
0.0
 11
354.9200865623
 21
259.6774909391
 31
0.0
  0
LINE
  5
259
330
1F
100
AcDbEntity
  8
0
  6
CONTINUOUS
 62
     7
100
AcDbLine
 10
354.9200865623
 20
253.4284431233
 30
0.0
 11
314.4200864431
 21
252.7215134098
 31
0.0
  0
LINE
  5
25A
330
1F
100
AcDbEntity
  8
0
  6
CONTINUOUS
 62
     7
100
AcDbLine
 10
314.4200864431
 20
252.7215134098
 30
0.0
 11
314.4200864431
 21
184.6334662034
 31
0.0
  0
LINE
  5
25B
330
1F
100
AcDbEntity
  8
0
  6
CONTINUOUS
 62
     7
100
AcDbLine
 10
354.9200865623
 20
183.9265364899
 30
0.0
 11
354.9200865623
 21
253.4284431233
 31
0.0
  0
LINE
  5
25C
330
1F
100
AcDbEntity
  8
0
  6
CONTINUOUS
 62
     7
100
AcDbLine
 10
313.4200881418
 20
200.4274900748
 30
0.0
 11
314.4200864431
 21
200.4274900748
 31
0.0
  0
LINE
  5
25D
330
1F
100
AcDbEntity
  8
0
  6
CONTINUOUS
 62
     7
100
AcDbLine
 10
313.4200881418
 20
198.427489747
 30
0.0
 11
314.4200864431
 21
198.427489747
 31
0.0
  0
LINE
  5
25E
330
1F
100
AcDbEntity
  8
0
  6
CONTINUOUS
 62
     7
100
AcDbLine
 10
313.4200881418
 20
200.4274900748
 30
0.0
 11
313.4200881418
 21
198.427489747
 31
0.0
  0
LINE
  5
25F
330
1F
100
AcDbEntity
  8
0
  6
CONTINUOUS
 62
     7
100
AcDbLine
 10
355.9200866098
 20
200.9354557588
 30
0.0
 11
354.9200865623
 21
200.9267292663
 31
0.0
  0
LINE
  5
260
330
1F
100
AcDbEntity
  8
0
  6
CONTINUOUS
 62
     7
100
AcDbLine
 10
355.9200866098
 20
196.936216925
 30
0.0
 11
355.9200866098
 21
200.9354557588
 31
0.0
  0
LINE
  5
261
330
1F
100
AcDbEntity
  8
0
  6
CONTINUOUS
 62
     7
100
AcDbLine
 10
354.9200865623
 20
196.9274904325
 30
0.0
 11
355.9200866098
 21
196.936216925
 31
0.0
  0
LINE
  5
262
330
1F
100
AcDbEntity
  8
0
  6
CONTINUOUS
 62
     7
100
AcDbLine
 10
354.9200865624
 20
253.0774909749
 30
0.0
 11
355.9200866098
 21
253.0774909749
 31
0.0
  0
LINE
  5
263
330
1F
100
AcDbEntity
  8
0
  6
CONTINUOUS
 62
     7
100
AcDbLine
 10
355.9200866098
 20
253.0774909749
 30
0.0
 11
355.9200866098
 21
200.9354557588
 31
0.0
  0
LINE
  5
264
330
1F
100
AcDbEntity
  8
0
  6
CONTINUOUS
 62
     7
100
AcDbLine
 10
355.9200866098
 20
253.0774909749
 30
0.0
 11
355.9200866098
 21
257.7167700722
 31
0.0
  0
LINE
  5
265
330
1F
100
AcDbEntity
  8
0
  6
CONTINUOUS
 62
     7
100
AcDbLine
 10
355.9200866098
 20
257.7167700722
 30
0.0
 11
354.9200865623
 21
257.7429551377
 31
0.0
  0
LINE
  5
266
330
1F
100
AcDbEntity
  8
0
  6
CONTINUOUS
 62
     7
100
AcDbLine
 10
355.9200866098
 20
179.6382095411
 30
0.0
 11
355.9200866098
 21
184.2774886384
 31
0.0
  0
LINE
  5
267
330
1F
100
AcDbEntity
  8
0
  6
CONTINUOUS
 62
     7
100
AcDbLine
 10
354.9200865624
 20
179.6120244755
 30
0.0
 11
355.9200866098
 21
179.6382095411
 31
0.0
  0
LINE
  5
268
330
1F
100
AcDbEntity
  8
0
  6
CONTINUOUS
 62
     7
100
AcDbLine
 10
355.9200866098
 20
184.2774886384
 30
0.0
 11
354.9200865623
 21
184.2774886384
 31
0.0
  0
LINE
  5
269
330
1F
100
AcDbEntity
  8
0
  6
CONTINUOUS
 62
     7
100
AcDbLine
 10
354.9200865623
 20
187.4714314683
 30
0.0
 11
355.9200866098
 21
187.4539766206
 31
0.0
  0
LINE
  5
26A
330
1F
100
AcDbEntity
  8
0
  6
CONTINUOUS
 62
     7
100
AcDbLine
 10
355.9200866098
 20
187.4539766206
 30
0.0
 11
355.9200866098
 21
184.2774886384
 31
0.0
  0
LINE
  5
26B
330
1F
100
AcDbEntity
  8
0
  6
CONTINUOUS
 62
     7
100
AcDbLine
 10
355.9200866098
 20
187.4539766206
 30
0.0
 11
355.9200866098
 21
188.4536731734
 31
0.0
  0
LINE
  5
26C
330
1F
100
AcDbEntity
  8
0
  6
CONTINUOUS
 62
     7
100
AcDbLine
 10
355.9200866098
 20
188.4536731734
 30
0.0
 11
354.9200865623
 21
188.4711280211
 31
0.0
  0
LINE
  5
26D
330
1F
100
AcDbEntity
  8
0
  6
CONTINUOUS
 62
     7
100
AcDbLine
 10
314.1700859365
 20
214.0274897895
 30
0.0
 11
314.4200864431
 21
214.0274897895
 31
0.0
  0
LINE
  5
26E
330
1F
100
AcDbEntity
  8
0
  6
CONTINUOUS
 62
     7
100
AcDbLine
 10
314.1700859365
 20
214.0274897895
 30
0.0
 11
314.1700859365
 21
213.6774899184
 31
0.0
  0
LINE
  5
26F
330
1F
100
AcDbEntity
  8
0
  6
CONTINUOUS
 62
     7
100
AcDbLine
 10
314.1700859365
 20
223.3274898238
 30
0.0
 11
314.4200864431
 21
223.3274898238
 31
0.0
  0
LINE
  5
270
330
1F
100
AcDbEntity
  8
0
  6
CONTINUOUS
 62
     7
100
AcDbLine
 10
314.1700859365
 20
223.3274898238
 30
0.0
 11
314.1700859365
 21
223.6774896949
 31
0.0
  0
LINE
  5
271
330
1F
100
AcDbEntity
  8
0
  6
CONTINUOUS
 62
     7
100
AcDbLine
 10
314.1700859365
 20
223.3274898238
 30
0.0
 11
314.1700859365
 21
214.0274897895
 31
0.0
  0
LINE
  5
272
330
1F
100
AcDbEntity
  8
0
  6
CONTINUOUS
 62
     7
100
AcDbLine
 10
355.9200866098
 20
196.936216925
 30
0.0
 11
355.9200866098
 21
192.9363690062
 31
0.0
  0
LINE
  5
273
330
1F
100
AcDbEntity
  8
0
  6
CONTINUOUS
 62
     7
100
AcDbLine
 10
355.9200866098
 20
192.9363690062
 30
0.0
 11
355.9200866098
 21
188.4536731734
 31
0.0
  0
LINE
  5
274
330
1F
100
AcDbEntity
  8
0
  6
CONTINUOUS
 62
     7
100
AcDbLine
 10
313.4200881418
 20
248.6774891361
 30
0.0
 11
313.4200881418
 21
240.6774896874
 31
0.0
  0
LINE
  5
275
330
1F
100
AcDbEntity
  8
0
  6
CONTINUOUS
 62
     7
100
AcDbLine
 10
314.4200864431
 20
248.6774891361
 30
0.0
 11
313.4200881418
 21
248.6774891361
 31
0.0
  0
LINE
  5
276
330
1F
100
AcDbEntity
  8
0
  6
CONTINUOUS
 62
     7
100
AcDbLine
 10
313.4200881418
 20
240.6774896874
 30
0.0
 11
314.4200864431
 21
240.6774896874
 31
0.0
  0
LINE
  5
277
330
1F
100
AcDbEntity
  8
0
  6
CONTINUOUS
 62
     7
100
AcDbLine
 10
313.4200881418
 20
240.6774896874
 30
0.0
 11
313.4200881418
 21
239.6774895235
 31
0.0
  0
LINE
  5
278
330
1F
100
AcDbEntity
  8
0
  6
CONTINUOUS
 62
     7
100
AcDbLine
 10
313.4200881418
 20
188.6774904772
 30
0.0
 11
314.4200864431
 21
188.6774904772
 31
0.0
  0
LINE
  5
279
330
1F
100
AcDbEntity
  8
0
  6
CONTINUOUS
 62
     7
100
AcDbLine
 10
313.4200881418
 20
188.6774904772
 30
0.0
 11
313.4200881418
 21
187.6774903133
 31
0.0
  0
LINE
  5
27A
330
1F
100
AcDbEntity
  8
0
  6
CONTINUOUS
 62
     7
100
AcDbLine
 10
313.4200881418
 20
249.6774893
 30
0.0
 11
313.4200881418
 21
248.6774891361
 31
0.0
  0
LINE
  5
27B
330
1F
100
AcDbEntity
  8
0
  6
CONTINUOUS
 62
     7
100
AcDbLine
 10
314.4200864431
 20
196.6774899258
 30
0.0
 11
313.4200881418
 21
196.6774899258
 31
0.0
  0
LINE
  5
27C
330
1F
100
AcDbEntity
  8
0
  6
CONTINUOUS
 62
     7
100
AcDbLine
 10
313.4200881418
 20
196.6774899258
 30
0.0
 11
313.4200881418
 21
188.6774904772
 31
0.0
  0
LINE
  5
27D
330
1F
100
AcDbEntity
  8
0
  6
CONTINUOUS
 62
     7
100
AcDbLine
 10
313.4200881418
 20
197.6774900897
 30
0.0
 11
313.4200881418
 21
196.6774899258
 31
0.0
  0
LINE
  5
27E
330
1F
100
AcDbEntity
  8
0
  6
CONTINUOUS
 62
     7
100
AcDbLine
 10
313.4200881418
 20
238.9274898662
 30
0.0
 11
314.4200864431
 21
238.9274898662
 31
0.0
  0
LINE
  5
27F
330
1F
100
AcDbEntity
  8
0
  6
CONTINUOUS
 62
     7
100
AcDbLine
 10
314.4200864431
 20
236.9274895384
 30
0.0
 11
313.4200881418
 21
236.9274895384
 31
0.0
  0
LINE
  5
280
330
1F
100
AcDbEntity
  8
0
  6
CONTINUOUS
 62
     7
100
AcDbLine
 10
313.4200881418
 20
238.9274898662
 30
0.0
 11
313.4200881418
 21
236.9274895384
 31
0.0
  0
LINE
  5
281
330
1F
100
AcDbEntity
  8
0
  6
CONTINUOUS
 62
     8
100
AcDbLine
 10
354.9200865623
 20
192.9276425137
 30
0.0
 11
355.9200866098
 21
192.9363690062
 31
0.0
  0
LINE
  5
282
330
1F
100
AcDbEntity
  8
0
  6
CONTINUOUS
 62
     7
100
AcDbLine
 10
415.8983196778
 20
238.9274898662
 30
0.0
 11
422.8983189625
 21
238.9274898662
 31
0.0
  0
ARC
  5
283
330
1F
100
AcDbEntity
  8
0
  6
CONTINUOUS
 62
     7
100
AcDbCircle
 10
422.8983198566
 20
237.9274898066
 30
0.0
 40
1.000000000000028
100
AcDbArc
 50
270.0
 51
90.0
  0
LINE
  5
284
330
1F
100
AcDbEntity
  8
0
  6
CONTINUOUS
 62
     7
100
AcDbLine
 10
422.8983189625
 20
236.9274895384
 30
0.0
 11
415.8983196778
 21
236.9274895384
 31
0.0
  0
ARC
  5
285
330
1F
100
AcDbEntity
  8
0
  6
CONTINUOUS
 62
     7
100
AcDbCircle
 10
415.8983198566
 20
237.9274898066
 30
0.0
 40
1.000000000000028
100
AcDbArc
 50
90.0
 51
270.0
  0
LINE
  5
286
330
1F
100
AcDbEntity
  8
0
  6
CONTINUOUS
 62
     7
100
AcDbLine
 10
426.3983186049
 20
248.6774891361
 30
0.0
 11
426.3983186049
 21
240.6774896874
 31
0.0
  0
LINE
  5
287
330
1F
100
AcDbEntity
  8
0
  6
CONTINUOUS
 62
     7
100
AcDbLine
 10
424.398318277
 20
240.6774896874
 30
0.0
 11
424.398318277
 21
248.6774891361
 31
0.0
  0
ARC
  5
288
330
1F
100
AcDbEntity
  8
0
  6
CONTINUOUS
 62
     7
100
AcDbCircle
 10
425.3983198566
 20
248.6774898066
 30
0.0
 40
1.000000000000057
100
AcDbArc
 50
0.0
 51
180.0
  0
ARC
  5
289
330
1F
100
AcDbEntity
  8
0
  6
CONTINUOUS
 62
     7
100
AcDbCircle
 10
425.3983198566
 20
240.6774898066
 30
0.0
 40
1.000000000000057
100
AcDbArc
 50
180.0
 51
0.0
  0
LINE
  5
28A
330
1F
100
AcDbEntity
  8
0
  6
CONTINUOUS
 62
     7
100
AcDbLine
 10
426.3983186049
 20
196.6774899258
 30
0.0
 11
426.3983186049
 21
188.6774904772
 31
0.0
  0
LINE
  5
28B
330
1F
100
AcDbEntity
  8
0
  6
CONTINUOUS
 62
     7
100
AcDbLine
 10
424.398318277
 20
188.6774904772
 30
0.0
 11
424.398318277
 21
196.6774899258
 31
0.0
  0
ARC
  5
28C
330
1F
100
AcDbEntity
  8
0
  6
CONTINUOUS
 62
     7
100
AcDbCircle
 10
425.3983198566
 20
196.6774898066
 30
0.0
 40
1.000000000000057
100
AcDbArc
 50
0.0
 51
180.0
  0
ARC
  5
28D
330
1F
100
AcDbEntity
  8
0
  6
CONTINUOUS
 62
     7
100
AcDbCircle
 10
425.3983198566
 20
188.6774898066
 30
0.0
 40
1.000000000000057
100
AcDbArc
 50
180.0
 51
0.0
  0
ARC
  5
28E
330
1F
100
AcDbEntity
  8
0
  6
CONTINUOUS
 62
     7
100
AcDbCircle
 10
527.8983198566
 20
240.6774898066
 30
0.0
 40
1.0
100
AcDbArc
 50
180.0
 51
0.0
  0
LINE
  5
28F
330
1F
100
AcDbEntity
  8
0
  6
CONTINUOUS
 62
     7
100
AcDbLine
 10
526.8983211083
 20
240.6774896874
 30
0.0
 11
526.8983211083
 21
248.6774891361
 31
0.0
  0
ARC
  5
290
330
1F
100
AcDbEntity
  8
0
  6
CONTINUOUS
 62
     7
100
AcDbCircle
 10
527.8983198566
 20
248.6774898066
 30
0.0
 40
1.0
100
AcDbArc
 50
0.0
 51
180.0
  0
LINE
  5
291
330
1F
100
AcDbEntity
  8
0
  6
CONTINUOUS
 62
     7
100
AcDbLine
 10
528.8983214361
 20
248.6774891361
 30
0.0
 11
528.8983214361
 21
240.6774896874
 31
0.0
  0
ARC
  5
292
330
1F
100
AcDbEntity
  8
0
  6
CONTINUOUS
 62
     7
100
AcDbCircle
 10
527.8983198566
 20
188.6774898066
 30
0.0
 40
1.0
100
AcDbArc
 50
180.0
 51
0.0
  0
LINE
  5
293
330
1F
100
AcDbEntity
  8
0
  6
CONTINUOUS
 62
     7
100
AcDbLine
 10
526.8983211083
 20
188.6774904772
 30
0.0
 11
526.8983211083
 21
196.6774899258
 31
0.0
  0
ARC
  5
294
330
1F
100
AcDbEntity
  8
0
  6
CONTINUOUS
 62
     7
100
AcDbCircle
 10
527.8983198566
 20
196.6774898066
 30
0.0
 40
1.0
100
AcDbArc
 50
0.0
 51
180.0
  0
LINE
  5
295
330
1F
100
AcDbEntity
  8
0
  6
CONTINUOUS
 62
     7
100
AcDbLine
 10
528.8983214361
 20
196.6774899258
 30
0.0
 11
528.8983214361
 21
188.6774904772
 31
0.0
  0
ARC
  5
296
330
1F
100
AcDbEntity
  8
0
  6
CONTINUOUS
 62
     7
100
AcDbCircle
 10
537.3983198566
 20
199.4274898066
 30
0.0
 40
1.000000000000028
100
AcDbArc
 50
270.0
 51
90.0
  0
LINE
  5
297
330
1F
100
AcDbEntity
  8
0
  6
CONTINUOUS
 62
     7
100
AcDbLine
 10
537.3983200354
 20
198.427489747
 30
0.0
 11
530.3983207506
 21
198.427489747
 31
0.0
  0
ARC
  5
298
330
1F
100
AcDbEntity
  8
0
  6
CONTINUOUS
 62
     7
100
AcDbCircle
 10
530.3983198566
 20
199.4274898066
 30
0.0
 40
1.000000000000028
100
AcDbArc
 50
90.0
 51
270.0
  0
LINE
  5
299
330
1F
100
AcDbEntity
  8
0
  6
CONTINUOUS
 62
     7
100
AcDbLine
 10
530.3983207506
 20
200.4274900748
 30
0.0
 11
537.3983200354
 21
200.4274900748
 31
0.0
  0
LINE
  5
29A
330
1F
100
AcDbEntity
  8
0
  6
CONTINUOUS
 62
     7
100
AcDbLine
 10
419.7483215195
 20
219.0274897941
 30
0.0
 11
424.0483198029
 21
219.0274897941
 31
0.0
  0
ARC
  5
29B
330
1F
100
AcDbEntity
  8
0
  6
CONTINUOUS
 62
     7
100
AcDbCircle
 10
424.0483198566
 20
218.6774898066
 30
0.0
 40
0.3500000000000227
100
AcDbArc
 50
270.0
 51
90.0
  0
LINE
  5
29C
330
1F
100
AcDbEntity
  8
0
  6
CONTINUOUS
 62
     7
100
AcDbLine
 10
424.0483198029
 20
218.3274898191
 30
0.0
 11
419.7483215195
 21
218.3274898191
 31
0.0
  0
LINE
  5
29D
330
1F
100
AcDbEntity
  8
0
  6
CONTINUOUS
 62
     7
100
AcDbLine
 10
419.7483215195
 20
218.3274898191
 30
0.0
 11
419.7483215195
 21
214.0274897895
 31
0.0
  0
ARC
  5
29E
330
1F
100
AcDbEntity
  8
0
  6
CONTINUOUS
 62
     7
100
AcDbCircle
 10
419.3983198566
 20
223.3274898066
 30
0.0
 40
0.3500000000000796
100
AcDbArc
 50
0.0
 51
180.0
  0
LINE
  5
29F
330
1F
100
AcDbEntity
  8
0
  6
CONTINUOUS
 62
     7
100
AcDbLine
 10
419.7483215195
 20
223.3274898238
 30
0.0
 11
419.7483215195
 21
219.0274897941
 31
0.0
  0
ARC
  5
2A0
330
1F
100
AcDbEntity
  8
0
  6
CONTINUOUS
 62
     7
100
AcDbCircle
 10
419.3983198566
 20
214.0274898066
 30
0.0
 40
0.3500000000000796
100
AcDbArc
 50
180.0
 51
0.0
  0
LINE
  5
2A1
330
1F
100
AcDbEntity
  8
0
  6
CONTINUOUS
 62
     7
100
AcDbLine
 10
419.048320846
 20
214.0274897895
 30
0.0
 11
419.048320846
 21
223.3274898238
 31
0.0
  0
LINE
  5
2A2
330
1F
100
AcDbEntity
  8
0
  6
CONTINUOUS
 62
     7
100
AcDbLine
 10
471.9983198394
 20
245.0274906798
 30
0.0
 11
481.2983198737
 21
245.0274906798
 31
0.0
  0
ARC
  5
2A3
330
1F
100
AcDbEntity
  8
0
  6
CONTINUOUS
 62
     7
100
AcDbCircle
 10
481.2983198566
 20
244.6774898066
 30
0.0
 40
0.3500000000000227
100
AcDbArc
 50
270.0
 51
90.0
  0
LINE
  5
2A4
330
1F
100
AcDbEntity
  8
0
  6
CONTINUOUS
 62
     7
100
AcDbLine
 10
481.2983198737
 20
244.3274900063
 30
0.0
 11
476.9983198441
 21
244.3274900063
 31
0.0
  0
LINE
  5
2A5
330
1F
100
AcDbEntity
  8
0
  6
CONTINUOUS
 62
     7
100
AcDbLine
 10
476.9983198441
 20
244.3274900063
 30
0.0
 11
476.9983198441
 21
240.0274898603
 31
0.0
  0
ARC
  5
2A6
330
1F
100
AcDbEntity
  8
0
  6
CONTINUOUS
 62
     7
100
AcDbCircle
 10
476.6483198566
 20
240.0274898066
 30
0.0
 40
0.3500000000000796
100
AcDbArc
 50
180.0
 51
0.0
  0
LINE
  5
2A7
330
1F
100
AcDbEntity
  8
0
  6
CONTINUOUS
 62
     7
100
AcDbLine
 10
476.298319869
 20
240.0274898603
 30
0.0
 11
476.298319869
 21
244.3274900063
 31
0.0
  0
LINE
  5
2A8
330
1F
100
AcDbEntity
  8
0
  6
CONTINUOUS
 62
     7
100
AcDbLine
 10
476.298319869
 20
244.3274900063
 30
0.0
 11
471.9983198394
 21
244.3274900063
 31
0.0
  0
ARC
  5
2A9
330
1F
100
AcDbEntity
  8
0
  6
CONTINUOUS
 62
     7
100
AcDbCircle
 10
471.9983198566
 20
244.6774898066
 30
0.0
 40
0.3500000000000227
100
AcDbArc
 50
90.0
 51
270.0
  0
LINE
  5
2AA
330
1F
100
AcDbEntity
  8
0
  6
CONTINUOUS
 62
     7
100
AcDbLine
 10
476.298319869
 20
193.0274896069
 30
0.0
 11
476.298319869
 21
197.327489753
 31
0.0
  0
ARC
  5
2AB
330
1F
100
AcDbEntity
  8
0
  6
CONTINUOUS
 62
     7
100
AcDbCircle
 10
476.6483198566
 20
197.3274898066
 30
0.0
 40
0.3500000000000796
100
AcDbArc
 50
0.0
 51
180.0
  0
LINE
  5
2AC
330
1F
100
AcDbEntity
  8
0
  6
CONTINUOUS
 62
     7
100
AcDbLine
 10
476.9983198441
 20
197.327489753
 30
0.0
 11
476.9983198441
 21
193.0274896069
 31
0.0
  0
LINE
  5
2AD
330
1F
100
AcDbEntity
  8
0
  6
CONTINUOUS
 62
     7
100
AcDbLine
 10
476.9983198441
 20
193.0274896069
 30
0.0
 11
481.2983198737
 21
193.0274896069
 31
0.0
  0
ARC
  5
2AE
330
1F
100
AcDbEntity
  8
0
  6
CONTINUOUS
 62
     7
100
AcDbCircle
 10
481.2983198566
 20
192.6774898066
 30
0.0
 40
0.3499999999999943
100
AcDbArc
 50
270.0
 51
90.0
  0
LINE
  5
2AF
330
1F
100
AcDbEntity
  8
0
  6
CONTINUOUS
 62
     7
100
AcDbLine
 10
471.9983198394
 20
193.0274896069
 30
0.0
 11
476.298319869
 21
193.0274896069
 31
0.0
  0
ARC
  5
2B0
330
1F
100
AcDbEntity
  8
0
  6
CONTINUOUS
 62
     7
100
AcDbCircle
 10
471.9983198566
 20
192.6774898066
 30
0.0
 40
0.3499999999999943
100
AcDbArc
 50
90.0
 51
270.0
  0
LINE
  5
2B1
330
1F
100
AcDbEntity
  8
0
  6
CONTINUOUS
 62
     7
100
AcDbLine
 10
481.2983198737
 20
192.3274889334
 30
0.0
 11
471.9983198394
 21
192.3274889334
 31
0.0
  0
LINE
  5
2B2
330
1F
100
AcDbEntity
  8
0
  6
CONTINUOUS
 62
     7
100
AcDbLine
 10
534.2483188671
 20
223.3274898238
 30
0.0
 11
534.2483188671
 21
214.0274897895
 31
0.0
  0
ARC
  5
2B3
330
1F
100
AcDbEntity
  8
0
  6
CONTINUOUS
 62
     7
100
AcDbCircle
 10
533.8983198566
 20
214.0274898066
 30
0.0
 40
0.3500000000000227
100
AcDbArc
 50
180.0
 51
0.0
  0
LINE
  5
2B4
330
1F
100
AcDbEntity
  8
0
  6
CONTINUOUS
 62
     7
100
AcDbLine
 10
533.5483181936
 20
214.0274897895
 30
0.0
 11
533.5483181936
 21
218.3274898191
 31
0.0
  0
LINE
  5
2B5
330
1F
100
AcDbEntity
  8
0
  6
CONTINUOUS
 62
     7
100
AcDbLine
 10
533.5483181936
 20
219.0274897941
 30
0.0
 11
533.5483181936
 21
223.3274898238
 31
0.0
  0
ARC
  5
2B6
330
1F
100
AcDbEntity
  8
0
  6
CONTINUOUS
 62
     7
100
AcDbCircle
 10
533.8983198566
 20
223.3274898066
 30
0.0
 40
0.3500000000000227
100
AcDbArc
 50
0.0
 51
180.0
  0
LINE
  5
2B7
330
1F
100
AcDbEntity
  8
0
  6
CONTINUOUS
 62
     7
100
AcDbLine
 10
533.5483181936
 20
218.3274898191
 30
0.0
 11
529.2483199102
 21
218.3274898191
 31
0.0
  0
ARC
  5
2B8
330
1F
100
AcDbEntity
  8
0
  6
CONTINUOUS
 62
     7
100
AcDbCircle
 10
529.2483198566
 20
218.6774898066
 30
0.0
 40
0.3500000000000227
100
AcDbArc
 50
90.0
 51
270.0
  0
LINE
  5
2B9
330
1F
100
AcDbEntity
  8
0
  6
CONTINUOUS
 62
     7
100
AcDbLine
 10
529.2483199102
 20
219.0274897941
 30
0.0
 11
533.5483181936
 21
219.0274897941
 31
0.0
  0
ELLIPSE
  5
2BA
330
1F
100
AcDbEntity
  8
0
  6
CONTINUOUS
 62
     7
100
AcDbEllipse
 10
420.1062020364
 20
252.7196076268
 30
0.0
 11
4.420763682309882
 21
-4.420763682309882
 31
0.0
210
0.0
220
0.0
230
1.0
 40
0.9996954599
 41
2.356346783439941
 42
3.926838523740018
  0
LINE
  5
2BB
330
1F
100
AcDbEntity
  8
0
  6
CONTINUOUS
 62
     7
100
AcDbLine
 10
420.1042990846
 20
258.9705612256
 30
0.0
 11
533.1923406285
 21
258.9705612256
 31
0.0
  0
ELLIPSE
  5
2BC
330
1F
100
AcDbEntity
  8
0
  6
CONTINUOUS
 62
     7
100
AcDbEllipse
 10
533.1904376767
 20
252.7196076268
 30
0.0
 11
-4.420763682309826
 21
-4.420763682309882
 31
0.0
210
0.0
220
0.0
230
1.0
 40
0.9996954599
 41
2.356346783439791
 42
3.926838523739656
  0
LINE
  5
2BD
330
1F
100
AcDbEntity
  8
0
  6
CONTINUOUS
 62
     7
100
AcDbLine
 10
539.4413884443
 20
252.7215134098
 30
0.0
 11
539.4413884443
 21
184.6334662034
 31
0.0
  0
ELLIPSE
  5
2BE
330
1F
100
AcDbEntity
  8
0
  6
CONTINUOUS
 62
     7
100
AcDbEllipse
 10
533.1904376767
 20
184.6353719865
 30
0.0
 11
-4.420763682309826
 21
4.420763682309854
 31
0.0
210
0.0
220
0.0
230
1.0
 40
0.9996954599
 41
2.356346783439797
 42
3.926838523740023
  0
LINE
  5
2BF
330
1F
100
AcDbEntity
  8
0
  6
CONTINUOUS
 62
     7
100
AcDbLine
 10
533.1923406285
 20
178.3844183876
 30
0.0
 11
420.1042990846
 21
178.3844183876
 31
0.0
  0
ELLIPSE
  5
2C0
330
1F
100
AcDbEntity
  8
0
  6
CONTINUOUS
 62
     7
100
AcDbEllipse
 10
420.1062020364
 20
184.6353719865
 30
0.0
 11
4.420763682309882
 21
4.420763682309854
 31
0.0
210
0.0
220
0.0
230
1.0
 40
0.9996954599
 41
2.356346783439799
 42
3.926838523740022
  0
LINE
  5
2C1
330
1F
100
AcDbEntity
  8
0
  6
CONTINUOUS
 62
     7
100
AcDbLine
 10
413.8552512688
 20
184.6334662034
 30
0.0
 11
413.8552512688
 21
252.7215134098
 31
0.0
  0
ARC
  5
2C2
330
1F
100
AcDbEntity
  8
0
  6
CONTINUOUS
 62
     7
100
AcDbCircle
 10
533.1483198566
 20
192.6774898066
 30
0.0
 40
2.099999999999596
100
AcDbArc
 50
90.0
 51
270.0
  0
LINE
  5
2C3
330
1F
100
AcDbEntity
  8
0
  6
CONTINUOUS
 62
     7
100
AcDbLine
 10
534.6483181876
 20
190.5774891122
 30
0.0
 11
533.1483188731
 21
190.5774891122
 31
0.0
  0
ARC
  5
2C4
330
1F
100
AcDbEntity
  8
0
  6
CONTINUOUS
 62
     7
100
AcDbCircle
 10
534.6483198566
 20
192.6774898066
 30
0.0
 40
2.099999999999596
100
AcDbArc
 50
270.0
 51
90.0
  0
LINE
  5
2C5
330
1F
100
AcDbEntity
  8
0
  6
CONTINUOUS
 62
     7
100
AcDbLine
 10
533.1483188731
 20
194.7774894281
 30
0.0
 11
534.6483181876
 21
194.7774894281
 31
0.0
  0
CIRCLE
  5
2C6
330
1F
100
AcDbEntity
  8
0
  6
CONTINUOUS
 62
     7
100
AcDbCircle
 10
533.8983198566
 20
183.9274898066
 30
0.0
 40
4.000000000000142
  0
CIRCLE
  5
2C7
330
1F
100
AcDbEntity
  8
0
  6
CONTINUOUS
 62
     7
100
AcDbCircle
 10
533.8983198566
 20
253.4274898066
 30
0.0
 40
4.000000000000171
  0
CIRCLE
  5
2C8
330
1F
100
AcDbEntity
  8
0
  6
CONTINUOUS
 62
     7
100
AcDbCircle
 10
419.3983198566
 20
183.9274898066
 30
0.0
 40
4.000000000000142
  0
CIRCLE
  5
2C9
330
1F
100
AcDbEntity
  8
0
  6
CONTINUOUS
 62
     7
100
AcDbCircle
 10
419.3983198566
 20
253.4274898066
 30
0.0
 40
4.000000000000171
  0
ARC
  5
2CA
330
1F
100
AcDbEntity
  8
0
  6
CONTINUOUS
 62
     7
100
AcDbCircle
 10
420.1483198566
 20
244.6774898066
 30
0.0
 40
2.099999999999596
100
AcDbArc
 50
270.0
 51
90.0
  0
LINE
  5
2CB
330
1F
100
AcDbEntity
  8
0
  6
CONTINUOUS
 62
     7
100
AcDbLine
 10
418.6483215255
 20
246.777490501
 30
0.0
 11
420.14832084
 21
246.777490501
 31
0.0
  0
ARC
  5
2CC
330
1F
100
AcDbEntity
  8
0
  6
CONTINUOUS
 62
     7
100
AcDbCircle
 10
418.6483198566
 20
244.6774898066
 30
0.0
 40
2.099999999999596
100
AcDbArc
 50
90.0
 51
270.0
  0
LINE
  5
2CD
330
1F
100
AcDbEntity
  8
0
  6
CONTINUOUS
 62
     7
100
AcDbLine
 10
420.14832084
 20
242.5774901851
 30
0.0
 11
418.6483215255
 21
242.5774901851
 31
0.0
  0
CIRCLE
  5
2CE
330
1F
100
AcDbEntity
  8
0
  6
CONTINUOUS
 62
     7
100
AcDbCircle
 10
419.3983198566
 20
253.4274898066
 30
0.0
 40
3.502530649546486
  0
CIRCLE
  5
2CF
330
1F
100
AcDbEntity
  8
0
  6
CONTINUOUS
 62
     7
100
AcDbCircle
 10
419.3983198566
 20
183.9274898066
 30
0.0
 40
3.502530649546458
  0
CIRCLE
  5
2D0
330
1F
100
AcDbEntity
  8
0
  6
CONTINUOUS
 62
     7
100
AcDbCircle
 10
533.8983198566
 20
253.4274898066
 30
0.0
 40
3.502530649546486
  0
CIRCLE
  5
2D1
330
1F
100
AcDbEntity
  8
0
  6
CONTINUOUS
 62
     7
100
AcDbCircle
 10
533.8983198566
 20
183.9274898066
 30
0.0
 40
3.502530649546458
  0
LINE
  5
2D2
330
1F
100
AcDbEntity
  8
0
  6
CONTINUOUS
 62
     7
100
AcDbLine
 10
413.14831783
 20
253.4284431233
 30
0.0
 11
413.8552512688
 21
252.7215134098
 31
0.0
  0
ELLIPSE
  5
2D3
330
1F
100
AcDbEntity
  8
0
  6
CONTINUOUS
 62
     7
100
AcDbEllipse
 10
419.3992719068
 20
253.4265377563
 30
0.0
 11
4.420763682309826
 21
-4.420763682309911
 31
0.0
210
0.0
220
0.0
230
1.0
 40
0.9996954599
 41
2.356346783439939
 42
3.92683852374004
  0
LINE
  5
2D4
330
1F
100
AcDbEntity
  8
0
  6
CONTINUOUS
 62
     7
100
AcDbLine
 10
420.1042990846
 20
258.9705612256
 30
0.0
 11
419.3973693711
 21
259.6774909391
 31
0.0
  0
LINE
  5
2D5
330
1F
100
AcDbEntity
  8
0
  6
CONTINUOUS
 62
     7
100
AcDbLine
 10
413.14831783
 20
183.9265364899
 30
0.0
 11
413.8552512688
 21
184.6334662034
 31
0.0
  0
LINE
  5
2D6
330
1F
100
AcDbEntity
  8
0
  6
CONTINUOUS
 62
     7
100
AcDbLine
 10
413.14831783
 20
253.4284431233
 30
0.0
 11
413.14831783
 21
183.9265364899
 31
0.0
  0
LINE
  5
2D7
330
1F
100
AcDbEntity
  8
0
  6
CONTINUOUS
 62
     7
100
AcDbLine
 10
419.3973693711
 20
177.6774886741
 30
0.0
 11
420.1042990846
 21
178.3844183876
 31
0.0
  0
ELLIPSE
  5
2D8
330
1F
100
AcDbEntity
  8
0
  6
CONTINUOUS
 62
     7
100
AcDbEllipse
 10
419.3992719068
 20
183.9284418569
 30
0.0
 11
4.420763682309826
 21
4.420763682309911
 31
0.0
210
0.0
220
0.0
230
1.0
 40
0.9996954599
 41
2.356346783439568
 42
3.926838523740022
  0
LINE
  5
2D9
330
1F
100
AcDbEntity
  8
0
  6
CONTINUOUS
 62
     7
100
AcDbLine
 10
533.899270342
 20
259.6774909391
 30
0.0
 11
419.3973693711
 21
259.6774909391
 31
0.0
  0
LINE
  5
2DA
330
1F
100
AcDbEntity
  8
0
  6
CONTINUOUS
 62
     7
100
AcDbLine
 10
533.899270342
 20
259.6774909391
 30
0.0
 11
533.1923406285
 21
258.9705612256
 31
0.0
  0
LINE
  5
2DB
330
1F
100
AcDbEntity
  8
0
  6
CONTINUOUS
 62
     7
100
AcDbLine
 10
419.3973693711
 20
177.6774886741
 30
0.0
 11
533.899270342
 21
177.6774886741
 31
0.0
  0
LINE
  5
2DC
330
1F
100
AcDbEntity
  8
0
  6
CONTINUOUS
 62
     7
100
AcDbLine
 10
533.899270342
 20
177.6774886741
 30
0.0
 11
533.1923406285
 21
178.3844183876
 31
0.0
  0
ELLIPSE
  5
2DD
330
1F
100
AcDbEntity
  8
0
  6
CONTINUOUS
 62
     7
100
AcDbEllipse
 10
533.8973678063
 20
253.4265377563
 30
0.0
 11
-4.420763682309826
 21
-4.420763682309911
 31
0.0
210
0.0
220
0.0
230
1.0
 40
0.9996954599
 41
2.356346783439568
 42
3.926838523739645
  0
LINE
  5
2DE
330
1F
100
AcDbEntity
  8
0
  6
CONTINUOUS
 62
     7
100
AcDbLine
 10
540.1483218831
 20
253.4284431233
 30
0.0
 11
539.4413884443
 21
252.7215134098
 31
0.0
  0
LINE
  5
2DF
330
1F
100
AcDbEntity
  8
0
  6
CONTINUOUS
 62
     7
100
AcDbLine
 10
540.1483218831
 20
183.9265364899
 30
0.0
 11
539.4413884443
 21
184.6334662034
 31
0.0
  0
ELLIPSE
  5
2E0
330
1F
100
AcDbEntity
  8
0
  6
CONTINUOUS
 62
     7
100
AcDbEllipse
 10
533.8973678063
 20
183.9284418569
 30
0.0
 11
-4.420763682309826
 21
4.420763682309911
 31
0.0
210
0.0
220
0.0
230
1.0
 40
0.9996954599
 41
2.356346783439581
 42
3.926838523740039
  0
LINE
  5
2E1
330
1F
100
AcDbEntity
  8
0
  6
CONTINUOUS
 62
     7
100
AcDbLine
 10
540.1483218831
 20
183.9265364899
 30
0.0
 11
540.1483218831
 21
253.4284431233
 31
0.0
  0
CIRCLE
  5
2E2
330
1F
100
AcDbEntity
  8
0
  6
CONTINUOUS
 62
     7
100
AcDbCircle
 10
419.3983198566
 20
253.4274898066
 30
0.0
 40
1.599999999999994
  0
CIRCLE
  5
2E3
330
1F
100
AcDbEntity
  8
0
  6
CONTINUOUS
 62
     7
100
AcDbCircle
 10
419.3983198566
 20
183.9274898066
 30
0.0
 40
1.599999999999994
  0
CIRCLE
  5
2E4
330
1F
100
AcDbEntity
  8
0
  6
CONTINUOUS
 62
     7
100
AcDbCircle
 10
533.8983198566
 20
253.4274898066
 30
0.0
 40
1.599999999999994
  0
CIRCLE
  5
2E5
330
1F
100
AcDbEntity
  8
0
  6
CONTINUOUS
 62
     7
100
AcDbCircle
 10
533.8983198566
 20
183.9274898066
 30
0.0
 40
1.599999999999994
  0
ENDSEC
  0
SECTION
  2
OBJECTS
  0
DICTIONARY
  5
C
330
0
100
AcDbDictionary
  3
ACAD_GROUP
350
D
  3
ACAD_MLINESTYLE
350
17
  0
DICTIONARY
  5
D
102
{ACAD_REACTORS
330
C
102
}
330
C
100
AcDbDictionary
  0
DICTIONARY
  5
17
102
{ACAD_REACTORS
330
C
102
}
330
C
100
AcDbDictionary
  3
STANDARD
350
18
  0
MLINESTYLE
  5
18
102
{ACAD_REACTORS
330
17
102
}
330
17
100
AcDbMlineStyle
  2
Standard
 70
     0
  3

 62
   256
 51
90.0
 52
90.0
 71
     2
 49
0.5
 62
   256
  6
BYLAYER
 49
-0.5
 62
   256
  6
BYLAYER
  0
ENDSEC
  0
EOF
