  0
SECTION
  2
HEADER
  9
$ACADVER
  1
AC1015
  9
$ACADMAINTVER
 70
    20
  9
$DWGCODEPAGE
  3
ANSI_936
  9
$INSBASE
 10
0.0
 20
0.0
 30
0.0
  9
$EXTMIN
 10
-239.9813838589269
 20
-629.2905046192425
 30
0.0
  9
$EXTMAX
 10
57.01861614063943
 20
-424.2905046199097
 30
0.0
  9
$LIMMIN
 10
0.0
 20
0.0
  9
$LIMMAX
 10
23.3858267717
 20
16.5354330709
  9
$ORTHOMODE
 70
     1
  9
$REGENMODE
 70
     1
  9
$FILLMODE
 70
     1
  9
$QTEXTMODE
 70
     0
  9
$MIRRTEXT
 70
     1
  9
$LTSCALE
 40
5.0
  9
$ATTMODE
 70
     1
  9
$TEXTSIZE
 40
0.2
  9
$TRACEWID
 40
0.05
  9
$TEXTSTYLE
  7
STANDARD
  9
$CLAYER
  8
_BLACK_HOLE
  9
$CELTYPE
  6
ByLayer
  9
$CECOLOR
 62
     3
  9
$CELTSCALE
 40
1.0
  9
$DISPSILH
 70
     0
  9
$DIMSCALE
 40
2.0
  9
$DIMASZ
 40
2.5
  9
$DIMEXO
 40
1.0
  9
$DIMDLI
 40
0.5
  9
$DIMRND
 40
0.0
  9
$DIMDLE
 40
0.0
  9
$DIMEXE
 40
1.0
  9
$DIMTP
 40
0.01
  9
$DIMTM
 40
0.01
  9
$DIMTXT
 40
3.0
  9
$DIMCEN
 40
0.09
  9
$DIMTSZ
 40
0.0
  9
$DIMTOL
 70
     0
  9
$DIMLIM
 70
     0
  9
$DIMTIH
 70
     0
  9
$DIMTOH
 70
     1
  9
$DIMSE1
 70
     0
  9
$DIMSE2
 70
     0
  9
$DIMTAD
 70
     1
  9
$DIMZIN
 70
    12
  9
$DIMBLK
  1

  9
$DIMASO
 70
     1
  9
$DIMSHO
 70
     1
  9
$DIMPOST
  1

  9
$DIMAPOST
  1

  9
$DIMALT
 70
     0
  9
$DIMALTD
 70
     2
  9
$DIMALTF
 40
25.4
  9
$DIMLFAC
 40
1.0
  9
$DIMTOFL
 70
     0
  9
$DIMTVP
 40
0.0
  9
$DIMTIX
 70
     0
  9
$DIMSOXD
 70
     0
  9
$DIMSAH
 70
     0
  9
$DIMBLK1
  1

  9
$DIMBLK2
  1

  9
$DIMSTYLE
  2
2 STANDARD
  9
$DIMCLRD
 70
     0
  9
$DIMCLRE
 70
     0
  9
$DIMCLRT
 70
     0
  9
$DIMTFAC
 40
1.0
  9
$DIMGAP
 40
2.0
  9
$DIMJUST
 70
     0
  9
$DIMSD1
 70
     0
  9
$DIMSD2
 70
     0
  9
$DIMTOLJ
 70
     1
  9
$DIMTZIN
 70
     4
  9
$DIMALTZ
 70
     0
  9
$DIMALTTZ
 70
     0
  9
$DIMUPT
 70
     0
  9
$DIMDEC
 70
     1
  9
$DIMTDEC
 70
     1
  9
$DIMALTU
 70
     2
  9
$DIMALTTD
 70
     2
  9
$DIMTXSTY
  7
STANDARD
  9
$DIMAUNIT
 70
     0
  9
$DIMADEC
 70
     0
  9
$DIMALTRND
 40
0.0
  9
$DIMAZIN
 70
     0
  9
$DIMDSEP
 70
    46
  9
$DIMATFIT
 70
     3
  9
$DIMFRAC
 70
     0
  9
$DIMLDRBLK
  1

  9
$DIMLUNIT
 70
     2
  9
$DIMLWD
 70
    -2
  9
$DIMLWE
 70
    -2
  9
$DIMTMOVE
 70
     0
  9
$LUNITS
 70
     2
  9
$LUPREC
 70
     4
  9
$SKETCHINC
 40
0.1
  9
$FILLETRAD
 40
0.0
  9
$AUNITS
 70
     0
  9
$AUPREC
 70
     0
  9
$MENU
  1
acad
  9
$ELEVATION
 40
0.0
  9
$PELEVATION
 40
0.0
  9
$THICKNESS
 40
0.0
  9
$LIMCHECK
 70
     0
  9
$CHAMFERA
 40
0.0
  9
$CHAMFERB
 40
0.0
  9
$CHAMFERC
 40
0.0
  9
$CHAMFERD
 40
0.0
  9
$SKPOLY
 70
     0
  9
$TDCREATE
 40
2455124.381065718
  9
$TDUCREATE
 40
2455124.047732384
  9
$TDUPDATE
 40
2455427.378356112
  9
$TDUUPDATE
 40
2455427.045022778
  9
$TDINDWG
 40
0.7962912153
  9
$TDUSRTIMER
 40
0.7962912153
  9
$USRTIMER
 70
     1
  9
$ANGBASE
 50
0.0
  9
$ANGDIR
 70
     0
  9
$PDMODE
 70
     3
  9
$PDSIZE
 40
0.3125
  9
$PLINEWID
 40
0.0
  9
$SPLFRAME
 70
     0
  9
$SPLINETYPE
 70
     6
  9
$SPLINESEGS
 70
     8
  9
$HANDSEED
  5
10FA6
  9
$SURFTAB1
 70
     6
  9
$SURFTAB2
 70
     6
  9
$SURFTYPE
 70
     6
  9
$SURFU
 70
     6
  9
$SURFV
 70
     6
  9
$UCSBASE
  2

  9
$UCSNAME
  2

  9
$UCSORG
 10
0.0
 20
0.0
 30
0.0
  9
$UCSXDIR
 10
1.0
 20
0.0
 30
0.0
  9
$UCSYDIR
 10
0.0
 20
1.0
 30
0.0
  9
$UCSORTHOREF
  2

  9
$UCSORTHOVIEW
 70
     0
  9
$UCSORGTOP
 10
0.0
 20
0.0
 30
0.0
  9
$UCSORGBOTTOM
 10
0.0
 20
0.0
 30
0.0
  9
$UCSORGLEFT
 10
0.0
 20
0.0
 30
0.0
  9
$UCSORGRIGHT
 10
0.0
 20
0.0
 30
0.0
  9
$UCSORGFRONT
 10
0.0
 20
0.0
 30
0.0
  9
$UCSORGBACK
 10
0.0
 20
0.0
 30
0.0
  9
$PUCSBASE
  2

  9
$PUCSNAME
  2

  9
$PUCSORG
 10
0.0
 20
0.0
 30
0.0
  9
$PUCSXDIR
 10
1.0
 20
0.0
 30
0.0
  9
$PUCSYDIR
 10
0.0
 20
1.0
 30
0.0
  9
$PUCSORTHOREF
  2

  9
$PUCSORTHOVIEW
 70
     0
  9
$PUCSORGTOP
 10
0.0
 20
0.0
 30
0.0
  9
$PUCSORGBOTTOM
 10
0.0
 20
0.0
 30
0.0
  9
$PUCSORGLEFT
 10
0.0
 20
0.0
 30
0.0
  9
$PUCSORGRIGHT
 10
0.0
 20
0.0
 30
0.0
  9
$PUCSORGFRONT
 10
0.0
 20
0.0
 30
0.0
  9
$PUCSORGBACK
 10
0.0
 20
0.0
 30
0.0
  9
$USERI1
 70
     0
  9
$USERI2
 70
     0
  9
$USERI3
 70
     0
  9
$USERI4
 70
     0
  9
$USERI5
 70
     0
  9
$USERR1
 40
0.0
  9
$USERR2
 40
0.0
  9
$USERR3
 40
0.0
  9
$USERR4
 40
0.0
  9
$USERR5
 40
2.5
  9
$WORLDVIEW
 70
     1
  9
$SHADEDGE
 70
     3
  9
$SHADEDIF
 70
    70
  9
$TILEMODE
 70
     1
  9
$MAXACTVP
 70
    16
  9
$PINSBASE
 10
0.0
 20
0.0
 30
0.0
  9
$PLIMCHECK
 70
     0
  9
$PEXTMIN
 10
1.000000000000000E+20
 20
1.000000000000000E+20
 30
1.000000000000000E+20
  9
$PEXTMAX
 10
-1.000000000000000E+20
 20
-1.000000000000000E+20
 30
-1.000000000000000E+20
  9
$PLIMMIN
 10
0.0
 20
0.0
  9
$PLIMMAX
 10
12.0
 20
9.0
  9
$UNITMODE
 70
     0
  9
$VISRETAIN
 70
     0
  9
$PLINEGEN
 70
     1
  9
$PSLTSCALE
 70
     0
  9
$TREEDEPTH
 70
  3020
  9
$CMLSTYLE
  2
Standard
  9
$CMLJUST
 70
     0
  9
$CMLSCALE
 40
1.0
  9
$PROXYGRAPHICS
 70
     0
  9
$MEASUREMENT
 70
     0
  9
$CELWEIGHT
370
     0
  9
$ENDCAPS
280
     0
  9
$JOINSTYLE
280
     0
  9
$LWDISPLAY
290
     0
  9
$INSUNITS
 70
     1
  9
$HYPERLINKBASE
  1

  9
$STYLESHEET
  1
monochrome.ctb
  9
$XEDIT
290
     1
  9
$CEPSNTYPE
380
     0
  9
$PSTYLEMODE
290
     1
  9
$FINGERPRINTGUID
  2

  9
$VERSIONGUID
  2
{36FB9060-CF5D-4FC1-8B1C-D9BD627D46B4}
  9
$EXTNAMES
290
     1
  9
$PSVPSCALE
 40
0.0
  9
$OLESTARTUP
290
     0
  0
ENDSEC
  0
SECTION
  2
CLASSES
  0
CLASS
  1
ACDBDICTIONARYWDFLT
  2
AcDbDictionaryWithDefault
  3
ObjectDBX Classes
 90
        0
280
     0
281
     0
  0
CLASS
  1
ACDBPLACEHOLDER
  2
AcDbPlaceHolder
  3
ObjectDBX Classes
 90
        0
280
     0
281
     0
  0
CLASS
  1
LAYOUT
  2
AcDbLayout
  3
ObjectDBX Classes
 90
        0
280
     0
281
     0
  0
CLASS
  1
IMAGE
  2
AcDbRasterImage
  3
ISM
 90
    32895
280
     0
281
     1
  0
CLASS
  1
DICTIONARYVAR
  2
AcDbDictionaryVar
  3
ObjectDBX Classes
 90
        0
280
     0
281
     0
  0
CLASS
  1
RASTERVARIABLES
  2
AcDbRasterVariables
  3
ISM
 90
    32768
280
     0
281
     0
  0
CLASS
  1
IMAGEDEF
  2
AcDbRasterImageDef
  3
ISM
 90
    32768
280
     0
281
     0
  0
CLASS
  1
IMAGEDEF_REACTOR
  2
AcDbRasterImageDefReactor
  3
ISM
 90
    32769
280
     0
281
     0
  0
CLASS
  1
IDBUFFER
  2
AcDbIdBuffer
  3
ObjectDBX Classes
 90
    32768
280
     0
281
     0
  0
CLASS
  1
SPATIAL_FILTER
  2
AcDbSpatialFilter
  3
ObjectDBX Classes
 90
    32768
280
     0
281
     0
  0
CLASS
  1
SORTENTSTABLE
  2
AcDbSortentsTable
  3
ObjectDBX Classes
 90
    32768
280
     0
281
     0
  0
CLASS
  1
LAYER_INDEX
  2
AcDbLayerIndex
  3
ObjectDBX Classes
 90
    32768
280
     0
281
     0
  0
CLASS
  1
SPATIAL_INDEX
  2
AcDbSpatialIndex
  3
ObjectDBX Classes
 90
    32768
280
     0
281
     0
  0
CLASS
  1
OBJECT_PTR
  2
CAseDLPNTableRecord
  3
ASE-LPNTableRecord
 90
    32769
280
     0
281
     0
  0
CLASS
  1
PLOTSETTINGS
  2
AcDbPlotSettings
  3
ObjectDBX Classes
 90
    32768
280
     0
281
     0
  0
CLASS
  1
VBA_PROJECT
  2
AcDbVbaProject
  3
acad
 90
    32768
280
     0
281
     0
  0
CLASS
  1
WIPEOUT
  2
AcDbWipeout
  3
"WipeOut|Product Desc: Object Enabler for WipeOut entity^I^I^I^I^I^I|Company: Autodesk, Inc.^I^I^I^I^I^I|WEB Address: www.autodesk.com"
 90
    32895
280
     0
281
     1
  0
CLASS
  1
WIPEOUTVARIABLES
  2
AcDbWipeoutVariables
  3
"WipeOut|Product Desc:     WipeOut Dbx Application|Company:          Autodesk, Inc.|WEB Address:      www.autodesk.com"
 90
    32768
280
     0
281
     0
  0
CLASS
  1
RTEXT
  2
RText
  3
RText|AutoCAD Express Tool|expresstools@autodesk.com
 90
    32768
280
     0
281
     1
  0
CLASS
  1
ARCALIGNEDTEXT
  2
AcDbArcAlignedText
  3
ATEXT|AutoCAD Express Tool|expresstools@autodesk.com
 90
    32768
280
     0
281
     1
  0
CLASS
  1
VLO-VL
  2
vlo_VL
  3
VL|AutoLISP based application
 90
        0
280
     0
281
     0
  0
ENDSEC
  0
SECTION
  2
TABLES
  0
TABLE
  2
VPORT
  5
8
330
0
100
AcDbSymbolTable
 70
     3
  0
VPORT
  5
10F9E
330
8
100
AcDbSymbolTableRecord
100
AcDbViewportTableRecord
  2
*Active
 70
     0
 10
0.0
 20
0.0
 11
1.0
 21
1.0
 12
-54.32002084092096
 22
-523.3521041217517
 13
0.0
 23
0.0
 14
1.0
 24
1.0
 15
0.0
 25
0.0
 16
0.0
 26
0.0
 36
1.0
 17
0.0
 27
0.0
 37
0.0
 40
255.8860740205203
 41
1.756653992395437
 42
50.0
 43
0.0
 44
0.0
 50
0.0
 51
0.0
 71
     0
 72
   100
 73
     1
 74
     1
 75
     0
 76
     0
 77
     0
 78
     0
281
     0
 65
     0
110
0.0
120
0.0
130
0.0
111
1.0
121
0.0
131
0.0
112
0.0
122
1.0
132
0.0
 79
     0
146
0.0
  0
ENDTAB
  0
TABLE
  2
LTYPE
  5
5
330
0
100
AcDbSymbolTable
 70
     4
  0
LTYPE
  5
14
330
5
100
AcDbSymbolTableRecord
100
AcDbLinetypeTableRecord
  2
ByBlock
 70
     0
  3

 72
    65
 73
     0
 40
0.0
  0
LTYPE
  5
15
330
5
100
AcDbSymbolTableRecord
100
AcDbLinetypeTableRecord
  2
ByLayer
 70
     0
  3

 72
    65
 73
     0
 40
0.0
  0
LTYPE
  5
16
330
5
100
AcDbSymbolTableRecord
100
AcDbLinetypeTableRecord
  2
CONTINUOUS
 70
     0
  3
Solid line
 72
    65
 73
     0
 40
0.0
  0
LTYPE
  5
1F5
330
5
100
AcDbSymbolTableRecord
100
AcDbLinetypeTableRecord
  2
CENTER
 70
     0
  3
____ _ ____ _ ____ _ ____ _ ____ _ ____ _ ____
 72
    65
 73
     4
 40
0.6
 49
0.375
 74
     0
 49
-0.075
 74
     0
 49
0.075
 74
     0
 49
-0.075
 74
     0
  0
LTYPE
  5
1F6
330
5
100
AcDbSymbolTableRecord
100
AcDbLinetypeTableRecord
  2
HIDDEN
 70
     0
  3
- - - - - - - - - - - - - - - - - - - -
 72
    65
 73
     2
 40
0.2
 49
0.1
 74
     0
 49
-0.1
 74
     0
  0
LTYPE
  5
1F7
330
5
100
AcDbSymbolTableRecord
100
AcDbLinetypeTableRecord
  2
PHANTOM
 70
     0
  3
_____ _ _ _____ _ _ _____ _ _ _____
 72
    65
 73
     6
 40
0.8
 49
0.45
 74
     0
 49
-0.05
 74
     0
 49
0.1
 74
     0
 49
-0.05
 74
     0
 49
0.1
 74
     0
 49
-0.05
 74
     0
  0
ENDTAB
  0
TABLE
  2
LAYER
  5
2
330
0
100
AcDbSymbolTable
 70
     7
  0
LAYER
  5
10
330
2
100
AcDbSymbolTableRecord
100
AcDbLayerTableRecord
  2
0
 70
     0
 62
     7
  6
CONTINUOUS
370
    -3
390
F
  0
LAYER
  5
1FB
330
2
100
AcDbSymbolTableRecord
100
AcDbLayerTableRecord
  2
DEFAULT_2
 70
     0
 62
     8
  6
HIDDEN
370
    -3
390
F
  0
LAYER
  5
1FC
330
2
100
AcDbSymbolTableRecord
100
AcDbLayerTableRecord
  2
DEFAULT_3
 70
     0
 62
     7
  6
PHANTOM
370
    -3
390
F
  0
LAYER
  5
1FD
330
2
100
AcDbSymbolTableRecord
100
AcDbLayerTableRecord
  2
_BLACK_HOLE
 70
     0
 62
     7
  6
CONTINUOUS
370
    -3
390
F
  0
LAYER
  5
200
330
2
100
AcDbSymbolTableRecord
100
AcDbLayerTableRecord
  2
02___PRT_ALL_AXES
 70
     0
 62
     7
  6
CONTINUOUS
370
    -3
390
F
  0
LAYER
  5
205
330
2
100
AcDbSymbolTableRecord
100
AcDbLayerTableRecord
  2
06___PRT_ALL_SURFS
 70
     0
 62
     7
  6
CONTINUOUS
370
    -3
390
F
  0
LAYER
  5
31F4
330
2
100
AcDbSymbolTableRecord
100
AcDbLayerTableRecord
  2
Defpoints
 70
     0
 62
     7
  6
CONTINUOUS
290
     0
370
    -3
390
F
  0
ENDTAB
  0
TABLE
  2
STYLE
  5
3
330
0
100
AcDbSymbolTable
 70
     1
  0
STYLE
  5
11
330
3
100
AcDbSymbolTableRecord
100
AcDbTextStyleTableRecord
  2
STANDARD
 70
     0
 40
0.0
 41
0.8
 50
0.0
 71
     0
 42
0.2
  3
txt
  4

  0
ENDTAB
  0
TABLE
  2
VIEW
  5
6
330
0
100
AcDbSymbolTable
 70
     0
  0
ENDTAB
  0
TABLE
  2
UCS
  5
7
330
0
100
AcDbSymbolTable
 70
     0
  0
ENDTAB
  0
TABLE
  2
APPID
  5
9
330
0
100
AcDbSymbolTable
 70
     2
  0
APPID
  5
206
330
9
100
AcDbSymbolTableRecord
100
AcDbRegAppTableRecord
  2
ACAD
 70
     0
  0
APPID
  5
853
330
9
100
AcDbSymbolTableRecord
100
AcDbRegAppTableRecord
  2
DCO15
 70
     0
  0
ENDTAB
  0
TABLE
  2
DIMSTYLE
  5
A
330
0
100
AcDbSymbolTable
 70
     2
100
AcDbDimStyleTable
 71
     2
340
EAA1
340
207
  0
DIMSTYLE
105
207
330
A
100
AcDbSymbolTableRecord
100
AcDbDimStyleTableRecord
  2
STANDARD
 70
     0
 41
2.5
 42
1.0
 43
0.5
 44
1.0
 47
0.01
 48
0.01
 73
     0
 77
     1
 78
    12
140
3.0
147
0.5
271
     2
272
     2
284
     4
340
11
  0
DIMSTYLE
105
EAA1
330
A
100
AcDbSymbolTableRecord
100
AcDbDimStyleTableRecord
  2
2 STANDARD
 70
     0
 40
2.0
 41
2.5
 42
1.0
 43
0.5
 44
1.0
 47
0.01
 48
0.01
 73
     0
 77
     1
 78
    12
140
3.0
147
2.0
271
     1
272
     1
284
     4
340
11
  0
ENDTAB
  0
TABLE
  2
BLOCK_RECORD
  5
1
330
0
100
AcDbSymbolTable
 70
     1
  0
BLOCK_RECORD
  5
1F
330
1
100
AcDbSymbolTableRecord
100
AcDbBlockTableRecord
  2
*MODEL_SPACE
340
22
  0
BLOCK_RECORD
  5
1B
330
1
100
AcDbSymbolTableRecord
100
AcDbBlockTableRecord
  2
*PAPER_SPACE
340
1E
  0
BLOCK_RECORD
  5
10F66
330
1
100
AcDbSymbolTableRecord
100
AcDbBlockTableRecord
  2
A$C72D351EC
340
0
  0
ENDTAB
  0
ENDSEC
  0
SECTION
  2
BLOCKS
  0
BLOCK
  5
20
330
1F
100
AcDbEntity
  8
0
100
AcDbBlockBegin
  2
*MODEL_SPACE
 70
     0
 10
0.0
 20
0.0
 30
0.0
  3
*MODEL_SPACE
  1

  0
ENDBLK
  5
21
330
1F
100
AcDbEntity
  8
0
100
AcDbBlockEnd
  0
BLOCK
  5
1C
330
1B
100
AcDbEntity
 67
     1
  8
0
100
AcDbBlockBegin
  2
*PAPER_SPACE
 70
     0
 10
0.0
 20
0.0
 30
0.0
  3
*PAPER_SPACE
  1

  0
ENDBLK
  5
1D
330
1B
100
AcDbEntity
 67
     1
  8
0
100
AcDbBlockEnd
  0
BLOCK
  5
10F69
330
10F66
100
AcDbEntity
  8
0
 62
     3
370
     0
100
AcDbBlockBegin
  2
A$C72D351EC
 70
     0
 10
0.0
 20
0.0
 30
0.0
  3
A$C72D351EC
  1

  0
CIRCLE
  5
10F67
330
10F66
100
AcDbEntity
  8
02___PRT_ALL_AXES
 62
     3
100
AcDbCircle
 10
2.000000095449649
 20
1.999888730469535
 30
0.0
 40
1.5
  0
ARC
  5
10F68
330
10F66
100
AcDbEntity
  8
02___PRT_ALL_AXES
 62
     3
100
AcDbCircle
 10
2.000000095449649
 20
1.999888730469535
 30
0.0
 40
2.0
100
AcDbArc
 50
180.0
 51
91.81490177345377
  0
ENDBLK
  5
10F6A
330
10F66
100
AcDbEntity
  8
0
 62
     3
370
     0
100
AcDbBlockEnd
  0
ENDSEC
  0
SECTION
  2
ENTITIES
  0
LINE
  5
FE03
330
1F
100
AcDbEntity
  8
06___PRT_ALL_SURFS
  6
Continuous
 62
     7
370
     0
100
AcDbLine
 10
-79.52066274122126
 20
-558.014017428969
 30
0.0
 11
-79.54684866294326
 21
-557.99656236355
 31
0.0
  0
LINE
  5
FE04
330
1F
100
AcDbEntity
  8
06___PRT_ALL_SURFS
  6
Continuous
 62
     7
370
     0
100
AcDbLine
 10
-78.52077695588116
 20
-557.0143220217048
 30
0.0
 11
-78.54696287760316
 21
-556.9968669562857
 31
0.0
  0
LINE
  5
FE05
330
1F
100
AcDbEntity
  8
06___PRT_ALL_SURFS
  6
Continuous
 62
     7
370
     0
100
AcDbLine
 10
-80.2313838597829
 20
-552.5403523107869
 30
0.0
 11
-79.91285318366294
 21
-552.8588829869097
 31
0.0
  0
LINE
  5
FE06
330
1F
100
AcDbEntity
  8
0
  6
Continuous
 62
     7
370
     0
100
AcDbLine
 10
-75.23233576544203
 20
-567.7905046196648
 30
0.0
 11
-10.73043195264199
 21
-567.7905046196648
 31
0.0
  0
LINE
  5
FE07
330
1F
100
AcDbEntity
  8
06___PRT_ALL_SURFS
  6
Continuous
 62
     7
370
     0
100
AcDbLine
 10
-81.48138385914297
 20
-492.0395527131852
 30
0.0
 11
-81.48138385914297
 21
-561.5414565234257
 31
0.0
  0
LINE
  5
FE08
330
1F
100
AcDbEntity
  8
06___PRT_ALL_SURFS
  6
Continuous
 62
     7
370
     0
100
AcDbLine
 10
-80.2313838597829
 20
-552.5403523107869
 30
0.0
 11
-80.2313838597829
 21
-555.9968669496848
 31
0.0
  0
LINE
  5
FE09
330
1F
100
AcDbEntity
  8
0
  6
Continuous
 62
     7
370
     0
100
AcDbLine
 10
-11.08138385932068
 20
-565.8559694234651
 30
0.0
 11
-74.88138385876334
 21
-565.8559694234651
 31
0.0
  0
LINE
  5
FE0A
330
1F
100
AcDbEntity
  8
0
  6
Continuous
 62
     7
370
     0
100
AcDbLine
 10
-11.08138385932068
 20
-565.8297835017489
 30
0.0
 11
-74.88138385876334
 21
-565.8297835017489
 31
0.0
  0
LINE
  5
FE0B
330
1F
100
AcDbEntity
  8
0
  6
Continuous
 62
     7
370
     0
100
AcDbLine
 10
-66.20565817494207
 20
-564.7643220207863
 30
0.0
 11
-19.00710954200303
 21
-564.7643220207863
 31
0.0
  0
LINE
  5
FE0C
330
1F
100
AcDbEntity
  8
0
  6
Continuous
 62
     7
370
     0
100
AcDbLine
 10
-65.53363817532215
 20
-564.0923020211663
 30
0.0
 11
-19.67912954162284
 21
-564.0923020211663
 31
0.0
  0
LINE
  5
FE0D
330
1F
100
AcDbEntity
  8
06___PRT_ALL_SURFS
  6
Continuous
 62
     7
370
     0
100
AcDbLine
 10
-76.23153616734123
 20
-548.5405046183481
 30
0.0
 11
-75.91300549122138
 21
-548.8590352944651
 31
0.0
  0
LINE
  5
FE0E
330
1F
100
AcDbEntity
  8
06___PRT_ALL_SURFS
  6
Continuous
 62
     7
370
     0
100
AcDbLine
 10
-71.22254276396097
 20
-557.0143220217048
 30
0.0
 11
-71.54980030604168
 21
-556.3597570875097
 31
0.0
  0
LINE
  5
FE0F
330
1F
100
AcDbEntity
  8
0
  6
Continuous
 62
     7
370
     0
100
AcDbLine
 10
-70.22265699132083
 20
-556.0143220151096
 30
0.0
 11
-70.54991453340154
 21
-555.3597570809087
 31
0.0
  0
LINE
  5
FE10
330
1F
100
AcDbEntity
  8
06___PRT_ALL_SURFS
  6
Continuous
 62
     7
370
     0
100
AcDbLine
 10
-79.91285318366294
 20
-552.8588829869097
 30
0.0
 11
-79.91285318366294
 21
-555.3597570809087
 31
0.0
  0
LINE
  5
FE11
330
1F
100
AcDbEntity
  8
06___PRT_ALL_SURFS
  6
Continuous
 62
     7
370
     0
100
AcDbLine
 10
-79.54684866294326
 20
-561.1905046192852
 30
0.0
 11
-79.54684866294326
 21
-557.99656236355
 31
0.0
  0
LINE
  5
FE12
330
1F
100
AcDbEntity
  8
06___PRT_ALL_SURFS
  6
Continuous
 62
     7
370
     0
100
AcDbLine
 10
-79.54684866294326
 20
-544.5412660763245
 30
0.0
 11
-79.54684866294326
 21
-492.3905046198668
 31
0.0
  0
LINE
  5
FE13
330
1F
100
AcDbEntity
  8
06___PRT_ALL_SURFS
  6
Continuous
 62
     7
370
     0
100
AcDbLine
 10
-79.52066274122126
 20
-558.014017428969
 30
0.0
 11
-79.52066274122126
 21
-561.1905046192852
 31
0.0
  0
LINE
  5
FE14
330
1F
100
AcDbEntity
  8
0
  6
Continuous
 62
     7
370
     0
100
AcDbLine
 10
-79.52066274122126
 20
-544.5325392078254
 30
0.0
 11
-79.52066274122126
 21
-492.3905046198668
 31
0.0
  0
LINE
  5
FE15
330
1F
100
AcDbEntity
  8
0
  6
Continuous
 62
     7
370
     0
100
AcDbLine
 10
-78.45520126280257
 20
-500.4162303006664
 30
0.0
 11
-78.45520126280257
 21
-544.5147789360057
 31
0.0
  0
LINE
  5
FE16
330
1F
100
AcDbEntity
  8
06___PRT_ALL_SURFS
  6
Continuous
 62
     7
370
     0
100
AcDbLine
 10
-77.78318126064164
 20
-501.0882503028272
 30
0.0
 11
-77.78318126064164
 21
-543.8427589363858
 31
0.0
  0
LINE
  5
FE17
330
1F
100
AcDbEntity
  8
0
  6
Continuous
 62
     7
370
     0
100
AcDbLine
 10
-6.415919055140761
 20
-561.1905046192852
 30
0.0
 11
-6.442104976862879
 21
-561.1905046192852
 31
0.0
  0
LINE
  5
FE18
330
1F
100
AcDbEntity
  8
06___PRT_ALL_SURFS
  6
Continuous
 62
     7
370
     0
100
AcDbLine
 10
-79.54684866294326
 20
-561.1905046192852
 30
0.0
 11
-79.52066274122126
 21
-561.1905046192852
 31
0.0
  0
LINE
  5
FE19
330
1F
100
AcDbEntity
  8
06___PRT_ALL_SURFS
  6
Continuous
 62
     7
370
     0
100
AcDbLine
 10
-75.98138385840207
 20
-554.8905046183481
 30
0.0
 11
-75.98138385840207
 21
-554.9603248774888
 31
0.0
  0
LINE
  5
FE1A
330
1F
100
AcDbEntity
  8
06___PRT_ALL_SURFS
  6
Continuous
 62
     7
370
     0
100
AcDbLine
 10
-75.98138385840207
 20
-550.6905046185685
 30
0.0
 11
-75.98138385840207
 21
-550.6206843594278
 31
0.0
  0
LINE
  5
FE1B
330
1F
100
AcDbEntity
  8
06___PRT_ALL_SURFS
  6
Continuous
 62
     7
370
     0
100
AcDbLine
 10
-74.88138385876334
 20
-487.7250398156868
 30
0.0
 11
-74.88138385876334
 21
-487.7512257374089
 31
0.0
  0
LINE
  5
FE1C
330
1F
100
AcDbEntity
  8
06___PRT_ALL_SURFS
  6
Continuous
 62
     7
370
     0
100
AcDbLine
 10
-74.88138385876334
 20
-565.8559694234651
 30
0.0
 11
-74.88138385876334
 21
-565.8297835017489
 31
0.0
  0
LINE
  5
FE1D
330
1F
100
AcDbEntity
  8
06___PRT_ALL_SURFS
  6
Continuous
 62
     7
370
     0
100
AcDbLine
 10
-74.48138385866241
 20
-554.8905046183481
 30
0.0
 11
-74.48138385866241
 21
-554.9603248774888
 31
0.0
  0
LINE
  5
FE1E
330
1F
100
AcDbEntity
  8
06___PRT_ALL_SURFS
  6
Continuous
 62
     7
370
     0
100
AcDbLine
 10
-74.48138385866241
 20
-550.6905046185685
 30
0.0
 11
-74.48138385866241
 21
-550.6206843594278
 31
0.0
  0
LINE
  5
FE1F
330
1F
100
AcDbEntity
  8
06___PRT_ALL_SURFS
  6
Continuous
 62
     7
370
     0
100
AcDbLine
 10
-73.67138385814246
 20
-497.9324851462462
 30
0.0
 11
-73.67138385814246
 21
-499.8301161312692
 31
0.0
  0
LINE
  5
FE20
330
1F
100
AcDbEntity
  8
06___PRT_ALL_SURFS
  6
Continuous
 62
     7
370
     0
100
AcDbLine
 10
-71.22254276396097
 20
-557.0143220217048
 30
0.0
 11
-78.52077695588116
 21
-557.0143220217048
 31
0.0
  0
LINE
  5
FE21
330
1F
100
AcDbEntity
  8
06___PRT_ALL_SURFS
  6
Continuous
 62
     7
370
     0
100
AcDbLine
 10
-78.54696287760316
 20
-556.9968669562857
 30
0.0
 11
-79.23149808460152
 21
-556.9968669562857
 31
0.0
  0
LINE
  5
FE22
330
1F
100
AcDbEntity
  8
06___PRT_ALL_SURFS
  6
Continuous
 62
     7
370
     0
100
AcDbLine
 10
-71.54980030604168
 20
-556.3597570875097
 30
0.0
 11
-78.9129674110228
 21
-556.3597570875097
 31
0.0
  0
LINE
  5
FE23
330
1F
100
AcDbEntity
  8
06___PRT_ALL_SURFS
  6
Continuous
 62
     7
370
     0
100
AcDbLine
 10
-72.18138385872066
 20
-506.606261425786
 30
0.0
 11
-72.18138385872066
 21
-507.9747478125086
 31
0.0
  0
LINE
  5
FE24
330
1F
100
AcDbEntity
  8
06___PRT_ALL_SURFS
  6
Continuous
 62
     7
370
     0
100
AcDbLine
 10
-71.73138385956247
 20
-515.7195630315083
 30
0.0
 11
-71.73138385956247
 21
-522.8614462077049
 31
0.0
  0
LINE
  5
FE25
330
1F
100
AcDbEntity
  8
06___PRT_ALL_SURFS
  6
Continuous
 62
     7
370
     0
100
AcDbLine
 10
-71.73138385956247
 20
-530.7195630314471
 30
0.0
 11
-71.73138385956247
 21
-537.8614462076495
 31
0.0
  0
LINE
  5
FE26
330
1F
100
AcDbEntity
  8
06___PRT_ALL_SURFS
  6
Continuous
 62
     7
370
     0
100
AcDbLine
 10
-70.54991453340154
 20
-552.8588829869097
 30
0.0
 11
-70.54991453340154
 21
-555.3597570809087
 31
0.0
  0
LINE
  5
FE27
330
1F
100
AcDbEntity
  8
06___PRT_ALL_SURFS
  6
Continuous
 62
     7
370
     0
100
AcDbLine
 10
-70.2313838598227
 20
-537.8614462076495
 30
0.0
 11
-70.2313838598227
 21
-530.7195630314471
 31
0.0
  0
LINE
  5
FE28
330
1F
100
AcDbEntity
  8
06___PRT_ALL_SURFS
  6
Continuous
 62
     7
370
     0
100
AcDbLine
 10
-70.2313838598227
 20
-522.8614462077049
 30
0.0
 11
-70.2313838598227
 21
-515.7195630315083
 31
0.0
  0
LINE
  5
FE29
330
1F
100
AcDbEntity
  8
0
  6
Continuous
 62
     7
370
     0
100
AcDbLine
 10
-70.22265699132083
 20
-556.0143220151096
 30
0.0
 11
-70.22265699132083
 21
-552.5316254422879
 31
0.0
  0
LINE
  5
FE2A
330
1F
100
AcDbEntity
  8
06___PRT_ALL_SURFS
  6
Continuous
 62
     7
370
     0
100
AcDbLine
 10
-70.13138385916147
 20
-498.8818603518847
 30
0.0
 11
-70.13138385916147
 21
-495.6080787511289
 31
0.0
  0
LINE
  5
FE2B
330
1F
100
AcDbEntity
  8
0
  6
Continuous
 62
     7
370
     0
100
AcDbLine
 10
-69.95520126258225
 20
-491.8162303023258
 30
0.0
 11
-69.95520126258225
 21
-492.4174487417456
 31
0.0
  0
LINE
  5
FE2C
330
1F
100
AcDbEntity
  8
06___PRT_ALL_SURFS
  6
Continuous
 62
     7
370
     0
100
AcDbLine
 10
-69.95138385848054
 20
-548.5685779175463
 30
0.0
 11
-69.95138385848054
 21
-545.6556178125683
 31
0.0
  0
LINE
  5
FE2D
330
1F
100
AcDbEntity
  8
06___PRT_ALL_SURFS
  6
Continuous
 62
     7
370
     0
100
AcDbLine
 10
-69.88138385878176
 20
-507.9447277150685
 30
0.0
 11
-69.88138385878176
 21
-506.6362815232261
 31
0.0
  0
LINE
  5
FE2E
330
1F
100
AcDbEntity
  8
06___PRT_ALL_SURFS
  6
Continuous
 62
     7
370
     0
100
AcDbLine
 10
-69.28318126296233
 20
-492.4882503019456
 30
0.0
 11
-69.28318126296233
 21
-493.0894687413655
 31
0.0
  0
LINE
  5
FE2F
330
1F
100
AcDbEntity
  8
0
  6
Continuous
 62
     7
370
     0
100
AcDbLine
 10
-69.20520126144322
 20
-552.5135604974677
 30
0.0
 11
-69.20520126144322
 21
-561.7647789368262
 31
0.0
  0
LINE
  5
FE30
330
1F
100
AcDbEntity
  8
0
  6
Continuous
 62
     7
370
     0
100
AcDbLine
 10
-11.00832798054114
 20
-556.1643220224457
 30
0.0
 11
-10.50710954178259
 21
-556.1643220224457
 31
0.0
  0
LINE
  5
FE31
330
1F
100
AcDbEntity
  8
0
  6
Continuous
 62
     7
370
     0
100
AcDbLine
 10
-11.17912954140251
 20
-555.4923020228257
 30
0.0
 11
-11.68034798016106
 21
-555.4923020228257
 31
0.0
  0
LINE
  5
FE32
330
1F
100
AcDbEntity
  8
06___PRT_ALL_SURFS
  6
Continuous
 62
     7
370
     0
100
AcDbLine
 10
-74.48138385866241
 20
-554.9603248774888
 30
0.0
 11
-75.98138385840207
 21
-554.9603248774888
 31
0.0
  0
LINE
  5
FE33
330
1F
100
AcDbEntity
  8
06___PRT_ALL_SURFS
  6
Continuous
 62
     7
370
     0
100
AcDbLine
 10
-74.48138385866241
 20
-554.8905046183481
 30
0.0
 11
-75.98138385840207
 21
-554.8905046183481
 31
0.0
  0
LINE
  5
FE34
330
1F
100
AcDbEntity
  8
06___PRT_ALL_SURFS
  6
Continuous
 62
     7
370
     0
100
AcDbLine
 10
-68.5331812618233
 20
-561.0927589372063
 30
0.0
 11
-68.5331812618233
 21
-551.8415404978477
 31
0.0
  0
LINE
  5
FE35
330
1F
100
AcDbEntity
  8
02___PRT_ALL_AXES
  6
Continuous
 62
     7
370
     0
100
AcDbLine
 10
-23.58138385800112
 20
-550.9905046180054
 30
0.0
 11
-21.48138385938182
 21
-550.9905046180054
 31
0.0
  0
LINE
  5
FE36
330
1F
100
AcDbEntity
  8
06___PRT_ALL_SURFS
  6
Continuous
 62
     7
370
     0
100
AcDbLine
 10
-75.98138385840207
 20
-550.6905046185685
 30
0.0
 11
-74.48138385866241
 21
-550.6905046185685
 31
0.0
  0
LINE
  5
FE37
330
1F
100
AcDbEntity
  8
06___PRT_ALL_SURFS
  6
Continuous
 62
     7
370
     0
100
AcDbLine
 10
-75.98138385840207
 20
-550.6206843594278
 30
0.0
 11
-74.48138385866241
 21
-550.6206843594278
 31
0.0
  0
LINE
  5
FE38
330
1F
100
AcDbEntity
  8
02___PRT_ALL_AXES
  6
Continuous
 62
     7
370
     0
100
AcDbLine
 10
-21.48138385938182
 20
-550.5905046179073
 30
0.0
 11
-23.58138385800112
 21
-550.5905046179073
 31
0.0
  0
LINE
  5
FE39
330
1F
100
AcDbEntity
  8
06___PRT_ALL_SURFS
  6
Continuous
 62
     7
370
     0
100
AcDbLine
 10
-74.5497622258431
 20
-548.8590352944651
 30
0.0
 11
-75.91300549122138
 21
-548.8590352944651
 31
0.0
  0
LINE
  5
FE3A
330
1F
100
AcDbEntity
  8
06___PRT_ALL_SURFS
  6
Continuous
 62
     7
370
     0
100
AcDbLine
 10
-62.38138386008291
 20
-500.0405046182869
 30
0.0
 11
-62.38138386008291
 21
-502.5905046186054
 31
0.0
  0
LINE
  5
FE3B
330
1F
100
AcDbEntity
  8
06___PRT_ALL_SURFS
  6
Continuous
 62
     7
370
     0
100
AcDbLine
 10
-62.38138386008291
 20
-502.9905046187093
 30
0.0
 11
-62.38138386008291
 21
-505.5405046190278
 31
0.0
  0
LINE
  5
FE3C
330
1F
100
AcDbEntity
  8
06___PRT_ALL_SURFS
  6
Continuous
 62
     7
370
     0
100
AcDbLine
 10
-61.98138385998197
 20
-505.5405046190278
 30
0.0
 11
-61.98138385998197
 21
-500.0405046182869
 31
0.0
  0
LINE
  5
FE3D
330
1F
100
AcDbEntity
  8
06___PRT_ALL_SURFS
  6
Continuous
 62
     7
370
     0
100
AcDbLine
 10
-61.37138385824051
 20
-500.790504619426
 30
0.0
 11
-61.37138385824051
 21
-504.7905046178888
 31
0.0
  0
LINE
  5
FE3E
330
1F
100
AcDbEntity
  8
06___PRT_ALL_SURFS
  6
Continuous
 62
     7
370
     0
100
AcDbLine
 10
-80.2313838597829
 20
-555.9968669496848
 30
0.0
 11
-79.91285318366294
 21
-555.3597570809087
 31
0.0
  0
LINE
  5
FE3F
330
1F
100
AcDbEntity
  8
06___PRT_ALL_SURFS
  6
Continuous
 62
     7
370
     0
100
AcDbLine
 10
-79.23149808460152
 20
-556.9968669562857
 30
0.0
 11
-78.9129674110228
 21
-556.3597570875097
 31
0.0
  0
LINE
  5
FE40
330
1F
100
AcDbEntity
  8
06___PRT_ALL_SURFS
  6
Continuous
 62
     7
370
     0
100
AcDbLine
 10
-75.54639154322194
 20
-548.5405046183481
 30
0.0
 11
-76.23153616734123
 21
-548.5405046183481
 31
0.0
  0
LINE
  5
FE41
330
1F
100
AcDbEntity
  8
0
  6
Continuous
 62
     7
370
     0
100
AcDbLine
 10
-74.22250468376251
 20
-548.5317777523845
 30
0.0
 11
-75.52020562150278
 21
-548.5317777523845
 31
0.0
  0
LINE
  5
FE42
330
1F
100
AcDbEntity
  8
0
  6
Continuous
 62
     7
370
     0
100
AcDbLine
 10
-75.45565817630154
 20
-547.5143220225069
 30
0.0
 11
-74.20443973640101
 21
-547.5143220225069
 31
0.0
  0
LINE
  5
FE43
330
1F
100
AcDbEntity
  8
06___PRT_ALL_SURFS
  6
Continuous
 62
     7
370
     0
100
AcDbLine
 10
-74.86978531452291
 20
-546.9470324103245
 30
0.0
 11
-73.63715012676277
 21
-546.9470324103245
 31
0.0
  0
LINE
  5
FE44
330
1F
100
AcDbEntity
  8
06___PRT_ALL_SURFS
  6
Continuous
 62
     7
370
     0
100
AcDbLine
 10
-60.97138385814242
 20
-504.7905046178888
 30
0.0
 11
-60.97138385814242
 21
-500.790504619426
 31
0.0
  0
LINE
  5
FE45
330
1F
100
AcDbEntity
  8
06___PRT_ALL_SURFS
  6
Continuous
 62
     7
370
     0
100
AcDbLine
 10
-59.86138385818287
 20
-501.2905046201852
 30
0.0
 11
-59.86138385818287
 21
-504.2905046196648
 31
0.0
  0
LINE
  5
FE46
330
1F
100
AcDbEntity
  8
06___PRT_ALL_SURFS
  6
Continuous
 62
     7
370
     0
100
AcDbLine
 10
-59.46138385808194
 20
-504.2905046196648
 30
0.0
 11
-59.46138385808194
 21
-501.2905046201852
 31
0.0
  0
LINE
  5
FE47
330
1F
100
AcDbEntity
  8
06___PRT_ALL_SURFS
  6
Continuous
 62
     7
370
     0
100
AcDbLine
 10
-73.6620956826631
 20
-544.7593064174852
 30
0.0
 11
-74.86978531452291
 21
-546.9470324103245
 31
0.0
  0
LINE
  5
FE48
330
1F
100
AcDbEntity
  8
0
  6
Continuous
 62
     7
370
     0
100
AcDbLine
 10
-78.45520126280257
 20
-544.5147789360057
 30
0.0
 11
-77.78318126064164
 21
-543.8427589363858
 31
0.0
  0
LINE
  5
FE49
330
1F
100
AcDbEntity
  8
0
  6
Continuous
 62
     7
370
     0
100
AcDbLine
 10
-19.75710954314195
 20
-488.8166872158246
 30
0.0
 11
-20.42912954276187
 21
-489.4887072154445
 31
0.0
  0
LINE
  5
FE4A
330
1F
100
AcDbEntity
  8
0
  6
Continuous
 62
     7
370
     0
100
AcDbLine
 10
-75.45565817630154
 20
-547.5143220225069
 30
0.0
 11
-74.87907693932107
 21
-546.9377407855264
 31
0.0
  0
LINE
  5
FE4B
330
1F
100
AcDbEntity
  8
0
  6
Continuous
 62
     7
370
     0
100
AcDbLine
 10
-73.63715012676277
 20
-546.9470324103245
 30
0.0
 11
-74.20443973640101
 21
-547.5143220225069
 31
0.0
  0
LINE
  5
FE4C
330
1F
100
AcDbEntity
  8
0
  6
Continuous
 62
     7
370
     0
100
AcDbLine
 10
-10.41637617486208
 20
-505.0405046182685
 30
0.0
 11
-10.44256209658135
 21
-505.0492314867675
 31
0.0
  0
LINE
  5
FE4D
330
1F
100
AcDbEntity
  8
0
  6
Continuous
 62
     7
370
     0
100
AcDbLine
 10
-19.00710954200303
 20
-564.7643220207863
 30
0.0
 11
-19.67912954162284
 21
-564.0923020211663
 31
0.0
  0
LINE
  5
FE4E
330
1F
100
AcDbEntity
  8
0
  6
Continuous
 62
     7
370
     0
100
AcDbLine
 10
-74.22250468376251
 20
-548.5317777523845
 30
0.0
 11
-74.5497622258431
 21
-548.8590352944651
 31
0.0
  0
LINE
  5
FE4F
330
1F
100
AcDbEntity
  8
0
  6
Continuous
 62
     7
370
     0
100
AcDbLine
 10
-16.75756645664091
 20
-491.8162303023258
 30
0.0
 11
-17.42958645626072
 21
-492.4882503019456
 31
0.0
  0
LINE
  5
FE50
330
1F
100
AcDbEntity
  8
0
  6
Continuous
 62
     7
370
     0
100
AcDbLine
 10
-6.415919055140761
 20
-509.0397431602864
 30
0.0
 11
-6.442104976862879
 21
-509.0484700287854
 31
0.0
  0
LINE
  5
FE51
330
1F
100
AcDbEntity
  8
0
  6
Continuous
 62
     7
370
     0
100
AcDbLine
 10
-78.45520126280257
 20
-500.4162303006664
 30
0.0
 11
-77.78318126064164
 21
-501.0882503028272
 31
0.0
  0
LINE
  5
FE52
330
1F
100
AcDbEntity
  8
0
  6
Continuous
 62
     7
370
     0
100
AcDbLine
 10
-16.00756645550189
 20
-561.7647789368262
 30
0.0
 11
-16.67958645512181
 21
-561.0927589372063
 31
0.0
  0
LINE
  5
FE53
330
1F
100
AcDbEntity
  8
0
  6
Continuous
 62
     7
370
     0
100
AcDbLine
 10
-16.67958645512181
 20
-560.4915404977865
 30
0.0
 11
-16.00756645550189
 21
-561.1635604974065
 31
0.0
  0
LINE
  5
FE54
330
1F
100
AcDbEntity
  8
0
  6
Continuous
 62
     7
370
     0
100
AcDbLine
 10
-70.22265699132083
 20
-552.5316254422879
 30
0.0
 11
-70.54991453340154
 21
-552.8588829869097
 31
0.0
  0
LINE
  5
FE55
330
1F
100
AcDbEntity
  8
0
  6
Continuous
 62
     7
370
     0
100
AcDbLine
 10
-68.5331812618233
 20
-551.8415404978477
 30
0.0
 11
-69.20520126144322
 21
-552.5135604974677
 31
0.0
  0
LINE
  5
FE56
330
1F
100
AcDbEntity
  8
0
  6
Continuous
 62
     7
370
     0
100
AcDbLine
 10
-17.42958645626072
 20
-501.7394687413101
 30
0.0
 11
-16.75756645664091
 21
-501.0674487416902
 31
0.0
  0
LINE
  5
FE57
330
1F
100
AcDbEntity
  8
0
  6
Continuous
 62
     7
370
     0
100
AcDbLine
 10
-75.45565817630154
 20
-497.4166872167063
 30
0.0
 11
-74.78363817668162
 21
-498.0887072163262
 31
0.0
  0
LINE
  5
FE58
330
1F
100
AcDbEntity
  8
0
  6
Continuous
 62
     7
370
     0
100
AcDbLine
 10
-74.28241973792307
 20
-498.0887072163262
 30
0.0
 11
-74.954439737543
 21
-497.4166872167063
 31
0.0
  0
LINE
  5
FE59
330
1F
100
AcDbEntity
  8
0
  6
Continuous
 62
     7
370
     0
100
AcDbLine
 10
-15.7401107267633
 20
-501.0493837943287
 30
0.0
 11
-15.4128531846826
 21
-500.7221262522481
 31
0.0
  0
LINE
  5
FE5A
330
1F
100
AcDbEntity
  8
0
  6
Continuous
 62
     7
370
     0
100
AcDbLine
 10
-11.68034798016106
 20
-555.4923020228257
 30
0.0
 11
-11.00832798054114
 21
-556.1643220224457
 31
0.0
  0
LINE
  5
FE5B
330
1F
100
AcDbEntity
  8
0
  6
Continuous
 62
     7
370
     0
100
AcDbLine
 10
-10.50710954178259
 20
-556.1643220224457
 30
0.0
 11
-11.17912954140251
 21
-555.4923020228257
 31
0.0
  0
LINE
  5
FE5C
330
1F
100
AcDbEntity
  8
0
  6
Continuous
 62
     7
370
     0
100
AcDbLine
 10
-69.20520126144322
 20
-561.7647789368262
 30
0.0
 11
-68.5331812618233
 21
-561.0927589372063
 31
0.0
  0
LINE
  5
FE5D
330
1F
100
AcDbEntity
  8
0
  6
Continuous
 62
     7
370
     0
100
AcDbLine
 10
-11.74026303432151
 20
-505.0492314867675
 30
0.0
 11
-11.41300549224093
 21
-504.7219739446868
 31
0.0
  0
LINE
  5
FE5E
330
1F
100
AcDbEntity
  8
0
  6
Continuous
 62
     7
370
     0
100
AcDbLine
 10
-12.32561759132124
 20
-506.6339768262863
 30
0.0
 11
-11.75832798168301
 21
-506.0666872166451
 31
0.0
  0
LINE
  5
FE5F
330
1F
100
AcDbEntity
  8
0
  6
Continuous
 62
     7
370
     0
100
AcDbLine
 10
-79.54684866294326
 20
-544.5412660763245
 30
0.0
 11
-79.52066274122126
 21
-544.5325392078254
 31
0.0
  0
LINE
  5
FE60
330
1F
100
AcDbEntity
  8
0
  6
Continuous
 62
     7
370
     0
100
AcDbLine
 10
-69.28318126296233
 20
-493.0894687413655
 30
0.0
 11
-69.95520126258225
 21
-492.4174487417456
 31
0.0
  0
LINE
  5
FE61
330
1F
100
AcDbEntity
  8
0
  6
Continuous
 62
     7
370
     0
100
AcDbLine
 10
-69.95520126258225
 20
-491.8162303023258
 30
0.0
 11
-69.28318126296233
 21
-492.4882503019456
 31
0.0
  0
LINE
  5
FE62
330
1F
100
AcDbEntity
  8
0
  6
Continuous
 62
     7
370
     0
100
AcDbLine
 10
-7.507566455281448
 20
-553.1647789359445
 30
0.0
 11
-8.179586454901368
 21
-552.4927589363247
 31
0.0
  0
LINE
  5
FE63
330
1F
100
AcDbEntity
  8
0
  6
Continuous
 62
     7
370
     0
100
AcDbLine
 10
-10.50710954178259
 20
-506.0666872166451
 30
0.0
 11
-11.08369077876296
 21
-506.6432684536256
 31
0.0
  0
LINE
  5
FE64
330
1F
100
AcDbEntity
  8
0
  6
Continuous
 62
     7
370
     0
100
AcDbLine
 10
-66.20565817494207
 20
-564.7643220207863
 30
0.0
 11
-65.53363817532215
 21
-564.0923020211663
 31
0.0
  0
LINE
  5
FE65
330
1F
100
AcDbEntity
  8
0
  6
Continuous
 62
     7
370
     0
100
AcDbLine
 10
-75.54639154322194
 20
-548.5405046183481
 30
0.0
 11
-75.52020562150278
 21
-548.5317777523845
 31
0.0
  0
LINE
  5
FE66
330
1F
100
AcDbEntity
  8
0
  6
Continuous
 62
     7
370
     0
100
AcDbLine
 10
-66.9556581760811
 20
-488.8166872158246
 30
0.0
 11
-66.28363817646118
 21
-489.4887072154445
 31
0.0
  0
LINE
  5
FE67
330
1F
100
AcDbEntity
  8
0
  6
Continuous
 62
     7
370
     0
100
AcDbLine
 10
-7.507566455281448
 20
-509.0662303031463
 30
0.0
 11
-8.179586454901368
 21
-509.7382503027662
 31
0.0
  0
LINE
  5
FE68
330
1F
100
AcDbEntity
  8
02___PRT_ALL_AXES
  6
Continuous
 62
     7
370
     0
100
AcDbLine
 10
-26.50138386000219
 20
-549.2905046194871
 30
0.0
 11
-26.50138386000219
 21
-552.2905046189666
 31
0.0
  0
LINE
  5
FE69
330
1F
100
AcDbEntity
  8
02___PRT_ALL_AXES
  6
Continuous
 62
     7
370
     0
100
AcDbLine
 10
-26.10138385990115
 20
-552.2905046189666
 30
0.0
 11
-26.10138385990115
 21
-549.2905046194871
 31
0.0
  0
LINE
  5
FE6A
330
1F
100
AcDbEntity
  8
02___PRT_ALL_AXES
  6
Continuous
 62
     7
370
     0
100
AcDbLine
 10
-24.99138385994161
 20
-548.7905046187278
 30
0.0
 11
-24.99138385994161
 21
-552.7905046197259
 31
0.0
  0
LINE
  5
FE6B
330
1F
100
AcDbEntity
  8
02___PRT_ALL_AXES
  6
Continuous
 62
     7
370
     0
100
AcDbLine
 10
-24.59138385984056
 20
-552.7905046197259
 30
0.0
 11
-24.59138385984056
 21
-548.7905046187278
 31
0.0
  0
LINE
  5
FE6C
330
1F
100
AcDbEntity
  8
02___PRT_ALL_AXES
  6
Continuous
 62
     7
370
     0
100
AcDbLine
 10
-23.98138385810205
 20
-548.0405046201298
 30
0.0
 11
-23.98138385810205
 21
-553.5405046183297
 31
0.0
  0
LINE
  5
FE6D
330
1F
100
AcDbEntity
  8
0
  6
Continuous
 62
     7
370
     0
100
AcDbLine
 10
-6.731269633482497
 20
-496.584142280325
 30
0.0
 11
-7.049800307061332
 21
-497.221252151648
 31
0.0
  0
LINE
  5
FE6E
330
1F
100
AcDbEntity
  8
0
  6
Continuous
 62
     7
370
     0
100
AcDbLine
 10
-12.30067203542103
 20
-508.8217028216667
 30
0.0
 11
-11.09298240356111
 21
-506.6339768262863
 31
0.0
  0
LINE
  5
FE6F
330
1F
100
AcDbEntity
  8
02___PRT_ALL_AXES
  6
Continuous
 62
     7
370
     0
100
AcDbLine
 10
-23.58138385800112
 20
-553.5405046183297
 30
0.0
 11
-23.58138385800112
 21
-550.9905046180054
 31
0.0
  0
LINE
  5
FE70
330
1F
100
AcDbEntity
  8
02___PRT_ALL_AXES
  6
Continuous
 62
     7
370
     0
100
AcDbLine
 10
-23.58138385800112
 20
-550.5905046179073
 30
0.0
 11
-23.58138385800112
 21
-548.0405046201298
 31
0.0
  0
LINE
  5
FE71
330
1F
100
AcDbEntity
  8
0
  6
Continuous
 62
     7
370
     0
100
AcDbLine
 10
-5.731383858301114
 20
-497.584142286926
 30
0.0
 11
-6.049914534421077
 21
-498.221252158249
 31
0.0
  0
LINE
  5
FE72
330
1F
100
AcDbEntity
  8
0
  6
Continuous
 62
     7
370
     0
100
AcDbLine
 10
-11.09298240356111
 20
-506.6339768262863
 30
0.0
 11
-12.32561759132124
 21
-506.6339768262863
 31
0.0
  0
LINE
  5
FE73
330
1F
100
AcDbEntity
  8
0
  6
Continuous
 62
     7
370
     0
100
AcDbLine
 10
-10.50710954178259
 20
-506.0666872166451
 30
0.0
 11
-11.75832798168301
 21
-506.0666872166451
 31
0.0
  0
LINE
  5
FE74
330
1F
100
AcDbEntity
  8
0
  6
Continuous
 62
     7
370
     0
100
AcDbLine
 10
-11.74026303432151
 20
-505.0492314867675
 30
0.0
 11
-10.44256209658135
 21
-505.0492314867675
 31
0.0
  0
LINE
  5
FE75
330
1F
100
AcDbEntity
  8
0
  6
Continuous
 62
     7
370
     0
100
AcDbLine
 10
-10.41637617486208
 20
-505.0405046182685
 30
0.0
 11
-9.731231550742791
 21
-505.0405046182685
 31
0.0
  0
LINE
  5
FE76
330
1F
100
AcDbEntity
  8
0
  6
Continuous
 62
     7
370
     0
100
AcDbLine
 10
-11.41300549224093
 20
-504.7219739446868
 30
0.0
 11
-10.04976222686275
 21
-504.7219739446868
 31
0.0
  0
LINE
  5
FE77
330
1F
100
AcDbEntity
  8
0
  6
Continuous
 62
     7
370
     0
100
AcDbLine
 10
-17.42958645626072
 20
-492.4882503019456
 30
0.0
 11
-17.42958645626072
 21
-501.7394687413101
 31
0.0
  0
LINE
  5
FE78
330
1F
100
AcDbEntity
  8
0
  6
Continuous
 62
     7
370
     0
100
AcDbLine
 10
-16.75756645664091
 20
-501.0674487416902
 30
0.0
 11
-16.75756645664091
 21
-491.8162303023258
 31
0.0
  0
LINE
  5
FE79
330
1F
100
AcDbEntity
  8
0
  6
Continuous
 62
     7
370
     0
100
AcDbLine
 10
-16.67958645512181
 20
-561.0927589372063
 30
0.0
 11
-16.67958645512181
 21
-560.4915404977865
 31
0.0
  0
LINE
  5
FE7A
330
1F
100
AcDbEntity
  8
06___PRT_ALL_SURFS
  6
Continuous
 62
     7
370
     0
100
AcDbLine
 10
-64.4813838587022
 20
-502.9905046187093
 30
0.0
 11
-62.38138386008291
 21
-502.9905046187093
 31
0.0
  0
LINE
  5
FE7B
330
1F
100
AcDbEntity
  8
0
  6
Continuous
 62
     7
370
     0
100
AcDbLine
 10
-9.981383859681955
 20
-502.9603248797299
 30
0.0
 11
-11.48138385942172
 21
-502.9603248797299
 31
0.0
  0
LINE
  5
FE7C
330
1F
100
AcDbEntity
  8
0
  6
Continuous
 62
     7
370
     0
100
AcDbLine
 10
-9.981383859681955
 20
-502.8905046180481
 30
0.0
 11
-11.48138385942172
 21
-502.8905046180481
 31
0.0
  0
LINE
  5
FE7D
330
1F
100
AcDbEntity
  8
06___PRT_ALL_SURFS
  6
Continuous
 62
     7
370
     0
100
AcDbLine
 10
-62.38138386008291
 20
-502.5905046186054
 30
0.0
 11
-64.4813838587022
 21
-502.5905046186054
 31
0.0
  0
LINE
  5
FE7E
330
1F
100
AcDbEntity
  8
02___PRT_ALL_AXES
  6
Continuous
 62
     7
370
     0
100
AcDbLine
 10
-16.08138385930226
 20
-545.6362815240892
 30
0.0
 11
-16.08138385930226
 21
-546.9447277133848
 31
0.0
  0
LINE
  5
FE7F
330
1F
100
AcDbEntity
  8
0
  6
Continuous
 62
     7
370
     0
100
AcDbLine
 10
-16.01138385960053
 20
-505.0124313216056
 30
0.0
 11
-16.01138385960053
 21
-507.9253914265895
 31
0.0
  0
LINE
  5
FE80
330
1F
100
AcDbEntity
  8
0
  6
Continuous
 62
     7
370
     0
100
AcDbLine
 10
-16.00756645550189
 20
-561.7647789368262
 30
0.0
 11
-16.00756645550189
 21
-561.1635604974065
 31
0.0
  0
LINE
  5
FE81
330
1F
100
AcDbEntity
  8
0
  6
Continuous
 62
     7
370
     0
100
AcDbLine
 10
-15.83138385892255
 20
-554.6991488847261
 30
0.0
 11
-15.83138385892255
 21
-557.9729304854878
 31
0.0
  0
LINE
  5
FE82
330
1F
100
AcDbEntity
  8
0
  6
Continuous
 62
     7
370
     0
100
AcDbLine
 10
-15.7401107267633
 20
-497.566687221507
 30
0.0
 11
-15.7401107267633
 21
-501.0493837943287
 31
0.0
  0
LINE
  5
FE83
330
1F
100
AcDbEntity
  8
0
  6
Continuous
 62
     7
370
     0
100
AcDbLine
 10
-15.73138385826132
 20
-515.7195630315083
 30
0.0
 11
-15.73138385826132
 21
-522.8614462077049
 31
0.0
  0
LINE
  5
FE84
330
1F
100
AcDbEntity
  8
0
  6
Continuous
 62
     7
370
     0
100
AcDbLine
 10
-15.73138385826132
 20
-530.7195630314471
 30
0.0
 11
-15.73138385826132
 21
-537.8614462076495
 31
0.0
  0
LINE
  5
FE85
330
1F
100
AcDbEntity
  8
0
  6
Continuous
 62
     7
370
     0
100
AcDbLine
 10
-15.4128531846826
 20
-500.7221262522481
 30
0.0
 11
-15.4128531846826
 21
-498.221252158249
 31
0.0
  0
LINE
  5
FE86
330
1F
100
AcDbEntity
  8
0
  6
Continuous
 62
     7
370
     0
100
AcDbLine
 10
-14.23138385852155
 20
-537.8614462076495
 30
0.0
 11
-14.23138385852155
 21
-530.7195630314471
 31
0.0
  0
LINE
  5
FE87
330
1F
100
AcDbEntity
  8
0
  6
Continuous
 62
     7
370
     0
100
AcDbLine
 10
-14.23138385852155
 20
-522.8614462077049
 30
0.0
 11
-14.23138385852155
 21
-515.7195630315083
 31
0.0
  0
LINE
  5
FE88
330
1F
100
AcDbEntity
  8
02___PRT_ALL_AXES
  6
Continuous
 62
     7
370
     0
100
AcDbLine
 10
-13.78138385936052
 20
-546.9747478133661
 30
0.0
 11
-13.78138385936052
 21
-545.6062614241081
 31
0.0
  0
LINE
  5
FE89
330
1F
100
AcDbEntity
  8
0
  6
Continuous
 62
     7
370
     0
100
AcDbLine
 10
-11.48138385942172
 20
-498.6905046182685
 30
0.0
 11
-9.981383859681955
 21
-498.6905046182685
 31
0.0
  0
LINE
  5
FE8A
330
1F
100
AcDbEntity
  8
0
  6
Continuous
 62
     7
370
     0
100
AcDbLine
 10
-11.48138385942172
 20
-498.6206843591278
 30
0.0
 11
-9.981383859681955
 21
-498.6206843591278
 31
0.0
  0
LINE
  5
FE8B
330
1F
100
AcDbEntity
  8
06___PRT_ALL_SURFS
  6
Continuous
 62
     7
370
     0
100
AcDbLine
 10
-74.78363817668162
 20
-498.0887072163262
 30
0.0
 11
-74.28241973792307
 21
-498.0887072163262
 31
0.0
  0
LINE
  5
FE8C
330
1F
100
AcDbEntity
  8
0
  6
Continuous
 62
     7
370
     0
100
AcDbLine
 10
-74.954439737543
 20
-497.4166872167063
 30
0.0
 11
-75.45565817630154
 21
-497.4166872167063
 31
0.0
  0
LINE
  5
FE8D
330
1F
100
AcDbEntity
  8
0
  6
Continuous
 62
     7
370
     0
100
AcDbLine
 10
-14.41296741204235
 20
-497.221252151648
 30
0.0
 11
-7.049800307061332
 21
-497.221252151648
 31
0.0
  0
LINE
  5
FE8E
330
1F
100
AcDbEntity
  8
0
  6
Continuous
 62
     7
370
     0
100
AcDbLine
 10
-7.415804840480859
 20
-496.584142280325
 30
0.0
 11
-6.731269633482497
 21
-496.584142280325
 31
0.0
  0
LINE
  5
FE8F
330
1F
100
AcDbEntity
  8
0
  6
Continuous
 62
     7
370
     0
100
AcDbLine
 10
-14.74022495412305
 20
-496.5666872174472
 30
0.0
 11
-7.441990762202976
 21
-496.5666872174472
 31
0.0
  0
LINE
  5
FE90
330
1F
100
AcDbEntity
  8
0
  6
Continuous
 62
     7
370
     0
100
AcDbLine
 10
-12.29138385994156
 20
-555.6485240929058
 30
0.0
 11
-12.29138385994156
 21
-553.7508931078884
 31
0.0
  0
LINE
  5
FE91
330
1F
100
AcDbEntity
  8
0
  6
Continuous
 62
     7
370
     0
100
AcDbLine
 10
-11.48138385942172
 20
-502.8905046180481
 30
0.0
 11
-11.48138385942172
 21
-502.9603248797299
 31
0.0
  0
LINE
  5
FE92
330
1F
100
AcDbEntity
  8
0
  6
Continuous
 62
     7
370
     0
100
AcDbLine
 10
-11.48138385942172
 20
-498.6905046182685
 30
0.0
 11
-11.48138385942172
 21
-498.6206843591278
 31
0.0
  0
LINE
  5
FE93
330
1F
100
AcDbEntity
  8
0
  6
Continuous
 62
     7
370
     0
100
AcDbLine
 10
-11.08138385932068
 20
-487.7250398156868
 30
0.0
 11
-11.08138385932068
 21
-487.7512257374089
 31
0.0
  0
LINE
  5
FE94
330
1F
100
AcDbEntity
  8
0
  6
Continuous
 62
     7
370
     0
100
AcDbLine
 10
-11.08138385932068
 20
-565.8559694234651
 30
0.0
 11
-11.08138385932068
 21
-565.8297835017489
 31
0.0
  0
LINE
  5
FE95
330
1F
100
AcDbEntity
  8
0
  6
Continuous
 62
     7
370
     0
100
AcDbLine
 10
-9.981383859681955
 20
-502.8905046180481
 30
0.0
 11
-9.981383859681955
 21
-502.9603248797299
 31
0.0
  0
LINE
  5
FE96
330
1F
100
AcDbEntity
  8
0
  6
Continuous
 62
     7
370
     0
100
AcDbLine
 10
-9.981383859681955
 20
-498.6905046182685
 30
0.0
 11
-9.981383859681955
 21
-498.6206843591278
 31
0.0
  0
LINE
  5
FE97
330
1F
100
AcDbEntity
  8
0
  6
Continuous
 62
     7
370
     0
100
AcDbLine
 10
-8.179586454901368
 20
-552.4927589363247
 30
0.0
 11
-8.179586454901368
 21
-509.7382503027662
 31
0.0
  0
LINE
  5
FE98
330
1F
100
AcDbEntity
  8
0
  6
Continuous
 62
     7
370
     0
100
AcDbLine
 10
-7.507566455281448
 20
-553.1647789359445
 30
0.0
 11
-7.507566455281448
 21
-509.0662303031463
 31
0.0
  0
LINE
  5
FE99
330
1F
100
AcDbEntity
  8
0
  6
Continuous
 62
     7
370
     0
100
AcDbLine
 10
-6.442104976862879
 20
-509.0484700287854
 30
0.0
 11
-6.442104976862879
 21
-561.1905046192852
 31
0.0
  0
LINE
  5
FE9A
330
1F
100
AcDbEntity
  8
0
  6
Continuous
 62
     7
370
     0
100
AcDbLine
 10
-6.442104976862879
 20
-495.5669918076477
 30
0.0
 11
-6.442104976862879
 21
-492.3905046198668
 31
0.0
  0
LINE
  5
FE9B
330
1F
100
AcDbEntity
  8
0
  6
Continuous
 62
     7
370
     0
100
AcDbLine
 10
-6.415919055140761
 20
-492.3905046198668
 30
0.0
 11
-6.415919055140761
 21
-495.5844468730666
 31
0.0
  0
LINE
  5
FE9C
330
1F
100
AcDbEntity
  8
0
  6
Continuous
 62
     7
370
     0
100
AcDbLine
 10
-6.415919055140761
 20
-509.0397431602864
 30
0.0
 11
-6.415919055140761
 21
-561.1905046192852
 31
0.0
  0
LINE
  5
FE9D
330
1F
100
AcDbEntity
  8
0
  6
Continuous
 62
     7
370
     0
100
AcDbLine
 10
-6.049914534421077
 20
-500.7221262522481
 30
0.0
 11
-6.049914534421077
 21
-498.221252158249
 31
0.0
  0
LINE
  5
FE9E
330
1F
100
AcDbEntity
  8
0
  6
Continuous
 62
     7
370
     0
100
AcDbLine
 10
-5.731383858301114
 20
-501.0406569258297
 30
0.0
 11
-5.731383858301114
 21
-497.584142286926
 31
0.0
  0
LINE
  5
FE9F
330
1F
100
AcDbEntity
  8
0
  6
Continuous
 62
     7
370
     0
100
AcDbLine
 10
-6.415919055140761
 20
-492.3905046198668
 30
0.0
 11
-6.442104976862879
 21
-492.3905046198668
 31
0.0
  0
LINE
  5
FEA0
330
1F
100
AcDbEntity
  8
06___PRT_ALL_SURFS
  6
Continuous
 62
     7
370
     0
100
AcDbLine
 10
-79.54684866294326
 20
-492.3905046198668
 30
0.0
 11
-79.52066274122126
 21
-492.3905046198668
 31
0.0
  0
LINE
  5
FEA1
330
1F
100
AcDbEntity
  8
0
  6
Continuous
 62
     7
370
     0
100
AcDbLine
 10
-20.42912954276187
 20
-489.4887072154445
 30
0.0
 11
-66.28363817646118
 21
-489.4887072154445
 31
0.0
  0
LINE
  5
FEA2
330
1F
100
AcDbEntity
  8
0
  6
Continuous
 62
     7
370
     0
100
AcDbLine
 10
-19.75710954314195
 20
-488.8166872158246
 30
0.0
 11
-66.9556581760811
 21
-488.8166872158246
 31
0.0
  0
LINE
  5
FEA3
330
1F
100
AcDbEntity
  8
0
  6
Continuous
 62
     7
370
     0
100
AcDbLine
 10
-15.7401107267633
 20
-497.566687221507
 30
0.0
 11
-15.4128531846826
 21
-498.221252158249
 31
0.0
  0
LINE
  5
FEA4
330
1F
100
AcDbEntity
  8
0
  6
Continuous
 62
     7
370
     0
100
AcDbLine
 10
-4.481383858941057
 20
-561.5414565234257
 30
0.0
 11
-4.481383858941057
 21
-492.0395527131852
 31
0.0
  0
LINE
  5
FEA5
330
1F
100
AcDbEntity
  8
0
  6
Continuous
 62
     7
370
     0
100
AcDbLine
 10
-74.88138385876334
 20
-487.7512257374089
 30
0.0
 11
-11.08138385932068
 21
-487.7512257374089
 31
0.0
  0
LINE
  5
FEA6
330
1F
100
AcDbEntity
  8
0
  6
Continuous
 62
     7
370
     0
100
AcDbLine
 10
-74.88138385876334
 20
-487.7250398156868
 30
0.0
 11
-11.08138385932068
 21
-487.7250398156868
 31
0.0
  0
LINE
  5
FEA7
330
1F
100
AcDbEntity
  8
0
  6
Continuous
 62
     7
370
     0
100
AcDbLine
 10
-10.73043195264199
 20
-485.7905046194871
 30
0.0
 11
-75.23233576544203
 21
-485.7905046194871
 31
0.0
  0
LINE
  5
FEA8
330
1F
100
AcDbEntity
  8
0
  6
Continuous
 62
     7
370
     0
100
AcDbLine
 10
-9.731231550742791
 20
-505.0405046182685
 30
0.0
 11
-10.04976222686275
 21
-504.7219739446868
 31
0.0
  0
LINE
  5
FEA9
330
1F
100
AcDbEntity
  8
0
  6
Continuous
 62
     7
370
     0
100
AcDbLine
 10
-14.74022495412305
 20
-496.5666872174472
 30
0.0
 11
-14.41296741204235
 21
-497.221252151648
 31
0.0
  0
LINE
  5
FEAA
330
1F
100
AcDbEntity
  8
0
  6
Continuous
 62
     7
370
     0
100
AcDbLine
 10
-7.441990762202976
 20
-496.5666872174472
 30
0.0
 11
-7.415804840480859
 21
-496.584142280325
 31
0.0
  0
LINE
  5
FEAB
330
1F
100
AcDbEntity
  8
0
  6
Continuous
 62
     7
370
     0
100
AcDbLine
 10
-5.731383858301114
 20
-501.0406569258297
 30
0.0
 11
-6.049914534421077
 21
-500.7221262522481
 31
0.0
  0
LINE
  5
FEAC
330
1F
100
AcDbEntity
  8
0
  6
Continuous
 62
     7
370
     0
100
AcDbLine
 10
-6.442104976862879
 20
-495.5669918076477
 30
0.0
 11
-6.415919055140761
 21
-495.5844468730666
 31
0.0
  0
LINE
  5
FEAD
330
1F
100
AcDbEntity
  8
0
  6
Continuous
 62
     7
370
     0
100
AcDbLine
 10
-141.981383859743
 20
-567.7905046196648
 30
0.0
 11
-101.4813838591429
 21
-567.083574489207
 31
0.0
  0
LINE
  5
FEAE
330
1F
100
AcDbEntity
  8
0
  6
Continuous
 62
     7
370
     0
100
AcDbLine
 10
-141.981383859743
 20
-565.8559694234651
 30
0.0
 11
-142.9813838612646
 21
-565.8297835017489
 31
0.0
  0
LINE
  5
FEAF
330
1F
100
AcDbEntity
  8
0
  6
Continuous
 62
     7
370
     0
100
AcDbLine
 10
-141.981383859743
 20
-561.5414565234257
 30
0.0
 11
-101.4813838591429
 21
-560.8345263955088
 31
0.0
  0
LINE
  5
FEB0
330
1F
100
AcDbEntity
  8
0
  6
Continuous
 62
     7
370
     0
100
AcDbLine
 10
-141.981383859743
 20
-561.1905046192852
 30
0.0
 11
-142.9813838612646
 21
-561.1905046192852
 31
0.0
  0
LINE
  5
FEB1
330
1F
100
AcDbEntity
  8
0
  6
Continuous
 62
     7
370
     0
100
AcDbLine
 10
-101.4813838591429
 20
-557.7905046197075
 30
0.0
 11
-100.4813838601654
 21
-557.7905046197075
 31
0.0
  0
LINE
  5
FEB2
330
1F
100
AcDbEntity
  8
0
  6
Continuous
 62
     7
370
     0
100
AcDbLine
 10
-101.4813838591429
 20
-556.7905046181889
 30
0.0
 11
-100.4813838601654
 21
-556.7905046181889
 31
0.0
  0
LINE
  5
FEB3
330
1F
100
AcDbEntity
  8
0
  6
Continuous
 62
     7
370
     0
100
AcDbLine
 10
-101.4813838591429
 20
-548.7905046187278
 30
0.0
 11
-100.4813838601654
 21
-548.7905046187278
 31
0.0
  0
LINE
  5
FEB4
330
1F
100
AcDbEntity
  8
0
  6
Continuous
 62
     7
370
     0
100
AcDbLine
 10
-101.4813838591429
 20
-547.7905046197445
 30
0.0
 11
-100.4813838601654
 21
-547.7905046197445
 31
0.0
  0
LINE
  5
FEB5
330
1F
100
AcDbEntity
  8
06___PRT_ALL_SURFS
  6
Continuous
 62
     7
370
     0
100
AcDbLine
 10
-101.4813838591429
 20
-547.0405046186055
 30
0.0
 11
-100.4813838601654
 21
-547.0405046186055
 31
0.0
  0
LINE
  5
FEB6
330
1F
100
AcDbEntity
  8
06___PRT_ALL_SURFS
  6
Continuous
 62
     7
370
     0
100
AcDbLine
 10
-101.4813838591429
 20
-545.0405046181092
 30
0.0
 11
-100.4813838601654
 21
-545.0405046181092
 31
0.0
  0
LINE
  5
FEB7
330
1F
100
AcDbEntity
  8
0
  6
Continuous
 62
     7
370
     0
100
AcDbLine
 10
-142.9813838612646
 20
-565.8297835017489
 30
0.0
 11
-142.9813838612646
 21
-487.7512257374089
 31
0.0
  0
LINE
  5
FEB8
330
1F
100
AcDbEntity
  8
0
  6
Continuous
 62
     7
370
     0
100
AcDbLine
 10
-141.981383859743
 20
-567.7905046196648
 30
0.0
 11
-141.981383859743
 21
-485.7905046194871
 31
0.0
  0
LINE
  5
FEB9
330
1F
100
AcDbEntity
  8
0
  6
Continuous
 62
     7
370
     0
100
AcDbLine
 10
-101.4813838591429
 20
-531.7905046182869
 30
0.0
 11
-101.2313838613044
 21
-531.7905046182869
 31
0.0
  0
LINE
  5
FEBA
330
1F
100
AcDbEntity
  8
0
  6
Continuous
 62
     7
370
     0
100
AcDbLine
 10
-101.4813838591429
 20
-531.4405046197872
 30
0.0
 11
-101.2313838613044
 21
-531.4405046197872
 31
0.0
  0
LINE
  5
FEBB
330
1F
100
AcDbEntity
  8
0
  6
Continuous
 62
     7
370
     0
100
AcDbLine
 10
-101.4813838591429
 20
-522.1405046193648
 30
0.0
 11
-101.2313838613044
 21
-522.1405046193648
 31
0.0
  0
LINE
  5
FEBC
330
1F
100
AcDbEntity
  8
0
  6
Continuous
 62
     7
370
     0
100
AcDbLine
 10
-101.4813838591429
 20
-521.7905046183297
 30
0.0
 11
-101.2313838613044
 21
-521.7905046183297
 31
0.0
  0
LINE
  5
FEBD
330
1F
100
AcDbEntity
  8
0
  6
Continuous
 62
     7
370
     0
100
AcDbLine
 10
-141.981383859743
 20
-509.0397431602864
 30
0.0
 11
-142.9813838612646
 21
-509.0484700287854
 31
0.0
  0
LINE
  5
FEBE
330
1F
100
AcDbEntity
  8
0
  6
Continuous
 62
     7
370
     0
100
AcDbLine
 10
-101.4813838591429
 20
-508.5405046185074
 30
0.0
 11
-100.4813838601654
 21
-508.5405046185074
 31
0.0
  0
LINE
  5
FEBF
330
1F
100
AcDbEntity
  8
0
  6
Continuous
 62
     7
370
     0
100
AcDbLine
 10
-101.4813838591429
 20
-506.5405046180054
 30
0.0
 11
-100.4813838601654
 21
-506.5405046180054
 31
0.0
  0
LINE
  5
FEC0
330
1F
100
AcDbEntity
  8
0
  6
Continuous
 62
     7
370
     0
100
AcDbLine
 10
-141.981383859743
 20
-505.0405046182685
 30
0.0
 11
-142.9813838612646
 21
-505.0492314867675
 31
0.0
  0
LINE
  5
FEC1
330
1F
100
AcDbEntity
  8
0
  6
Continuous
 62
     7
370
     0
100
AcDbLine
 10
-101.4813838591429
 20
-505.7905046194075
 30
0.0
 11
-100.4813838601654
 21
-505.7905046194075
 31
0.0
  0
LINE
  5
FEC2
330
1F
100
AcDbEntity
  8
0
  6
Continuous
 62
     7
370
     0
100
AcDbLine
 10
-101.4813838591429
 20
-504.7905046178888
 30
0.0
 11
-100.4813838601654
 21
-504.7905046178888
 31
0.0
  0
LINE
  5
FEC3
330
1F
100
AcDbEntity
  8
0
  6
Continuous
 62
     7
370
     0
100
AcDbLine
 10
-142.9813838612646
 20
-501.0493837943287
 30
0.0
 11
-141.981383859743
 21
-501.0406569258297
 31
0.0
  0
LINE
  5
FEC4
330
1F
100
AcDbEntity
  8
0
  6
Continuous
 62
     7
370
     0
100
AcDbLine
 10
-101.4813838591429
 20
-567.083574489207
 30
0.0
 11
-101.4813838591429
 21
-486.4974347474097
 31
0.0
  0
LINE
  5
FEC5
330
1F
100
AcDbEntity
  8
0
  6
Continuous
 62
     7
370
     0
100
AcDbLine
 10
-101.2313838613044
 20
-521.7905046183297
 30
0.0
 11
-101.2313838613044
 21
-531.7905046182869
 31
0.0
  0
LINE
  5
FEC6
330
1F
100
AcDbEntity
  8
0
  6
Continuous
 62
     7
370
     0
100
AcDbLine
 10
-100.4813838601654
 20
-495.7905046194444
 30
0.0
 11
-100.4813838601654
 21
-505.7905046194075
 31
0.0
  0
LINE
  5
FEC7
330
1F
100
AcDbEntity
  8
0
  6
Continuous
 62
     7
370
     0
100
AcDbLine
 10
-100.4813838601654
 20
-506.5405046180054
 30
0.0
 11
-100.4813838601654
 21
-508.5405046185074
 31
0.0
  0
LINE
  5
FEC8
330
1F
100
AcDbEntity
  8
06___PRT_ALL_SURFS
  6
Continuous
 62
     7
370
     0
100
AcDbLine
 10
-100.4813838601654
 20
-545.0405046181092
 30
0.0
 11
-100.4813838601654
 21
-547.0405046186055
 31
0.0
  0
LINE
  5
FEC9
330
1F
100
AcDbEntity
  8
0
  6
Continuous
 62
     7
370
     0
100
AcDbLine
 10
-100.4813838601654
 20
-547.7905046197445
 30
0.0
 11
-100.4813838601654
 21
-557.7905046197075
 31
0.0
  0
LINE
  5
FECA
330
1F
100
AcDbEntity
  8
0
  6
Continuous
 62
     7
370
     0
100
AcDbLine
 10
-101.4813838591429
 20
-496.7905046184277
 30
0.0
 11
-100.4813838601654
 21
-496.7905046184277
 31
0.0
  0
LINE
  5
FECB
330
1F
100
AcDbEntity
  8
0
  6
Continuous
 62
     7
370
     0
100
AcDbLine
 10
-142.9813838612646
 20
-497.566687221507
 30
0.0
 11
-141.981383859743
 21
-497.584142286926
 31
0.0
  0
LINE
  5
FECC
330
1F
100
AcDbEntity
  8
0
  6
Continuous
 62
     7
370
     0
100
AcDbLine
 10
-142.9813838612646
 20
-496.5666872174472
 30
0.0
 11
-141.981383859743
 21
-496.584142280325
 31
0.0
  0
LINE
  5
FECD
330
1F
100
AcDbEntity
  8
0
  6
Continuous
 62
     7
370
     0
100
AcDbLine
 10
-101.4813838591429
 20
-495.7905046194444
 30
0.0
 11
-100.4813838601654
 21
-495.7905046194444
 31
0.0
  0
LINE
  5
FECE
330
1F
100
AcDbEntity
  8
0
  6
Continuous
 62
     7
370
     0
100
AcDbLine
 10
-142.9813838612646
 20
-495.5669918076477
 30
0.0
 11
-141.981383859743
 21
-495.5844468730666
 31
0.0
  0
LINE
  5
FECF
330
1F
100
AcDbEntity
  8
0
  6
Continuous
 62
     7
370
     0
100
AcDbLine
 10
-141.981383859743
 20
-492.3905046198668
 30
0.0
 11
-142.9813838612646
 21
-492.3905046198668
 31
0.0
  0
LINE
  5
FED0
330
1F
100
AcDbEntity
  8
0
  6
Continuous
 62
     7
370
     0
100
AcDbLine
 10
-141.981383859743
 20
-492.0395527131852
 30
0.0
 11
-101.4813838591429
 21
-492.7464828436488
 31
0.0
  0
LINE
  5
FED1
330
1F
100
AcDbEntity
  8
0
  6
Continuous
 62
     7
370
     0
100
AcDbLine
 10
-141.981383859743
 20
-487.7250398156868
 30
0.0
 11
-142.9813838612646
 21
-487.7512257374089
 31
0.0
  0
LINE
  5
FED2
330
1F
100
AcDbEntity
  8
0
  6
Continuous
 62
     7
370
     0
100
AcDbLine
 10
-141.981383859743
 20
-485.7905046194871
 30
0.0
 11
-101.4813838591429
 21
-486.4974347474097
 31
0.0
  0
LINE
  5
FED3
330
1F
100
AcDbEntity
  8
06___PRT_ALL_SURFS
  6
Continuous
 62
     7
370
     0
100
AcDbLine
 10
-81.48138385914297
 20
-425.2905046188872
 30
0.0
 11
-80.77445372868215
 21
-465.7905046194872
 31
0.0
  0
LINE
  5
FED4
330
1F
100
AcDbEntity
  8
06___PRT_ALL_SURFS
  6
Continuous
 62
     7
370
     0
100
AcDbLine
 10
-79.73138385902064
 20
-465.7905046194872
 30
0.0
 11
-79.73138385902064
 21
-466.7905046184706
 31
0.0
  0
LINE
  5
FED5
330
1F
100
AcDbEntity
  8
06___PRT_ALL_SURFS
  6
Continuous
 62
     7
370
     0
100
AcDbLine
 10
-78.73138386004313
 20
-465.7905046194872
 30
0.0
 11
-78.73138386004313
 21
-466.7905046184706
 31
0.0
  0
LINE
  5
FED6
330
1F
100
AcDbEntity
  8
06___PRT_ALL_SURFS
  6
Continuous
 62
     7
370
     0
100
AcDbLine
 10
-79.54684866294326
 20
-425.2905046188872
 30
0.0
 11
-79.52066274122126
 21
-424.2905046199097
 31
0.0
  0
LINE
  5
FED7
330
1F
100
AcDbEntity
  8
06___PRT_ALL_SURFS
  6
Continuous
 62
     7
370
     0
100
AcDbLine
 10
-75.23233576544203
 20
-425.2905046188872
 30
0.0
 11
-74.52540563498121
 21
-465.7905046194872
 31
0.0
  0
LINE
  5
FED8
330
1F
100
AcDbEntity
  8
06___PRT_ALL_SURFS
  6
Continuous
 62
     7
370
     0
100
AcDbLine
 10
-74.88138385876334
 20
-425.2905046188872
 30
0.0
 11
-74.88138385876334
 21
-424.2905046199097
 31
0.0
  0
LINE
  5
FED9
330
1F
100
AcDbEntity
  8
06___PRT_ALL_SURFS
  6
Continuous
 62
     7
370
     0
100
AcDbLine
 10
-71.73138385956247
 20
-465.7905046194872
 30
0.0
 11
-71.73138385956247
 21
-466.7905046184706
 31
0.0
  0
LINE
  5
FEDA
330
1F
100
AcDbEntity
  8
0
  6
Continuous
 62
     7
370
     0
100
AcDbLine
 10
-6.231383859060542
 20
-466.7905046184706
 30
0.0
 11
-15.23138386004314
 21
-466.7905046184706
 31
0.0
  0
LINE
  5
FEDB
330
1F
100
AcDbEntity
  8
0
  6
Continuous
 62
     7
370
     0
100
AcDbLine
 10
-15.73138385826132
 20
-466.7905046184706
 30
0.0
 11
-17.73138385876336
 21
-466.7905046184706
 31
0.0
  0
LINE
  5
FEDC
330
1F
100
AcDbEntity
  8
06___PRT_ALL_SURFS
  6
Continuous
 62
     7
370
     0
100
AcDbLine
 10
-68.23138385932066
 20
-466.7905046184706
 30
0.0
 11
-70.2313838598227
 21
-466.7905046184706
 31
0.0
  0
LINE
  5
FEDD
330
1F
100
AcDbEntity
  8
06___PRT_ALL_SURFS
  6
Continuous
 62
     7
370
     0
100
AcDbLine
 10
-70.73138385804089
 20
-466.7905046184706
 30
0.0
 11
-79.73138385902064
 21
-466.7905046184706
 31
0.0
  0
LINE
  5
FEDE
330
1F
100
AcDbEntity
  8
06___PRT_ALL_SURFS
  6
Continuous
 62
     7
370
     0
100
AcDbLine
 10
-70.73138385804089
 20
-465.7905046194872
 30
0.0
 11
-70.73138385804089
 21
-466.7905046184706
 31
0.0
  0
LINE
  5
FEDF
330
1F
100
AcDbEntity
  8
0
  6
Continuous
 62
     7
370
     0
100
AcDbLine
 10
-70.58138385832251
 20
-465.7905046194872
 30
0.0
 11
-70.58138385832251
 21
-466.0405046198669
 31
0.0
  0
LINE
  5
FEE0
330
1F
100
AcDbEntity
  8
06___PRT_ALL_SURFS
  6
Continuous
 62
     7
370
     0
100
AcDbLine
 10
-70.2313838598227
 20
-465.7905046194872
 30
0.0
 11
-70.2313838598227
 21
-466.7905046184706
 31
0.0
  0
LINE
  5
FEE1
330
1F
100
AcDbEntity
  8
06___PRT_ALL_SURFS
  6
Continuous
 62
     7
370
     0
100
AcDbLine
 10
-68.23138385932066
 20
-465.7905046194872
 30
0.0
 11
-68.23138385932066
 21
-466.7905046184706
 31
0.0
  0
LINE
  5
FEE2
330
1F
100
AcDbEntity
  8
0
  6
Continuous
 62
     7
370
     0
100
AcDbLine
 10
-10.38138385978288
 20
-466.0405046198669
 30
0.0
 11
-15.73138385826132
 21
-466.0405046198669
 31
0.0
  0
LINE
  5
FEE3
330
1F
100
AcDbEntity
  8
0
  6
Continuous
 62
     7
370
     0
100
AcDbLine
 10
-37.98138385906054
 20
-466.0405046198669
 30
0.0
 11
-47.98138385902063
 21
-466.0405046198669
 31
0.0
  0
LINE
  5
FEE4
330
1F
100
AcDbEntity
  8
0
  6
Continuous
 62
     7
370
     0
100
AcDbLine
 10
-70.2313838598227
 20
-466.0405046198669
 30
0.0
 11
-70.73138385804089
 21
-466.0405046198669
 31
0.0
  0
LINE
  5
FEE5
330
1F
100
AcDbEntity
  8
0
  6
Continuous
 62
     7
370
     0
100
AcDbLine
 10
-5.188313989401876
 20
-465.7905046194872
 30
0.0
 11
-74.52540563498121
 21
-465.7905046194872
 31
0.0
  0
LINE
  5
FEE6
330
1F
100
AcDbEntity
  8
06___PRT_ALL_SURFS
  6
Continuous
 62
     7
370
     0
100
AcDbLine
 10
-74.52540563498121
 20
-465.7905046194872
 30
0.0
 11
-80.77445372868215
 21
-465.7905046194872
 31
0.0
  0
LINE
  5
FEE7
330
1F
100
AcDbEntity
  8
0
  6
Continuous
 62
     7
370
     0
100
AcDbLine
 10
-47.98138385902063
 20
-465.7905046194872
 30
0.0
 11
-47.98138385902063
 21
-466.0405046198669
 31
0.0
  0
LINE
  5
FEE8
330
1F
100
AcDbEntity
  8
0
  6
Continuous
 62
     7
370
     0
100
AcDbLine
 10
-47.63138385798265
 20
-465.7905046194872
 30
0.0
 11
-47.63138385798265
 21
-466.0405046198669
 31
0.0
  0
LINE
  5
FEE9
330
1F
100
AcDbEntity
  8
0
  6
Continuous
 62
     7
370
     0
100
AcDbLine
 10
-38.33138386010137
 20
-465.7905046194872
 30
0.0
 11
-38.33138386010137
 21
-466.0405046198669
 31
0.0
  0
LINE
  5
FEEA
330
1F
100
AcDbEntity
  8
0
  6
Continuous
 62
     7
370
     0
100
AcDbLine
 10
-37.98138385906054
 20
-465.7905046194872
 30
0.0
 11
-37.98138385906054
 21
-466.0405046198669
 31
0.0
  0
LINE
  5
FEEB
330
1F
100
AcDbEntity
  8
06___PRT_ALL_SURFS
  6
Continuous
 62
     7
370
     0
100
AcDbLine
 10
-75.23233576544203
 20
-425.2905046188872
 30
0.0
 11
-81.48138385914297
 21
-425.2905046188872
 31
0.0
  0
LINE
  5
FEEC
330
1F
100
AcDbEntity
  8
0
  6
Continuous
 62
     7
370
     0
100
AcDbLine
 10
-75.23233576544203
 20
-425.2905046188872
 30
0.0
 11
-4.481383858941057
 21
-425.2905046188872
 31
0.0
  0
LINE
  5
FEED
330
1F
100
AcDbEntity
  8
06___PRT_ALL_SURFS
  6
Continuous
 62
     7
370
     0
100
AcDbLine
 10
-79.52066274122126
 20
-424.2905046199097
 30
0.0
 11
-74.88138385876334
 21
-424.2905046199097
 31
0.0
  0
LINE
  5
FEEE
330
1F
100
AcDbEntity
  8
0
  6
Continuous
 62
     7
370
     0
100
AcDbLine
 10
-74.88138385876334
 20
-424.2905046199097
 30
0.0
 11
-6.442104976862879
 21
-424.2905046199097
 31
0.0
  0
LINE
  5
FEEF
330
1F
100
AcDbEntity
  8
0
  6
Continuous
 62
     7
370
     0
100
AcDbLine
 10
-17.73138385876336
 20
-465.7905046194872
 30
0.0
 11
-17.73138385876336
 21
-466.7905046184706
 31
0.0
  0
LINE
  5
FEF0
330
1F
100
AcDbEntity
  8
0
  6
Continuous
 62
     7
370
     0
100
AcDbLine
 10
-15.73138385826132
 20
-465.7905046194872
 30
0.0
 11
-15.73138385826132
 21
-466.7905046184706
 31
0.0
  0
LINE
  5
FEF1
330
1F
100
AcDbEntity
  8
0
  6
Continuous
 62
     7
370
     0
100
AcDbLine
 10
-15.38138385976151
 20
-465.7905046194872
 30
0.0
 11
-15.38138385976151
 21
-466.0405046198669
 31
0.0
  0
LINE
  5
FEF2
330
1F
100
AcDbEntity
  8
0
  6
Continuous
 62
     7
370
     0
100
AcDbLine
 10
-15.23138386004314
 20
-466.0405046198669
 30
0.0
 11
-15.23138386004314
 21
-466.7905046184706
 31
0.0
  0
LINE
  5
FEF3
330
1F
100
AcDbEntity
  8
0
  6
Continuous
 62
     7
370
     0
100
AcDbLine
 10
-14.23138385852155
 20
-466.0405046198669
 30
0.0
 11
-14.23138385852155
 21
-466.7905046184706
 31
0.0
  0
LINE
  5
FEF4
330
1F
100
AcDbEntity
  8
0
  6
Continuous
 62
     7
370
     0
100
AcDbLine
 10
-11.08138385932068
 20
-465.7905046194872
 30
0.0
 11
-11.08138385932068
 21
-466.0405046198669
 31
0.0
  0
LINE
  5
FEF5
330
1F
100
AcDbEntity
  8
0
  6
Continuous
 62
     7
370
     0
100
AcDbLine
 10
-11.08138385932068
 20
-425.2905046188872
 30
0.0
 11
-11.08138385932068
 21
-424.2905046199097
 31
0.0
  0
LINE
  5
FEF6
330
1F
100
AcDbEntity
  8
0
  6
Continuous
 62
     7
370
     0
100
AcDbLine
 10
-10.73043195264199
 20
-425.2905046188872
 30
0.0
 11
-11.43736208310281
 21
-465.7905046194872
 31
0.0
  0
LINE
  5
FEF7
330
1F
100
AcDbEntity
  8
0
  6
Continuous
 62
     7
370
     0
100
AcDbLine
 10
-10.38138385978288
 20
-465.7905046194872
 30
0.0
 11
-10.38138385978288
 21
-466.0405046198669
 31
0.0
  0
LINE
  5
FEF8
330
1F
100
AcDbEntity
  8
0
  6
Continuous
 62
     7
370
     0
100
AcDbLine
 10
-6.415919055140761
 20
-425.2905046188872
 30
0.0
 11
-6.442104976862879
 21
-424.2905046199097
 31
0.0
  0
LINE
  5
FEF9
330
1F
100
AcDbEntity
  8
0
  6
Continuous
 62
     7
370
     0
100
AcDbLine
 10
-7.231383858040885
 20
-465.7905046194872
 30
0.0
 11
-7.231383858040885
 21
-466.7905046184706
 31
0.0
  0
LINE
  5
FEFA
330
1F
100
AcDbEntity
  8
0
  6
Continuous
 62
     7
370
     0
100
AcDbLine
 10
-6.231383859060542
 20
-465.7905046194872
 30
0.0
 11
-6.231383859060542
 21
-466.7905046184706
 31
0.0
  0
LINE
  5
FEFB
330
1F
100
AcDbEntity
  8
0
  6
Continuous
 62
     7
370
     0
100
AcDbLine
 10
-4.481383858941057
 20
-425.2905046188872
 30
0.0
 11
-5.188313989401876
 21
-465.7905046194872
 31
0.0
  0
LINE
  5
FEFC
330
1F
100
AcDbEntity
  8
06___PRT_ALL_SURFS
  6
Continuous
 62
     7
370
     0
100
AcDbLine
 10
56.0186161391207
 20
-567.7905046196648
 30
0.0
 11
15.51861614105894
 21
-567.083574489207
 31
0.0
  0
LINE
  5
FEFD
330
1F
100
AcDbEntity
  8
06___PRT_ALL_SURFS
  6
Continuous
 62
     7
370
     0
100
AcDbLine
 10
56.0186161391207
 20
-565.8559694234651
 30
0.0
 11
57.01861614063943
 21
-565.8297835017489
 31
0.0
  0
LINE
  5
FEFE
330
1F
100
AcDbEntity
  8
06___PRT_ALL_SURFS
  6
Continuous
 62
     7
370
     0
100
AcDbLine
 10
56.0186161391207
 20
-561.1905046192852
 30
0.0
 11
57.01861614063943
 21
-561.1905046192852
 31
0.0
  0
LINE
  5
FEFF
330
1F
100
AcDbEntity
  8
06___PRT_ALL_SURFS
  6
Continuous
 62
     7
370
     0
100
AcDbLine
 10
56.0186161391207
 20
-561.5414565234257
 30
0.0
 11
15.51861614105894
 21
-560.8345263955088
 31
0.0
  0
LINE
  5
FF00
330
1F
100
AcDbEntity
  8
06___PRT_ALL_SURFS
  6
Continuous
 62
     7
370
     0
100
AcDbLine
 10
15.51861614105894
 20
-557.7905046197075
 30
0.0
 11
14.5186161395402
 21
-557.7905046197075
 31
0.0
  0
LINE
  5
FF01
330
1F
100
AcDbEntity
  8
06___PRT_ALL_SURFS
  6
Continuous
 62
     7
370
     0
100
AcDbLine
 10
15.51861614105894
 20
-556.7905046181889
 30
0.0
 11
14.5186161395402
 21
-556.7905046181889
 31
0.0
  0
LINE
  5
FF02
330
1F
100
AcDbEntity
  8
06___PRT_ALL_SURFS
  6
Continuous
 62
     7
370
     0
100
AcDbLine
 10
57.01861614063943
 20
-558.014017428969
 30
0.0
 11
56.0186161391207
 21
-557.99656236355
 31
0.0
  0
LINE
  5
FF03
330
1F
100
AcDbEntity
  8
06___PRT_ALL_SURFS
  6
Continuous
 62
     7
370
     0
100
AcDbLine
 10
57.01861614063943
 20
-557.0143220217048
 30
0.0
 11
56.0186161391207
 21
-556.9968669562857
 31
0.0
  0
LINE
  5
FF04
330
1F
100
AcDbEntity
  8
06___PRT_ALL_SURFS
  6
Continuous
 62
     7
370
     0
100
AcDbLine
 10
14.5186161395402
 20
-557.7905046197075
 30
0.0
 11
14.5186161395402
 21
-547.7905046197445
 31
0.0
  0
LINE
  5
FF05
330
1F
100
AcDbEntity
  8
06___PRT_ALL_SURFS
  6
Continuous
 62
     7
370
     0
100
AcDbLine
 10
14.5186161395402
 20
-547.0405046186055
 30
0.0
 11
14.5186161395402
 21
-545.0405046181092
 31
0.0
  0
LINE
  5
FF06
330
1F
100
AcDbEntity
  8
0
  6
Continuous
 62
     7
370
     0
100
AcDbLine
 10
14.5186161395402
 20
-508.5405046185074
 30
0.0
 11
14.5186161395402
 21
-506.5405046180054
 31
0.0
  0
LINE
  5
FF07
330
1F
100
AcDbEntity
  8
06___PRT_ALL_SURFS
  6
Continuous
 62
     7
370
     0
100
AcDbLine
 10
14.5186161395402
 20
-505.7905046194075
 30
0.0
 11
14.5186161395402
 21
-495.7905046194444
 31
0.0
  0
LINE
  5
FF08
330
1F
100
AcDbEntity
  8
0
  6
Continuous
 62
     7
370
     0
100
AcDbLine
 10
15.26861614067923
 20
-531.7905046182869
 30
0.0
 11
15.26861614067923
 21
-521.7905046183297
 31
0.0
  0
LINE
  5
FF09
330
1F
100
AcDbEntity
  8
06___PRT_ALL_SURFS
  6
Continuous
 62
     7
370
     0
100
AcDbLine
 10
15.51861614105894
 20
-567.083574489207
 30
0.0
 11
15.51861614105894
 21
-486.4974347474097
 31
0.0
  0
LINE
  5
FF0A
330
1F
100
AcDbEntity
  8
0
  6
Continuous
 62
     7
370
     0
100
AcDbLine
 10
57.01861614063943
 20
-556.0143220151096
 30
0.0
 11
56.0186161391207
 21
-555.9968669496848
 31
0.0
  0
LINE
  5
FF0B
330
1F
100
AcDbEntity
  8
0
  6
Continuous
 62
     7
370
     0
100
AcDbLine
 10
57.01861614063943
 20
-552.5316254422879
 30
0.0
 11
56.0186161391207
 21
-552.5403523107869
 31
0.0
  0
LINE
  5
FF0C
330
1F
100
AcDbEntity
  8
06___PRT_ALL_SURFS
  6
Continuous
 62
     7
370
     0
100
AcDbLine
 10
56.0186161391207
 20
-548.5405046183481
 30
0.0
 11
57.01861614063943
 21
-548.5317777523845
 31
0.0
  0
LINE
  5
FF0D
330
1F
100
AcDbEntity
  8
0
  6
Continuous
 62
     7
370
     0
100
AcDbLine
 10
56.0186161391207
 20
-548.5405046183481
 30
0.0
 11
57.01861614063943
 21
-548.5317777523845
 31
0.0
  0
LINE
  5
FF0E
330
1F
100
AcDbEntity
  8
06___PRT_ALL_SURFS
  6
Continuous
 62
     7
370
     0
100
AcDbLine
 10
15.51861614105894
 20
-548.7905046187278
 30
0.0
 11
14.5186161395402
 21
-548.7905046187278
 31
0.0
  0
LINE
  5
FF0F
330
1F
100
AcDbEntity
  8
06___PRT_ALL_SURFS
  6
Continuous
 62
     7
370
     0
100
AcDbLine
 10
15.51861614105894
 20
-547.7905046197445
 30
0.0
 11
14.5186161395402
 21
-547.7905046197445
 31
0.0
  0
LINE
  5
FF10
330
1F
100
AcDbEntity
  8
06___PRT_ALL_SURFS
  6
Continuous
 62
     7
370
     0
100
AcDbLine
 10
15.51861614105894
 20
-547.0405046186055
 30
0.0
 11
14.5186161395402
 21
-547.0405046186055
 31
0.0
  0
LINE
  5
FF11
330
1F
100
AcDbEntity
  8
0
  6
Continuous
 62
     7
370
     0
100
AcDbLine
 10
56.0186161391207
 20
-544.5412660763245
 30
0.0
 11
57.01861614063943
 21
-544.5325392078254
 31
0.0
  0
LINE
  5
FF12
330
1F
100
AcDbEntity
  8
06___PRT_ALL_SURFS
  6
Continuous
 62
     7
370
     0
100
AcDbLine
 10
15.51861614105894
 20
-545.0405046181092
 30
0.0
 11
14.5186161395402
 21
-545.0405046181092
 31
0.0
  0
LINE
  5
FF13
330
1F
100
AcDbEntity
  8
0
  6
Continuous
 62
     7
370
     0
100
AcDbLine
 10
15.51861614105894
 20
-531.7905046182869
 30
0.0
 11
15.26861614067923
 21
-531.7905046182869
 31
0.0
  0
LINE
  5
FF14
330
1F
100
AcDbEntity
  8
0
  6
Continuous
 62
     7
370
     0
100
AcDbLine
 10
15.51861614105894
 20
-531.4405046197872
 30
0.0
 11
15.26861614067923
 21
-531.4405046197872
 31
0.0
  0
LINE
  5
FF15
330
1F
100
AcDbEntity
  8
0
  6
Continuous
 62
     7
370
     0
100
AcDbLine
 10
15.51861614105894
 20
-522.1405046193648
 30
0.0
 11
15.26861614067923
 21
-522.1405046193648
 31
0.0
  0
LINE
  5
FF16
330
1F
100
AcDbEntity
  8
0
  6
Continuous
 62
     7
370
     0
100
AcDbLine
 10
15.51861614105894
 20
-521.7905046183297
 30
0.0
 11
15.26861614067923
 21
-521.7905046183297
 31
0.0
  0
LINE
  5
FF17
330
1F
100
AcDbEntity
  8
06___PRT_ALL_SURFS
  6
Continuous
 62
     7
370
     0
100
AcDbLine
 10
56.0186161391207
 20
-567.7905046196648
 30
0.0
 11
56.0186161391207
 21
-485.7905046194871
 31
0.0
  0
LINE
  5
FF18
330
1F
100
AcDbEntity
  8
06___PRT_ALL_SURFS
  6
Continuous
 62
     7
370
     0
100
AcDbLine
 10
57.01861614063943
 20
-487.7512257374089
 30
0.0
 11
57.01861614063943
 21
-492.3905046198668
 31
0.0
  0
LINE
  5
FF19
330
1F
100
AcDbEntity
  8
06___PRT_ALL_SURFS
  6
Continuous
 62
     7
370
     0
100
AcDbLine
 10
57.01861614063943
 20
-557.0143220217048
 30
0.0
 11
57.01861614063943
 21
-565.8297835017489
 31
0.0
  0
LINE
  5
FF1A
330
1F
100
AcDbEntity
  8
0
  6
Continuous
 62
     7
370
     0
100
AcDbLine
 10
57.01861614063943
 20
-557.0143220217048
 30
0.0
 11
57.01861614063943
 21
-492.3905046198668
 31
0.0
  0
LINE
  5
FF1B
330
1F
100
AcDbEntity
  8
0
  6
Continuous
 62
     7
370
     0
100
AcDbLine
 10
15.51861614105894
 20
-508.5405046185074
 30
0.0
 11
14.5186161395402
 21
-508.5405046185074
 31
0.0
  0
LINE
  5
FF1C
330
1F
100
AcDbEntity
  8
0
  6
Continuous
 62
     7
370
     0
100
AcDbLine
 10
15.51861614105894
 20
-506.5405046180054
 30
0.0
 11
14.5186161395402
 21
-506.5405046180054
 31
0.0
  0
LINE
  5
FF1D
330
1F
100
AcDbEntity
  8
06___PRT_ALL_SURFS
  6
Continuous
 62
     7
370
     0
100
AcDbLine
 10
15.51861614105894
 20
-505.7905046194075
 30
0.0
 11
14.5186161395402
 21
-505.7905046194075
 31
0.0
  0
LINE
  5
FF1E
330
1F
100
AcDbEntity
  8
06___PRT_ALL_SURFS
  6
Continuous
 62
     7
370
     0
100
AcDbLine
 10
15.51861614105894
 20
-504.7905046178888
 30
0.0
 11
14.5186161395402
 21
-504.7905046178888
 31
0.0
  0
LINE
  5
FF1F
330
1F
100
AcDbEntity
  8
06___PRT_ALL_SURFS
  6
Continuous
 62
     7
370
     0
100
AcDbLine
 10
15.51861614105894
 20
-496.7905046184277
 30
0.0
 11
14.5186161395402
 21
-496.7905046184277
 31
0.0
  0
LINE
  5
FF20
330
1F
100
AcDbEntity
  8
06___PRT_ALL_SURFS
  6
Continuous
 62
     7
370
     0
100
AcDbLine
 10
15.51861614105894
 20
-495.7905046194444
 30
0.0
 11
14.5186161395402
 21
-495.7905046194444
 31
0.0
  0
LINE
  5
FF21
330
1F
100
AcDbEntity
  8
06___PRT_ALL_SURFS
  6
Continuous
 62
     7
370
     0
100
AcDbLine
 10
56.0186161391207
 20
-492.0395527131852
 30
0.0
 11
15.51861614105894
 21
-492.7464828436488
 31
0.0
  0
LINE
  5
FF22
330
1F
100
AcDbEntity
  8
06___PRT_ALL_SURFS
  6
Continuous
 62
     7
370
     0
100
AcDbLine
 10
56.0186161391207
 20
-492.3905046198668
 30
0.0
 11
57.01861614063943
 21
-492.3905046198668
 31
0.0
  0
LINE
  5
FF23
330
1F
100
AcDbEntity
  8
06___PRT_ALL_SURFS
  6
Continuous
 62
     7
370
     0
100
AcDbLine
 10
56.0186161391207
 20
-487.7250398156868
 30
0.0
 11
57.01861614063943
 21
-487.7512257374089
 31
0.0
  0
LINE
  5
FF24
330
1F
100
AcDbEntity
  8
06___PRT_ALL_SURFS
  6
Continuous
 62
     7
370
     0
100
AcDbLine
 10
56.0186161391207
 20
-485.7905046194871
 30
0.0
 11
15.51861614105894
 21
-486.4974347474097
 31
0.0
  0
LINE
  5
FF25
330
1F
100
AcDbEntity
  8
06___PRT_ALL_SURFS
  6
Continuous
 62
     7
370
     0
100
AcDbLine
 10
-81.48138385914297
 20
-628.2905046177238
 30
0.0
 11
-80.77445372868215
 21
-587.7905046196649
 31
0.0
  0
LINE
  5
FF26
330
1F
100
AcDbEntity
  8
06___PRT_ALL_SURFS
  6
Continuous
 62
     7
370
     0
100
AcDbLine
 10
-79.54684866294326
 20
-628.2905046177238
 30
0.0
 11
-79.52066274122126
 21
-629.2905046192425
 31
0.0
  0
LINE
  5
FF27
330
1F
100
AcDbEntity
  8
06___PRT_ALL_SURFS
  6
Continuous
 62
     7
370
     0
100
AcDbLine
 10
-79.73138385902064
 20
-587.7905046196649
 30
0.0
 11
-79.73138385902064
 21
-586.790504618146
 31
0.0
  0
LINE
  5
FF28
330
1F
100
AcDbEntity
  8
06___PRT_ALL_SURFS
  6
Continuous
 62
     7
370
     0
100
AcDbLine
 10
-78.73138386004313
 20
-587.7905046196649
 30
0.0
 11
-78.73138386004313
 21
-586.790504618146
 31
0.0
  0
LINE
  5
FF29
330
1F
100
AcDbEntity
  8
0
  6
Continuous
 62
     7
370
     0
100
AcDbLine
 10
-75.58138385830114
 20
-587.7905046196649
 30
0.0
 11
-75.58138385830114
 21
-587.5405046192851
 31
0.0
  0
LINE
  5
FF2A
330
1F
100
AcDbEntity
  8
06___PRT_ALL_SURFS
  6
Continuous
 62
     7
370
     0
100
AcDbLine
 10
-74.88138385876334
 20
-628.2905046177238
 30
0.0
 11
-74.88138385876334
 21
-629.2905046192425
 31
0.0
  0
LINE
  5
FF2B
330
1F
100
AcDbEntity
  8
0
  6
Continuous
 62
     7
370
     0
100
AcDbLine
 10
-74.88138385876334
 20
-587.7905046196649
 30
0.0
 11
-74.88138385876334
 21
-587.5405046192851
 31
0.0
  0
LINE
  5
FF2C
330
1F
100
AcDbEntity
  8
06___PRT_ALL_SURFS
  6
Continuous
 62
     7
370
     0
100
AcDbLine
 10
-75.23233576544203
 20
-628.2905046177238
 30
0.0
 11
-74.52540563498121
 21
-587.7905046196649
 31
0.0
  0
LINE
  5
FF2D
330
1F
100
AcDbEntity
  8
06___PRT_ALL_SURFS
  6
Continuous
 62
     7
370
     0
100
AcDbLine
 10
-71.73138385956247
 20
-587.5405046192851
 30
0.0
 11
-71.73138385956247
 21
-586.790504618146
 31
0.0
  0
LINE
  5
FF2E
330
1F
100
AcDbEntity
  8
06___PRT_ALL_SURFS
  6
Continuous
 62
     7
370
     0
100
AcDbLine
 10
-70.73138385804089
 20
-587.5405046192851
 30
0.0
 11
-70.73138385804089
 21
-586.790504618146
 31
0.0
  0
LINE
  5
FF2F
330
1F
100
AcDbEntity
  8
0
  6
Continuous
 62
     7
370
     0
100
AcDbLine
 10
-70.58138385832251
 20
-587.7905046196649
 30
0.0
 11
-70.58138385832251
 21
-587.5405046192851
 31
0.0
  0
LINE
  5
FF30
330
1F
100
AcDbEntity
  8
06___PRT_ALL_SURFS
  6
Continuous
 62
     7
370
     0
100
AcDbLine
 10
-70.2313838598227
 20
-587.7905046196649
 30
0.0
 11
-70.2313838598227
 21
-586.790504618146
 31
0.0
  0
LINE
  5
FF31
330
1F
100
AcDbEntity
  8
06___PRT_ALL_SURFS
  6
Continuous
 62
     7
370
     0
100
AcDbLine
 10
-68.23138385932066
 20
-587.7905046196649
 30
0.0
 11
-68.23138385932066
 21
-586.790504618146
 31
0.0
  0
LINE
  5
FF32
330
1F
100
AcDbEntity
  8
06___PRT_ALL_SURFS
  6
Continuous
 62
     7
370
     0
100
AcDbLine
 10
-74.88138385876334
 20
-629.2905046192425
 30
0.0
 11
-79.52066274122126
 21
-629.2905046192425
 31
0.0
  0
LINE
  5
FF33
330
1F
100
AcDbEntity
  8
0
  6
Continuous
 62
     7
370
     0
100
AcDbLine
 10
-74.88138385876334
 20
-629.2905046192425
 30
0.0
 11
-6.442104976862879
 21
-629.2905046192425
 31
0.0
  0
LINE
  5
FF34
330
1F
100
AcDbEntity
  8
06___PRT_ALL_SURFS
  6
Continuous
 62
     7
370
     0
100
AcDbLine
 10
-81.48138385914297
 20
-628.2905046177238
 30
0.0
 11
-75.23233576544203
 21
-628.2905046177238
 31
0.0
  0
LINE
  5
FF35
330
1F
100
AcDbEntity
  8
0
  6
Continuous
 62
     7
370
     0
100
AcDbLine
 10
-75.23233576544203
 20
-628.2905046177238
 30
0.0
 11
-4.481383858941057
 21
-628.2905046177238
 31
0.0
  0
LINE
  5
FF36
330
1F
100
AcDbEntity
  8
0
  6
Continuous
 62
     7
370
     0
100
AcDbLine
 10
-47.98138385902063
 20
-587.7905046196649
 30
0.0
 11
-47.98138385902063
 21
-587.5405046192851
 31
0.0
  0
LINE
  5
FF37
330
1F
100
AcDbEntity
  8
0
  6
Continuous
 62
     7
370
     0
100
AcDbLine
 10
-47.63138385798265
 20
-587.7905046196649
 30
0.0
 11
-47.63138385798265
 21
-587.5405046192851
 31
0.0
  0
LINE
  5
FF38
330
1F
100
AcDbEntity
  8
0
  6
Continuous
 62
     7
370
     0
100
AcDbLine
 10
-38.33138386010137
 20
-587.7905046196649
 30
0.0
 11
-38.33138386010137
 21
-587.5405046192851
 31
0.0
  0
LINE
  5
FF39
330
1F
100
AcDbEntity
  8
0
  6
Continuous
 62
     7
370
     0
100
AcDbLine
 10
-37.98138385906054
 20
-587.7905046196649
 30
0.0
 11
-37.98138385906054
 21
-587.5405046192851
 31
0.0
  0
LINE
  5
FF3A
330
1F
100
AcDbEntity
  8
0
  6
Continuous
 62
     7
370
     0
100
AcDbLine
 10
-17.73138385876336
 20
-587.7905046196649
 30
0.0
 11
-17.73138385876336
 21
-586.790504618146
 31
0.0
  0
LINE
  5
FF3B
330
1F
100
AcDbEntity
  8
0
  6
Continuous
 62
     7
370
     0
100
AcDbLine
 10
-15.73138385826132
 20
-587.7905046196649
 30
0.0
 11
-15.73138385826132
 21
-586.790504618146
 31
0.0
  0
LINE
  5
FF3C
330
1F
100
AcDbEntity
  8
0
  6
Continuous
 62
     7
370
     0
100
AcDbLine
 10
-15.38138385976151
 20
-587.7905046196649
 30
0.0
 11
-15.38138385976151
 21
-587.5405046192851
 31
0.0
  0
LINE
  5
FF3D
330
1F
100
AcDbEntity
  8
0
  6
Continuous
 62
     7
370
     0
100
AcDbLine
 10
-15.23138386004314
 20
-587.7905046196649
 30
0.0
 11
-15.23138386004314
 21
-586.790504618146
 31
0.0
  0
LINE
  5
FF3E
330
1F
100
AcDbEntity
  8
0
  6
Continuous
 62
     7
370
     0
100
AcDbLine
 10
-14.23138385852155
 20
-587.7905046196649
 30
0.0
 11
-14.23138385852155
 21
-586.790504618146
 31
0.0
  0
LINE
  5
FF3F
330
1F
100
AcDbEntity
  8
06___PRT_ALL_SURFS
  6
Continuous
 62
     7
370
     0
100
AcDbLine
 10
-80.77445372868215
 20
-587.7905046196649
 30
0.0
 11
-74.52540563498121
 21
-587.7905046196649
 31
0.0
  0
LINE
  5
FF40
330
1F
100
AcDbEntity
  8
0
  6
Continuous
 62
     7
370
     0
100
AcDbLine
 10
-74.52540563498121
 20
-587.7905046196649
 30
0.0
 11
-5.188313989401876
 21
-587.7905046196649
 31
0.0
  0
LINE
  5
FF41
330
1F
100
AcDbEntity
  8
0
  6
Continuous
 62
     7
370
     0
100
AcDbLine
 10
-75.58138385830114
 20
-587.5405046192851
 30
0.0
 11
-70.2313838598227
 21
-587.5405046192851
 31
0.0
  0
LINE
  5
FF42
330
1F
100
AcDbEntity
  8
0
  6
Continuous
 62
     7
370
     0
100
AcDbLine
 10
-47.98138385902063
 20
-587.5405046192851
 30
0.0
 11
-37.98138385906054
 21
-587.5405046192851
 31
0.0
  0
LINE
  5
FF43
330
1F
100
AcDbEntity
  8
0
  6
Continuous
 62
     7
370
     0
100
AcDbLine
 10
-15.73138385826132
 20
-587.5405046192851
 30
0.0
 11
-15.23138386004314
 21
-587.5405046192851
 31
0.0
  0
LINE
  5
FF44
330
1F
100
AcDbEntity
  8
06___PRT_ALL_SURFS
  6
Continuous
 62
     7
370
     0
100
AcDbLine
 10
-79.73138385902064
 20
-586.790504618146
 30
0.0
 11
-70.73138385804089
 21
-586.790504618146
 31
0.0
  0
LINE
  5
FF45
330
1F
100
AcDbEntity
  8
06___PRT_ALL_SURFS
  6
Continuous
 62
     7
370
     0
100
AcDbLine
 10
-70.2313838598227
 20
-586.790504618146
 30
0.0
 11
-68.23138385932066
 21
-586.790504618146
 31
0.0
  0
LINE
  5
FF46
330
1F
100
AcDbEntity
  8
0
  6
Continuous
 62
     7
370
     0
100
AcDbLine
 10
-17.73138385876336
 20
-586.790504618146
 30
0.0
 11
-15.73138385826132
 21
-586.790504618146
 31
0.0
  0
LINE
  5
FF47
330
1F
100
AcDbEntity
  8
0
  6
Continuous
 62
     7
370
     0
100
AcDbLine
 10
-15.23138386004314
 20
-586.790504618146
 30
0.0
 11
-6.231383859060542
 21
-586.790504618146
 31
0.0
  0
LINE
  5
FF48
330
1F
100
AcDbEntity
  8
0
  6
Continuous
 62
     7
370
     0
100
AcDbLine
 10
-10.73043195264199
 20
-628.2905046177238
 30
0.0
 11
-11.43736208310281
 21
-587.7905046196649
 31
0.0
  0
LINE
  5
FF49
330
1F
100
AcDbEntity
  8
0
  6
Continuous
 62
     7
370
     0
100
AcDbLine
 10
-11.08138385932068
 20
-628.2905046177238
 30
0.0
 11
-11.08138385932068
 21
-629.2905046192425
 31
0.0
  0
LINE
  5
FF4A
330
1F
100
AcDbEntity
  8
0
  6
Continuous
 62
     7
370
     0
100
AcDbLine
 10
-4.481383858941057
 20
-628.2905046177238
 30
0.0
 11
-5.188313989401876
 21
-587.7905046196649
 31
0.0
  0
LINE
  5
FF4B
330
1F
100
AcDbEntity
  8
0
  6
Continuous
 62
     7
370
     0
100
AcDbLine
 10
-7.231383858040885
 20
-587.7905046196649
 30
0.0
 11
-7.231383858040885
 21
-586.790504618146
 31
0.0
  0
LINE
  5
FF4C
330
1F
100
AcDbEntity
  8
0
  6
Continuous
 62
     7
370
     0
100
AcDbLine
 10
-6.231383859060542
 20
-587.7905046196649
 30
0.0
 11
-6.231383859060542
 21
-586.790504618146
 31
0.0
  0
LINE
  5
FF4D
330
1F
100
AcDbEntity
  8
0
  6
Continuous
 62
     7
370
     0
100
AcDbLine
 10
-6.415919055140761
 20
-628.2905046177238
 30
0.0
 11
-6.442104976862879
 21
-629.2905046192425
 31
0.0
  0
LINE
  5
FF4E
330
1F
100
AcDbEntity
  8
0
  6
Continuous
 62
     7
370
     0
100
AcDbLine
 10
-169.2304319524244
 20
-567.7905046196648
 30
0.0
 11
-233.7323357626833
 21
-567.7905046196648
 31
0.0
  0
LINE
  5
FF4F
330
1F
100
AcDbEntity
  8
0
  6
Continuous
 62
     7
370
     0
100
AcDbLine
 10
-239.9813838589255
 20
-561.5414565234257
 30
0.0
 11
-239.9813838589255
 21
-492.0395527131852
 31
0.0
  0
LINE
  5
FF50
330
1F
100
AcDbEntity
  8
0
  6
Continuous
 62
     7
370
     0
100
AcDbLine
 10
-239.2744537284646
 20
-560.8345263955088
 30
0.0
 11
-239.2744537284646
 21
-492.7464828436488
 31
0.0
  0
LINE
  5
FF51
330
1F
100
AcDbEntity
  8
0
  6
Continuous
 62
     7
370
     0
100
AcDbLine
 10
-233.0254056347637
 20
-567.083574489207
 30
0.0
 11
-169.9373620828852
 21
-567.083574489207
 31
0.0
  0
LINE
  5
FF52
330
1F
100
AcDbEntity
  8
0
  6
Continuous
 62
     7
370
     0
100
AcDbLine
 10
-234.0813838580837
 20
-522.1405046193648
 30
0.0
 11
-234.0813838580837
 21
-531.4405046197872
 31
0.0
  0
LINE
  5
FF53
330
1F
100
AcDbEntity
  8
0
  6
Continuous
 62
     7
370
     0
100
AcDbLine
 10
-233.3813838585458
 20
-531.4405046197872
 30
0.0
 11
-233.3813838585458
 21
-527.1405046193463
 31
0.0
  0
LINE
  5
FF54
330
1F
100
AcDbEntity
  8
0
  6
Continuous
 62
     7
370
     0
100
AcDbLine
 10
-233.3813838585458
 20
-526.4405046198056
 30
0.0
 11
-233.3813838585458
 21
-522.1405046193648
 31
0.0
  0
LINE
  5
FF55
330
1F
100
AcDbEntity
  8
0
  6
Continuous
 62
     7
370
     0
100
AcDbLine
 10
-228.731383857064
 20
-496.7905046184277
 30
0.0
 11
-228.731383857064
 21
-504.7905046178888
 31
0.0
  0
LINE
  5
FF56
330
1F
100
AcDbEntity
  8
0
  6
Continuous
 62
     7
370
     0
100
AcDbLine
 10
-228.731383857064
 20
-548.7905046187278
 30
0.0
 11
-228.731383857064
 21
-556.7905046181889
 31
0.0
  0
LINE
  5
FF57
330
1F
100
AcDbEntity
  8
06___PRT_ALL_SURFS
  6
Continuous
 62
     7
370
     0
100
AcDbLine
 10
-169.9813838592041
 20
-554.8905046183481
 30
0.0
 11
-168.4813838594643
 21
-554.8905046183481
 31
0.0
  0
LINE
  5
FF58
330
1F
100
AcDbEntity
  8
0
  6
Continuous
 62
     7
370
     0
100
AcDbLine
 10
-206.1313838577651
 20
-553.1405046182258
 30
0.0
 11
-196.8313838573456
 21
-553.1405046182258
 31
0.0
  0
LINE
  5
FF59
330
1F
100
AcDbEntity
  8
0
  6
Continuous
 62
     7
370
     0
100
AcDbLine
 10
-226.731383859103
 20
-556.7905046181889
 30
0.0
 11
-226.731383859103
 21
-548.7905046187278
 31
0.0
  0
LINE
  5
FF5A
330
1F
100
AcDbEntity
  8
0
  6
Continuous
 62
     7
370
     0
100
AcDbLine
 10
-226.731383859103
 20
-504.7905046178888
 30
0.0
 11
-226.731383859103
 21
-496.7905046184277
 31
0.0
  0
LINE
  5
FF5B
330
1F
100
AcDbEntity
  8
0
  6
Continuous
 62
     7
370
     0
100
AcDbLine
 10
-196.8313838573456
 20
-552.4405046186851
 30
0.0
 11
-201.1313838577835
 21
-552.4405046186851
 31
0.0
  0
LINE
  5
FF5C
330
1F
100
AcDbEntity
  8
0
  6
Continuous
 62
     7
370
     0
100
AcDbLine
 10
-201.8313838573242
 20
-552.4405046186851
 30
0.0
 11
-206.1313838577651
 21
-552.4405046186851
 31
0.0
  0
LINE
  5
FF5D
330
1F
100
AcDbEntity
  8
06___PRT_ALL_SURFS
  6
Continuous
 62
     7
370
     0
100
AcDbLine
 10
-168.4813838594643
 20
-550.6905046185685
 30
0.0
 11
-169.9813838592041
 21
-550.6905046185685
 31
0.0
  0
LINE
  5
FF5E
330
1F
100
AcDbEntity
  8
06___PRT_ALL_SURFS
  6
Continuous
 62
     7
370
     0
100
AcDbLine
 10
-172.731383858304
 20
-547.0405046186055
 30
0.0
 11
-165.7313838578234
 21
-547.0405046186055
 31
0.0
  0
LINE
  5
FF5F
330
1F
100
AcDbEntity
  8
06___PRT_ALL_SURFS
  6
Continuous
 62
     7
370
     0
100
AcDbLine
 10
-165.7313838578234
 20
-545.0405046181092
 30
0.0
 11
-172.731383858304
 21
-545.0405046181092
 31
0.0
  0
LINE
  5
FF60
330
1F
100
AcDbEntity
  8
06___PRT_ALL_SURFS
  6
Continuous
 62
     7
370
     0
100
AcDbLine
 10
-169.2304319524244
 20
-485.7905046194871
 30
0.0
 11
-169.9373620828852
 21
-486.4974347474097
 31
0.0
  0
LINE
  5
FF61
330
1F
100
AcDbEntity
  8
06___PRT_ALL_SURFS
  6
Continuous
 62
     7
370
     0
100
AcDbLine
 10
-169.2304319524244
 20
-567.7905046196648
 30
0.0
 11
-169.9373620828852
 21
-567.083574489207
 31
0.0
  0
LINE
  5
FF62
330
1F
100
AcDbEntity
  8
0
  6
Continuous
 62
     7
370
     0
100
AcDbLine
 10
-201.8313838573242
 20
-501.1405046179257
 30
0.0
 11
-201.8313838573242
 21
-505.4405046183666
 31
0.0
  0
LINE
  5
FF63
330
1F
100
AcDbEntity
  8
0
  6
Continuous
 62
     7
370
     0
100
AcDbLine
 10
-201.8313838573242
 20
-548.14050461825
 30
0.0
 11
-201.8313838573242
 21
-552.4405046186851
 31
0.0
  0
LINE
  5
FF64
330
1F
100
AcDbEntity
  8
0
  6
Continuous
 62
     7
370
     0
100
AcDbLine
 10
-201.1313838577835
 20
-552.4405046186851
 30
0.0
 11
-201.1313838577835
 21
-548.14050461825
 31
0.0
  0
LINE
  5
FF65
330
1F
100
AcDbEntity
  8
0
  6
Continuous
 62
     7
370
     0
100
AcDbLine
 10
-201.1313838577835
 20
-505.4405046183666
 30
0.0
 11
-201.1313838577835
 21
-501.1405046179257
 31
0.0
  0
LINE
  5
FF66
330
1F
100
AcDbEntity
  8
0
  6
Continuous
 62
     7
370
     0
100
AcDbLine
 10
-239.9813838589255
 20
-561.5414565234257
 30
0.0
 11
-239.2744537284646
 21
-560.8345263955088
 31
0.0
  0
LINE
  5
FF67
330
1F
100
AcDbEntity
  8
0
  6
Continuous
 62
     7
370
     0
100
AcDbLine
 10
-233.3813838585458
 20
-527.1405046193463
 30
0.0
 11
-229.081383858105
 21
-527.1405046193463
 31
0.0
  0
LINE
  5
FF68
330
1F
100
AcDbEntity
  8
0
  6
Continuous
 62
     7
370
     0
100
AcDbLine
 10
-173.8813838570057
 20
-527.1405046193463
 30
0.0
 11
-169.5813838591032
 21
-527.1405046193463
 31
0.0
  0
LINE
  5
FF69
330
1F
100
AcDbEntity
  8
0
  6
Continuous
 62
     7
370
     0
100
AcDbLine
 10
-169.5813838591032
 20
-526.4405046198056
 30
0.0
 11
-173.8813838570057
 21
-526.4405046198056
 31
0.0
  0
LINE
  5
FF6A
330
1F
100
AcDbEntity
  8
0
  6
Continuous
 62
     7
370
     0
100
AcDbLine
 10
-229.081383858105
 20
-526.4405046198056
 30
0.0
 11
-233.3813838585458
 21
-526.4405046198056
 31
0.0
  0
LINE
  5
FF6B
330
1F
100
AcDbEntity
  8
0
  6
Continuous
 62
     7
370
     0
100
AcDbLine
 10
-239.9813838589255
 20
-492.0395527131852
 30
0.0
 11
-239.2744537284646
 21
-492.7464828436488
 31
0.0
  0
LINE
  5
FF6C
330
1F
100
AcDbEntity
  8
06___PRT_ALL_SURFS
  6
Continuous
 62
     7
370
     0
100
AcDbLine
 10
-162.9813838587234
 20
-492.0395527131852
 30
0.0
 11
-163.6883139866431
 21
-492.7464828436488
 31
0.0
  0
LINE
  5
FF6D
330
1F
100
AcDbEntity
  8
06___PRT_ALL_SURFS
  6
Continuous
 62
     7
370
     0
100
AcDbLine
 10
-162.9813838587234
 20
-561.5414565234257
 30
0.0
 11
-163.6883139866431
 21
-560.8345263955088
 31
0.0
  0
LINE
  5
FF6E
330
1F
100
AcDbEntity
  8
0
  6
Continuous
 62
     7
370
     0
100
AcDbLine
 10
-233.7323357626833
 20
-567.7905046196648
 30
0.0
 11
-233.0254056347637
 21
-567.083574489207
 31
0.0
  0
LINE
  5
FF6F
330
1F
100
AcDbEntity
  8
0
  6
Continuous
 62
     7
370
     0
100
AcDbLine
 10
-233.7323357626833
 20
-485.7905046194871
 30
0.0
 11
-233.0254056347637
 21
-486.4974347474097
 31
0.0
  0
LINE
  5
FF70
330
1F
100
AcDbEntity
  8
0
  6
Continuous
 62
     7
370
     0
100
AcDbLine
 10
-237.2313838572843
 20
-508.5405046185074
 30
0.0
 11
-230.2313838593448
 21
-508.5405046185074
 31
0.0
  0
LINE
  5
FF71
330
1F
100
AcDbEntity
  8
0
  6
Continuous
 62
     7
370
     0
100
AcDbLine
 10
-230.2313838593448
 20
-506.5405046180054
 30
0.0
 11
-237.2313838572843
 21
-506.5405046180054
 31
0.0
  0
LINE
  5
FF72
330
1F
100
AcDbEntity
  8
06___PRT_ALL_SURFS
  6
Continuous
 62
     7
370
     0
100
AcDbLine
 10
-176.2313838585457
 20
-496.7905046184277
 30
0.0
 11
-176.2313838585457
 21
-504.7905046178888
 31
0.0
  0
LINE
  5
FF73
330
1F
100
AcDbEntity
  8
06___PRT_ALL_SURFS
  6
Continuous
 62
     7
370
     0
100
AcDbLine
 10
-176.2313838585457
 20
-548.7905046187278
 30
0.0
 11
-176.2313838585457
 21
-556.7905046181889
 31
0.0
  0
LINE
  5
FF74
330
1F
100
AcDbEntity
  8
0
  6
Continuous
 62
     7
370
     0
100
AcDbLine
 10
-234.4813838581845
 20
-502.8905046180481
 30
0.0
 11
-232.9813838584448
 21
-502.8905046180481
 31
0.0
  0
LINE
  5
FF75
330
1F
100
AcDbEntity
  8
0
  6
Continuous
 62
     7
370
     0
100
AcDbLine
 10
-206.1313838577651
 20
-501.1405046179257
 30
0.0
 11
-201.8313838573242
 21
-501.1405046179257
 31
0.0
  0
LINE
  5
FF76
330
1F
100
AcDbEntity
  8
0
  6
Continuous
 62
     7
370
     0
100
AcDbLine
 10
-201.1313838577835
 20
-501.1405046179257
 30
0.0
 11
-196.8313838573456
 21
-501.1405046179257
 31
0.0
  0
LINE
  5
FF77
330
1F
100
AcDbEntity
  8
0
  6
Continuous
 62
     7
370
     0
100
AcDbLine
 10
-196.8313838573456
 20
-500.440504618385
 30
0.0
 11
-206.1313838577651
 21
-500.440504618385
 31
0.0
  0
LINE
  5
FF78
330
1F
100
AcDbEntity
  8
06___PRT_ALL_SURFS
  6
Continuous
 62
     7
370
     0
100
AcDbLine
 10
-174.2313838580437
 20
-556.7905046181889
 30
0.0
 11
-174.2313838580437
 21
-548.7905046187278
 31
0.0
  0
LINE
  5
FF79
330
1F
100
AcDbEntity
  8
06___PRT_ALL_SURFS
  6
Continuous
 62
     7
370
     0
100
AcDbLine
 10
-174.2313838580437
 20
-504.7905046178888
 30
0.0
 11
-174.2313838580437
 21
-496.7905046184277
 31
0.0
  0
LINE
  5
FF7A
330
1F
100
AcDbEntity
  8
0
  6
Continuous
 62
     7
370
     0
100
AcDbLine
 10
-232.9813838584448
 20
-498.6905046182685
 30
0.0
 11
-234.4813838581845
 21
-498.6905046182685
 31
0.0
  0
LINE
  5
FF7B
330
1F
100
AcDbEntity
  8
0
  6
Continuous
 62
     7
370
     0
100
AcDbLine
 10
-169.5813838591032
 20
-522.1405046193648
 30
0.0
 11
-169.5813838591032
 21
-526.4405046198056
 31
0.0
  0
LINE
  5
FF7C
330
1F
100
AcDbEntity
  8
0
  6
Continuous
 62
     7
370
     0
100
AcDbLine
 10
-169.5813838591032
 20
-527.1405046193463
 30
0.0
 11
-169.5813838591032
 21
-531.4405046197872
 31
0.0
  0
LINE
  5
FF7D
330
1F
100
AcDbEntity
  8
0
  6
Continuous
 62
     7
370
     0
100
AcDbLine
 10
-168.8813838570242
 20
-531.4405046197872
 30
0.0
 11
-168.8813838570242
 21
-522.1405046193648
 31
0.0
  0
LINE
  5
FF7E
330
1F
100
AcDbEntity
  8
06___PRT_ALL_SURFS
  6
Continuous
 62
     7
370
     0
100
AcDbLine
 10
-163.6883139866431
 20
-492.7464828436488
 30
0.0
 11
-163.6883139866431
 21
-560.8345263955088
 31
0.0
  0
LINE
  5
FF7F
330
1F
100
AcDbEntity
  8
06___PRT_ALL_SURFS
  6
Continuous
 62
     7
370
     0
100
AcDbLine
 10
-162.9813838587234
 20
-492.0395527131852
 30
0.0
 11
-162.9813838587234
 21
-561.5414565234257
 31
0.0
  0
LINE
  5
FF80
330
1F
100
AcDbEntity
  8
0
  6
Continuous
 62
     7
370
     0
100
AcDbLine
 10
-169.9373620828852
 20
-486.4974347474097
 30
0.0
 11
-233.0254056347637
 21
-486.4974347474097
 31
0.0
  0
LINE
  5
FF81
330
1F
100
AcDbEntity
  8
0
  6
Continuous
 62
     7
370
     0
100
AcDbLine
 10
-233.7323357626833
 20
-485.7905046194871
 30
0.0
 11
-169.2304319524244
 21
-485.7905046194871
 31
0.0
  0
ARC
  5
FF82
330
1F
100
AcDbEntity
  8
06___PRT_ALL_SURFS
  6
Continuous
 62
     7
370
     0
100
AcDbCircle
 10
-74.88138385876334
 20
-561.1905046192852
 30
0.0
 40
4.665464804179999
100
AcDbArc
 50
180.0
 51
270.0
  0
ARC
  5
FF83
330
1F
100
AcDbEntity
  8
06___PRT_ALL_SURFS
  6
Continuous
 62
     7
370
     0
100
AcDbCircle
 10
-74.88138385876334
 20
-561.1905046192852
 30
0.0
 40
4.63927888246
100
AcDbArc
 50
180.0
 51
270.0
  0
ARC
  5
FF84
330
1F
100
AcDbEntity
  8
06___PRT_ALL_SURFS
  6
Continuous
 62
     7
370
     0
100
AcDbCircle
 10
-70.9813838584206
 20
-541.7905046182501
 30
0.0
 40
4.000000001
100
AcDbArc
 50
284.9217725450028
 51
79.19307712510034
  0
ARC
  5
FF85
330
1F
100
AcDbEntity
  8
06___PRT_ALL_SURFS
  6
Continuous
 62
     7
370
     0
100
AcDbCircle
 10
-70.9813838584206
 20
-541.7905046182501
 30
0.0
 40
4.000000001
100
AcDbArc
 50
100.8069228748996
 51
227.9191989911002
  0
CIRCLE
  5
FF86
330
1F
100
AcDbEntity
  8
06___PRT_ALL_SURFS
  6
Continuous
 62
     7
370
     0
100
AcDbCircle
 10
-75.23138385980132
 20
-561.5405046177849
 30
0.0
 40
3.249999999859999
  0
ARC
  5
FF87
330
1F
100
AcDbEntity
  8
06___PRT_ALL_SURFS
  6
Continuous
 62
     7
370
     0
100
AcDbCircle
 10
-74.48138385866241
 20
-552.7905046197259
 30
0.0
 40
2.169820260299999
100
AcDbArc
 50
270.0
 51
90.0
  0
ARC
  5
FF88
330
1F
100
AcDbEntity
  8
06___PRT_ALL_SURFS
  6
Continuous
 62
     7
370
     0
100
AcDbCircle
 10
-75.98138385840207
 20
-552.7905046197259
 30
0.0
 40
2.169820260299999
100
AcDbArc
 50
90.0
 51
270.0
  0
ARC
  5
FF8B
330
1F
100
AcDbEntity
  8
06___PRT_ALL_SURFS
  6
Continuous
 62
     7
370
     0
100
AcDbCircle
 10
-75.98138385840207
 20
-552.7905046197259
 30
0.0
 40
2.100000001159999
100
AcDbArc
 50
90.0
 51
270.0
  0
ARC
  5
FF8C
330
1F
100
AcDbEntity
  8
06___PRT_ALL_SURFS
  6
Continuous
 62
     7
370
     0
100
AcDbCircle
 10
-74.48138385866241
 20
-552.7905046197259
 30
0.0
 40
2.100000001159999
100
AcDbArc
 50
270.0
 51
90.0
  0
ARC
  5
FF8F
330
1F
100
AcDbEntity
  8
06___PRT_ALL_SURFS
  6
Continuous
 62
     7
370
     0
100
AcDbCircle
 10
-74.88138385876334
 20
-492.3905046198668
 30
0.0
 40
4.665464804179999
100
AcDbArc
 50
90.0
 51
180.0
  0
ARC
  5
FF90
330
1F
100
AcDbEntity
  8
06___PRT_ALL_SURFS
  6
Continuous
 62
     7
370
     0
100
AcDbCircle
 10
-74.88138385876334
 20
-492.3905046198668
 30
0.0
 40
4.63927888246
100
AcDbArc
 50
90.0
 51
180.0
  0
ARC
  5
FF91
330
1F
100
AcDbEntity
  8
06___PRT_ALL_SURFS
  6
Continuous
 62
     7
370
     0
100
AcDbCircle
 10
-70.9813838584206
 20
-526.7905046183054
 30
0.0
 40
4.000000001
100
AcDbArc
 50
100.8069228748996
 51
259.1930771251004
  0
ARC
  5
FF92
330
1F
100
AcDbEntity
  8
06___PRT_ALL_SURFS
  6
Continuous
 62
     7
370
     0
100
AcDbCircle
 10
-70.9813838584206
 20
-526.7905046183054
 30
0.0
 40
4.000000001
100
AcDbArc
 50
280.8069228748996
 51
79.19307712510034
  0
ARC
  5
FF93
330
1F
100
AcDbEntity
  8
06___PRT_ALL_SURFS
  6
Continuous
 62
     7
370
     0
100
AcDbCircle
 10
-70.9813838584206
 20
-511.7905046183666
 30
0.0
 40
4.000000001
100
AcDbArc
 50
107.4576031236976
 51
259.1930771251004
  0
ARC
  5
FF94
330
1F
100
AcDbEntity
  8
06___PRT_ALL_SURFS
  6
Continuous
 62
     7
370
     0
100
AcDbCircle
 10
-70.9813838584206
 20
-511.7905046183666
 30
0.0
 40
4.000000001
100
AcDbArc
 50
280.8069228748996
 51
74.03798583720301
  0
ARC
  5
FF95
330
1F
100
AcDbEntity
  8
06___PRT_ALL_SURFS
  6
Continuous
 62
     7
370
     0
100
AcDbCircle
 10
-70.9813838584206
 20
-502.790504619928
 30
0.0
 40
4.000000001
100
AcDbArc
 50
285.9620141627969
 51
77.7311010039992
  0
ARC
  5
FF96
330
1F
100
AcDbEntity
  8
06___PRT_ALL_SURFS
  6
Continuous
 62
     7
370
     0
100
AcDbCircle
 10
-70.9813838584206
 20
-502.790504619928
 30
0.0
 40
4.000000001
100
AcDbArc
 50
132.2603104684051
 51
252.5423968763024
  0
CIRCLE
  5
FF97
330
1F
100
AcDbEntity
  8
06___PRT_ALL_SURFS
  6
Continuous
 62
     7
370
     0
100
AcDbCircle
 10
-61.98138385998197
 20
-502.790504619928
 30
0.0
 40
3.90000000034
  0
CIRCLE
  5
FF98
330
1F
100
AcDbEntity
  8
06___PRT_ALL_SURFS
  6
Continuous
 62
     7
370
     0
100
AcDbCircle
 10
-61.98138385998197
 20
-502.790504619928
 30
0.0
 40
3.500000000239999
  0
CIRCLE
  5
FF99
330
1F
100
AcDbEntity
  8
06___PRT_ALL_SURFS
  6
Continuous
 62
     7
370
     0
100
AcDbCircle
 10
-75.23138385980132
 20
-492.0405046188259
 30
0.0
 40
3.249999999859999
  0
ARC
  5
FFA2
330
1F
100
AcDbEntity
  8
06___PRT_ALL_SURFS
  6
Continuous
 62
     7
370
     0
100
AcDbCircle
 10
-62.18138385876329
 20
-500.0405046182869
 30
0.0
 40
0.19999999878
100
AcDbArc
 50
0.0
 51
180.0
  0
ARC
  5
FFA3
330
1F
100
AcDbEntity
  8
06___PRT_ALL_SURFS
  6
Continuous
 62
     7
370
     0
100
AcDbCircle
 10
-64.4813838587022
 20
-502.790504619928
 30
0.0
 40
0.19999999878
100
AcDbArc
 50
90.0
 51
270.0
  0
ARC
  5
FFA4
330
1F
100
AcDbEntity
  8
06___PRT_ALL_SURFS
  6
Continuous
 62
     7
370
     0
100
AcDbCircle
 10
-62.18138385876329
 20
-505.5405046190278
 30
0.0
 40
0.19999999878
100
AcDbArc
 50
180.0
 51
0.0
  0
ARC
  5
FFA5
330
1F
100
AcDbEntity
  8
06___PRT_ALL_SURFS
  6
Continuous
 62
     7
370
     0
100
AcDbCircle
 10
-61.17138385946214
 20
-500.790504619426
 30
0.0
 40
0.19999999878
100
AcDbArc
 50
0.0
 51
180.0
  0
ARC
  5
FFA6
330
1F
100
AcDbEntity
  8
06___PRT_ALL_SURFS
  6
Continuous
 62
     7
370
     0
100
AcDbCircle
 10
-61.17138385946214
 20
-504.7905046178888
 30
0.0
 40
0.19999999878
100
AcDbArc
 50
180.0
 51
0.0
  0
ARC
  5
FFA7
330
1F
100
AcDbEntity
  8
06___PRT_ALL_SURFS
  6
Continuous
 62
     7
370
     0
100
AcDbCircle
 10
-59.66138385940144
 20
-501.2905046201852
 30
0.0
 40
0.19999999878
100
AcDbArc
 50
0.0
 51
180.0
  0
ARC
  5
FFA8
330
1F
100
AcDbEntity
  8
06___PRT_ALL_SURFS
  6
Continuous
 62
     7
370
     0
100
AcDbCircle
 10
-59.66138385940144
 20
-504.2905046196648
 30
0.0
 40
0.19999999878
100
AcDbArc
 50
180.0
 51
0.0
  0
ARC
  5
FFA9
330
1F
100
AcDbEntity
  8
0
  6
Continuous
 62
     7
370
     0
100
AcDbCircle
 10
-11.08138385932068
 20
-561.1905046192852
 30
0.0
 40
4.665464804179999
100
AcDbArc
 50
270.0
 51
0.0
  0
ARC
  5
FFAA
330
1F
100
AcDbEntity
  8
0
  6
Continuous
 62
     7
370
     0
100
AcDbCircle
 10
-11.08138385932068
 20
-561.1905046192852
 30
0.0
 40
4.63927888246
100
AcDbArc
 50
270.0
 51
0.0
  0
CIRCLE
  5
FFAB
330
1F
100
AcDbEntity
  8
02___PRT_ALL_AXES
  6
Continuous
 62
     7
370
     0
100
AcDbCircle
 10
-42.98138385904201
 20
-557.7905046197075
 30
0.0
 40
4.000000001
  0
ARC
  5
FFAC
330
1F
100
AcDbEntity
  8
0
  6
Continuous
 62
     7
370
     0
100
AcDbCircle
 10
-14.98138385966058
 20
-550.7905046192298
 30
0.0
 40
4.000000001
100
AcDbArc
 50
312.2603104684051
 51
72.54239687630242
  0
ARC
  5
FFAD
330
1F
100
AcDbEntity
  8
0
  6
Continuous
 62
     7
370
     0
100
AcDbCircle
 10
-14.98138385966058
 20
-550.7905046192298
 30
0.0
 40
4.000000001
100
AcDbArc
 50
105.962014162797
 51
257.7311010039992
  0
ARC
  5
FFAE
330
1F
100
AcDbEntity
  8
0
  6
Continuous
 62
     7
370
     0
100
AcDbCircle
 10
-14.98138385966058
 20
-541.7905046182501
 30
0.0
 40
4.000000001
100
AcDbArc
 50
100.8069228748996
 51
254.037985837203
  0
ARC
  5
FFAF
330
1F
100
AcDbEntity
  8
0
  6
Continuous
 62
     7
370
     0
100
AcDbCircle
 10
-14.98138385966058
 20
-541.7905046182501
 30
0.0
 40
4.000000001
100
AcDbArc
 50
287.4576031236976
 51
79.19307712510034
  0
CIRCLE
  5
FFB0
330
1F
100
AcDbEntity
  8
02___PRT_ALL_AXES
  6
Continuous
 62
     7
370
     0
100
AcDbCircle
 10
-23.98138385810205
 20
-550.7905046192298
 30
0.0
 40
3.90000000034
  0
CIRCLE
  5
FFB1
330
1F
100
AcDbEntity
  8
02___PRT_ALL_AXES
  6
Continuous
 62
     7
370
     0
100
AcDbCircle
 10
-23.98138385810205
 20
-550.7905046192298
 30
0.0
 40
3.500000000239999
  0
CIRCLE
  5
FFB2
330
1F
100
AcDbEntity
  8
02___PRT_ALL_AXES
  6
Continuous
 62
     7
370
     0
100
AcDbCircle
 10
-10.73138385828269
 20
-561.5405046177849
 30
0.0
 40
3.249999999859999
  0
ARC
  5
FFBB
330
1F
100
AcDbEntity
  8
02___PRT_ALL_AXES
  6
Continuous
 62
     7
370
     0
100
AcDbCircle
 10
-23.78138385932073
 20
-553.5405046183297
 30
0.0
 40
0.19999999878
100
AcDbArc
 50
180.0
 51
0.0
  0
ARC
  5
FFBC
330
1F
100
AcDbEntity
  8
02___PRT_ALL_AXES
  6
Continuous
 62
     7
370
     0
100
AcDbCircle
 10
-21.48138385938182
 20
-550.7905046192298
 30
0.0
 40
0.19999999878
100
AcDbArc
 50
270.0
 51
90.0
  0
ARC
  5
FFBD
330
1F
100
AcDbEntity
  8
02___PRT_ALL_AXES
  6
Continuous
 62
     7
370
     0
100
AcDbCircle
 10
-23.78138385932073
 20
-548.0405046201298
 30
0.0
 40
0.19999999878
100
AcDbArc
 50
0.0
 51
180.0
  0
ARC
  5
FFBE
330
1F
100
AcDbEntity
  8
02___PRT_ALL_AXES
  6
Continuous
 62
     7
370
     0
100
AcDbCircle
 10
-24.791383858622
 20
-552.7905046197259
 30
0.0
 40
0.19999999878
100
AcDbArc
 50
180.0
 51
0.0
  0
ARC
  5
FFBF
330
1F
100
AcDbEntity
  8
02___PRT_ALL_AXES
  6
Continuous
 62
     7
370
     0
100
AcDbCircle
 10
-24.791383858622
 20
-548.7905046187278
 30
0.0
 40
0.19999999878
100
AcDbArc
 50
0.0
 51
180.0
  0
ARC
  5
FFC0
330
1F
100
AcDbEntity
  8
02___PRT_ALL_AXES
  6
Continuous
 62
     7
370
     0
100
AcDbCircle
 10
-26.30138385868259
 20
-552.2905046189666
 30
0.0
 40
0.19999999878
100
AcDbArc
 50
180.0
 51
0.0
  0
ARC
  5
FFC1
330
1F
100
AcDbEntity
  8
02___PRT_ALL_AXES
  6
Continuous
 62
     7
370
     0
100
AcDbCircle
 10
-26.30138385868259
 20
-549.2905046194871
 30
0.0
 40
0.19999999878
100
AcDbArc
 50
0.0
 51
180.0
  0
ARC
  5
FFC2
330
1F
100
AcDbEntity
  8
0
  6
Continuous
 62
     7
370
     0
100
AcDbCircle
 10
-11.08138385932068
 20
-492.3905046198668
 30
0.0
 40
4.665464804179999
100
AcDbArc
 50
0.0
 51
90.0
  0
ARC
  5
FFC3
330
1F
100
AcDbEntity
  8
0
  6
Continuous
 62
     7
370
     0
100
AcDbCircle
 10
-11.08138385932068
 20
-492.3905046198668
 30
0.0
 40
4.63927888246
100
AcDbArc
 50
0.0
 51
90.0
  0
CIRCLE
  5
FFC4
330
1F
100
AcDbEntity
  8
02___PRT_ALL_AXES
  6
Continuous
 62
     7
370
     0
100
AcDbCircle
 10
-42.98138385904201
 20
-495.7905046194444
 30
0.0
 40
4.000000001
  0
ARC
  5
FFC5
330
1F
100
AcDbEntity
  8
0
  6
Continuous
 62
     7
370
     0
100
AcDbCircle
 10
-14.98138385966058
 20
-526.7905046183054
 30
0.0
 40
4.000000001
100
AcDbArc
 50
100.8069228748996
 51
259.1930771251004
  0
ARC
  5
FFC6
330
1F
100
AcDbEntity
  8
0
  6
Continuous
 62
     7
370
     0
100
AcDbCircle
 10
-14.98138385966058
 20
-526.7905046183054
 30
0.0
 40
4.000000001
100
AcDbArc
 50
280.8069228748996
 51
79.19307712510034
  0
ARC
  5
FFC7
330
1F
100
AcDbEntity
  8
0
  6
Continuous
 62
     7
370
     0
100
AcDbCircle
 10
-14.98138385966058
 20
-511.7905046183666
 30
0.0
 40
4.000000001
100
AcDbArc
 50
280.8069228748996
 51
47.91919899110021
  0
ARC
  5
FFC8
330
1F
100
AcDbEntity
  8
0
  6
Continuous
 62
     7
370
     0
100
AcDbCircle
 10
-14.98138385966058
 20
-511.7905046183666
 30
0.0
 40
4.000000001
100
AcDbArc
 50
104.9217725450028
 51
259.1930771251004
  0
CIRCLE
  5
FFC9
330
1F
100
AcDbEntity
  8
02___PRT_ALL_AXES
  6
Continuous
 62
     7
370
     0
100
AcDbCircle
 10
-10.73138385828269
 20
-492.0405046188259
 30
0.0
 40
3.249999999859999
  0
ARC
  5
FFCA
330
1F
100
AcDbEntity
  8
0
  6
Continuous
 62
     7
370
     0
100
AcDbCircle
 10
-9.981383859681955
 20
-500.790504619426
 30
0.0
 40
2.169820260299999
100
AcDbArc
 50
270.0
 51
90.0
  0
ARC
  5
FFCB
330
1F
100
AcDbEntity
  8
0
  6
Continuous
 62
     7
370
     0
100
AcDbCircle
 10
-11.48138385942172
 20
-500.790504619426
 30
0.0
 40
2.169820260299999
100
AcDbArc
 50
90.0
 51
270.0
  0
ARC
  5
FFD0
330
1F
100
AcDbEntity
  8
0
  6
Continuous
 62
     7
370
     0
100
AcDbCircle
 10
-9.981383859681955
 20
-500.790504619426
 30
0.0
 40
2.100000001159999
100
AcDbArc
 50
270.0
 51
90.0
  0
ARC
  5
FFD1
330
1F
100
AcDbEntity
  8
0
  6
Continuous
 62
     7
370
     0
100
AcDbCircle
 10
-11.48138385942172
 20
-500.790504619426
 30
0.0
 40
2.100000001159999
100
AcDbArc
 50
90.0
 51
270.0
  0
CIRCLE
  5
FFD6
330
1F
100
AcDbEntity
  8
0
  6
Continuous
 62
     7
370
     0
100
AcDbCircle
 10
-233.7313838570456
 20
-561.5405046177849
 30
0.0
 40
4.000000001
  0
CIRCLE
  5
FFD7
330
1F
100
AcDbEntity
  8
0
  6
Continuous
 62
     7
370
     0
100
AcDbCircle
 10
-233.7313838570456
 20
-561.5405046177849
 30
0.0
 40
3.502530650499999
  0
CIRCLE
  5
FFD8
330
1F
100
AcDbEntity
  8
02___PRT_ALL_AXES
  6
Continuous
 62
     7
370
     0
100
AcDbCircle
 10
-233.7313838570456
 20
-561.5405046177849
 30
0.0
 40
1.600000000399999
  0
ARC
  5
FFD9
330
1F
100
AcDbEntity
  8
0
  6
Continuous
 62
     7
370
     0
100
AcDbCircle
 10
-227.7313838580835
 20
-556.7905046181889
 30
0.0
 40
0.9999999989799999
100
AcDbArc
 50
180.0
 51
0.0
  0
ARC
  5
FFDA
330
1F
100
AcDbEntity
  8
0
  6
Continuous
 62
     7
370
     0
100
AcDbCircle
 10
-227.7313838580835
 20
-548.7905046187278
 30
0.0
 40
0.9999999989799999
100
AcDbArc
 50
0.0
 51
180.0
  0
ARC
  5
FFDB
330
1F
100
AcDbEntity
  8
0
  6
Continuous
 62
     7
370
     0
100
AcDbCircle
 10
-233.7313838570456
 20
-531.4405046197872
 30
0.0
 40
0.35000000104
100
AcDbArc
 50
180.0
 51
0.0
  0
ARC
  5
FFDC
330
1F
100
AcDbEntity
  8
0
  6
Continuous
 62
     7
370
     0
100
AcDbCircle
 10
-206.1313838577651
 20
-552.7905046197259
 30
0.0
 40
0.35000000104
100
AcDbArc
 50
90.0
 51
270.0
  0
CIRCLE
  5
FFDD
330
1F
100
AcDbEntity
  8
0
  6
Continuous
 62
     7
370
     0
100
AcDbCircle
 10
-233.7313838570456
 20
-492.0405046188259
 30
0.0
 40
4.000000001
  0
CIRCLE
  5
FFDE
330
1F
100
AcDbEntity
  8
0
  6
Continuous
 62
     7
370
     0
100
AcDbCircle
 10
-233.7313838570456
 20
-492.0405046188259
 30
0.0
 40
3.502530650499999
  0
ARC
  5
FFDF
330
1F
100
AcDbEntity
  8
0
  6
Continuous
 62
     7
370
     0
100
AcDbCircle
 10
-234.4813838581845
 20
-500.790504619426
 30
0.0
 40
2.100000001159999
100
AcDbArc
 50
90.0
 51
270.0
  0
ARC
  5
FFE0
330
1F
100
AcDbEntity
  8
0
  6
Continuous
 62
     7
370
     0
100
AcDbCircle
 10
-232.9813838584448
 20
-500.790504619426
 30
0.0
 40
2.100000001159999
100
AcDbArc
 50
270.0
 51
90.0
  0
CIRCLE
  5
FFE1
330
1F
100
AcDbEntity
  8
02___PRT_ALL_AXES
  6
Continuous
 62
     7
370
     0
100
AcDbCircle
 10
-233.7313838570456
 20
-492.0405046188259
 30
0.0
 40
1.600000000399999
  0
ARC
  5
FFE2
330
1F
100
AcDbEntity
  8
0
  6
Continuous
 62
     7
370
     0
100
AcDbCircle
 10
-227.7313838580835
 20
-504.7905046178888
 30
0.0
 40
0.9999999989799999
100
AcDbArc
 50
180.0
 51
0.0
  0
ARC
  5
FFE3
330
1F
100
AcDbEntity
  8
0
  6
Continuous
 62
     7
370
     0
100
AcDbCircle
 10
-227.7313838580835
 20
-496.7905046184277
 30
0.0
 40
0.9999999989799999
100
AcDbArc
 50
0.0
 51
180.0
  0
ARC
  5
FFE4
330
1F
100
AcDbEntity
  8
0
  6
Continuous
 62
     7
370
     0
100
AcDbCircle
 10
-237.2313838572843
 20
-507.5405046195299
 30
0.0
 40
0.9999999989799999
100
AcDbArc
 50
90.0
 51
270.0
  0
ARC
  5
FFE5
330
1F
100
AcDbEntity
  8
0
  6
Continuous
 62
     7
370
     0
100
AcDbCircle
 10
-230.2313838593448
 20
-507.5405046195299
 30
0.0
 40
0.9999999989799999
100
AcDbArc
 50
270.0
 51
90.0
  0
ARC
  5
FFE6
330
1F
100
AcDbEntity
  8
0
  6
Continuous
 62
     7
370
     0
100
AcDbCircle
 10
-229.081383858105
 20
-526.7905046183054
 30
0.0
 40
0.35000000104
100
AcDbArc
 50
270.0
 51
90.0
  0
ARC
  5
FFE7
330
1F
100
AcDbEntity
  8
0
  6
Continuous
 62
     7
370
     0
100
AcDbCircle
 10
-233.7313838570456
 20
-522.1405046193648
 30
0.0
 40
0.35000000104
100
AcDbArc
 50
0.0
 51
180.0
  0
ARC
  5
FFE8
330
1F
100
AcDbEntity
  8
0
  6
Continuous
 62
     7
370
     0
100
AcDbCircle
 10
-206.1313838577651
 20
-500.790504619426
 30
0.0
 40
0.35000000104
100
AcDbArc
 50
90.0
 51
270.0
  0
CIRCLE
  5
FFE9
330
1F
100
AcDbEntity
  8
06___PRT_ALL_SURFS
  6
Continuous
 62
     7
370
     0
100
AcDbCircle
 10
-169.2313838580651
 20
-561.5405046177849
 30
0.0
 40
4.000000001
  0
CIRCLE
  5
FFEA
330
1F
100
AcDbEntity
  8
06___PRT_ALL_SURFS
  6
Continuous
 62
     7
370
     0
100
AcDbCircle
 10
-169.2313838580651
 20
-561.5405046177849
 30
0.0
 40
3.502530650499999
  0
ARC
  5
FFEB
330
1F
100
AcDbEntity
  8
06___PRT_ALL_SURFS
  6
Continuous
 62
     7
370
     0
100
AcDbCircle
 10
-168.4813838594643
 20
-552.7905046197259
 30
0.0
 40
2.100000001159999
100
AcDbArc
 50
270.0
 51
90.0
  0
ARC
  5
FFEC
330
1F
100
AcDbEntity
  8
06___PRT_ALL_SURFS
  6
Continuous
 62
     7
370
     0
100
AcDbCircle
 10
-169.9813838592041
 20
-552.7905046197259
 30
0.0
 40
2.100000001159999
100
AcDbArc
 50
90.0
 51
270.0
  0
CIRCLE
  5
FFED
330
1F
100
AcDbEntity
  8
06___PRT_ALL_SURFS
  6
Continuous
 62
     7
370
     0
100
AcDbCircle
 10
-169.2313838580651
 20
-561.5405046177849
 30
0.0
 40
1.600000000399999
  0
ARC
  5
FFEE
330
1F
100
AcDbEntity
  8
06___PRT_ALL_SURFS
  6
Continuous
 62
     7
370
     0
100
AcDbCircle
 10
-175.2313838570242
 20
-548.7905046187278
 30
0.0
 40
0.9999999989799999
100
AcDbArc
 50
0.0
 51
180.0
  0
ARC
  5
FFEF
330
1F
100
AcDbEntity
  8
06___PRT_ALL_SURFS
  6
Continuous
 62
     7
370
     0
100
AcDbCircle
 10
-175.2313838570242
 20
-556.7905046181889
 30
0.0
 40
0.9999999989799999
100
AcDbArc
 50
180.0
 51
0.0
  0
ARC
  5
FFF0
330
1F
100
AcDbEntity
  8
06___PRT_ALL_SURFS
  6
Continuous
 62
     7
370
     0
100
AcDbCircle
 10
-165.7313838578234
 20
-546.040504619628
 30
0.0
 40
0.9999999989799999
100
AcDbArc
 50
270.0
 51
90.0
  0
ARC
  5
FFF1
330
1F
100
AcDbEntity
  8
06___PRT_ALL_SURFS
  6
Continuous
 62
     7
370
     0
100
AcDbCircle
 10
-172.731383858304
 20
-546.040504619628
 30
0.0
 40
0.9999999989799999
100
AcDbArc
 50
90.0
 51
270.0
  0
ARC
  5
FFF2
330
1F
100
AcDbEntity
  8
0
  6
Continuous
 62
     7
370
     0
100
AcDbCircle
 10
-169.2313838580651
 20
-531.4405046197872
 30
0.0
 40
0.35000000104
100
AcDbArc
 50
180.0
 51
0.0
  0
ARC
  5
FFF3
330
1F
100
AcDbEntity
  8
0
  6
Continuous
 62
     7
370
     0
100
AcDbCircle
 10
-196.8313838573456
 20
-552.7905046197259
 30
0.0
 40
0.35000000104
100
AcDbArc
 50
270.0
 51
90.0
  0
ARC
  5
FFF4
330
1F
100
AcDbEntity
  8
0
  6
Continuous
 62
     7
370
     0
100
AcDbCircle
 10
-201.4813838588245
 20
-548.14050461825
 30
0.0
 40
0.35000000104
100
AcDbArc
 50
0.0
 51
180.0
  0
CIRCLE
  5
FFF5
330
1F
100
AcDbEntity
  8
06___PRT_ALL_SURFS
  6
Continuous
 62
     7
370
     0
100
AcDbCircle
 10
-169.2313838580651
 20
-492.0405046188259
 30
0.0
 40
4.000000001
  0
CIRCLE
  5
FFF6
330
1F
100
AcDbEntity
  8
06___PRT_ALL_SURFS
  6
Continuous
 62
     7
370
     0
100
AcDbCircle
 10
-169.2313838580651
 20
-492.0405046188259
 30
0.0
 40
3.502530650499999
  0
CIRCLE
  5
FFF7
330
1F
100
AcDbEntity
  8
06___PRT_ALL_SURFS
  6
Continuous
 62
     7
370
     0
100
AcDbCircle
 10
-169.2313838580651
 20
-492.0405046188259
 30
0.0
 40
1.600000000399999
  0
ARC
  5
FFF8
330
1F
100
AcDbEntity
  8
06___PRT_ALL_SURFS
  6
Continuous
 62
     7
370
     0
100
AcDbCircle
 10
-175.2313838570242
 20
-496.7905046184277
 30
0.0
 40
0.9999999989799999
100
AcDbArc
 50
0.0
 51
180.0
  0
ARC
  5
FFF9
330
1F
100
AcDbEntity
  8
06___PRT_ALL_SURFS
  6
Continuous
 62
     7
370
     0
100
AcDbCircle
 10
-175.2313838570242
 20
-504.7905046178888
 30
0.0
 40
0.9999999989799999
100
AcDbArc
 50
180.0
 51
0.0
  0
ARC
  5
FFFA
330
1F
100
AcDbEntity
  8
0
  6
Continuous
 62
     7
370
     0
100
AcDbCircle
 10
-173.8813838570057
 20
-526.7905046183054
 30
0.0
 40
0.35000000104
100
AcDbArc
 50
90.0
 51
270.0
  0
ARC
  5
FFFB
330
1F
100
AcDbEntity
  8
0
  6
Continuous
 62
     7
370
     0
100
AcDbCircle
 10
-169.2313838580651
 20
-522.1405046193648
 30
0.0
 40
0.35000000104
100
AcDbArc
 50
0.0
 51
180.0
  0
ARC
  5
FFFC
330
1F
100
AcDbEntity
  8
0
  6
Continuous
 62
     7
370
     0
100
AcDbCircle
 10
-201.4813838588245
 20
-505.4405046183666
 30
0.0
 40
0.35000000104
100
AcDbArc
 50
180.0
 51
0.0
  0
ARC
  5
FFFD
330
1F
100
AcDbEntity
  8
0
  6
Continuous
 62
     7
370
     0
100
AcDbCircle
 10
-196.8313838573456
 20
-500.790504619426
 30
0.0
 40
0.35000000104
100
AcDbArc
 50
270.0
 51
90.0
  0
SPLINE
  5
FFFE
330
1F
100
AcDbEntity
  8
0
  6
Continuous
 62
     7
370
     0
100
AcDbSpline
210
0.0
220
0.0
230
1.0
 70
     8
 71
     3
 72
    15
 73
    11
 74
     9
 42
0.0000000001
 43
0.0000000001
 44
0.0000000001
 12
1.0
 22
0.0
 32
0.0
 13
0.0
 23
-1.0
 33
0.0
 40
0.0
 40
0.0
 40
0.0
 40
0.0
 40
1.225227939826135
 40
2.450307544101424
 40
3.67527369539269
 40
4.900178306107524
 40
6.125082792892041
 40
7.350048632692098
 40
8.575127906867749
 40
9.8003556791539
 40
9.8003556791539
 40
9.8003556791539
 40
9.8003556791539
 10
-10.73043195264472
 20
-485.7905046194856
 30
0.0
 10
-10.32202263936934
 20
-485.7905046194856
 30
0.0
 10
-9.502989671229272
 20
-485.8710665911919
 30
0.0
 10
-8.323471097129461
 20
-486.2289626873475
 30
0.0
 10
-7.236055943589352
 20
-486.8101202162588
 30
0.0
 10
-6.283094871884131
 20
-487.5922162411234
 30
0.0
 10
-5.500999046728493
 20
-488.5451773398478
 30
0.0
 10
-4.919841757993191
 20
-489.632592325684
 30
0.0
 10
-4.561945802388697
 20
-490.8121106541806
 30
0.0
 10
-4.481383858943445
 20
-491.6311434557545
 30
0.0
 10
-4.481383858943445
 20
-492.0395527131833
 30
0.0
 11
-10.73043195264472
 21
-485.7905046194856
 31
0.0
 11
-9.511102854605269
 21
-485.9105881537645
 31
0.0
 11
-8.338769875423167
 21
-486.2661938662232
 31
0.0
 11
-7.258439424964308
 21
-486.843626277524
 31
0.0
 11
-6.311571895283123
 21
-487.6206933187669
 31
0.0
 11
-5.534505064864788
 21
-488.5675608611446
 31
0.0
 11
-4.957072915181925
 21
-489.6478910982433
 31
0.0
 11
-4.601467360203969
 21
-490.8202237802425
 31
0.0
 11
-4.481383858943445
 21
-492.0395527131833
 31
0.0
  0
SPLINE
  5
FFFF
330
1F
100
AcDbEntity
  8
0
  6
Continuous
 62
     7
370
     0
100
AcDbSpline
210
0.0
220
0.0
230
1.0
 70
     8
 71
     3
 72
    15
 73
    11
 74
     9
 42
0.0000000001
 43
0.0000000001
 44
0.0000000001
 12
0.0
 22
-1.0
 32
0.0
 13
-1.0
 23
0.0
 33
0.0
 40
0.0
 40
0.0
 40
0.0
 40
0.0
 40
1.225227939826135
 40
2.45030754653594
 40
3.675273697823997
 40
4.900178306574108
 40
6.125082794977469
 40
7.350048634775811
 40
8.575127908213316
 40
9.800355680748344
 40
9.800355680748344
 40
9.800355680748344
 40
9.800355680748344
 10
-4.481383858943445
 20
-561.5414565234233
 30
0.0
 10
-4.481383858943445
 20
-561.9498658366986
 30
0.0
 10
-4.561945831011609
 20
-562.7688988055962
 30
0.0
 10
-4.919841926371395
 20
-563.9484173806806
 30
0.0
 10
-5.500999454859293
 20
-565.0358325349493
 30
0.0
 10
-6.283095482296532
 20
-565.9887936041914
 30
0.0
 10
-7.236056578364272
 20
-566.7708894319294
 30
0.0
 10
-8.323471564775299
 20
-567.3520467215301
 30
0.0
 10
-9.50298989431539
 20
-567.7099426717071
 30
0.0
 10
-10.32202269513304
 20
-567.7905046196639
 30
0.0
 10
-10.73043195264472
 20
-567.7905046196639
 30
0.0
 11
-4.481383858943445
 21
-561.5414565234233
 31
0.0
 11
-4.601467393222264
 21
-562.7607856214628
 31
0.0
 11
-4.957073105684685
 21
-563.9331186031878
 31
0.0
 11
-5.534505516985518
 21
-565.013449053643
 31
0.0
 11
-6.311572558221087
 21
-565.9603165807886
 31
0.0
 11
-7.258440100606094
 21
-566.7373834137499
 31
0.0
 11
-8.338770337704772
 21
-567.314815563429
 31
0.0
 11
-9.511103019704023
 21
-567.670421115864
 31
0.0
 11
-10.73043195264472
 21
-567.7905046196639
 31
0.0
  0
SPLINE
  5
10000
330
1F
100
AcDbEntity
  8
06___PRT_ALL_SURFS
  6
Continuous
 62
     7
370
     0
100
AcDbSpline
210
0.0
220
0.0
230
1.0
 70
     8
 71
     3
 72
    15
 73
    11
 74
     9
 42
0.0000000001
 43
0.0000000001
 44
0.0000000001
 12
-1.0
 22
0.0
 32
0.0
 13
0.0
 23
1.0
 33
0.0
 40
0.0
 40
0.0
 40
0.0
 40
0.0
 40
1.22522793754757
 40
2.45030754425495
 40
3.675273694347505
 40
4.900178305062339
 40
6.125082791846856
 40
7.350048633889606
 40
8.575127908065256
 40
9.800355680351408
 40
9.800355680351408
 40
9.800355680351408
 40
9.800355680351408
 10
-75.23233576544225
 20
-567.7905046196639
 30
0.0
 10
-75.64074507795812
 20
-567.7905046196639
 30
0.0
 10
-76.45977804575744
 20
-567.7099426437496
 30
0.0
 10
-77.63929661956172
 20
-567.3520465495996
 30
0.0
 10
-78.72671177520877
 20
-566.7708890232484
 30
0.0
 10
-79.67967284600908
 20
-565.9887929978163
 30
0.0
 10
-80.46176867221051
 20
-565.0358318989463
 30
0.0
 10
-81.04292595943665
 20
-563.9484169114031
 30
0.0
 10
-81.40082191582367
 20
-562.7688985824944
 30
0.0
 10
-81.48138385914354
 20
-561.949865780852
 30
0.0
 10
-81.48138385914354
 20
-561.5414565234233
 30
0.0
 11
-75.23233576544225
 21
-567.7905046196639
 31
0.0
 11
-76.4516648609424
 21
-567.6704210828494
 31
0.0
 11
-77.62399784266381
 21
-567.3148153703833
 31
0.0
 11
-78.70432829312267
 21
-566.7373829616255
 31
0.0
 11
-79.65119582280386
 21
-565.9603159203826
 31
0.0
 11
-80.42826265322219
 21
-565.0134483780049
 31
0.0
 11
-81.00569480290506
 21
-563.9331181383632
 31
0.0
 11
-81.36130035788301
 21
-562.760785456364
 31
0.0
 11
-81.48138385914354
 21
-561.5414565234233
 31
0.0
  0
SPLINE
  5
10001
330
1F
100
AcDbEntity
  8
06___PRT_ALL_SURFS
  6
Continuous
 62
     7
370
     0
100
AcDbSpline
210
0.0
220
0.0
230
1.0
 70
     8
 71
     3
 72
    15
 73
    11
 74
     9
 42
0.0000000001
 43
0.0000000001
 44
0.0000000001
 12
0.0
 22
1.0
 32
0.0
 13
1.0
 23
0.0
 33
0.0
 40
0.0
 40
0.0
 40
0.0
 40
0.0
 40
1.225227939826135
 40
2.450307544099
 40
3.675273697632959
 40
4.900178306377445
 40
6.125082793167587
 40
7.350048632965929
 40
8.575127907142634
 40
9.800355679428786
 40
9.800355679428786
 40
9.800355679428786
 40
9.800355679428786
 10
-81.48138385914354
 20
-492.0395527131833
 30
0.0
 10
-81.48138385914354
 20
-491.6311433999078
 30
0.0
 10
-81.40082188759995
 20
-490.8121104316725
 30
0.0
 10
-81.04292579049477
 20
-489.6325918572861
 30
0.0
 10
-80.46176826399173
 20
-488.5451767021729
 30
0.0
 10
-79.67967223647987
 20
-487.5922156323992
 30
0.0
 10
-78.7267111389184
 20
-486.8101198071662
 30
0.0
 10
-77.63929615290257
 20
-486.2289625185692
 30
0.0
 10
-76.45977782445647
 20
-485.8710665629212
 30
0.0
 10
-75.64074502287097
 20
-485.7905046194856
 30
0.0
 10
-75.23233576544225
 20
-485.7905046194856
 30
0.0
 11
-81.48138385914354
 21
-492.0395527131833
 31
0.0
 11
-81.36130032486471
 21
-490.8202236151438
 31
0.0
 11
-81.0056946124023
 21
-489.6478906359654
 31
0.0
 11
-80.42826220110146
 21
-488.5675601829635
 31
0.0
 11
-79.65119515986589
 21
-487.6206926558253
 31
0.0
 11
-78.70432761748088
 21
-486.843625825407
 31
0.0
 11
-77.62399738038221
 21
-486.2661936757278
 31
0.0
 11
-76.45166469838295
 21
-485.9105881207462
 31
0.0
 11
-75.23233576544225
 21
-485.7905046194856
 31
0.0
  0
SPLINE
  5
10002
330
1F
100
AcDbEntity
  8
0
  6
Continuous
 62
     7
370
     0
100
AcDbSpline
210
0.0
220
0.0
230
1.0
 70
     8
 71
     3
 72
    13
 73
     9
 74
     7
 42
0.0000000001
 43
0.0000000001
 44
0.0000000001
 12
0.0
 22
1.0
 32
0.0
 13
-0.9997189356967021
 23
0.0237075854834045
 33
0.0
 40
0.0
 40
0.0
 40
0.0
 40
0.0
 40
0.7786278609466429
 40
1.557137088538766
 40
2.335578555536468
 40
3.114017289593299
 40
3.892519368268955
 40
4.628139891562614
 40
4.628139891562614
 40
4.628139891562614
 40
4.628139891562614
 10
-8.179586454902164
 20
-509.7382503027648
 30
0.0
 10
-8.179586454902164
 20
-509.4787076824493
 30
0.0
 10
-8.247696934568462
 20
-508.9571415831214
 30
0.0
 10
-8.54733882706739
 20
-508.2294461096103
 30
0.0
 10
-9.024213507749585
 20
-507.602898514882
 30
0.0
 10
-9.646344548627611
 20
-507.1203425146266
 30
0.0
 10
-10.35805328263757
 20
-506.819690630729
 30
0.0
 10
-10.86326738421442
 20
-506.7453571823502
 30
0.0
 10
-11.10840530642235
 20
-506.7395439202037
 30
0.0
 11
-8.179586454902164
 21
-509.7382503027648
 31
0.0
 11
-8.280622552043496
 21
-508.9662055806685
 31
0.0
 11
-8.576893397144885
 21
-508.2462748869285
 31
0.0
 11
-9.048423144962725
 21
-507.6268955084661
 31
0.0
 11
-9.663471681182272
 21
-507.1497349895899
 31
0.0
 11
-10.38066204512506
 21
-506.8469091842663
 31
0.0
 11
-11.10840530642235
 21
-506.7395439202037
 31
0.0
  0
LINE
  5
10003
330
1F
100
AcDbEntity
  8
0
  6
Continuous
 62
     7
370
     0
100
AcDbLine
 10
-11.10840530642235
 20
-506.7395439202055
 30
0.0
 11
-11.15087014910284
 21
-506.7388402970257
 31
0.0
  0
SPLINE
  5
10004
330
1F
100
AcDbEntity
  8
0
  6
Continuous
 62
     7
370
     0
100
AcDbSpline
210
0.0
220
0.0
230
1.0
 70
     8
 71
     3
 72
    13
 73
     9
 74
     7
 42
0.0000000001
 43
0.0000000001
 44
0.0000000001
 12
1.0
 22
0.0
 32
0.0
 13
0.0
 23
1.0
 33
0.0
 40
0.0
 40
0.0
 40
0.0
 40
0.0
 40
0.7831482152208212
 40
1.566180310118562
 40
2.349145455147618
 40
3.132110778514981
 40
3.915143259653034
 40
4.698291701587256
 40
4.698291701587256
 40
4.698291701587256
 40
4.698291701587256
 10
-11.17912954140411
 20
-555.4923020228226
 30
0.0
 10
-10.9180801363305
 20
-555.4923020228226
 30
0.0
 10
-10.39345559051938
 20
-555.423389753157
 30
0.0
 10
-9.662130046252729
 20
-555.1202952550243
 30
0.0
 10
-9.033685808857505
 20
-554.6382031553604
 30
0.0
 10
-8.551593476471879
 20
-554.0097589265338
 30
0.0
 10
-8.248498771149121
 20
-553.2784331691715
 30
0.0
 10
-8.179586454902164
 20
-552.753808416969
 30
0.0
 10
-8.179586454902164
 20
-552.4927589363243
 30
0.0
 11
-11.17912954140411
 21
-555.4923020228226
 31
0.0
 11
-10.40268012656452
 21
-555.3900893367273
 31
0.0
 11
-9.679248306980298
 21
-555.090446776244
 31
0.0
 11
-9.058077154102647
 21
-554.6138118875052
 31
0.0
 11
-8.581442008820886
 21
-553.9926407066879
 31
0.0
 11
-8.281799199423403
 21
-553.269208572142
 31
0.0
 11
-8.179586454902164
 21
-552.4927589363243
 31
0.0
  0
SPLINE
  5
10005
330
1F
100
AcDbEntity
  8
06___PRT_ALL_SURFS
  6
Continuous
 62
     7
370
     0
100
AcDbSpline
210
0.0
220
0.0
230
1.0
 70
     8
 71
     3
 72
    13
 73
     9
 74
     7
 42
0.0000000001
 43
0.0000000001
 44
0.0000000001
 12
0.0
 22
-1.0
 32
0.0
 13
1.0
 23
0.0
 33
0.0
 40
0.0
 40
0.0
 40
0.0
 40
0.0
 40
0.7831482123727638
 40
1.566180309613751
 40
2.349145454179148
 40
3.132110779090789
 40
3.915143256905765
 40
4.698291701361183
 40
4.698291701361183
 40
4.698291701361183
 40
4.698291701361183
 10
-68.53318126182421
 20
-561.0927589372032
 30
0.0
 10
-68.53318126182421
 20
-561.3538083413275
 30
0.0
 10
-68.46426899451602
 20
-561.8784328869105
 30
0.0
 10
-68.16117449829864
 20
-562.6097584326628
 30
0.0
 10
-67.67908239235251
 20
-563.2382026661609
 30
0.0
 10
-67.05063816783478
 20
-563.7202950025415
 30
0.0
 10
-66.31931240844593
 20
-564.0233897048724
 30
0.0
 10
-65.79468765680741
 20
-564.0923020211658
 30
0.0
 10
-65.53363817532226
 20
-564.0923020211658
 30
0.0
 11
-68.53318126182421
 21
-561.0927589372032
 31
0.0
 11
-68.43096857826094
 21
-561.8692083495035
 31
0.0
 11
-68.13132601778488
 21
-562.592640171627
 31
0.0
 11
-67.65469112650317
 21
-563.213811321969
 31
0.0
 11
-67.0335199456822
 21
-563.6904464697828
 31
0.0
 11
-66.31008781368291
 21
-563.9900892766446
 31
0.0
 11
-65.53363817532226
 21
-564.0923020211658
 31
0.0
  0
SPLINE
  5
10006
330
1F
100
AcDbEntity
  8
0
  6
Continuous
 62
     7
370
     0
100
AcDbSpline
210
0.0
220
0.0
230
1.0
 70
     8
 71
     3
 72
    13
 73
     9
 74
     7
 42
0.0000000001
 43
0.0000000001
 44
0.0000000001
 12
-1.0
 22
0.0
 32
0.0
 13
0.0
 23
1.0
 33
0.0
 40
0.0
 40
0.0
 40
0.0
 40
0.0
 40
0.7831484419378297
 40
1.56618092306916
 40
2.349146246437195
 40
3.132111391472023
 40
3.915143486365011
 40
4.698291701586782
 40
4.698291701586782
 40
4.698291701586782
 40
4.698291701586782
 10
-75.45565817630268
 20
-547.5143220225064
 30
0.0
 10
-75.71670765694861
 20
-547.5143220225064
 30
0.0
 10
-76.24133240915083
 20
-547.4454097062621
 30
0.0
 10
-76.97265816650892
 20
-547.1423150009327
 30
0.0
 10
-77.60110239534203
 20
-546.6602226685562
 30
0.0
 10
-78.08319449500115
 20
-546.0317784311544
 30
0.0
 10
-78.38628899312855
 20
-545.3004528868871
 30
0.0
 10
-78.45520126280462
 20
-544.7758283410784
 30
0.0
 10
-78.45520126280462
 20
-544.5147789360045
 30
0.0
 11
-75.45565817630268
 21
-547.5143220225064
 31
0.0
 11
-76.23210781212401
 21
-547.4121092779852
 31
0.0
 11
-76.95553994666261
 21
-547.1124664685877
 31
0.0
 11
-77.57671112748358
 21
-546.6358313233095
 31
0.0
 11
-78.05334601622234
 21
-546.0146601704247
 31
0.0
 11
-78.35298857670204
 21
-545.2912283508441
 31
0.0
 11
-78.45520126280462
 21
-544.5147789360045
 31
0.0
  0
SPLINE
  5
10007
330
1F
100
AcDbEntity
  8
06___PRT_ALL_SURFS
  6
Continuous
 62
     7
370
     0
100
AcDbSpline
210
0.0
220
0.0
230
1.0
 70
     8
 71
     3
 72
    14
 73
    10
 74
     8
 42
0.0000000001
 43
0.0000000001
 44
0.0000000001
 12
-1.0
 22
0.0
 32
0.0
 13
0.0
 23
1.0
 33
0.0
 40
0.0
 40
0.0
 40
0.0
 40
0.0
 40
0.8960768651583691
 40
1.79200580356946
 40
2.687768278817911
 40
3.583378839587969
 40
4.478881945079918
 40
5.374343227484906
 40
6.269836699301441
 40
6.269836699301441
 40
6.269836699301441
 40
6.269836699301441
 10
-75.54639154322285
 20
-548.5405046183469
 30
0.0
 10
-75.84508383160898
 20
-548.5405046183469
 30
0.0
 10
-76.44457836778105
 20
-548.473077327125
 30
0.0
 10
-77.29700150275869
 20
-548.1747319919581
 30
0.0
 10
-78.06199475654494
 20
-547.6941878520587
 30
0.0
 10
-78.70065400789318
 20
-547.0556186090665
 30
0.0
 10
-79.18116611957266
 20
-546.2908917755962
 30
0.0
 10
-79.47944188227004
 20
-545.4389076195395
 30
0.0
 10
-79.54684866294337
 20
-544.839763900263
 30
0.0
 10
-79.54684866294337
 20
-544.5412660763241
 30
0.0
 11
-75.54639154322285
 21
-548.5405046183469
 31
0.0
 11
-76.4368361656816
 21
-548.4401944862248
 31
0.0
 11
-77.28250332118477
 21
-548.1443301173231
 31
0.0
 11
-78.04099753444461
 21
-547.6678042098275
 31
0.0
 11
-78.67432952660237
 21
-547.0345516028275
 31
0.0
 11
-79.15080307454264
 21
-546.2763308104069
 31
0.0
 11
-79.44657903366532
 21
-545.4311281777255
 31
0.0
 11
-79.54684866294337
 21
-544.5412660763241
 31
0.0
  0
SPLINE
  5
10008
330
1F
100
AcDbEntity
  8
06___PRT_ALL_SURFS
  6
Continuous
 62
     7
370
     0
100
AcDbSpline
210
0.0
220
0.0
230
1.0
 70
     8
 71
     3
 72
    13
 73
     9
 74
     7
 42
0.0000000001
 43
0.0000000001
 44
0.0000000001
 12
-1.0
 22
0.0
 32
0.0
 13
0.0
 23
-1.0
 33
0.0
 40
0.0
 40
0.0
 40
0.0
 40
0.0
 40
0.7831482152253776
 40
1.566180309146649
 40
2.349145455719311
 40
3.132110779092446
 40
3.915143260223777
 40
4.698291702158
 40
4.698291702158
 40
4.698291702158
 40
4.698291702158
 10
-66.28363817646095
 20
-489.4887072154443
 30
0.0
 10
-66.54468758153608
 20
-489.4887072154443
 30
0.0
 10
-67.06931212655513
 20
-489.5576194860581
 30
0.0
 10
-67.80063767312828
 20
-489.8607139797214
 30
0.0
 10
-68.42908190812301
 20
-490.3428060833345
 30
0.0
 10
-68.91117424154249
 20
-490.9712503115118
 30
0.0
 10
-69.21426894667394
 20
-491.7025760691619
 30
0.0
 10
-69.28318126296289
 20
-492.227200821298
 30
0.0
 10
-69.28318126296289
 20
-492.4882503019427
 30
0.0
 11
-66.28363817646095
 21
-489.4887072154443
 31
0.0
 11
-67.06008759130418
 21
-489.5909199015469
 31
0.0
 11
-67.78351941088477
 21
-489.8905624594873
 31
0.0
 11
-68.40469056376242
 21
-490.3671973507617
 31
0.0
 11
-68.88132570904417
 21
-490.9883685315864
 31
0.0
 11
-69.18096851844166
 21
-491.7118006661249
 31
0.0
 11
-69.28318126296289
 21
-492.4882503019427
 31
0.0
  0
SPLINE
  5
10009
330
1F
100
AcDbEntity
  8
0
  6
Continuous
 62
     7
370
     0
100
AcDbSpline
210
0.0
220
0.0
230
1.0
 70
     8
 71
     3
 72
    13
 73
     9
 74
     7
 42
0.0000000001
 43
0.0000000001
 44
0.0000000001
 12
0.0
 22
1.0
 32
0.0
 13
-1.0
 23
0.0
 33
0.0
 40
0.0
 40
0.0
 40
0.0
 40
0.0
 40
0.7831482148898777
 40
1.566180309776143
 40
2.349145456359007
 40
3.132110779724155
 40
3.915143258514209
 40
4.698291702969627
 40
4.698291702969627
 40
4.698291702969627
 40
4.698291702969627
 10
-17.42958645626277
 20
-492.4882503019427
 30
0.0
 10
-17.42958645626277
 20
-492.2272008969794
 30
0.0
 10
-17.49849872242648
 20
-491.7025763509202
 30
0.0
 10
-17.80159322149283
 20
-490.9712508059516
 30
0.0
 10
-18.28368532381595
 20
-490.342806570103
 30
0.0
 10
-18.91212955189654
 20
-489.8607142376816
 30
0.0
 10
-19.64345530881191
 20
-489.557619530775
 30
0.0
 10
-20.16808006127957
 20
-489.4887072154443
 30
0.0
 10
-20.42912954276471
 20
-489.4887072154443
 30
0.0
 11
-17.42958645626277
 21
-492.4882503019427
 31
0.0
 11
-17.53179913982239
 21
-491.7118008871031
 31
0.0
 11
-17.83144170030209
 21
-490.9883690675298
 31
0.0
 11
-18.30807659158381
 21
-490.3671979146448
 31
0.0
 11
-18.92924777240114
 21
-489.8905627693667
 31
0.0
 11
-19.65267990440407
 21
-489.5909199599656
 31
0.0
 11
-20.42912954276471
 21
-489.4887072154443
 31
0.0
  0
SPLINE
  5
1000A
330
1F
100
AcDbEntity
  8
0
  6
Continuous
 62
     7
370
     0
100
AcDbSpline
210
0.0
220
0.0
230
1.0
 70
     8
 71
     3
 72
    14
 73
    10
 74
     8
 42
0.0000000001
 43
0.0000000001
 44
0.0000000001
 12
0.0
 22
-1.0
 32
0.0
 13
1.0
 23
0.0
 33
0.0
 40
0.0
 40
0.0
 40
0.0
 40
0.0
 40
0.8954934743402828
 40
1.790954754346079
 40
2.686457859843044
 40
3.58206842240598
 40
4.477830897658302
 40
5.373759832829343
 40
6.269836700794913
 40
6.269836700794913
 40
6.269836700794913
 40
6.269836700794913
 10
-79.52066274122262
 20
-544.5325392078221
 30
0.0
 10
-79.52066274122262
 20
-544.8310370326022
 30
0.0
 10
-79.45325596133276
 20
-545.4301807520701
 30
0.0
 10
-79.15498019728997
 20
-546.282164907812
 30
0.0
 10
-78.67446808544592
 20
-547.0468917406723
 30
0.0
 10
-78.03580883568116
 20
-547.685460985958
 30
0.0
 10
-77.27081558210629
 20
-548.1660051262175
 30
0.0
 10
-76.41839244635382
 20
-548.4643504575153
 30
0.0
 10
-75.8188979108276
 20
-548.5317777523842
 30
0.0
 10
-75.52020562150573
 20
-548.5317777523842
 30
0.0
 11
-79.52066274122262
 21
-544.5325392078221
 31
0.0
 11
-79.42039311194093
 21
-545.4224013117628
 31
0.0
 11
-79.12461715282552
 21
-546.2676039419049
 31
0.0
 11
-78.64814360488162
 21
-547.0258247343291
 31
0.0
 11
-78.01481161272386
 21
-547.6590773438648
 31
0.0
 11
-77.25631739946402
 21
-548.1356032513677
 31
0.0
 11
-76.41065024650379
 21
-548.4314676177265
 31
0.0
 11
-75.52020562150573
 21
-548.5317777523842
 31
0.0
  0
SPLINE
  5
1000B
330
1F
100
AcDbEntity
  8
0
  6
Continuous
 62
     7
370
     0
100
AcDbSpline
210
0.0
220
0.0
230
1.0
 70
     8
 71
     3
 72
    13
 73
     9
 74
     7
 42
0.0000000001
 43
0.0000000001
 44
0.0000000001
 12
0.0
 22
1.0
 32
0.0
 13
1.0
 23
0.0
 33
0.0
 40
0.0
 40
0.0
 40
0.0
 40
0.0
 40
0.7831484419378297
 40
1.566180920719769
 40
2.349146246107483
 40
3.132111391137211
 40
3.915143486031591
 40
4.698291700921944
 40
4.698291700921944
 40
4.698291700921944
 40
4.698291700921944
 10
-78.45520126280462
 20
-500.4162303006661
 30
0.0
 10
-78.45520126280462
 20
-500.1551808200201
 30
0.0
 10
-78.38628894722603
 20
-499.6305560683223
 30
0.0
 10
-78.08319423970838
 20
-498.8992303122549
 30
0.0
 10
-77.60110190988598
 20
-498.2707860816214
 30
0.0
 10
-76.97265767127863
 20
-497.7886939823743
 30
0.0
 10
-76.24133212748083
 20
-497.4855994826912
 30
0.0
 10
-75.71670758126612
 20
-497.4166872167034
 30
0.0
 10
-75.45565817630268
 20
-497.4166872167034
 30
0.0
 11
-78.45520126280462
 21
-500.4162303006661
 31
0.0
 11
-78.35298851828338
 21
-499.6397806648448
 31
0.0
 11
-78.05334570888589
 21
-498.9163485328491
 31
0.0
 11
-77.57671056360414
 21
-498.2951773494852
 31
0.0
 11
-76.95553941072285
 21
-497.8185424607501
 31
0.0
 11
-76.23210759114226
 21
-497.5188999002667
 31
0.0
 11
-75.45565817630268
 21
-497.4166872167034
 31
0.0
  0
SPLINE
  5
1000C
330
1F
100
AcDbEntity
  8
0
  6
Continuous
 62
     7
370
     0
100
AcDbSpline
210
0.0
220
0.0
230
1.0
 70
     8
 71
     3
 72
    13
 73
     9
 74
     7
 42
0.0000000001
 43
0.0000000001
 44
0.0000000001
 12
0.0
 22
1.0
 32
0.0
 13
1.0
 23
0.0
 33
0.0
 40
0.0
 40
0.0
 40
0.0
 40
0.0
 40
0.7831484419342228
 40
1.566180923065553
 40
2.349146246438689
 40
3.132111393011351
 40
3.915143486932622
 40
4.698291702158
 40
4.698291702158
 40
4.698291702158
 40
4.698291702158
 10
-69.9552012625827
 20
-491.8162303023229
 30
0.0
 10
-69.9552012625827
 20
-491.5551808216782
 30
0.0
 10
-69.88628894629375
 20
-491.030556069542
 30
0.0
 10
-69.58319424116229
 20
-490.2992303118922
 30
0.0
 10
-69.10110190774282
 20
-489.6707860837147
 30
0.0
 10
-68.47265767274809
 20
-489.1886939801016
 30
0.0
 10
-67.74133212617492
 20
-488.8855994864383
 30
0.0
 10
-67.21670758115589
 20
-488.8166872158246
 30
0.0
 10
-66.95565817608076
 20
-488.8166872158246
 30
0.0
 11
-69.9552012625827
 21
-491.8162303023229
 31
0.0
 11
-69.85298851806146
 21
-491.0397806665051
 31
0.0
 11
-69.55334570866398
 21
-490.3163485319665
 31
0.0
 11
-69.07671056338222
 21
-489.6951773511419
 31
0.0
 11
-68.45553941050457
 21
-489.2185424598675
 31
0.0
 11
-67.73210759092399
 21
-488.9188999019271
 31
0.0
 11
-66.95565817608076
 21
-488.8166872158246
 31
0.0
  0
SPLINE
  5
1000D
330
1F
100
AcDbEntity
  8
0
  6
Continuous
 62
     7
370
     0
100
AcDbSpline
210
0.0
220
0.0
230
1.0
 70
     8
 71
     3
 72
    13
 73
     9
 74
     7
 42
0.0000000001
 43
0.0000000001
 44
0.0000000001
 12
-1.0
 22
0.0
 32
0.0
 13
0.0
 23
1.0
 33
0.0
 40
0.0
 40
0.0
 40
0.0
 40
0.0
 40
0.7831484444554184
 40
1.566180922270394
 40
2.349146247182035
 40
3.132111391747432
 40
3.915143488989812
 40
4.698291701362101
 40
4.698291701362101
 40
4.698291701362101
 40
4.698291701362101
 10
-66.20565817494207
 20
-564.7643220207856
 30
0.0
 10
-66.46670765642721
 20
-564.7643220207856
 30
0.0
 10
-66.99133240806578
 20
-564.6954097044921
 30
0.0
 10
-67.72265816745447
 20
-564.3923150021614
 30
0.0
 10
-68.35110239197277
 20
-563.9102226657809
 30
0.0
 10
-68.83319449791709
 20
-563.2817784322817
 30
0.0
 10
-69.13628899414219
 20
-562.5504528865316
 30
0.0
 10
-69.20520126144402
 20
-562.0258283409472
 30
0.0
 10
-69.20520126144402
 20
-561.7647789368231
 30
0.0
 11
-66.20565817494207
 21
-564.7643220207856
 31
0.0
 11
-66.98210781330272
 21
-564.6621092762644
 31
0.0
 11
-67.705539945302
 21
-564.3624664694026
 31
0.0
 11
-68.32671112612297
 21
-563.8858313215888
 31
0.0
 11
-68.80334601740469
 21
-563.2646601712468
 31
0.0
 11
-69.10298857788439
 21
-562.5412283491233
 31
0.0
 11
-69.20520126144402
 21
-561.7647789368231
 31
0.0
  0
LINE
  5
1000E
330
1F
100
AcDbEntity
  8
06___PRT_ALL_SURFS
  6
Continuous
 62
     7
370
     0
100
AcDbLine
 10
-69.95138385848054
 20
-548.3530060601493
 30
0.0
 11
-69.83628322762195
 21
-548.4752164100848
 31
0.0
  0
SPLINE
  5
1000F
330
1F
100
AcDbEntity
  8
06___PRT_ALL_SURFS
  6
Continuous
 62
     7
370
     0
100
AcDbSpline
210
0.0
220
0.0
230
1.0
 70
     8
 71
     3
 72
    11
 73
     7
 74
     5
 42
0.0000000001
 43
0.0000000001
 44
0.0000000001
 12
0.6732615136381419
 22
-0.7394044456545269
 32
0.0
 13
0.0
 23
-1.0
 33
0.0
 40
0.0
 40
0.0
 40
0.0
 40
0.0
 40
0.7958402759763001
 40
1.75914512017093
 40
2.722558071723147
 40
3.687806174795561
 40
3.687806174795561
 40
3.687806174795561
 40
3.687806174795561
 10
-69.83628322762161
 20
-548.475216410082
 30
0.0
 10
-69.65768035134894
 20
-548.6713656894445
 30
0.0
 10
-69.29678338551131
 20
-549.1370689070341
 30
0.0
 10
-68.87283628672484
 20
-549.945937153516
 30
0.0
 10
-68.59561282825463
 20
-550.8751734173481
 30
0.0
 10
-68.53318126182421
 20
-551.5197911301561
 30
0.0
 10
-68.53318126182421
 20
-551.8415404978469
 30
0.0
 11
-69.83628322762161
 21
-548.475216410082
 31
0.0
 11
-69.34893927216399
 21
-549.1043885756654
 31
0.0
 11
-68.90168157638618
 21
-549.9575689648073
 31
0.0
 11
-68.62634292208167
 21
-550.8807986982239
 31
0.0
 11
-68.53318126182421
 21
-551.8415404978469
 31
0.0
  0
SPLINE
  5
10010
330
1F
100
AcDbEntity
  8
06___PRT_ALL_SURFS
  6
Continuous
 62
     7
370
     0
100
AcDbSpline
210
0.0
220
0.0
230
1.0
 70
     8
 71
     3
 72
    12
 73
     8
 74
     6
 42
0.0000000001
 43
0.0000000001
 44
0.0000000001
 12
-0.6756182478187835
 22
0.7372516417169087
 32
0.0
 13
-1.0
 23
0.0
 33
0.0
 40
0.0
 40
0.0
 40
0.0
 40
0.0
 40
0.827998919056545
 40
1.655475709241706
 40
2.482916772498253
 40
3.310279089386249
 40
4.139611086769981
 40
4.139611086769981
 40
4.139611086769981
 40
4.139611086769981
 10
-69.95138385848258
 20
-548.5685779175465
 30
0.0
 10
-70.13785425144553
 20
-548.3650967300751
 30
0.0
 10
-70.54526971566218
 20
-547.9884783501931
 30
0.0
 10
-71.24046509794303
 20
-547.5327689702113
 30
0.0
 10
-72.00135928343496
 20
-547.1979214618849
 30
0.0
 10
-72.80737525714839
 20
-546.9930374049572
 30
0.0
 10
-73.36070612763612
 20
-546.9470324103232
 30
0.0
 10
-73.63715012676403
 20
-546.9470324103232
 30
0.0
 11
-69.95138385848258
 21
-548.5685779175465
 31
0.0
 11
-70.55943294210374
 21
-548.0065649978852
 31
0.0
 11
-71.25145551030437
 21
-547.5528882369681
 31
0.0
 11
-72.00880387622238
 21
-547.2195983244229
 31
0.0
 11
-72.81067450514456
 21
-547.0158045613235
 31
0.0
 11
-73.63715012676403
 21
-546.9470324103232
 31
0.0
  0
SPLINE
  5
10011
330
1F
100
AcDbEntity
  8
0
  6
Continuous
 62
     7
370
     0
100
AcDbSpline
210
0.0
220
0.0
230
1.0
 70
     8
 71
     3
 72
    14
 73
    10
 74
     8
 42
0.0000000001
 43
0.0000000001
 44
0.0000000001
 12
0.0
 22
1.0
 32
0.0
 13
-1.0
 23
0.0
 33
0.0
 40
0.0
 40
0.0
 40
0.0
 40
0.0
 40
1.119646482170273
 40
2.239143180765817
 40
3.358536137977716
 40
4.477891960455337
 40
5.597284609507066
 40
6.716780903431582
 40
7.836427165652938
 40
7.836427165652938
 40
7.836427165652938
 40
7.836427165652938
 10
-69.20520126144402
 20
-552.5135604974667
 30
0.0
 10
-69.20520126144402
 20
-552.1403450034099
 30
0.0
 10
-69.28946159338576
 20
-551.3912652284755
 30
0.0
 10
-69.66230489630703
 20
-550.3261213594653
 30
0.0
 10
-70.26288557577834
 20
-549.3701658983726
 30
0.0
 10
-71.06104580508014
 20
-548.5720058214212
 30
0.0
 10
-72.01700115216644
 20
-547.9714254213681
 30
0.0
 10
-73.08214475069688
 20
-547.5985823157448
 30
0.0
 10
-73.83122431566022
 20
-547.5143220225064
 30
0.0
 10
-74.20443973640067
 20
-547.5143220225064
 30
0.0
 11
-69.20520126144402
 21
-552.5135604974667
 31
0.0
 11
-69.33055149842402
 21
-551.4009529462047
 31
0.0
 11
-69.70028254458156
 21
-550.3442733298244
 31
0.0
 11
-70.29582615664185
 21
-549.3964503512098
 31
0.0
 11
-71.08733032420423
 21
-548.6049463335031
 31
0.0
 11
-72.03515313518074
 21
-548.0094030338651
 31
0.0
 11
-73.09183240104175
 21
-547.639672211225
 31
0.0
 11
-74.20443973640067
 21
-547.5143220225064
 31
0.0
  0
SPLINE
  5
10012
330
1F
100
AcDbEntity
  8
0
  6
Continuous
 62
     7
370
     0
100
AcDbSpline
210
0.0
220
0.0
230
1.0
 70
     8
 71
     3
 72
    13
 73
     9
 74
     7
 42
0.0000000001
 43
0.0000000001
 44
0.0000000001
 12
1.0
 22
0.0
 32
0.0
 13
0.0
 23
1.0
 33
0.0
 40
0.0
 40
0.0
 40
0.0
 40
0.0
 40
0.7831482148934846
 40
1.566180309786472
 40
2.349145454820629
 40
3.132110780200357
 40
3.915143258989019
 40
4.698291700926848
 40
4.698291700926848
 40
4.698291700926848
 40
4.698291700926848
 10
-19.67912954162602
 20
-564.0923020211658
 30
0.0
 10
-19.41808013666153
 20
-564.0923020211658
 30
0.0
 10
-18.89345559044633
 20
-564.0233897551824
 30
0.0
 10
-18.16213004664286
 20
-563.7202952555037
 30
0.0
 10
-17.53368580804413
 20
-563.2382031562484
 30
0.0
 10
-17.05159347821608
 20
-562.6097589256189
 30
0.0
 10
-16.74849877070445
 20
-561.8784331695483
 30
0.0
 10
-16.67958645512408
 20
-561.3538084178492
 30
0.0
 10
-16.67958645512408
 20
-561.0927589372032
 30
0.0
 11
-19.67912954162602
 21
-564.0923020211658
 31
0.0
 11
-18.9026801267828
 21
-563.9900893376062
 31
0.0
 11
-18.17924830720221
 21
-563.6904467771265
 31
0.0
 11
-17.55807715432093
 21
-563.2138118883841
 31
0.0
 11
-17.0814420090428
 21
-562.5926407050275
 31
0.0
 11
-16.78179919964532
 21
-561.8692085730246
 31
0.0
 11
-16.67958645512408
 21
-561.0927589372032
 31
0.0
  0
SPLINE
  5
10013
330
1F
100
AcDbEntity
  8
06___PRT_ALL_SURFS
  6
Continuous
 62
     7
370
     0
100
AcDbSpline
210
0.0
220
0.0
230
1.0
 70
     8
 71
     3
 72
     9
 73
     5
 74
     3
 42
0.0000000001
 43
0.0000000001
 44
0.0000000001
 12
-0.9925060663136626
 22
-0.1221953695136593
 32
0.0
 13
-1.0
 23
0.0
 33
0.0
 40
0.0
 40
0.0
 40
0.0
 40
0.0
 40
0.3047383556310685
 40
0.6124710233770691
 40
0.6124710233770691
 40
0.6124710233770691
 40
0.6124710233770691
 10
-73.67138385814541
 20
-498.0512346217247
 30
0.0
 10
-73.77220208034618
 20
-498.0636471603818
 30
0.0
 10
-73.9756363255068
 20
-498.082422558785
 30
0.0
 10
-74.17984218200786
 20
-498.0887072163233
 30
0.0
 10
-74.28241973792319
 20
-498.0887072163233
 30
0.0
 11
-73.67138385814541
 21
-498.0512346217247
 31
0.0
 11
-73.97483277626452
 21
-498.0792385408268
 31
0.0
 11
-74.28241973792319
 21
-498.0887072163233
 31
0.0
  0
SPLINE
  5
10014
330
1F
100
AcDbEntity
  8
06___PRT_ALL_SURFS
  6
Continuous
 62
     7
370
     0
100
AcDbSpline
210
0.0
220
0.0
230
1.0
 70
     8
 71
     3
 72
    11
 73
     7
 74
     5
 42
0.0000000001
 43
0.0000000001
 44
0.0000000001
 12
0.9897023381525901
 22
0.1431407763542452
 32
0.0
 13
0.5247048747914909
 23
0.8512842030544474
 33
0.0
 40
0.0
 40
0.0
 40
0.0
 40
0.0
 40
1.089456505052035
 40
2.181122557422196
 40
3.272719643480107
 40
4.364316688210207
 40
4.364316688210207
 40
4.364316688210207
 40
4.364316688210207
 10
-73.67138385814541
 20
-497.9324851462434
 30
0.0
 10
-73.31197130802357
 20
-497.880503262931
 30
0.0
 10
-72.60139758996976
 20
-497.6970852826813
 30
0.0
 10
-71.62202792583058
 20
-497.1976837686946
 30
0.0
 10
-70.77362287108456
 20
-496.4974377291776
 30
0.0
 10
-70.3223059560558
 20
-495.9178318578864
 30
0.0
 10
-70.13138385916318
 20
-495.6080787511265
 30
0.0
 11
-73.67138385814541
 21
-497.9324851462434
 31
0.0
 11
-72.6165549416437
 21
-497.6599939843464
 31
0.0
 11
-71.6439430997234
 21
-497.1642511328055
 31
0.0
 11
-70.80219149646291
 21
-496.4692414661832
 31
0.0
 11
-70.13138385916318
 21
-495.6080787511265
 31
0.0
  0
SPLINE
  5
10015
330
1F
100
AcDbEntity
  8
06___PRT_ALL_SURFS
  6
Continuous
 62
     7
370
     0
100
AcDbSpline
210
0.0
220
0.0
230
1.0
 70
     8
 71
     3
 72
    10
 73
     6
 74
     4
 42
0.0000000001
 43
0.0000000001
 44
0.0000000001
 12
0.0
 22
-1.0
 32
0.0
 13
-0.5174234554717389
 23
-0.8557294944827397
 33
0.0
 40
0.0
 40
0.0
 40
0.0
 40
0.0
 40
0.9845131485786522
 40
1.967546449997213
 40
2.715835590623077
 40
2.715835590623077
 40
2.715835590623077
 40
2.715835590623077
 10
-69.28318126296289
 20
-493.089468741363
 30
0.0
 10
-69.28318126296289
 20
-493.4176397908892
 30
0.0
 10
-69.34816038535598
 20
-494.0753036024768
 30
0.0
 10
-69.61365868533871
 20
-494.9467108180254
 30
0.0
 10
-69.87577374454506
 20
-495.4635849033286
 30
0.0
 10
-70.00483452882327
 20
-495.6770292660068
 30
0.0
 11
-69.28318126296289
 21
-493.089468741363
 31
0.0
 11
-69.38009890504327
 21
-494.0691998832472
 31
0.0
 11
-69.66654486758489
 21
-495.0095738419687
 31
0.0
 11
-70.00483452882327
 21
-495.6770292660068
 31
0.0
  0
LINE
  5
10016
330
1F
100
AcDbEntity
  8
06___PRT_ALL_SURFS
  6
Continuous
 62
     7
370
     0
100
AcDbLine
 10
-70.0048345288219
 20
-495.6770292660086
 30
0.0
 11
-70.13138385916147
 21
-495.8755825214264
 31
0.0
  0
SPLINE
  5
10017
330
1F
100
AcDbEntity
  8
0
  6
Continuous
 62
     7
370
     0
100
AcDbSpline
210
0.0
220
0.0
230
1.0
 70
     8
 71
     3
 72
    14
 73
    10
 74
     8
 42
0.0000000001
 43
0.0000000001
 44
0.0000000001
 12
1.0
 22
0.0
 32
0.0
 13
0.0
 23
1.0
 33
0.0
 40
0.0
 40
0.0
 40
0.0
 40
0.0
 40
1.119646482166251
 40
2.239143180764198
 40
3.358536137980322
 40
4.477891960452799
 40
5.597284609506463
 40
6.716780903429778
 40
7.836427165655155
 40
7.836427165655155
 40
7.836427165655155
 40
7.836427165655155
 10
-74.954439737543
 20
-497.4166872167034
 30
0.0
 10
-74.58122424348758
 20
-497.4166872167034
 30
0.0
 10
-73.8321444685517
 20
-497.3324268847696
 30
0.0
 10
-72.7670005995473
 20
-496.9595835818312
 30
0.0
 10
-71.81104513844454
 20
-496.3590029023755
 30
0.0
 10
-71.01288506150263
 20
-495.5608426730627
 30
0.0
 10
-70.41230466144208
 20
-494.6048873259836
 30
0.0
 10
-70.03946155582719
 20
-493.539743727448
 30
0.0
 10
-69.9552012625827
 20
-492.790664162485
 30
0.0
 10
-69.9552012625827
 20
-492.4174487417432
 30
0.0
 11
-74.954439737543
 21
-497.4166872167034
 31
0.0
 11
-73.84183218628459
 21
-497.2913369797271
 31
0.0
 11
-72.78515256990431
 21
-496.9216059335622
 31
0.0
 11
-71.83732959128247
 21
-496.3260623215056
 31
0.0
 11
-71.04582557358298
 21
-495.5345581539432
 31
0.0
 11
-70.45028227394141
 21
-494.5867353429668
 31
0.0
 11
-70.08055145130493
 21
-493.5300560771057
 31
0.0
 11
-69.9552012625827
 21
-492.4174487417432
 31
0.0
  0
SPLINE
  5
10018
330
1F
100
AcDbEntity
  8
0
  6
Continuous
 62
     7
370
     0
100
AcDbSpline
210
0.0
220
0.0
230
1.0
 70
     8
 71
     3
 72
    12
 73
     8
 74
     6
 42
0.0000000001
 43
0.0000000001
 44
0.0000000001
 12
0.0
 22
1.0
 32
0.0
 13
-1.0
 23
0.0
 33
0.0
 40
0.0
 40
0.0
 40
0.0
 40
0.0
 40
0.3129067597190154
 40
0.6257741460140443
 40
0.9386093694998995
 40
1.251431919756666
 40
1.564266035933341
 40
1.564266035933341
 40
1.564266035933341
 40
1.564266035933341
 10
-6.049914534421986
 20
-498.221252158247
 30
0.0
 10
-6.049914534421986
 20
-498.1169499050073
 30
0.0
 10
-6.083085622702553
 20
-497.9068881091244
 30
0.0
 10
-6.227452421057553
 20
-497.6237401605065
 30
0.0
 10
-6.452393969256646
 20
-497.3987845578475
 30
0.0
 10
-6.735499756856256
 20
-497.2544211738981
 30
0.0
 10
-6.945522268338729
 20
-497.2212521516476
 30
0.0
 10
-7.049800307064288
 20
-497.2212521516476
 30
0.0
 11
-6.049914534421986
 21
-498.221252158247
 31
0.0
 11
-6.098859384463139
 21
-497.912197079123
 31
0.0
 11
-6.240890444063552
 21
-497.6334262422052
 31
0.0
 11
-6.46209271438056
 21
-497.4122126968242
 31
0.0
 11
-6.740817747482651
 21
-497.2701905018285
 31
0.0
 11
-7.049800307064288
 21
-497.2212521516476
 31
0.0
  0
SPLINE
  5
10019
330
1F
100
AcDbEntity
  8
0
  6
Continuous
 62
     7
370
     0
100
AcDbSpline
210
0.0
220
0.0
230
1.0
 70
     8
 71
     3
 72
    14
 73
    10
 74
     8
 42
0.0000000001
 43
0.0000000001
 44
0.0000000001
 12
1.0
 22
0.0
 32
0.0
 13
0.0
 23
1.0
 33
0.0
 40
0.0
 40
0.0
 40
0.0
 40
0.0
 40
0.8957161203961669
 40
1.791402237473282
 40
2.687067617498496
 40
3.582725629981603
 40
4.478391071749787
 40
5.37407727106042
 40
6.269793432690636
 40
6.269793432690636
 40
6.269793432690636
 40
6.269793432690636
 10
-10.04976222686309
 20
-504.7219739446838
 30
0.0
 10
-9.751190186731038
 20
-504.7219739446838
 30
0.0
 10
-9.151897441324244
 20
-504.654554784946
 30
0.0
 10
-8.299711346915053
 20
-504.3562405407211
 30
0.0
 10
-7.534834518352356
 20
-503.8756948130807
 30
0.0
 10
-6.896193770106288
 20
-503.2370540912596
 30
0.0
 10
-6.415647984270334
 20
-502.4721772414061
 30
0.0
 10
-6.11733369933917
 20
-501.6199910932559
 30
0.0
 10
-6.049914534421986
 20
-501.020698306123
 30
0.0
 10
-6.049914534421986
 20
-500.7221262522462
 30
0.0
 11
-10.04976222686309
 21
-504.7219739446838
 31
0.0
 11
-9.159677946583542
 21
-504.6216876428435
 31
0.0
 11
-8.314253676042426
 21
-504.3258643457476
 31
0.0
 11
-7.555870930682431
 21
-503.8493435334886
 31
0.0
 11
-6.922545062461722
 21
-503.2160176932076
 31
0.0
 11
-6.446024186705471
 21
-502.4576349148256
 31
0.0
 11
-6.150200843883794
 21
-501.612210573162
 31
0.0
 11
-6.049914534421986
 21
-500.7221262522462
 31
0.0
  0
SPLINE
  5
1001A
330
1F
100
AcDbEntity
  8
0
  6
Continuous
 62
     7
370
     0
100
AcDbSpline
210
0.0
220
0.0
230
1.0
 70
     8
 71
     3
 72
    14
 73
    10
 74
     8
 42
0.0000000001
 43
0.0000000001
 44
0.0000000001
 12
0.0
 22
-1.0
 32
0.0
 13
1.0
 23
0.0
 33
0.0
 40
0.0
 40
0.0
 40
0.0
 40
0.0
 40
0.8957161178728238
 40
1.79140223495114
 40
2.687067617126452
 40
3.582725629609559
 40
4.47839107137968
 40
5.374077269843571
 40
6.269793431764916
 40
6.269793431764916
 40
6.269793431764916
 40
6.269793431764916
 10
-15.41285318468363
 20
-500.7221262522462
 30
0.0
 10
-15.41285318468363
 20
-501.0206982915372
 30
0.0
 10
-15.34543402471381
 20
-501.6199910361314
 30
0.0
 10
-15.0471197800287
 20
-502.4721771300258
 30
0.0
 10
-14.56657405398451
 20
-503.237053960564
 30
0.0
 10
-13.92793333106422
 20
-503.8756947086251
 30
0.0
 10
-13.16305648201015
 20
-504.3562404958838
 30
0.0
 10
-12.31087033243903
 20
-504.6545547752564
 30
0.0
 10
-11.7115775462163
 20
-504.7219739446838
 30
0.0
 10
-11.41300549224252
 20
-504.7219739446838
 30
0.0
 11
-15.41285318468363
 21
-500.7221262522462
 31
0.0
 11
-15.31256688284338
 21
-501.6122105299865
 31
0.0
 11
-15.01674358574382
 21
-502.4576348005276
 31
0.0
 11
-14.54022277348485
 21
-503.2160175484269
 31
0.0
 11
-13.90689693320382
 21
-503.8493434166476
 31
0.0
 11
-13.14851415482189
 21
-504.3258642924075
 31
0.0
 11
-12.30308981316557
 21
-504.6216876326862
 31
0.0
 11
-11.41300549224252
 21
-504.7219739446838
 31
0.0
  0
SPLINE
  5
1001B
330
1F
100
AcDbEntity
  8
0
  6
Continuous
 62
     7
370
     0
100
AcDbSpline
210
0.0
220
0.0
230
1.0
 70
     8
 71
     3
 72
    12
 73
     8
 74
     6
 42
0.0000000001
 43
0.0000000001
 44
0.0000000001
 12
-1.0
 22
0.0
 32
0.0
 13
0.0
 23
-1.0
 33
0.0
 40
0.0
 40
0.0
 40
0.0
 40
0.0
 40
0.3128339998300488
 40
0.6256564713359385
 40
0.9384917415179192
 40
1.251359247299534
 40
1.564266036200078
 40
1.564266036200078
 40
1.564266036200078
 40
1.564266036200078
 10
-14.41296741204496
 20
-497.2212521516476
 30
0.0
 10
-14.51724541198831
 20
-497.2212521516476
 30
0.0
 10
-14.72726785741444
 20
-497.2544211479674
 30
0.0
 10
-15.01037361978334
 20
-497.3987844655219
 30
0.0
 10
-15.23531522947596
 20
-497.6237400507198
 30
0.0
 10
-15.37968208378355
 20
-497.9068880498184
 30
0.0
 10
-15.41285318468363
 20
-498.1169498952802
 30
0.0
 10
-15.41285318468363
 20
-498.221252158247
 30
0.0
 11
-14.41296741204496
 21
-497.2212521516476
 31
0.0
 11
-14.72194985986425
 21
-497.270190463728
 31
0.0
 11
-15.00067484470128
 21
-497.4122125799868
 31
0.0
 11
-15.22187718614077
 21
-497.6334261202857
 31
0.0
 11
-15.3639083244816
 21
-497.912197051187
 31
0.0
 11
-15.41285318468363
 21
-498.221252158247
 31
0.0
  0
SPLINE
  5
1001C
330
1F
100
AcDbEntity
  8
0
  6
Continuous
 62
     7
370
     0
100
AcDbSpline
210
0.0
220
0.0
230
1.0
 70
     8
 71
     3
 72
    14
 73
    10
 74
     8
 42
0.0000000001
 43
0.0000000001
 44
0.0000000001
 12
-1.0
 22
0.0
 32
0.0
 13
0.0
 23
1.0
 33
0.0
 40
0.0
 40
0.0
 40
0.0
 40
0.0
 40
0.8957161619181373
 40
1.791402360385462
 40
2.687067802154437
 40
3.582725814634972
 40
4.478391196807203
 40
5.37407731388552
 40
6.269793431758752
 40
6.269793431758752
 40
6.269793431758752
 40
6.269793431758752
 10
-11.74026303432401
 20
-505.0492314867653
 30
0.0
 10
-12.03883508829673
 20
-505.0492314867653
 30
0.0
 10
-12.63812787451836
 20
-504.9818123173308
 30
0.0
 10
-13.4903140240916
 20
-504.6834980379651
 30
0.0
 10
-14.25519087314016
 20
-504.2029522506973
 30
0.0
 10
-14.89383159606241
 20
-503.5643115026426
 30
0.0
 10
-15.37437732210775
 20
-502.7994346721064
 30
0.0
 10
-15.67269156678992
 20
-501.9472485782126
 30
0.0
 10
-15.74011072676512
 20
-501.3479558336189
 30
0.0
 10
-15.74011072676512
 20
-501.0493837943278
 30
0.0
 11
-11.74026303432401
 21
-505.0492314867653
 31
0.0
 11
-12.63034735524343
 21
-504.9489451747641
 31
0.0
 11
-13.47577169690339
 21
-504.6531218344854
 31
0.0
 11
-14.23415447528168
 21
-504.1766009587218
 31
0.0
 11
-14.86748031556271
 21
-503.5432750905048
 31
0.0
 11
-15.34400112782168
 21
-502.7848923426091
 31
0.0
 11
-15.63982442492124
 21
-501.939468072068
 31
0.0
 11
-15.74011072676512
 21
-501.0493837943278
 31
0.0
  0
SPLINE
  5
1001D
330
1F
100
AcDbEntity
  8
0
  6
Continuous
 62
     7
370
     0
100
AcDbSpline
210
0.0
220
0.0
230
1.0
 70
     8
 71
     3
 72
    14
 73
    10
 74
     8
 42
0.0000000001
 43
0.0000000001
 44
0.0000000001
 12
0.0
 22
-1.0
 32
0.0
 13
-1.0
 23
0.0
 33
0.0
 40
0.0
 40
0.0
 40
0.0
 40
0.0
 40
0.8957161619145223
 40
1.791402361223953
 40
2.687067801640004
 40
3.582725815916101
 40
4.478391195943251
 40
5.374077313021568
 40
6.269793430894392
 40
6.269793430894392
 40
6.269793430894392
 40
6.269793430894392
 10
-5.731383858303161
 20
-501.0406569258294
 30
0.0
 10
-5.731383858303161
 20
-501.339228979801
 30
0.0
 10
-5.798803026681616
 20
-501.9385217667651
 30
0.0
 10
-6.097117310979612
 20
-502.7907079140739
 30
0.0
 10
-6.577663093588172
 20
-503.5555847665375
 30
0.0
 10
-7.216303844920338
 20
-504.1942254857173
 30
0.0
 10
-7.981180673157107
 20
-504.6747712144888
 30
0.0
 10
-8.83336676699889
 20
-504.9730854581148
 30
0.0
 10
-9.432659511453326
 20
-505.0405046182669
 30
0.0
 10
-9.731231550744269
 20
-505.0405046182669
 30
0.0
 11
-5.731383858303161
 21
-501.0406569258294
 31
0.0
 11
-5.831670170304278
 21
-501.9307412467452
 31
0.0
 11
-6.127493513122317
 21
-502.7761655884088
 31
0.0
 11
-6.604014386342896
 21
-503.5345483667871
 31
0.0
 11
-7.237340257102914
 21
-504.1678742070645
 31
0.0
 11
-7.995723002462909
 21
-504.6443950193271
 31
0.0
 11
-8.841147273004025
 21
-504.9402183164267
 31
0.0
 11
-9.731231550744269
 21
-505.0405046182669
 31
0.0
  0
SPLINE
  5
1001E
330
1F
100
AcDbEntity
  8
0
  6
Continuous
 62
     7
370
     0
100
AcDbSpline
210
0.0
220
0.0
230
1.0
 70
     8
 71
     3
 72
    12
 73
     8
 74
     6
 42
0.0000000001
 43
0.0000000001
 44
0.0000000001
 12
0.0
 22
1.0
 32
0.0
 13
1.0
 23
0.0
 33
0.0
 40
0.0
 40
0.0
 40
0.0
 40
0.0
 40
0.3129067863924913
 40
0.6257742944334384
 40
0.9386095628223834
 40
1.251432034331514
 40
1.564266034161563
 40
1.564266034161563
 40
1.564266034161563
 40
1.564266034161563
 10
-15.74011072676512
 20
-497.5666872215071
 30
0.0
 10
-15.74011072676512
 20
-497.4623849593762
 30
0.0
 10
-15.70693962461206
 20
-497.2523231144923
 30
0.0
 10
-15.56257277324133
 20
-496.9691751144027
 30
0.0
 10
-15.33763116079943
 20
-496.7442195315077
 30
0.0
 10
-15.05452539964276
 20
-496.5998562136353
 30
0.0
 10
-14.84450295406617
 20
-496.5666872174471
 30
0.0
 10
-14.74022495412282
 20
-496.5666872174471
 30
0.0
 11
-15.74011072676512
 21
-497.5666872215071
 31
0.0
 11
-15.69116586656309
 21
-497.2576321169864
 31
0.0
 11
-15.54913472822227
 21
-496.9788611835493
 31
0.0
 11
-15.32793238678278
 21
-496.7576476457862
 31
0.0
 11
-15.04920740194211
 21
-496.6156255295273
 31
0.0
 11
-14.74022495412282
 21
-496.5666872174471
 31
0.0
  0
SPLINE
  5
1001F
330
1F
100
AcDbEntity
  8
0
  6
Continuous
 62
     7
370
     0
100
AcDbSpline
210
0.0
220
0.0
230
1.0
 70
     8
 71
     3
 72
    12
 73
     8
 74
     6
 42
0.0000000001
 43
0.0000000001
 44
0.0000000001
 12
1.0
 22
0.0
 32
0.0
 13
0.0
 23
-1.0
 33
0.0
 40
0.0
 40
0.0
 40
0.0
 40
0.0
 40
0.312834116176675
 40
0.6256566698504721
 40
0.9384918933388997
 40
1.25135927963876
 40
1.564266036842536
 40
1.564266036842536
 40
1.564266036842536
 40
1.564266036842536
 10
-6.731269633484771
 20
-496.5841422803233
 30
0.0
 10
-6.626991594759212
 20
-496.5841422803233
 30
0.0
 10
-6.416969081974894
 20
-496.6173113024789
 30
0.0
 10
-6.133863294214731
 20
-496.7616746887138
 30
0.0
 10
-5.908921744831603
 20
-496.9866302915963
 30
0.0
 10
-5.764554947116335
 20
-497.2697782396362
 30
0.0
 10
-5.731383858303161
 20
-497.479840034525
 30
0.0
 10
-5.731383858303161
 20
-497.5841422869263
 30
0.0
 11
-6.731269633484771
 21
-496.5841422803233
 31
0.0
 11
-6.422287073903135
 21
-496.6330806305042
 31
0.0
 11
-6.143562038261734
 21
-496.7751028280428
 31
0.0
 11
-5.922359767941088
 21
-496.9963163734238
 31
0.0
 11
-5.780328708344313
 21
-497.2750872103489
 31
0.0
 11
-5.731383858303161
 21
-497.5841422869263
 31
0.0
  0
SPLINE
  5
10020
330
1F
100
AcDbEntity
  8
0
  6
Continuous
 62
     7
370
     0
100
AcDbSpline
210
0.0
220
0.0
230
1.0
 70
     8
 71
     3
 72
    14
 73
    10
 74
     8
 42
0.0000000001
 43
0.0000000001
 44
0.0000000001
 12
-1.0
 22
0.0
 32
0.0
 13
0.0
 23
-1.0
 33
0.0
 40
0.0
 40
0.0
 40
0.0
 40
0.0
 40
1.119646482166658
 40
2.239143180763403
 40
3.358536137983398
 40
4.477891960450731
 40
5.597284609510555
 40
6.716780901037047
 40
7.836427165782155
 40
7.836427165782155
 40
7.836427165782155
 40
7.836427165782155
 10
-11.00832798054398
 20
-556.1643220224424
 30
0.0
 10
-11.38154347459953
 20
-556.1643220224424
 30
0.0
 10
-12.13062324953219
 20
-556.2485823543839
 30
0.0
 10
-13.19576711854847
 20
-556.6214256573098
 30
0.0
 10
-14.15172257961792
 20
-557.2220063367856
 30
0.0
 10
-14.9498826566613
 20
-558.0201665660613
 30
0.0
 10
-15.55046305594626
 20
-558.9761219125693
 30
0.0
 10
-15.92330616308762
 20
-560.0412655106363
 30
0.0
 10
-16.00756645550427
 20
-560.7903450758247
 30
0.0
 10
-16.00756645550427
 20
-561.1635604974063
 30
0.0
 11
-11.00832798054398
 21
-556.1643220224424
 31
0.0
 11
-12.12093553180239
 21
-556.2896722594224
 31
0.0
 11
-13.17761514818267
 21
-556.6594033055836
 31
0.0
 11
-14.12543812680451
 21
-557.2549469176475
 31
0.0
 11
-14.91694214450399
 21
-558.0464510852026
 31
0.0
 11
-15.51248544414557
 21
-558.9942738961864
 31
0.0
 11
-15.88221626678205
 21
-560.0509531595081
 31
0.0
 11
-16.00756645550427
 21
-561.1635604974063
 31
0.0
  0
SPLINE
  5
10021
330
1F
100
AcDbEntity
  8
0
  6
Continuous
 62
     7
370
     0
100
AcDbSpline
210
0.0
220
0.0
230
1.0
 70
     8
 71
     3
 72
    10
 73
     6
 74
     4
 42
0.0000000001
 43
0.0000000001
 44
0.0000000001
 12
0.0
 22
1.0
 32
0.0
 13
0.5174234554717389
 23
0.8557294944827397
 33
0.0
 40
0.0
 40
0.0
 40
0.0
 40
0.0
 40
0.9845131485750318
 40
1.967546452422707
 40
2.715835593048571
 40
2.715835593048571
 40
2.715835593048571
 40
2.715835593048571
 10
-16.67958645512408
 20
-560.4915404977865
 30
0.0
 10
-16.67958645512408
 20
-560.1633694482615
 30
0.0
 10
-16.61460733230653
 20
-559.505705635965
 30
0.0
 10
-16.34910903329192
 20
-558.6342984192624
 30
0.0
 10
-16.08699397354191
 20
-558.1174243332854
 30
0.0
 10
-15.95793318926371
 20
-557.9039799706071
 30
0.0
 11
-16.67958645512408
 21
-560.4915404977865
 31
0.0
 11
-16.58266881304371
 21
-559.5118093559059
 31
0.0
 11
-16.29622285050209
 21
-558.5714353946451
 31
0.0
 11
-15.95793318926371
 21
-557.9039799706071
 31
0.0
  0
LINE
  5
10022
330
1F
100
AcDbEntity
  8
0
  6
Continuous
 62
     7
370
     0
100
AcDbLine
 10
-15.95793318926212
 20
-557.9039799706079
 30
0.0
 11
-15.83138385892255
 21
-557.7054267177255
 31
0.0
  0
SPLINE
  5
10023
330
1F
100
AcDbEntity
  8
0
  6
Continuous
 62
     7
370
     0
100
AcDbSpline
210
0.0
220
0.0
230
1.0
 70
     8
 71
     3
 72
    11
 73
     7
 74
     5
 42
0.0000000001
 43
0.0000000001
 44
0.0000000001
 12
-0.9897023381525901
 22
-0.1431407763542452
 32
0.0
 13
-0.5247048747914909
 23
-0.8512842030544474
 33
0.0
 40
0.0
 40
0.0
 40
0.0
 40
0.0
 40
1.089456505052035
 40
2.181122556270707
 40
3.272719642323986
 40
4.364316687059826
 40
4.364316687059826
 40
4.364316687059826
 40
4.364316687059826
 10
-12.29138385994156
 20
-555.6485240929061
 30
0.0
 10
-12.65079641006341
 20
-555.7005059762185
 30
0.0
 10
-13.36137012735183
 20
-555.8839239571337
 30
0.0
 10
-14.34073979294989
 20
-556.3833254673892
 30
0.0
 10
-15.18914484689412
 20
-557.0835715076502
 30
0.0
 10
-15.64046176203017
 20
-557.6631773787259
 30
0.0
 10
-15.8313838589238
 20
-557.9729304854874
 30
0.0
 11
-12.29138385994156
 21
-555.6485240929061
 31
0.0
 11
-13.34621277644328
 21
-555.9210152548031
 31
0.0
 11
-14.31882461836358
 21
-556.4167581038083
 31
0.0
 11
-15.16057622162407
 21
-557.1117677704234
 31
0.0
 11
-15.8313838589238
 21
-557.9729304854874
 31
0.0
  0
SPLINE
  5
10024
330
1F
100
AcDbEntity
  8
06___PRT_ALL_SURFS
  6
Continuous
 62
     7
370
     0
100
AcDbSpline
210
0.0
220
0.0
230
1.0
 70
     8
 71
     3
 72
    12
 73
     8
 74
     6
 42
0.0000000001
 43
0.0000000001
 44
0.0000000001
 12
-1.0
 22
0.0
 32
0.0
 13
0.0
 23
1.0
 33
0.0
 40
0.0
 40
0.0
 40
0.0
 40
0.0
 40
0.312834116176675
 40
0.6256566686959677
 40
0.9384918921843954
 40
1.251359278477772
 40
1.564266038196788
 40
1.564266038196788
 40
1.564266038196788
 40
1.564266038196788
 10
-79.2314980846022
 20
-556.9968669562832
 30
0.0
 10
-79.33577612332776
 20
-556.9968669562832
 30
0.0
 10
-79.54579863533396
 20
-556.963697933435
 30
0.0
 10
-79.82890442456228
 20
-556.8193345509451
 30
0.0
 10
-80.05384597311092
 20
-556.5943789473406
 30
0.0
 10
-80.19821277151406
 20
-556.3112309988298
 30
0.0
 10
-80.23138385978382
 20
-556.1011692029236
 30
0.0
 10
-80.23138385978382
 20
-555.9968669496839
 30
0.0
 11
-79.2314980846022
 21
-556.9968669562832
 31
0.0
 11
-79.54048064418384
 21
-556.9479286061024
 31
0.0
 11
-79.81920567982524
 21
-556.8059064111067
 31
0.0
 11
-80.04040795014589
 21
-556.5846928657257
 31
0.0
 11
-80.18243900974267
 21
-556.3059220288079
 31
0.0
 11
-80.23138385978382
 21
-555.9968669496839
 31
0.0
  0
SPLINE
  5
10025
330
1F
100
AcDbEntity
  8
0
  6
Continuous
 62
     7
370
     0
100
AcDbSpline
210
0.0
220
0.0
230
1.0
 70
     8
 71
     3
 72
     9
 73
     5
 74
     3
 42
0.0000000001
 43
0.0000000001
 44
0.0000000001
 12
0.9925060663136626
 22
0.1221953695136593
 32
0.0
 13
1.0
 23
0.0
 33
0.0
 40
0.0
 40
0.0
 40
0.0
 40
0.0
 40
0.3047383553973844
 40
0.6124710231436089
 40
0.6124710231436089
 40
0.6124710231436089
 40
0.6124710231436089
 10
-12.29138385994156
 20
-555.5297746148855
 30
0.0
 10
-12.19056563781811
 20
-555.5173620762379
 30
0.0
 10
-11.98713139238467
 20
-555.4985866816411
 30
0.0
 10
-11.78292553607919
 20
-555.4923020228226
 30
0.0
 10
-11.68034798016378
 20
-555.4923020228226
 30
0.0
 11
-12.29138385994156
 21
-555.5297746148855
 31
0.0
 11
-11.98793494182246
 21
-555.5017706983263
 31
0.0
 11
-11.68034798016378
 21
-555.4923020228226
 31
0.0
  0
SPLINE
  5
10026
330
1F
100
AcDbEntity
  8
0
  6
Continuous
 62
     7
370
     0
100
AcDbSpline
210
0.0
220
0.0
230
1.0
 70
     8
 71
     3
 72
    13
 73
     9
 74
     7
 42
0.0000000001
 43
0.0000000001
 44
0.0000000001
 12
0.0
 22
-1.0
 32
0.0
 13
-1.0
 23
0.0
 33
0.0
 40
0.0
 40
0.0
 40
0.0
 40
0.0
 40
0.7831484419378297
 40
1.566180920726491
 40
2.349146246106219
 40
3.132111391140376
 40
3.915143486033364
 40
4.698291700923242
 40
4.698291700923242
 40
4.698291700923242
 40
4.698291700923242
 10
-16.00756645550427
 20
-561.7647789368231
 30
0.0
 10
-16.00756645550427
 20
-562.025828417469
 30
0.0
 10
-16.07647877108464
 20
-562.5504531691683
 30
0.0
 10
-16.37957347859626
 20
-563.2817789252385
 30
0.0
 10
-16.86166580842433
 20
-563.9102231558683
 30
0.0
 10
-17.49011004702305
 20
-564.3923152551235
 30
0.0
 10
-18.22143559082541
 20
-564.6954097548017
 30
0.0
 10
-18.74606013703929
 20
-564.7643220207856
 30
0.0
 10
-19.00710954200258
 20
-564.7643220207856
 30
0.0
 11
-16.00756645550427
 21
-561.7647789368231
 31
0.0
 11
-16.10977920002551
 21
-562.5412285726444
 31
0.0
 11
-16.409422009423
 21
-563.2646607046473
 31
0.0
 11
-16.88605715470112
 21
-563.8858318880039
 31
0.0
 11
-17.50722830758241
 21
-564.3624667767463
 31
0.0
 11
-18.23066012716299
 21
-564.662109337226
 31
0.0
 11
-19.00710954200258
 21
-564.7643220207856
 31
0.0
  0
SPLINE
  5
10027
330
1F
100
AcDbEntity
  8
0
  6
Continuous
 62
     7
370
     0
100
AcDbSpline
210
0.0
220
0.0
230
1.0
 70
     8
 71
     3
 72
    13
 73
     9
 74
     7
 42
0.0000000001
 43
0.0000000001
 44
0.0000000001
 12
0.0
 22
-1.0
 32
0.0
 13
-1.0
 23
0.0
 33
0.0
 40
0.0
 40
0.0
 40
0.0
 40
0.0
 40
0.7831484419342228
 40
1.566180923072275
 40
2.349146246439638
 40
3.132111393016729
 40
3.915143486941362
 40
4.698291702162183
 40
4.698291702162183
 40
4.698291702162183
 40
4.698291702162183
 10
-7.507566455282358
 20
-553.1647789359441
 30
0.0
 10
-7.507566455282358
 20
-553.4258284165888
 30
0.0
 10
-7.576478771573333
 20
-553.9504531687263
 30
0.0
 10
-7.879573476698038
 20
-554.6817789263802
 30
0.0
 10
-8.361665810127469
 20
-555.3102231545521
 30
0.0
 10
-8.990110045114835
 20
-555.7923152581738
 30
0.0
 10
-9.721435591691498
 20
-556.0954097518373
 30
0.0
 10
-10.24606013671069
 20
-556.1643220224424
 30
0.0
 10
-10.5071095417843
 20
-556.1643220224424
 30
0.0
 11
-7.507566455282358
 21
-553.1647789359441
 31
0.0
 11
-7.609779199803597
 21
-553.9412285717618
 31
0.0
 11
-7.90942200920108
 21
-554.6646607063077
 31
0.0
 11
-8.386057154482841
 21
-555.285831887125
 31
0.0
 11
-9.007228307360492
 21
-555.7624667784067
 31
0.0
 11
-9.730660126944712
 21
-556.0621093363471
 31
0.0
 11
-10.5071095417843
 21
-556.1643220224424
 31
0.0
  0
SPLINE
  5
10028
330
1F
100
AcDbEntity
  8
0
  6
Continuous
 62
     7
370
     0
100
AcDbSpline
210
0.0
220
0.0
230
1.0
 70
     8
 71
     3
 72
    13
 73
     9
 74
     7
 42
0.0000000001
 43
0.0000000001
 44
0.0000000001
 12
1.0
 22
0.0
 32
0.0
 13
0.0
 23
-1.0
 33
0.0
 40
0.0
 40
0.0
 40
0.0
 40
0.0
 40
0.7831484444554184
 40
1.566180923245472
 40
2.34914624661062
 40
3.132111393190597
 40
3.915143488080224
 40
4.698291702970102
 40
4.698291702970102
 40
4.698291702970102
 40
4.698291702970102
 10
-19.75710954314491
 20
-488.8166872158246
 30
0.0
 10
-19.49606006165977
 20
-488.8166872158246
 30
0.0
 10
-18.97143530919216
 20
-488.8855995311555
 30
0.0
 10
-18.24010955227656
 20
-489.1886942380616
 30
0.0
 10
-17.6116653241976
 20
-489.6707865704829
 30
0.0
 10
-17.12957322187085
 20
-490.2992308063294
 30
0.0
 10
-16.82647872280762
 20
-491.0305563512996
 30
0.0
 10
-16.75756645664296
 20
-491.5551808973596
 30
0.0
 10
-16.75756645664296
 20
-491.8162303023229
 30
0.0
 11
-19.75710954314491
 21
-488.8166872158246
 31
0.0
 11
-18.98065990478426
 21
-488.9188999603458
 31
0.0
 11
-18.25722777278133
 21
-489.2185427697469
 31
0.0
 11
-17.636056591964
 21
-489.695177915025
 31
0.0
 11
-17.15942170068229
 21
-490.3163490679063
 31
0.0
 11
-16.85977914020259
 21
-491.0397808874832
 31
0.0
 11
-16.75756645664296
 21
-491.8162303023229
 31
0.0
  0
SPLINE
  5
10029
330
1F
100
AcDbEntity
  8
0
  6
Continuous
 62
     7
370
     0
100
AcDbSpline
210
0.0
220
0.0
230
1.0
 70
     8
 71
     3
 72
    13
 73
     9
 74
     7
 42
0.0000000001
 43
0.0000000001
 44
0.0000000001
 12
1.0
 22
0.0
 32
0.0
 13
0.0
 23
-1.0
 33
0.0
 40
0.0
 40
0.0
 40
0.0
 40
0.0
 40
0.7831484419378297
 40
1.566180923070552
 40
2.349146246440802
 40
3.132111389460379
 40
3.915143486694645
 40
4.698291701916415
 40
4.698291701916415
 40
4.698291701916415
 40
4.698291701916415
 10
-10.5071095417843
 20
-506.066687216643
 30
0.0
 10
-10.24606006113836
 20
-506.066687216643
 30
0.0
 10
-9.721435308972608
 20
-506.1355995329125
 30
0.0
 10
-8.990109551447265
 20
-506.4386942381299
 30
0.0
 10
-8.361665323769356
 20
-506.9207865705253
 30
0.0
 10
-7.879573221562891
 20
-507.5492308062252
 30
0.0
 10
-7.57647872562345
 20
-508.2805563517546
 30
0.0
 10
-7.507566455282358
 20
-508.805180898071
 30
0.0
 10
-7.507566455282358
 20
-509.066230303145
 30
0.0
 11
-10.5071095417843
 21
-506.066687216643
 31
0.0
 11
-9.730659905962966
 21
-506.1688999611643
 31
0.0
 11
-9.007227771424368
 21
-506.4685427705654
 31
0.0
 11
-8.386056590603402
 21
-506.9451779158472
 31
0.0
 11
-7.909421701860992
 21
-507.5663490661892
 31
0.0
 11
-7.609779141384933
 21
-508.2897808883054
 31
0.0
 11
-7.507566455282358
 21
-509.066230303145
 31
0.0
  0
SPLINE
  5
1002A
330
1F
100
AcDbEntity
  8
06___PRT_ALL_SURFS
  6
Continuous
 62
     7
370
     0
100
AcDbSpline
210
0.0
220
0.0
230
1.0
 70
     8
 71
     3
 72
    14
 73
    10
 74
     8
 42
0.0000000001
 43
0.0000000001
 44
0.0000000001
 12
0.0
 22
1.0
 32
0.0
 13
1.0
 23
0.0
 33
0.0
 40
0.0
 40
0.0
 40
0.0
 40
0.0
 40
0.8957161619217524
 40
1.791402358824067
 40
2.687067801393296
 40
3.582725815674539
 40
4.478391195697817
 40
5.374077312776134
 40
6.269793430648958
 40
6.269793430648958
 40
6.269793430648958
 40
6.269793430648958
 10
-80.23138385978382
 20
-552.5403523107844
 30
0.0
 10
-80.23138385978382
 20
-552.2417802568106
 30
0.0
 10
-80.16396469200117
 20
-551.6424874704405
 30
0.0
 10
-79.86565040572653
 20
-550.7903013240852
 30
0.0
 10
-79.38510462545204
 20
-550.0254244703326
 30
0.0
 10
-78.74646387305247
 20
-549.3867837509565
 30
0.0
 10
-77.9815870449592
 20
-548.9062380221082
 30
0.0
 10
-77.12940095107936
 20
-548.6079237785038
 30
0.0
 10
-76.53010820663365
 20
-548.5405046183469
 30
0.0
 10
-76.23153616734271
 20
-548.5405046183469
 30
0.0
 11
-80.23138385978382
 21
-552.5403523107844
 31
0.0
 11
-80.1310975477827
 21
-551.6502679898613
 31
0.0
 11
-79.83527420496466
 21
-550.804843650748
 31
0.0
 11
-79.35875333174408
 21
-550.0464608698267
 31
0.0
 11
-78.72542746098407
 21
-549.4131350295421
 31
0.0
 11
-77.96704471562406
 21
-548.9366142172867
 31
0.0
 11
-77.12162044508295
 21
-548.6407909201871
 31
0.0
 11
-76.23153616734271
 21
-548.5405046183469
 31
0.0
  0
SPLINE
  5
1002B
330
1F
100
AcDbEntity
  8
0
  6
Continuous
 62
     7
370
     0
100
AcDbSpline
210
0.0
220
0.0
230
1.0
 70
     8
 71
     3
 72
    14
 73
    10
 74
     8
 42
0.0000000001
 43
0.0000000001
 44
0.0000000001
 12
0.0
 22
1.0
 32
0.0
 13
-1.0
 23
0.0
 33
0.0
 40
0.0
 40
0.0
 40
0.0
 40
0.0
 40
0.8954934718133271
 40
1.790954751819123
 40
2.686457857309927
 40
3.582068419878008
 40
4.477830895126459
 40
5.373759831137262
 40
6.26983669881898
 40
6.26983669881898
 40
6.26983669881898
 40
6.26983669881898
 10
-6.442104976864357
 20
-509.0484700287844
 30
0.0
 10
-6.442104976864357
 20
-508.7499722048466
 30
0.0
 10
-6.509511757125459
 20
-508.1508284862896
 30
0.0
 10
-6.807787520764298
 20
-507.2988443313141
 30
0.0
 10
-7.288299632676936
 20
-506.5341174985688
 30
0.0
 10
-7.926958882308206
 20
-505.8955482528751
 30
0.0
 10
-8.691952136561706
 20
-505.4150041139664
 30
0.0
 10
-9.544375270924453
 20
-505.1166587771256
 30
0.0
 10
-10.143869807354
 20
-505.0492314867653
 30
0.0
 10
-10.44256209658124
 20
-505.0492314867653
 30
0.0
 11
-6.442104976864357
 21
-509.0484700287844
 31
0.0
 11
-6.54237460614604
 21
-508.1586079273867
 31
0.0
 11
-6.838150565261457
 21
-507.3134052972447
 31
0.0
 11
-7.314624113205354
 21
-506.5551845048276
 31
0.0
 11
-7.947956105363118
 21
-505.9219318952847
 31
0.0
 11
-8.706450318622955
 21
-505.445405987789
 31
0.0
 11
-9.552117471583187
 21
-505.1495416188873
 31
0.0
 11
-10.44256209658124
 21
-505.0492314867653
 31
0.0
  0
SPLINE
  5
1002C
330
1F
100
AcDbEntity
  8
0
  6
Continuous
 62
     7
370
     0
100
AcDbSpline
210
0.0
220
0.0
230
1.0
 70
     8
 71
     3
 72
    14
 73
    10
 74
     8
 42
0.0000000001
 43
0.0000000001
 44
0.0000000001
 12
1.0
 22
0.0
 32
0.0
 13
0.0
 23
-1.0
 33
0.0
 40
0.0
 40
0.0
 40
0.0
 40
0.0
 40
0.8960768651583691
 40
1.792005803567057
 40
2.687768278819378
 40
3.583378841387459
 40
4.478881946876327
 40
5.374343226881094
 40
6.269836698697629
 40
6.269836698697629
 40
6.269836698697629
 40
6.269836698697629
 10
-10.41637617486412
 20
-505.0405046182669
 30
0.0
 10
-10.117683886478
 20
-505.0405046182669
 30
0.0
 10
-9.518189350275616
 20
-505.1079319094589
 30
0.0
 10
-8.665766215437482
 20
-505.4062772447604
 30
0.0
 10
-7.900772960612512
 20
-505.8868213844503
 30
0.0
 10
-7.262113710948431
 20
-506.5253906300492
 30
0.0
 10
-6.781601599053081
 20
-507.2901174628229
 30
0.0
 10
-6.483325835395109
 20
-508.1421016177861
 30
0.0
 10
-6.415919055143604
 20
-508.7412453363472
 30
0.0
 10
-6.415919055143604
 20
-509.0397431602861
 30
0.0
 11
-10.41637617486412
 21
-505.0405046182669
 31
0.0
 11
-9.525931552405381
 21
-505.140814750389
 31
0.0
 11
-8.680264396902202
 21
-505.4366791192834
 31
0.0
 11
-7.921770183642365
 21
-505.9132050267863
 31
0.0
 11
-7.288438191484601
 21
-506.5464576363293
 31
0.0
 11
-6.811964643544342
 21
-507.3046784287463
 31
0.0
 11
-6.516188684421649
 21
-508.1498810588847
 31
0.0
 11
-6.415919055143604
 21
-509.0397431602861
 31
0.0
  0
SPLINE
  5
1002D
330
1F
100
AcDbEntity
  8
0
  6
Continuous
 62
     7
370
     0
100
AcDbSpline
210
0.0
220
0.0
230
1.0
 70
     8
 71
     3
 72
    14
 73
    10
 74
     8
 42
0.0000000001
 43
0.0000000001
 44
0.0000000001
 12
0.0
 22
-1.0
 32
0.0
 13
1.0
 23
0.0
 33
0.0
 40
0.0
 40
0.0
 40
0.0
 40
0.0
 40
1.119646482163043
 40
2.239143178365197
 40
3.358536135577096
 40
4.477891959845136
 40
5.597284608903815
 40
6.716780902823696
 40
7.836427165048667
 40
7.836427165048667
 40
7.836427165048667
 40
7.836427165048667
 10
-16.75756645664296
 20
-501.0674487416901
 30
0.0
 10
-16.75756645664296
 20
-501.4406642357444
 30
0.0
 10
-16.67330612512096
 20
-502.189744009963
 30
0.0
 10
-16.30046282124181
 20
-503.254887877881
 30
0.0
 10
-15.69988214155833
 20
-504.2108433382813
 30
0.0
 10
-14.90172191393191
 20
-505.0090034178305
 30
0.0
 10
-13.94576656580889
 20
-505.6095838176705
 30
0.0
 10
-12.88062296741912
 20
-505.9824269234375
 30
0.0
 10
-12.13154340242432
 20
-506.066687216643
 30
0.0
 10
-11.75832798168267
 20
-506.066687216643
 30
0.0
 11
-16.75756645664296
 21
-501.0674487416901
 31
0.0
 11
-16.63221621966295
 21
-502.1800562929448
 31
0.0
 11
-16.26248517350541
 21
-503.2367359067895
 31
0.0
 11
-15.66694156144513
 21
-504.184558885404
 31
0.0
 11
-14.87543739388275
 21
-504.9760629056428
 31
0.0
 11
-13.9276145829026
 21
-505.571606205288
 31
0.0
 11
-12.87093531704522
 21
-505.9413370279245
 31
0.0
 11
-11.75832798168267
 21
-506.066687216643
 31
0.0
  0
SPLINE
  5
1002E
330
1F
100
AcDbEntity
  8
0
  6
Continuous
 62
     7
370
     0
100
AcDbSpline
210
0.0
220
0.0
230
1.0
 70
     8
 71
     3
 72
    12
 73
     8
 74
     6
 42
0.0000000001
 43
0.0000000001
 44
0.0000000001
 12
0.6756182478187835
 22
-0.7372516417169087
 32
0.0
 13
1.0
 23
0.0
 33
0.0
 40
0.0
 40
0.0
 40
0.0
 40
0.0
 40
0.8279989173302906
 40
1.655475708911656
 40
2.482916772165272
 40
3.310279089053269
 40
4.139611086226127
 40
4.139611086226127
 40
4.139611086226127
 40
4.139611086226127
 10
-16.01138385960075
 20
-505.012431321603
 30
0.0
 10
-15.82491346702657
 20
-505.2159125086502
 30
0.0
 10
-15.41749800054908
 20
-505.5925308856895
 30
0.0
 10
-14.72230262115782
 20
-506.0482402696524
 30
0.0
 10
-13.9614084344686
 20
-506.3830877767311
 30
0.0
 10
-13.15539246114952
 20
-506.5879718354099
 30
0.0
 10
-12.60206159038057
 20
-506.6339768262833
 30
0.0
 10
-12.32561759132295
 20
-506.6339768262833
 30
0.0
 11
-16.01138385960075
 21
-505.012431321603
 31
0.0
 11
-15.40333477598324
 21
-505.574444238725
 31
0.0
 11
-14.71131220778261
 21
-506.0281210021886
 31
0.0
 11
-13.9539638418646
 21
-506.3614109147266
 31
0.0
 11
-13.15209321294242
 21
-506.565204677826
 31
0.0
 11
-12.32561759132295
 21
-506.6339768262833
 31
0.0
  0
SPLINE
  5
1002F
330
1F
100
AcDbEntity
  8
0
  6
Continuous
 62
     7
370
     0
100
AcDbSpline
210
0.0
220
0.0
230
1.0
 70
     8
 71
     3
 72
    14
 73
    10
 74
     8
 42
0.0000000001
 43
0.0000000001
 44
0.0000000001
 12
1.0
 22
0.0
 32
0.0
 13
0.0
 23
-1.0
 33
0.0
 40
0.0
 40
0.0
 40
0.0
 40
0.0
 40
0.8957161616342382
 40
1.791402360940235
 40
2.687067802705339
 40
3.582725815191019
 40
4.478391195214297
 40
5.374077312292614
 40
6.269793430165846
 40
6.269793430165846
 40
6.269793430165846
 40
6.269793430165846
 10
-74.22250468376296
 20
-548.5317777523842
 30
0.0
 10
-73.92393262988488
 20
-548.5317777523842
 30
0.0
 10
-73.32463984275313
 20
-548.5991969173069
 30
0.0
 10
-72.47245369460205
 20
-548.897511202231
 30
0.0
 10
-71.70757684475169
 20
-549.3780569880715
 30
0.0
 10
-71.06893612293375
 20
-550.0166977363121
 30
0.0
 10
-70.58839039526955
 20
-550.7815745648783
 30
0.0
 10
-70.29007615143163
 20
-551.63376065849
 30
0.0
 10
-70.22265699132185
 20
-552.233053402995
 30
0.0
 10
-70.22265699132185
 20
-552.531625442286
 30
0.0
 11
-74.22250468376296
 21
-548.5317777523842
 31
0.0
 11
-73.33242036284355
 21
-548.6320640618497
 31
0.0
 11
-72.48699602118358
 21
-548.9278874046678
 31
0.0
 11
-71.72861324280529
 21
-549.404408280424
 31
0.0
 11
-71.09528740252063
 21
-550.0377341486447
 31
0.0
 11
-70.6187665902653
 21
-550.7961168940047
 31
0.0
 11
-70.32294329316574
 21
-551.6415411645458
 31
0.0
 11
-70.22265699132185
 21
-552.531625442286
 31
0.0
  0
LINE
  5
10030
330
1F
100
AcDbEntity
  8
0
  6
Continuous
 62
     7
370
     0
100
AcDbLine
 10
-16.01138385960053
 20
-505.2280031764674
 30
0.0
 11
-16.12648449046207
 21
-505.105792826526
 31
0.0
  0
SPLINE
  5
10031
330
1F
100
AcDbEntity
  8
0
  6
Continuous
 62
     7
370
     0
100
AcDbSpline
210
0.0
220
0.0
230
1.0
 70
     8
 71
     3
 72
    11
 73
     7
 74
     5
 42
0.0000000001
 43
0.0000000001
 44
0.0000000001
 12
-0.6732615136381419
 22
0.7394044456545269
 32
0.0
 13
0.0
 23
1.0
 33
0.0
 40
0.0
 40
0.0
 40
0.0
 40
0.0
 40
0.7958402759727756
 40
1.759145120167406
 40
2.722558069289712
 40
3.687806172354884
 40
3.687806172354884
 40
3.687806172354884
 40
3.687806172354884
 10
-16.12648449046173
 20
-505.1057928265246
 30
0.0
 10
-16.30508736673361
 20
-504.9096435471629
 30
0.0
 10
-16.66598433262976
 20
-504.4439403295956
 30
0.0
 10
-17.08993143076709
 20
-503.6350720837576
 30
0.0
 10
-17.36715489023591
 20
-502.705835821086
 30
0.0
 10
-17.42958645626277
 20
-502.0612181089982
 30
0.0
 10
-17.42958645626277
 20
-501.7394687413099
 30
0.0
 11
-16.12648449046173
 21
-505.1057928265246
 31
0.0
 11
-16.61382844592299
 21
-504.4766206609485
 31
0.0
 11
-17.0610861417008
 21
-503.6234402718065
 31
0.0
 11
-17.3364247960053
 21
-502.7002105409256
 31
0.0
 11
-17.42958645626277
 21
-501.7394687413099
 31
0.0
  0
SPLINE
  5
10032
330
1F
100
AcDbEntity
  8
06___PRT_ALL_SURFS
  6
Continuous
 62
     7
370
     0
100
AcDbSpline
210
0.0
220
0.0
230
1.0
 70
     8
 71
     3
 72
    13
 73
     9
 74
     7
 42
0.0000000001
 43
0.0000000001
 44
0.0000000001
 12
0.0
 22
-1.0
 32
0.0
 13
0.9997189356967021
 23
-0.0237075854834045
 33
0.0
 40
0.0
 40
0.0
 40
0.0
 40
0.0
 40
0.778627858102433
 40
1.557137088046161
 40
2.335578555040968
 40
3.114017287541275
 40
3.892519367203271
 40
4.628139890125781
 40
4.628139890125781
 40
4.628139890125781
 40
4.628139890125781
 10
-77.78318126064187
 20
-543.8427589363847
 30
0.0
 10
-77.78318126064187
 20
-544.1023015557521
 30
0.0
 10
-77.71507078374312
 20
-544.6238676552183
 30
0.0
 10
-77.41542889133437
 20
-545.3515631287348
 30
0.0
 10
-76.93855421124422
 20
-545.9781107247622
 30
0.0
 10
-76.31642316787949
 20
-546.4606667206814
 30
0.0
 10
-75.60471443651947
 20
-546.7613186104721
 30
0.0
 10
-75.09950033374888
 20
-546.8356520542593
 30
0.0
 10
-74.85436241166462
 20
-546.8414653164028
 30
0.0
 11
-77.78318126064187
 21
-543.8427589363847
 31
0.0
 11
-77.68214516604349
 21
-544.6148036559454
 31
0.0
 11
-77.3858743209421
 21
-545.3347343522283
 31
0.0
 11
-76.91434457312425
 21
-545.954113730687
 31
0.0
 11
-76.2992960369047
 21
-546.4312742470239
 31
0.0
 11
-75.58210567296192
 21
-546.7341000548832
 31
0.0
 11
-74.85436241166462
 21
-546.8414653164028
 31
0.0
  0
LINE
  5
10033
330
1F
100
AcDbEntity
  8
06___PRT_ALL_SURFS
  6
Continuous
 62
     7
370
     0
100
AcDbLine
 10
-74.85436241166167
 20
-546.8414653164054
 30
0.0
 11
-74.81189756898118
 21
-546.8421689395852
 31
0.0
  0
SPLINE
  5
10034
330
1F
100
AcDbEntity
  8
06___PRT_ALL_SURFS
  6
Continuous
 62
     7
370
     0
100
AcDbSpline
210
0.0
220
0.0
230
1.0
 70
     8
 71
     3
 72
    12
 73
     8
 74
     6
 42
0.0000000001
 43
0.0000000001
 44
0.0000000001
 12
1.0
 22
0.0
 32
0.0
 13
0.0
 23
1.0
 33
0.0
 40
0.0
 40
0.0
 40
0.0
 40
0.0
 40
0.3128340002278558
 40
0.6256564705825451
 40
0.9384917407645257
 40
1.251359246542899
 40
1.564266035443442
 40
1.564266035443442
 40
1.564266035443442
 40
1.564266035443442
 10
-71.54980030604201
 20
-556.3597570875091
 30
0.0
 10
-71.44552230596606
 20
-556.3597570875091
 30
0.0
 10
-71.23549986175135
 20
-556.3265880868564
 30
0.0
 10
-70.95239409757488
 20
-556.1822247744462
 30
0.0
 10
-70.72745248873413
 20
-555.9572691881355
 30
0.0
 10
-70.58308563426776
 20
-555.6741211894181
 30
0.0
 10
-70.54991453340335
 20
-555.464059343873
 30
0.0
 10
-70.54991453340335
 20
-555.3597570809062
 30
0.0
 11
-71.54980030604201
 21
-556.3597570875091
 31
0.0
 11
-71.24081785822273
 21
-556.3108187728858
 31
0.0
 11
-70.9620928733857
 21
-556.1687966591627
 31
0.0
 11
-70.74089053194621
 21
-555.9475831188639
 31
0.0
 11
-70.59885939360538
 21
-555.6688121879662
 31
0.0
 11
-70.54991453340335
 21
-555.3597570809062
 31
0.0
  0
SPLINE
  5
10035
330
1F
100
AcDbEntity
  8
06___PRT_ALL_SURFS
  6
Continuous
 62
     7
370
     0
100
AcDbSpline
210
0.0
220
0.0
230
1.0
 70
     8
 71
     3
 72
    13
 73
     9
 74
     7
 42
0.0000000001
 43
0.0000000001
 44
0.0000000001
 12
-1.0
 22
0.0
 32
0.0
 13
0.0
 23
-1.0
 33
0.0
 40
0.0
 40
0.0
 40
0.0
 40
0.0
 40
0.7831482123727638
 40
1.566180309613174
 40
2.349145456188722
 40
3.132110779559643
 40
3.915143258342975
 40
4.6982917024665
 40
4.6982917024665
 40
4.6982917024665
 40
4.6982917024665
 10
-74.78363817668287
 20
-498.0887072163233
 30
0.0
 10
-75.04468758080712
 20
-498.0887072163233
 30
0.0
 10
-75.56931212657037
 20
-498.1576194834409
 30
0.0
 10
-76.30063767213662
 20
-498.4607139807748
 30
0.0
 10
-76.92908190858553
 20
-498.9428060839484
 30
0.0
 10
-77.4111742406385
 20
-499.5712503119817
 30
0.0
 10
-77.71426894897736
 20
-500.3025760686224
 30
0.0
 10
-77.78318126064187
 20
-500.8272008214507
 30
0.0
 10
-77.78318126064187
 20
-501.0882503028252
 30
0.0
 11
-74.78363817668287
 21
-498.0887072163233
 31
0.0
 11
-75.56008758898315
 21
-498.1909198998866
 31
0.0
 11
-76.28351941110304
 21
-498.4905624603698
 31
0.0
 11
-76.90469056398433
 21
-498.9671973516443
 31
0.0
 11
-77.38132570926246
 21
-499.5883685324689
 31
0.0
 11
-77.68096851866357
 21
-500.3118006644646
 31
0.0
 11
-77.78318126064187
 21
-501.0882503028252
 31
0.0
  0
SPLINE
  5
10036
330
1F
100
AcDbEntity
  8
06___PRT_ALL_SURFS
  6
Continuous
 62
     7
370
     0
100
AcDbSpline
210
0.0
220
0.0
230
1.0
 70
     8
 71
     3
 72
    14
 73
    10
 74
     8
 42
0.0000000001
 43
0.0000000001
 44
0.0000000001
 12
0.0
 22
1.0
 32
0.0
 13
-1.0
 23
0.0
 33
0.0
 40
0.0
 40
0.0
 40
0.0
 40
0.0
 40
0.8957161203961669
 40
1.791402237474484
 40
2.687067617502778
 40
3.582725629983312
 40
4.478391071748417
 40
5.374077271056817
 40
6.269793432694263
 40
6.269793432694263
 40
6.269793432694263
 40
6.269793432694263
 10
-70.54991453340335
 20
-552.8588829869069
 30
0.0
 10
-70.54991453340335
 20
-552.5603109467748
 30
0.0
 10
-70.61733369313968
 20
-551.961018201367
 30
0.0
 10
-70.91564793737177
 20
-551.1088321069592
 30
0.0
 10
-71.39619366500712
 20
-550.3439552783929
 30
0.0
 10
-72.0348343868323
 20
-549.7053145301513
 30
0.0
 10
-72.79971123668111
 20
-549.224768744315
 30
0.0
 10
-73.65189738483024
 20
-548.9264544593766
 30
0.0
 10
-74.2511901719653
 20
-548.8590352944621
 30
0.0
 10
-74.54976222584446
 20
-548.8590352944621
 30
0.0
 11
-70.54991453340335
 21
-552.8588829869069
 31
0.0
 11
-70.65020083524359
 21
-551.9687987066273
 31
0.0
 11
-70.94602413234316
 21
-551.1233744360862
 31
0.0
 11
-71.42254494460212
 21
-550.3649916907225
 31
0.0
 11
-72.05587078488315
 21
-549.7316658225055
 31
0.0
 11
-72.81425356326145
 21
-549.2551449467493
 31
0.0
 11
-73.65967790492141
 21
-548.9593216039239
 31
0.0
 11
-74.54976222584446
 21
-548.8590352944621
 31
0.0
  0
SPLINE
  5
10037
330
1F
100
AcDbEntity
  8
06___PRT_ALL_SURFS
  6
Continuous
 62
     7
370
     0
100
AcDbSpline
210
0.0
220
0.0
230
1.0
 70
     8
 71
     3
 72
    14
 73
    10
 74
     8
 42
0.0000000001
 43
0.0000000001
 44
0.0000000001
 12
-1.0
 22
0.0
 32
0.0
 13
0.0
 23
-1.0
 33
0.0
 40
0.0
 40
0.0
 40
0.0
 40
0.0
 40
0.8957161203965743
 40
1.791402237476092
 40
2.687067617499371
 40
3.582725628186915
 40
4.478391072105197
 40
5.374077271412396
 40
6.269793433046227
 40
6.269793433046227
 40
6.269793433046227
 40
6.269793433046227
 10
-75.91300549122388
 20
-548.8590352944621
 30
0.0
 10
-76.21157753135607
 20
-548.8590352944621
 30
0.0
 10
-76.81087027672287
 20
-548.9264544542407
 30
0.0
 10
-77.66305637131411
 20
-549.2247686983045
 30
0.0
 10
-78.42793319868667
 20
-549.7053144262455
 30
0.0
 10
-79.06657394968772
 20
-550.3439551456503
 30
0.0
 10
-79.54711973297712
 20
-551.1088319974856
 30
0.0
 10
-79.8454340189204
 20
-551.9610181457756
 30
0.0
 10
-79.91285318366499
 20
-552.5603109330289
 30
0.0
 10
-79.91285318366499
 20
-552.8588829869069
 30
0.0
 11
-75.91300549122388
 21
-548.8590352944621
 31
0.0
 11
-76.80308977150343
 21
-548.959321596306
 31
0.0
 11
-77.64851404204455
 21
-549.2551448934092
 31
0.0
 11
-78.40689678740455
 21
-549.7316657056646
 31
0.0
 11
-79.04022265562526
 21
-550.3649915434063
 31
0.0
 11
-79.51674353138151
 21
-551.1233743243275
 31
0.0
 11
-79.81256687420319
 21
-551.9687986659874
 31
0.0
 11
-79.91285318366499
 21
-552.8588829869069
 31
0.0
  0
SPLINE
  5
10038
330
1F
100
AcDbEntity
  8
06___PRT_ALL_SURFS
  6
Continuous
 62
     7
370
     0
100
AcDbSpline
210
0.0
220
0.0
230
1.0
 70
     8
 71
     3
 72
    12
 73
     8
 74
     6
 42
0.0000000001
 43
0.0000000001
 44
0.0000000001
 12
0.0
 22
-1.0
 32
0.0
 13
1.0
 23
0.0
 33
0.0
 40
0.0
 40
0.0
 40
0.0
 40
0.0
 40
0.3129067597154222
 40
0.6257741437511195
 40
0.9386093690300109
 40
1.251431919290081
 40
1.564266035466756
 40
1.564266035466756
 40
1.564266035466756
 40
1.564266035466756
 10
-79.91285318366499
 20
-555.3597570809062
 30
0.0
 10
-79.91285318366499
 20
-555.4640593341447
 30
0.0
 10
-79.87968209612747
 20
-555.6741211296476
 30
0.0
 10
-79.73531529537891
 20
-555.9572690765297
 30
0.0
 10
-79.51037374988435
 20
-556.1822246814876
 30
0.0
 10
-79.22726796108576
 20
-556.3265880651281
 30
0.0
 10
-79.01724544974825
 20
-556.3597570875091
 30
0.0
 10
-78.91296741102269
 20
-556.3597570875091
 30
0.0
 11
-79.91285318366499
 21
-555.3597570809062
 31
0.0
 11
-79.86390833362384
 21
-555.6688121600265
 31
0.0
 11
-79.72187727402342
 21
-555.9475829944086
 31
0.0
 11
-79.50067500370642
 21
-556.1687965423253
 31
0.0
 11
-79.22194997060433
 21
-556.3108187373282
 31
0.0
 11
-78.91296741102269
 21
-556.3597570875091
 31
0.0
  0
SPLINE
  5
10039
330
1F
100
AcDbEntity
  8
0
  6
Continuous
 62
     7
370
     0
100
AcDbSpline
210
0.0
220
0.0
230
1.0
 70
     8
 71
     3
 72
    12
 73
     8
 74
     6
 42
0.0000000001
 43
0.0000000001
 44
0.0000000001
 12
0.0
 22
-1.0
 32
0.0
 13
-1.0
 23
0.0
 33
0.0
 40
0.0
 40
0.0
 40
0.0
 40
0.0
 40
0.3128010011665022
 40
0.6255488664768889
 40
0.9383048178317721
 40
1.251127260260902
 40
1.564049236112795
 40
1.564049236112795
 40
1.564049236112795
 40
1.564049236112795
 10
-6.415919055143604
 20
-495.5844468730639
 30
0.0
 10
-6.415919055143604
 20
-495.6887138734527
 30
0.0
 10
-6.449077837576062
 20
-495.898700870538
 30
0.0
 10
-6.59341084738882
 20
-496.1817518045804
 30
0.0
 10
-6.818323983612359
 20
-496.4066414626412
 30
0.0
 10
-7.101445127213973
 20
-496.5509800813362
 30
0.0
 10
-7.311497515198486
 20
-496.5841422803233
 30
0.0
 10
-7.415804840482451
 20
-496.5841422803233
 30
0.0
 11
-6.415919055143604
 21
-495.5844468730639
 31
0.0
 11
-6.464849612602847
 21
-495.8933971390898
 31
0.0
 11
-6.606837718263705
 21
-496.1720557207037
 31
0.0
 11
-6.827998992983339
 21
-496.3931981537017
 31
0.0
 11
-7.106733802542294
 21
-496.5352009227855
 31
0.0
 11
-7.415804840482451
 21
-496.5841422803233
 31
0.0
  0
SPLINE
  5
1003A
330
1F
100
AcDbEntity
  8
06___PRT_ALL_SURFS
  6
Continuous
 62
     7
370
     0
100
AcDbSpline
210
0.0
220
0.0
230
1.0
 70
     8
 71
     3
 72
    12
 73
     8
 74
     6
 42
0.0000000001
 43
0.0000000001
 44
0.0000000001
 12
0.0
 22
1.0
 32
0.0
 13
1.0
 23
0.0
 33
0.0
 40
0.0
 40
0.0
 40
0.0
 40
0.0
 40
0.3128009986548599
 40
0.6255488662374973
 40
0.9383048175923804
 40
1.251127258868754
 40
1.564049235115343
 40
1.564049235115343
 40
1.564049235115343
 40
1.564049235115343
 10
-79.54684866294337
 20
-557.99656236355
 30
0.0
 10
-79.54684866294337
 20
-557.8922953639983
 30
0.0
 10
-79.51368987943533
 20
-557.6823083672601
 30
0.0
 10
-79.36935687147576
 20
-557.3992574327077
 30
0.0
 10
-79.14444373510979
 20
-557.174367773186
 30
0.0
 10
-78.86132258981608
 20
-557.030029159601
 30
0.0
 10
-78.65127020302006
 20
-556.9968669562832
 30
0.0
 10
-78.54696287760453
 20
-556.9968669562832
 30
0.0
 11
-79.54684866294337
 21
-557.99656236355
 31
0.0
 11
-79.49791810548413
 21
-557.687612100067
 31
0.0
 11
-79.35592999982327
 21
-557.4089535159028
 31
0.0
 11
-79.13476872510364
 21
-557.1878110829048
 31
0.0
 11
-78.85603391554105
 21
-557.0458083163677
 31
0.0
 11
-78.54696287760453
 21
-556.9968669562832
 31
0.0
  0
SPLINE
  5
1003B
330
1F
100
AcDbEntity
  8
0
  6
Continuous
 62
     7
370
     0
100
AcDbSpline
210
0.0
220
0.0
230
1.0
 70
     8
 71
     3
 72
    12
 73
     8
 74
     6
 42
0.0000000001
 43
0.0000000001
 44
0.0000000001
 12
0.0
 22
-1.0
 32
0.0
 13
-1.0
 23
0.0
 33
0.0
 40
0.0
 40
0.0
 40
0.0
 40
0.0
 40
0.3129067889005432
 40
0.6257742946789174
 40
0.938609564860898
 40
1.251432036373332
 40
1.564266036202243
 40
1.564266036202243
 40
1.564266036202243
 40
1.564266036202243
 10
-70.22265699132185
 20
-556.0143220151068
 30
0.0
 10
-70.22265699132185
 20
-556.1186242780736
 30
0.0
 10
-70.25582809222115
 20
-556.3286861235342
 30
0.0
 10
-70.40019494653048
 20
-556.6118341226317
 30
0.0
 10
-70.62513655622464
 20
-556.8367897078271
 30
0.0
 10
-70.90824231859087
 20
-556.9811530253944
 30
0.0
 10
-71.11826476402119
 20
-557.0143220217024
 30
0.0
 10
-71.22254276396415
 20
-557.0143220217024
 30
0.0
 11
-70.22265699132185
 21
-556.0143220151068
 31
0.0
 11
-70.27160185152388
 21
-556.3233771221668
 31
0.0
 11
-70.41363298986471
 21
-556.6021480530645
 31
0.0
 11
-70.6348353313042
 21
-556.8233615933633
 31
0.0
 11
-70.91356031614487
 21
-556.9653837096295
 31
0.0
 11
-71.22254276396415
 21
-557.0143220217024
 31
0.0
  0
SPLINE
  5
1003C
330
1F
100
AcDbEntity
  8
06___PRT_ALL_SURFS
  6
Continuous
 62
     7
370
     0
100
AcDbSpline
210
0.0
220
0.0
230
1.0
 70
     8
 71
     3
 72
    12
 73
     8
 74
     6
 42
0.0000000001
 43
0.0000000001
 44
0.0000000001
 12
-1.0
 22
0.0
 32
0.0
 13
0.0
 23
-1.0
 33
0.0
 40
0.0
 40
0.0
 40
0.0
 40
0.0
 40
0.3129219762501822
 40
0.6257444175233146
 40
0.9385003688807703
 40
1.251248237614607
 40
1.56404923587225
 40
1.56404923587225
 40
1.56404923587225
 40
1.56404923587225
 10
-78.52077695588377
 20
-557.0143220217024
 30
0.0
 10
-78.6250842813005
 20
-557.0143220217024
 30
0.0
 10
-78.83513666801315
 20
-557.047484225053
 30
0.0
 10
-79.11825781368418
 20
-557.1918228384858
 30
0.0
 10
-79.34317094894118
 20
-557.4167124988538
 30
0.0
 10
-79.48750396204208
 20
-557.6997634316011
 30
0.0
 10
-79.52066274122262
 20
-557.9097504295499
 30
0.0
 10
-79.52066274122262
 20
-558.0140174289692
 30
0.0
 11
-78.52077695588377
 21
-557.0143220217024
 31
0.0
 11
-78.82984799382393
 21
-557.0632633817869
 31
0.0
 11
-79.10858280338288
 21
-557.205266148324
 31
0.0
 11
-79.32974407810616
 21
-557.426408581322
 31
0.0
 11
-79.47173218630268
 21
-557.7050671654862
 31
0.0
 11
-79.52066274122262
 21
-558.0140174289692
 31
0.0
  0
SPLINE
  5
1003D
330
1F
100
AcDbEntity
  8
0
  6
Continuous
 62
     7
370
     0
100
AcDbSpline
210
0.0
220
0.0
230
1.0
 70
     8
 71
     3
 72
    12
 73
     8
 74
     6
 42
0.0000000001
 43
0.0000000001
 44
0.0000000001
 12
1.0
 22
0.0
 32
0.0
 13
0.0
 23
1.0
 33
0.0
 40
0.0
 40
0.0
 40
0.0
 40
0.0
 40
0.3129219762496132
 40
0.625744417524397
 40
0.9385003706799112
 40
1.251248237149631
 40
1.564049237911161
 40
1.564049237911161
 40
1.564049237911161
 40
1.564049237911161
 10
-7.441990762203204
 20
-496.5666872174471
 30
0.0
 10
-7.337683436786666
 20
-496.5666872174471
 30
0.0
 10
-7.127631050222622
 20
-496.5335250139695
 30
0.0
 10
-6.844509903335397
 20
-496.3891864008511
 30
0.0
 10
-6.619596770835432
 20
-496.1642967381724
 30
0.0
 10
-6.475263754784287
 20
-495.881245806424
 30
0.0
 10
-6.442104976864357
 20
-495.6712588078985
 30
0.0
 10
-6.442104976864357
 20
-495.5669918076447
 30
0.0
 11
-7.441990762203204
 21
-496.5666872174471
 31
0.0
 11
-7.132919724263047
 21
-496.5177458573663
 31
0.0
 11
-6.854184914704092
 21
-496.3757430908255
 31
0.0
 11
-6.63302363998082
 21
-496.1546006552845
 31
0.0
 11
-6.491035531780653
 21
-495.8759420736633
 31
0.0
 11
-6.442104976864357
 21
-495.5669918076447
 31
0.0
  0
SPLINE
  5
1003E
330
1F
100
AcDbEntity
  8
06___PRT_ALL_SURFS
  6
Continuous
 62
     7
370
     0
100
AcDbSpline
210
0.0
220
0.0
230
1.0
 70
     8
 71
     3
 72
    15
 73
    11
 74
     9
 42
0.0000000001
 43
0.0000000001
 44
0.0000000001
 12
1.0
 22
0.0
 32
0.0
 13
0.0
 23
1.0
 33
0.0
 40
0.0
 40
0.0
 40
0.0
 40
0.0
 40
1.225227940071033
 40
2.450307544348435
 40
3.675273696683683
 40
4.900178305432786
 40
6.125082792219611
 40
7.350048634260646
 40
8.575127908436297
 40
9.800355680722805
 40
9.800355680722805
 40
9.800355680722805
 40
9.800355680722805
 10
-169.2304319524244
 20
-567.7905046196639
 30
0.0
 10
-168.8220226390674
 20
-567.7905046196639
 30
0.0
 10
-168.0029896709994
 20
-567.7099426446426
 30
0.0
 10
-166.8234710972684
 20
-567.3520465481963
 30
0.0
 10
-165.7360559406827
 20
-566.7708890249373
 30
0.0
 10
-164.7830948718438
 20
-565.9887929967688
 30
0.0
 10
-164.0009990455478
 20
-565.0358318990924
 30
0.0
 10
-163.4198417584631
 20
-563.9484169113631
 30
0.0
 10
-163.0619458020396
 20
-562.7688985825053
 30
0.0
 10
-162.9813838587231
 20
-561.9498657808521
 30
0.0
 10
-162.9813838587231
 20
-561.5414565234233
 30
0.0
 11
-169.2304319524244
 21
-567.7905046196639
 31
0.0
 11
-168.0111028543886
 21
-567.6704210828494
 31
0.0
 11
-166.8387698752065
 21
-567.3148153703833
 31
0.0
 11
-165.7584394222046
 21
-566.7373829616255
 31
0.0
 11
-164.8115718950664
 21
-565.9603159203826
 31
0.0
 11
-164.0345050646445
 21
-565.0134483780049
 31
0.0
 11
-163.4570729149652
 21
-563.9331181383632
 31
0.0
 11
-163.1014673599873
 21
-562.760785456364
 31
0.0
 11
-162.9813838587231
 21
-561.5414565234233
 31
0.0
  0
SPLINE
  5
1003F
330
1F
100
AcDbEntity
  8
06___PRT_ALL_SURFS
  6
Continuous
 62
     7
370
     0
100
AcDbSpline
210
0.0
220
0.0
230
1.0
 70
     8
 71
     3
 72
    15
 73
    11
 74
     9
 42
0.0000000001
 43
0.0000000001
 44
0.0000000001
 12
0.0
 22
1.0
 32
0.0
 13
-1.0
 23
0.0
 33
0.0
 40
0.0
 40
0.0
 40
0.0
 40
0.0
 40
1.225227939826492
 40
2.450307544099356
 40
3.6752736976316
 40
4.900178306378395
 40
6.125082793165724
 40
7.350048632964066
 40
8.575127907140771
 40
9.800355679426923
 40
9.800355679426923
 40
9.800355679426923
 40
9.800355679426923
 10
-162.9813838587231
 20
-492.0395527131833
 30
0.0
 10
-162.9813838587231
 20
-491.6311433999077
 30
0.0
 10
-163.0619458302716
 20
-490.8121104316726
 30
0.0
 10
-163.4198419273761
 20
-489.6325918572873
 30
0.0
 10
-164.0009994538737
 20
-488.5451767021703
 30
0.0
 10
-164.7830954813909
 20
-487.5922156324021
 30
0.0
 10
-165.7360565789482
 20
-486.8101198071648
 30
0.0
 10
-166.8234715649643
 20
-486.2289625185693
 30
0.0
 10
-168.0029898934101
 20
-485.8710665629212
 30
0.0
 10
-168.8220226949956
 20
-485.7905046194856
 30
0.0
 10
-169.2304319524244
 20
-485.7905046194856
 30
0.0
 11
-162.9813838587231
 21
-492.0395527131833
 31
0.0
 11
-163.1014673930055
 21
-490.8202236151438
 31
0.0
 11
-163.457073105468
 21
-489.6478906359654
 31
0.0
 11
-164.0345055167652
 21
-488.5675601829635
 31
0.0
 11
-164.8115725580044
 21
-487.6206926558253
 31
0.0
 11
-165.7584401003857
 21
-486.843625825407
 31
0.0
 11
-166.8387703374844
 21
-486.2661936757278
 31
0.0
 11
-168.0111030194837
 21
-485.9105881207462
 31
0.0
 11
-169.2304319524244
 21
-485.7905046194856
 31
0.0
  0
SPLINE
  5
10040
330
1F
100
AcDbEntity
  8
0
  6
Continuous
 62
     7
370
     0
100
AcDbSpline
210
0.0
220
0.0
230
1.0
 70
     8
 71
     3
 72
    15
 73
    11
 74
     9
 42
0.0000000001
 43
0.0000000001
 44
0.0000000001
 12
-1.0
 22
0.0
 32
0.0
 13
0.0
 23
-1.0
 33
0.0
 40
0.0
 40
0.0
 40
0.0
 40
0.0
 40
1.225227939826135
 40
2.450307546531402
 40
3.675273697822668
 40
4.900178306571771
 40
6.125082794969507
 40
7.350048634767849
 40
8.575127908207466
 40
9.800355680742494
 40
9.800355680742494
 40
9.800355680742494
 40
9.800355680742494
 10
-233.7323357626863
 20
-485.7905046194856
 30
0.0
 10
-234.1407450759616
 20
-485.7905046194856
 30
0.0
 10
-234.9597780448578
 20
-485.8710665915539
 30
0.0
 10
-236.1392966199413
 20
-486.2289626869116
 30
0.0
 10
-237.2267117742142
 20
-486.8101202153935
 30
0.0
 10
-238.1796728434419
 20
-487.5922162428454
 30
0.0
 10
-238.9617686711886
 20
-488.5451773389023
 30
0.0
 10
-239.5429259607829
 20
-489.6325923253158
 30
0.0
 10
-239.9008219109729
 20
-490.8121106548521
 30
0.0
 10
-239.9813838589269
 20
-491.6311434556716
 30
0.0
 10
-239.9813838589269
 20
-492.0395527131833
 30
0.0
 11
-233.7323357626863
 21
-485.7905046194856
 31
0.0
 11
-234.9516648607257
 21
-485.9105881537645
 31
0.0
 11
-236.1239978424471
 21
-486.2661938662232
 31
0.0
 11
-237.204328292906
 21
-486.843626277524
 31
0.0
 11
-238.1511958200442
 21
-487.6206933187669
 31
0.0
 11
-238.9282626530055
 21
-488.5675608611446
 31
0.0
 11
-239.5056948026847
 21
-489.6478910982433
 31
0.0
 11
-239.861300355127
 21
-490.8202237802425
 31
0.0
 11
-239.9813838589269
 21
-492.0395527131833
 31
0.0
  0
SPLINE
  5
10041
330
1F
100
AcDbEntity
  8
0
  6
Continuous
 62
     7
370
     0
100
AcDbSpline
210
0.0
220
0.0
230
1.0
 70
     8
 71
     3
 72
    15
 73
    11
 74
     9
 42
0.0000000001
 43
0.0000000001
 44
0.0000000001
 12
0.0
 22
-1.0
 32
0.0
 13
1.0
 23
0.0
 33
0.0
 40
0.0
 40
0.0
 40
0.0
 40
0.0
 40
1.225227940075367
 40
2.450307546784116
 40
3.675273696875177
 40
4.900178305627596
 40
6.125082794028145
 40
7.350048636065972
 40
8.575127909503477
 40
9.800355682038505
 40
9.800355682038505
 40
9.800355682038505
 40
9.800355682038505
 10
-239.9813838589269
 20
-561.5414565234233
 30
0.0
 10
-239.9813838589269
 20
-561.9498658367818
 30
0.0
 10
-239.9008218833686
 20
-562.7688988055097
 30
0.0
 10
-239.5429257886835
 20
-563.9484173799433
 30
0.0
 10
-238.9617682634305
 20
-565.0358325356775
 30
0.0
 10
-238.179672235344
 20
-565.9887936039909
 30
0.0
 10
-237.2267111391554
 20
-566.7708894327828
 30
0.0
 10
-236.1392961510342
 20
-567.3520467208732
 30
0.0
 10
-234.9597778210843
 20
-567.7099426718326
 30
0.0
 10
-234.1407450201979
 20
-567.7905046196639
 30
0.0
 10
-233.7323357626863
 20
-567.7905046196639
 30
0.0
 11
-239.9813838589269
 21
-561.5414565234233
 31
0.0
 11
-239.8613003221051
 21
-562.7607856214628
 31
0.0
 11
-239.5056946096463
 21
-563.9331186031878
 31
0.0
 11
-238.9282622008848
 21
-565.013449053643
 31
0.0
 11
-238.1511951596456
 21
-565.9603165807886
 31
0.0
 11
-237.2043276172642
 21
-566.7373834137499
 31
0.0
 11
-236.1239973776262
 21
-567.314815563429
 31
0.0
 11
-234.951664695627
 21
-567.670421115864
 31
0.0
 11
-233.7323357626863
 21
-567.7905046196639
 31
0.0
  0
SPLINE
  5
10042
330
1F
100
AcDbEntity
  8
06___PRT_ALL_SURFS
  6
Continuous
 62
     7
370
     0
100
AcDbSpline
210
0.0
220
0.0
230
1.0
 70
     8
 71
     3
 72
    15
 73
    11
 74
     9
 42
0.0000000001
 43
0.0000000001
 44
0.0000000001
 12
0.0
 22
1.0
 32
0.0
 13
-1.0
 23
0.0
 33
0.0
 40
0.0
 40
0.0
 40
0.0
 40
0.0
 40
1.225227940075011
 40
2.450307546784815
 40
3.675273696875876
 40
4.900178305625987
 40
6.125082795989456
 40
7.350048635791007
 40
8.575127909229568
 40
9.800355681764239
 40
9.800355681764239
 40
9.800355681764239
 40
9.800355681764239
 10
-163.6883139866456
 20
-492.7464828436487
 30
0.0
 10
-163.6883139866456
 20
-492.3380735302904
 30
0.0
 10
-163.7688759622056
 20
-491.519040561572
 30
0.0
 10
-164.1267720568617
 20
-490.3395219870922
 30
0.0
 10
-164.7079295822479
 20
-489.2521068315345
 30
0.0
 10
-165.4900256102472
 20
-488.2991457620524
 30
0.0
 10
-166.4429867083728
 20
-487.5170499359111
 30
0.0
 10
-167.5304016949226
 20
-486.9358926454208
 30
0.0
 10
-168.7099200245827
 20
-486.5779966953935
 30
0.0
 10
-169.5289528253747
 20
-486.4974347474081
 30
0.0
 10
-169.9373620828862
 20
-486.4974347474081
 30
0.0
 11
-163.6883139866456
 21
-492.7464828436487
 31
0.0
 11
-163.8083975234638
 21
-491.5271537456093
 31
0.0
 11
-164.1640032359262
 21
-490.3548207638842
 31
0.0
 11
-164.7414356446877
 21
-489.274490313429
 31
0.0
 11
-165.5185026859233
 21
-488.3276227862835
 31
0.0
 11
-166.465370230844
 21
-487.5505559533222
 31
0.0
 11
-167.5457004679463
 21
-486.973123803643
 31
0.0
 11
-168.7180331499455
 21
-486.6175182512043
 31
0.0
 11
-169.9373620828862
 21
-486.4974347474081
 31
0.0
  0
SPLINE
  5
10043
330
1F
100
AcDbEntity
  8
06___PRT_ALL_SURFS
  6
Continuous
 62
     7
370
     0
100
AcDbSpline
210
0.0
220
0.0
230
1.0
 70
     8
 71
     3
 72
    15
 73
    11
 74
     9
 42
0.0000000001
 43
0.0000000001
 44
0.0000000001
 12
1.0
 22
0.0
 32
0.0
 13
0.0
 23
1.0
 33
0.0
 40
0.0
 40
0.0
 40
0.0
 40
0.0
 40
1.225227939829756
 40
2.450307546531541
 40
3.675273697822808
 40
4.900178306574722
 40
6.125082794972459
 40
7.350048634770802
 40
8.575127908209362
 40
9.80035568074439
 40
9.80035568074439
 40
9.80035568074439
 40
9.80035568074439
 10
-169.9373620828862
 20
-567.0835744892057
 30
0.0
 10
-169.5289527696096
 20
-567.0835744892057
 30
0.0
 10
-168.7099198007132
 20
-567.0030125171384
 30
0.0
 10
-167.53040122563
 20
-566.6451164217792
 30
0.0
 10
-166.442986071358
 20
-566.0639588932967
 30
0.0
 10
-165.4900250021269
 20
-565.2818628658472
 30
0.0
 10
-164.7079291743806
 20
-564.3289017697886
 30
0.0
 10
-164.1267718847848
 20
-563.2414867833763
 30
0.0
 10
-163.7688759346008
 20
-562.0619684538383
 30
0.0
 10
-163.6883139866456
 20
-561.2429356530197
 30
0.0
 10
-163.6883139866456
 20
-560.834526395508
 30
0.0
 11
-169.9373620828862
 21
-567.0835744892057
 31
0.0
 11
-168.7180329848431
 21
-566.9634909549269
 31
0.0
 11
-167.5457000031254
 21
-566.6078852424681
 31
0.0
 11
-166.4653695526665
 21
-566.0304528311672
 31
0.0
 11
-165.5185020255246
 21
-565.2533857899244
 31
0.0
 11
-164.7414351925633
 21
-564.3065182475466
 31
0.0
 11
-164.1640030428841
 21
-563.226188010448
 31
0.0
 11
-163.8083974904455
 21
-562.0538553284488
 31
0.0
 11
-163.6883139866456
 21
-560.834526395508
 31
0.0
  0
SPLINE
  5
10044
330
1F
100
AcDbEntity
  8
0
  6
Continuous
 62
     7
370
     0
100
AcDbSpline
210
0.0
220
0.0
230
1.0
 70
     8
 71
     3
 72
    15
 73
    11
 74
     9
 42
0.0000000001
 43
0.0000000001
 44
0.0000000001
 12
0.0
 22
-1.0
 32
0.0
 13
1.0
 23
0.0
 33
0.0
 40
0.0
 40
0.0
 40
0.0
 40
0.0
 40
1.225227939826135
 40
2.450307544097944
 40
3.67527369538921
 40
4.900178306101736
 40
6.125082792889065
 40
7.350048632690616
 40
8.575127906866265
 40
9.800355679152774
 40
9.800355679152774
 40
9.800355679152774
 40
9.800355679152774
 10
-239.274453728465
 20
-560.834526395508
 30
0.0
 10
-239.274453728465
 20
-561.2429357087834
 30
0.0
 10
-239.1938917567593
 20
-562.0619686769225
 30
0.0
 10
-238.8359956606025
 20
-563.2414872510207
 30
0.0
 10
-238.2548381316915
 20
-564.3289024045585
 30
0.0
 10
-237.4727421068306
 20
-565.281863476267
 30
0.0
 10
-236.5197810081035
 20
-566.0639593014211
 30
0.0
 10
-235.4323660222628
 20
-566.6451165901512
 30
0.0
 10
-234.2528476937664
 20
-567.0030125457556
 30
0.0
 10
-233.4338148921926
 20
-567.0835744892057
 30
0.0
 10
-233.0254056347637
 20
-567.0835744892057
 30
0.0
 11
-239.274453728465
 21
-560.834526395508
 31
0.0
 11
-239.1543701941862
 21
-562.0538554935475
 31
0.0
 11
-238.7987644817274
 21
-563.226188472726
 31
0.0
 11
-238.2213320704266
 21
-564.3065189231848
 31
0.0
 11
-237.4442650291874
 21
-565.253386452866
 31
0.0
 11
-236.497397486806
 21
-566.0304532832843
 31
0.0
 11
-235.4170672497037
 21
-566.6078854329636
 31
0.0
 11
-234.2447345677044
 21
-566.9634909879415
 31
0.0
 11
-233.0254056347637
 21
-567.0835744892057
 31
0.0
  0
SPLINE
  5
10045
330
1F
100
AcDbEntity
  8
0
  6
Continuous
 62
     7
370
     0
100
AcDbSpline
210
0.0
220
0.0
230
1.0
 70
     8
 71
     3
 72
    15
 73
    11
 74
     9
 42
0.0000000001
 43
0.0000000001
 44
0.0000000001
 12
-1.0
 22
0.0
 32
0.0
 13
0.0
 23
-1.0
 33
0.0
 40
0.0
 40
0.0
 40
0.0
 40
0.0
 40
1.225227940078275
 40
2.450307544352194
 40
3.675273694447958
 40
4.90017830515998
 40
6.125082793910229
 40
7.350048633710287
 40
8.575127907886992
 40
9.800355680172788
 40
9.800355680172788
 40
9.800355680172788
 40
9.800355680172788
 10
-233.0254056347637
 20
-486.4974347474081
 30
0.0
 10
-233.4338149481232
 20
-486.4974347474081
 30
0.0
 10
-234.2528479160863
 20
-486.5779967225969
 30
0.0
 10
-235.4323664895777
 20
-486.9358928180673
 30
0.0
 10
-236.5197816444108
 20
-487.5170503438641
 30
0.0
 10
-237.4727427163553
 20
-488.2991463692966
 30
0.0
 10
-238.2548385399082
 20
-489.2521074700823
 30
0.0
 10
-238.835995829538
 20
-490.3395224560559
 30
0.0
 10
-239.1938917849908
 20
-491.5190407846721
 30
0.0
 10
-239.274453728465
 20
-492.3380735862202
 30
0.0
 10
-239.274453728465
 20
-492.7464828436487
 30
0.0
 11
-233.0254056347637
 21
-486.4974347474081
 31
0.0
 11
-234.2447347328068
 21
-486.6175182842226
 31
0.0
 11
-235.4170677119853
 21
-486.9731239966887
 31
0.0
 11
-236.4973981624478
 21
-487.5505564054466
 31
0.0
 11
-237.4442656921253
 21
-488.3276234466895
 31
0.0
 11
-238.2213325225436
 21
-489.2744909916102
 31
0.0
 11
-238.7987646722265
 21
-490.3548212287088
 31
0.0
 11
-239.1543702272081
 21
-491.527153910708
 31
0.0
 11
-239.274453728465
 21
-492.7464828436487
 31
0.0
  0
LINE
  5
10047
330
1F
100
AcDbEntity
  8
DEFAULT_2
  6
HIDDEN
 62
     8
 48
5.0
100
AcDbLine
 10
-68.4373626638517
 20
-461.7905046194874
 30
0.0
 11
-69.09192759612682
 21
-424.2905046199097
 31
0.0
  0
LINE
  5
10048
330
1F
100
AcDbEntity
  8
DEFAULT_2
  6
HIDDEN
 62
     8
 48
5.0
100
AcDbLine
 10
-46.981383860042
 20
-461.7905046194872
 30
0.0
 11
-46.981383860042
 21
-455.7905046205272
 31
0.0
  0
LINE
  5
10049
330
1F
100
AcDbEntity
  8
DEFAULT_2
  6
HIDDEN
 62
     8
 48
5.0
100
AcDbLine
 10
-38.98138385804202
 20
-461.7905046194872
 30
0.0
 11
-38.98138385804202
 21
-455.7905046205272
 31
0.0
  0
LINE
  5
1004A
330
1F
100
AcDbEntity
  8
DEFAULT_2
  6
HIDDEN
 62
     8
 48
5.0
100
AcDbLine
 10
-46.981383860042
 20
-455.7905046205272
 30
0.0
 11
-38.98138385804202
 21
-455.7905046205272
 31
0.0
  0
LINE
  5
1004B
330
1F
100
AcDbEntity
  8
DEFAULT_2
  6
HIDDEN
 62
     8
 48
5.0
100
AcDbLine
 10
-17.52540505423232
 20
-461.7905046194872
 30
0.0
 11
-68.4373626638517
 21
-461.7905046194874
 31
0.0
  0
LINE
  5
1004D
330
1F
100
AcDbEntity
  8
DEFAULT_2
  6
HIDDEN
 62
     8
 48
5.0
100
AcDbLine
 10
-17.52540505423232
 20
-461.7905046194872
 30
0.0
 11
-16.8708401219572
 21
-424.2905046199097
 31
0.0
  0
LINE
  5
1004E
330
1F
100
AcDbEntity
  8
DEFAULT_2
  6
HIDDEN
 62
     8
 48
5.0
100
AcDbLine
 10
-17.52540505423233
 20
-591.790504617124
 30
0.0
 11
-16.87084012195721
 21
-629.2905046167016
 31
0.0
  0
LINE
  5
1004F
330
1F
100
AcDbEntity
  8
DEFAULT_2
  6
HIDDEN
 62
     8
 48
5.0
100
AcDbLine
 10
-17.52540505423233
 20
-591.790504617124
 30
0.0
 11
-68.4373626638517
 21
-591.7905046171238
 31
0.0
  0
LINE
  5
10050
330
1F
100
AcDbEntity
  8
DEFAULT_2
  6
HIDDEN
 62
     8
 48
5.0
100
AcDbLine
 10
-46.981383860042
 20
-597.790504616084
 30
0.0
 11
-38.98138385804202
 21
-597.790504616084
 31
0.0
  0
LINE
  5
10051
330
1F
100
AcDbEntity
  8
DEFAULT_2
  6
HIDDEN
 62
     8
 48
5.0
100
AcDbLine
 10
-38.98138385804202
 20
-591.790504617124
 30
0.0
 11
-38.98138385804202
 21
-597.790504616084
 31
0.0
  0
LINE
  5
10052
330
1F
100
AcDbEntity
  8
DEFAULT_2
  6
HIDDEN
 62
     8
 48
5.0
100
AcDbLine
 10
-46.981383860042
 20
-591.790504617124
 30
0.0
 11
-46.981383860042
 21
-597.790504616084
 31
0.0
  0
LINE
  5
10053
330
1F
100
AcDbEntity
  8
DEFAULT_2
  6
HIDDEN
 62
     8
 48
5.0
100
AcDbLine
 10
-68.4373626638517
 20
-591.7905046171238
 30
0.0
 11
-69.09192759612682
 21
-629.2905046167016
 31
0.0
  0
LINE
  5
10054
330
1F
100
AcDbEntity
  8
DEFAULT_2
  6
HIDDEN
 62
     8
 48
5.0
100
AcDbLine
 10
19.518616141059
 20
-546.8597570902316
 30
0.0
 11
57.01861614063943
 21
-547.5143220225069
 31
0.0
  0
LINE
  5
10055
330
1F
100
AcDbEntity
  8
DEFAULT_2
  6
HIDDEN
 62
     8
 48
5.0
100
AcDbLine
 10
19.518616141059
 20
-546.8597570902316
 30
0.0
 11
19.51861614105888
 21
-498.0712521490178
 31
0.0
  0
LINE
  5
10056
330
1F
100
AcDbEntity
  8
DEFAULT_2
  6
HIDDEN
 62
     8
 48
5.0
100
AcDbLine
 10
25.51861614001899
 20
-522.7905046173084
 30
0.0
 11
25.51861614001899
 21
-530.7905046193083
 31
0.0
  0
LINE
  5
10057
330
1F
100
AcDbEntity
  8
DEFAULT_2
  6
HIDDEN
 62
     8
 48
5.0
100
AcDbLine
 10
19.518616141059
 20
-530.7905046193083
 30
0.0
 11
25.51861614001899
 21
-530.7905046193083
 31
0.0
  0
LINE
  5
10058
330
1F
100
AcDbEntity
  8
DEFAULT_2
  6
HIDDEN
 62
     8
 48
5.0
100
AcDbLine
 10
19.518616141059
 20
-522.7905046173084
 30
0.0
 11
25.51861614001899
 21
-522.7905046173084
 31
0.0
  0
LINE
  5
10059
330
1F
100
AcDbEntity
  8
DEFAULT_2
  6
HIDDEN
 62
     8
 48
5.0
100
AcDbLine
 10
19.51861614105888
 20
-498.0712521490178
 30
0.0
 11
57.01861614063654
 21
-497.4166872167425
 31
0.0
  0
LINE
  5
1005C
330
1F
100
AcDbEntity
  8
DEFAULT_2
  6
HIDDEN
 62
     8
 48
5.0
100
AcDbLine
 10
-105.481383861684
 20
-555.509757087599
 30
0.0
 11
-142.9813838612617
 21
-556.1643220198743
 31
0.0
  0
LINE
  5
1005D
330
1F
100
AcDbEntity
  8
DEFAULT_2
  6
HIDDEN
 62
     8
 48
5.0
100
AcDbLine
 10
-105.4813838616841
 20
-530.7905046193083
 30
0.0
 11
-111.4813838606441
 21
-530.7905046193083
 31
0.0
  0
LINE
  5
1005E
330
1F
100
AcDbEntity
  8
DEFAULT_2
  6
HIDDEN
 62
     8
 48
5.0
100
AcDbLine
 10
-105.4813838616841
 20
-522.7905046173084
 30
0.0
 11
-111.4813838606441
 21
-522.7905046173084
 31
0.0
  0
LINE
  5
1005F
330
1F
100
AcDbEntity
  8
DEFAULT_2
  6
HIDDEN
 62
     8
 48
5.0
100
AcDbLine
 10
-111.4813838606441
 20
-530.7905046193083
 30
0.0
 11
-111.4813838606441
 21
-522.7905046173084
 31
0.0
  0
LINE
  5
10060
330
1F
100
AcDbEntity
  8
DEFAULT_2
  6
HIDDEN
 62
     8
 48
5.0
100
AcDbLine
 10
-105.4813838616841
 20
-506.7212521463853
 30
0.0
 11
-105.481383861684
 21
-555.509757087599
 31
0.0
  0
LINE
  5
10061
330
1F
100
AcDbEntity
  8
DEFAULT_2
  6
HIDDEN
 62
     8
 48
5.0
100
AcDbLine
 10
-105.4813838616841
 20
-506.7212521463853
 30
0.0
 11
-142.9813838612646
 21
-506.0666872141099
 31
0.0
  0
MTEXT
  5
10719
330
1F
100
AcDbEntity
  8
_BLACK_HOLE
 62
     3
370
     0
100
AcDbMText
 10
24.02016014932087
 20
-889.1967623264108
 30
0.0
 40
6.0
 41
0.0
 71
     1
 72
     1
  1
\A1; 
 73
     1
 44
1.0
1001
ACAD
1000
MTEXTBEGIN
1070
    73
1070
     1
1070
    44
1040
1.0
1070
    74
1070
     0
1000
MTEXTEND
  0
CIRCLE
  5
10F4F
330
1F
100
AcDbEntity
  8
06___PRT_ALL_SURFS
  6
Continuous
 62
     7
370
     0
100
AcDbCircle
 10
-14.98138385966058
 20
-541.7905046182501
 30
0.0
 40
1.429999999999999
  0
CIRCLE
  5
10F50
330
1F
100
AcDbEntity
  8
06___PRT_ALL_SURFS
  6
Continuous
 62
     7
370
     0
100
AcDbCircle
 10
-42.98138385904201
 20
-557.7905046197075
 30
0.0
 40
1.429999999999999
  0
CIRCLE
  5
10F51
330
1F
100
AcDbEntity
  8
06___PRT_ALL_SURFS
  6
Continuous
 62
     7
370
     0
100
AcDbCircle
 10
-42.98138385904201
 20
-495.7905046194444
 30
0.0
 40
1.429999999999999
  0
CIRCLE
  5
10F52
330
1F
100
AcDbEntity
  8
06___PRT_ALL_SURFS
  6
Continuous
 62
     7
370
     0
100
AcDbCircle
 10
-70.9813838584206
 20
-511.7905046183666
 30
0.0
 40
1.429999999999999
  0
CIRCLE
  5
10F89
330
1F
100
AcDbEntity
  8
02___PRT_ALL_AXES
 62
     3
100
AcDbCircle
 10
-14.98138385966058
 20
-511.7905046183667
 30
0.0
 40
1.5
  0
ARC
  5
10F8A
330
1F
100
AcDbEntity
  8
02___PRT_ALL_AXES
  6
HIDDEN
 62
     3
100
AcDbCircle
 10
-14.98138385966058
 20
-511.7905046183667
 30
0.0
 40
2.0
100
AcDbArc
 50
180.0
 51
91.81490177345377
  0
CIRCLE
  5
10F8B
330
1F
100
AcDbEntity
  8
02___PRT_ALL_AXES
 62
     3
100
AcDbCircle
 10
-14.98138385966058
 20
-526.7905046183054
 30
0.0
 40
1.5
  0
ARC
  5
10F8C
330
1F
100
AcDbEntity
  8
02___PRT_ALL_AXES
  6
HIDDEN
 62
     3
100
AcDbCircle
 10
-14.98138385966058
 20
-526.7905046183054
 30
0.0
 40
2.0
100
AcDbArc
 50
180.0
 51
91.81490177345377
  0
CIRCLE
  5
10F8D
330
1F
100
AcDbEntity
  8
02___PRT_ALL_AXES
 62
     3
100
AcDbCircle
 10
-10.73138385828269
 20
-561.5405046177849
 30
0.0
 40
1.5
  0
ARC
  5
10F8E
330
1F
100
AcDbEntity
  8
02___PRT_ALL_AXES
  6
HIDDEN
 62
     3
100
AcDbCircle
 10
-10.73138385828269
 20
-561.5405046177849
 30
0.0
 40
2.0
100
AcDbArc
 50
180.0
 51
91.81490177345377
  0
CIRCLE
  5
10F8F
330
1F
100
AcDbEntity
  8
02___PRT_ALL_AXES
 62
     3
100
AcDbCircle
 10
-14.98138385966058
 20
-550.7905046192299
 30
0.0
 40
1.5
  0
ARC
  5
10F90
330
1F
100
AcDbEntity
  8
02___PRT_ALL_AXES
  6
HIDDEN
 62
     3
100
AcDbCircle
 10
-14.98138385966058
 20
-550.7905046192299
 30
0.0
 40
2.0
100
AcDbArc
 50
180.0
 51
91.81490177345377
  0
CIRCLE
  5
10F91
330
1F
100
AcDbEntity
  8
02___PRT_ALL_AXES
 62
     3
100
AcDbCircle
 10
-10.73138385828269
 20
-492.040504618826
 30
0.0
 40
1.5
  0
ARC
  5
10F92
330
1F
100
AcDbEntity
  8
02___PRT_ALL_AXES
  6
HIDDEN
 62
     3
100
AcDbCircle
 10
-10.73138385828269
 20
-492.040504618826
 30
0.0
 40
2.0
100
AcDbArc
 50
180.0
 51
91.81490177345377
  0
CIRCLE
  5
10F93
330
1F
100
AcDbEntity
  8
02___PRT_ALL_AXES
 62
     3
100
AcDbCircle
 10
-75.23138385980132
 20
-492.040504618826
 30
0.0
 40
1.5
  0
ARC
  5
10F94
330
1F
100
AcDbEntity
  8
02___PRT_ALL_AXES
  6
HIDDEN
 62
     3
100
AcDbCircle
 10
-75.23138385980132
 20
-492.040504618826
 30
0.0
 40
2.0
100
AcDbArc
 50
180.0
 51
91.81490177345377
  0
CIRCLE
  5
10F95
330
1F
100
AcDbEntity
  8
02___PRT_ALL_AXES
 62
     3
100
AcDbCircle
 10
-70.9813838584206
 20
-502.790504619928
 30
0.0
 40
1.5
  0
ARC
  5
10F96
330
1F
100
AcDbEntity
  8
02___PRT_ALL_AXES
  6
HIDDEN
 62
     3
100
AcDbCircle
 10
-70.9813838584206
 20
-502.790504619928
 30
0.0
 40
2.0
100
AcDbArc
 50
180.0
 51
91.81490177345377
  0
CIRCLE
  5
10F97
330
1F
100
AcDbEntity
  8
02___PRT_ALL_AXES
 62
     3
100
AcDbCircle
 10
-70.9813838584206
 20
-526.7905046183054
 30
0.0
 40
1.5
  0
ARC
  5
10F98
330
1F
100
AcDbEntity
  8
02___PRT_ALL_AXES
  6
HIDDEN
 62
     3
100
AcDbCircle
 10
-70.9813838584206
 20
-526.7905046183054
 30
0.0
 40
2.0
100
AcDbArc
 50
180.0
 51
91.81490177345377
  0
CIRCLE
  5
10F99
330
1F
100
AcDbEntity
  8
02___PRT_ALL_AXES
 62
     3
100
AcDbCircle
 10
-70.9813838584206
 20
-541.7905046182502
 30
0.0
 40
1.5
  0
ARC
  5
10F9A
330
1F
100
AcDbEntity
  8
02___PRT_ALL_AXES
  6
HIDDEN
 62
     3
100
AcDbCircle
 10
-70.9813838584206
 20
-541.7905046182502
 30
0.0
 40
2.0
100
AcDbArc
 50
180.0
 51
91.81490177345377
  0
CIRCLE
  5
10F9B
330
1F
100
AcDbEntity
  8
02___PRT_ALL_AXES
 62
     3
100
AcDbCircle
 10
-75.23138385980132
 20
-561.5405046177849
 30
0.0
 40
1.5
  0
ARC
  5
10F9C
330
1F
100
AcDbEntity
  8
02___PRT_ALL_AXES
  6
HIDDEN
 62
     3
100
AcDbCircle
 10
-75.23138385980132
 20
-561.5405046177849
 30
0.0
 40
2.0
100
AcDbArc
 50
180.0
 51
91.81490177345377
  0
ENDSEC
  0
SECTION
  2
OBJECTS
  0
DICTIONARY
  5
C
330
0
100
AcDbDictionary
281
     1
  3
ACAD_COLOR
350
84C
  3
ACAD_GROUP
350
D
  3
ACAD_LAYOUT
350
1A
  3
ACAD_MATERIAL
350
84B
  3
ACAD_MLINESTYLE
350
17
  3
ACAD_PLOTSETTINGS
350
19
  3
ACAD_PLOTSTYLENAME
350
E
  3
AcadDim
350
1071A
  3
ACDBHEADERROUNDTRIPXREC
350
10F9F
  3
AcDbVariableDictionary
350
10F3E
  3
ASE_INDEX_DICTIONARY
350
852
  3
lxx_dict
350
84F
  0
DICTIONARY
  5
84C
102
{ACAD_REACTORS
330
C
102
}
330
C
100
AcDbDictionary
281
     1
  0
DICTIONARY
  5
D
102
{ACAD_REACTORS
330
C
102
}
330
C
100
AcDbDictionary
281
     1
  0
DICTIONARY
  5
1A
102
{ACAD_REACTORS
330
C
102
}
330
C
100
AcDbDictionary
281
     1
  3
Layout1
350
1E
  3
Model
350
22
  0
DICTIONARY
  5
84B
102
{ACAD_REACTORS
330
C
102
}
330
C
100
AcDbDictionary
281
     1
  0
DICTIONARY
  5
17
102
{ACAD_REACTORS
330
C
102
}
330
C
100
AcDbDictionary
281
     1
  3
Standard
350
18
  0
DICTIONARY
  5
19
102
{ACAD_REACTORS
330
C
102
}
330
C
100
AcDbDictionary
281
     1
  0
ACDBDICTIONARYWDFLT
  5
E
102
{ACAD_REACTORS
330
C
102
}
330
C
100
AcDbDictionary
281
     1
  3
Normal
350
F
100
AcDbDictionaryWithDefault
340
F
  0
XRECORD
  5
1071A
102
{ACAD_REACTORS
330
C
102
}
330
C
100
AcDbXrecord
280
     1
 90
   990106
  3

 60
     0
 61
     0
 62
     1
 63
     3
 64
     0
 65
     0
 66
     0
 67
     3
 68
     1
 69
     0
 70
     0
 71
     0
 72
     0
 40
0.0
170
     0
340
0
  0
DICTIONARY
  5
10F9F
102
{ACAD_REACTORS
330
C
102
}
330
C
100
AcDbDictionary
281
     1
  3
COLORDICT
350
10FA1
  3
MATERIALDICT
350
10FA0
  0
DICTIONARY
  5
10F3E
102
{ACAD_REACTORS
330
C
102
}
330
C
100
AcDbDictionary
281
     1
  3
DIMASSOC
350
10F3F
  3
PROJECTNAME
350
10F40
  0
DICTIONARY
  5
852
102
{ACAD_REACTORS
330
C
102
}
330
C
100
AcDbDictionary
281
     1
  3
ASEBlockHierarchyIndexRecord
350
854
1001
DCO15
1040
1669954379.703
  0
DICTIONARY
  5
84F
102
{ACAD_REACTORS
330
C
102
}
330
C
100
AcDbDictionary
281
     1
  3
lxx_dimth
350
850
  0
LAYOUT
  5
1E
102
{ACAD_XDICTIONARY
360
10FA2
102
}
102
{ACAD_REACTORS
330
1A
102
}
330
1A
100
AcDbPlotSettings
  1

  2

  4

  6

 40
0.0
 41
0.0
 42
0.0
 43
0.0
 44
0.0
 45
0.0
 46
0.0
 47
0.0
 48
0.0
 49
0.0
140
0.0
141
0.0
142
1.0
143
1.0
 70
     0
 72
     0
 73
     0
 74
     0
  7

 75
     0
147
1.0
148
0.0
149
0.0
100
AcDbLayout
  1
Layout1
 70
     0
 71
     1
 10
0.0
 20
0.0
 11
12.0
 21
9.0
 12
0.0
 22
0.0
 32
0.0
 14
1.000000000000000E+20
 24
1.000000000000000E+20
 34
1.000000000000000E+20
 15
-1.000000000000000E+20
 25
-1.000000000000000E+20
 35
-1.000000000000000E+20
146
0.0
 13
0.0
 23
0.0
 33
0.0
 16
1.0
 26
0.0
 36
0.0
 17
0.0
 27
1.0
 37
0.0
 76
     0
330
1B
  0
LAYOUT
  5
22
102
{ACAD_XDICTIONARY
360
10FA4
102
}
102
{ACAD_REACTORS
330
1A
102
}
330
1A
100
AcDbPlotSettings
  1

  2
none_device
  4
Letter_(8.50_x_11.00_Inches)
  6

 40
6.349999904632568
 41
6.349999904632568
 42
6.350006103515625
 43
6.350006103515625
 44
215.8999938964844
 45
279.3999938964844
 46
0.0
 47
0.0
 48
0.0
 49
0.0
140
0.0
141
0.0
142
1.0
143
1.0
 70
 14336
 72
     0
 73
     1
 74
     0
  7

 75
     0
147
1.0
148
6325.535292211679
149
18637.51245105856
100
AcDbLayout
  1
Model
 70
     0
 71
     0
 10
0.0
 20
0.0
 11
0.0
 21
0.0
 12
0.0
 22
0.0
 32
0.0
 14
0.0
 24
0.0
 34
0.0
 15
0.0
 25
0.0
 35
0.0
146
0.0
 13
0.0
 23
0.0
 33
0.0
 16
0.0
 26
0.0
 36
0.0
 17
0.0
 27
0.0
 37
0.0
 76
     0
330
1F
  0
MLINESTYLE
  5
18
102
{ACAD_REACTORS
330
17
102
}
330
17
100
AcDbMlineStyle
  2
STANDARD
 70
     0
  3

 62
   256
 51
90.0
 52
90.0
 71
     2
 49
0.5
 62
   256
  6
BYLAYER
 49
-0.5
 62
   256
  6
BYLAYER
  0
ACDBPLACEHOLDER
  5
F
102
{ACAD_REACTORS
330
E
102
}
330
0
  0
XRECORD
  5
10FA1
102
{ACAD_REACTORS
330
10F9F
102
}
330
10F9F
100
AcDbXrecord
280
     1
340
84C
  0
XRECORD
  5
10FA0
102
{ACAD_REACTORS
330
10F9F
102
}
330
10F9F
100
AcDbXrecord
280
     1
340
84B
  0
DICTIONARYVAR
  5
10F3F
102
{ACAD_REACTORS
330
10F3E
102
}
330
10F3E
100
DictionaryVariables
280
     0
  1
1
  0
DICTIONARYVAR
  5
10F40
102
{ACAD_REACTORS
330
10F3E
102
}
330
10F3E
100
DictionaryVariables
280
     0
  1

  0
XRECORD
  5
854
102
{ACAD_REACTORS
330
852
102
}
330
852
100
AcDbXrecord
280
     1
  0
VLO-VL
  5
850
102
{ACAD_REACTORS
330
84F
102
}
330
84F
100
vlo_VL
 90
   -64512
 91
       12
 92
        1
 40
2.5
300
(&VLO-R . 0)
  0
DICTIONARY
  5
10FA2
330
1E
100
AcDbDictionary
280
     1
281
     1
  3
ACAD_XREC_ROUNDTRIP
360
10FA3
  0
DICTIONARY
  5
10FA4
330
22
100
AcDbDictionary
280
     1
281
     1
  3
ACAD_XREC_ROUNDTRIP
360
10FA5
  0
XRECORD
  5
10FA3
102
{ACAD_REACTORS
330
10FA2
102
}
330
10FA2
100
AcDbXrecord
280
     1
102
SHADEPLOT
 70
     0
102
SHADEPLOTRESLEVEL
 70
     2
102
SHADEPLOTCUSTOMDPI
 70
   300
  0
XRECORD
  5
10FA5
102
{ACAD_REACTORS
330
10FA4
102
}
330
10FA4
100
AcDbXrecord
280
     1
102
SHADEPLOT
 70
     0
102
SHADEPLOTRESLEVEL
 70
     2
102
SHADEPLOTCUSTOMDPI
 70
   300
  0
ENDSEC
  0
EOF
