  0
SECTION
  2
HEADER
  9
$ACADVER
  1
AC1014
  9
$ACADMAINTVER
 70
     9
  9
$DWGCODEPAGE
  3
ANSI_1252
  9
$INSBASE
 10
0.0
 20
0.0
 30
0.0
  9
$EXTMIN
 10
0.0
 20
0.0
 30
0.0
  9
$EXTMAX
 10
2100.0
 20
1485.0
 30
0.0
  9
$LIMMIN
 10
0.0
 20
0.0
  9
$LIMMAX
 10
2100.0
 20
1485.0
  9
$ORTHOMODE
 70
     0
  9
$REGENMODE
 70
     1
  9
$FILLMODE
 70
     1
  9
$QTEXTMODE
 70
     0
  9
$MIRRTEXT
 70
     1
  9
$DRAGMODE
 70
     2
  9
$LTSCALE
 40
5.0
  9
$OSMODE
 70
    37
  9
$ATTMODE
 70
     1
  9
$TEXTSIZE
 40
17.5
  9
$TRACEWID
 40
1.0
  9
$TEXTSTYLE
  7
STANDARD
  9
$CLAYER
  8
0
  9
$CELTYPE
  6
BYLAYER
  9
$CECOLOR
 62
   256
  9
$CELTSCALE
 40
1.0
  9
$DELOBJ
 70
     1
  9
$DISPSILH
 70
     0
  9
$DIMSCALE
 40
1.0
  9
$DIMASZ
 40
30.0
  9
$DIMEXO
 40
5.0
  9
$DIMDLI
 40
3.75
  9
$DIMRND
 40
0.0
  9
$DIMDLE
 40
0.0
  9
$DIMEXE
 40
5.0
  9
$DIMTP
 40
0.0
  9
$DIMTM
 40
0.0
  9
$DIMTXT
 40
17.5
  9
$DIMCEN
 40
2.5
  9
$DIMTSZ
 40
0.0
  9
$DIMTOL
 70
     0
  9
$DIMLIM
 70
     0
  9
$DIMTIH
 70
     1
  9
$DIMTOH
 70
     1
  9
$DIMSE1
 70
     0
  9
$DIMSE2
 70
     0
  9
$DIMTAD
 70
     1
  9
$DIMZIN
 70
     0
  9
$DIMBLK
  1

  9
$DIMASO
 70
     1
  9
$DIMSHO
 70
     1
  9
$DIMPOST
  1

  9
$DIMAPOST
  1

  9
$DIMALT
 70
     0
  9
$DIMALTD
 70
     3
  9
$DIMALTF
 40
0.0393700787
  9
$DIMLFAC
 40
1.0
  9
$DIMTOFL
 70
     1
  9
$DIMTVP
 40
0.0
  9
$DIMTIX
 70
     0
  9
$DIMSOXD
 70
     0
  9
$DIMSAH
 70
     0
  9
$DIMBLK1
  1

  9
$DIMBLK2
  1

  9
$DIMSTYLE
  2
ISO-25
  9
$DIMCLRD
 70
     0
  9
$DIMCLRE
 70
     0
  9
$DIMCLRT
 70
     0
  9
$DIMTFAC
 40
1.0
  9
$DIMGAP
 40
7.62
  9
$DIMJUST
 70
     0
  9
$DIMSD1
 70
     0
  9
$DIMSD2
 70
     0
  9
$DIMTOLJ
 70
     0
  9
$DIMTZIN
 70
     0
  9
$DIMALTZ
 70
     0
  9
$DIMALTTZ
 70
     0
  9
$DIMFIT
 70
     3
  9
$DIMUPT
 70
     0
  9
$DIMUNIT
 70
     2
  9
$DIMDEC
 70
     2
  9
$DIMTDEC
 70
     2
  9
$DIMALTU
 70
     2
  9
$DIMALTTD
 70
     3
  9
$DIMTXSTY
  7
STANDARD
  9
$DIMAUNIT
 70
     0
  9
$LUNITS
 70
     2
  9
$LUPREC
 70
     2
  9
$SKETCHINC
 40
1.0
  9
$FILLETRAD
 40
10.0
  9
$AUNITS
 70
     0
  9
$AUPREC
 70
     2
  9
$MENU
  1
.
  9
$ELEVATION
 40
0.0
  9
$PELEVATION
 40
0.0
  9
$THICKNESS
 40
0.0
  9
$LIMCHECK
 70
     0
  9
$CHAMFERA
 40
10.0
  9
$CHAMFERB
 40
10.0
  9
$CHAMFERC
 40
20.0
  9
$CHAMFERD
 40
0.0
  9
$SKPOLY
 70
     0
  9
$TDCREATE
 40
2455559.360840995
  9
$TDUPDATE
 40
2455559.360841007
  9
$TDINDWG
 40
0.0000000116
  9
$TDUSRTIMER
 40
0.0000000116
  9
$USRTIMER
 70
     1
  9
$ANGBASE
 50
0.0
  9
$ANGDIR
 70
     0
  9
$PDMODE
 70
     0
  9
$PDSIZE
 40
-1.0
  9
$PLINEWID
 40
0.0
  9
$COORDS
 70
     1
  9
$SPLFRAME
 70
     0
  9
$SPLINETYPE
 70
     6
  9
$SPLINESEGS
 70
     8
  9
$ATTDIA
 70
     0
  9
$ATTREQ
 70
     1
  9
$HANDLING
 70
     1
  9
$HANDSEED
  5
4FB
  9
$SURFTAB1
 70
     6
  9
$SURFTAB2
 70
     6
  9
$SURFTYPE
 70
     6
  9
$SURFU
 70
     6
  9
$SURFV
 70
     6
  9
$UCSNAME
  2

  9
$UCSORG
 10
0.0
 20
0.0
 30
0.0
  9
$UCSXDIR
 10
1.0
 20
0.0
 30
0.0
  9
$UCSYDIR
 10
0.0
 20
1.0
 30
0.0
  9
$PUCSNAME
  2

  9
$PUCSORG
 10
0.0
 20
0.0
 30
0.0
  9
$PUCSXDIR
 10
1.0
 20
0.0
 30
0.0
  9
$PUCSYDIR
 10
0.0
 20
1.0
 30
0.0
  9
$USERI1
 70
     0
  9
$USERI2
 70
     0
  9
$USERI3
 70
     0
  9
$USERI4
 70
     0
  9
$USERI5
 70
     0
  9
$USERR1
 40
0.0
  9
$USERR2
 40
0.0
  9
$USERR3
 40
0.0
  9
$USERR4
 40
0.0
  9
$USERR5
 40
0.0
  9
$WORLDVIEW
 70
     1
  9
$SHADEDGE
 70
     3
  9
$SHADEDIF
 70
    70
  9
$TILEMODE
 70
     1
  9
$MAXACTVP
 70
    64
  9
$PINSBASE
 10
0.0
 20
0.0
 30
0.0
  9
$PLIMCHECK
 70
     0
  9
$PEXTMIN
 10
1.0000000000E+20
 20
1.0000000000E+20
 30
1.0000000000E+20
  9
$PEXTMAX
 10
-1.0000000000E+20
 20
-1.0000000000E+20
 30
-1.0000000000E+20
  9
$PLIMMIN
 10
0.0
 20
0.0
  9
$PLIMMAX
 10
420.0
 20
297.0
  9
$UNITMODE
 70
     0
  9
$VISRETAIN
 70
     1
  9
$PLINEGEN
 70
     0
  9
$PSLTSCALE
 70
     1
  9
$TREEDEPTH
 70
  3020
  9
$PICKSTYLE
 70
     1
  9
$CMLSTYLE
  2
STANDARD
  9
$CMLJUST
 70
     0
  9
$CMLSCALE
 40
20.0
  9
$PROXYGRAPHICS
 70
     1
  9
$MEASUREMENT
 70
     1
  0
ENDSEC
  0
SECTION
  2
CLASSES
  0
CLASS
  1
ACDBDICTIONARYWDFLT
  2
AcDbDictionaryWithDefault
  3
ObjectDBX Classes
 90
        0
280
     0
281
     0
  0
CLASS
  1
VISUALSTYLE
  2
AcDbVisualStyle
  3
ObjectDBX Classes
 90
     4095
280
     0
281
     0
  0
CLASS
  1
MATERIAL
  2
AcDbMaterial
  3
ObjectDBX Classes
 90
     1153
280
     0
281
     0
  0
CLASS
  1
XRECORD
  2
AcDbXrecord
  3
AutoCAD 2000
 90
        0
280
     0
281
     0
  0
CLASS
  1
LWPOLYLINE
  2
AcDbPolyline
  3
AutoCAD 2000
 90
        0
280
     0
281
     1
  0
CLASS
  1
HATCH
  2
AcDbHatch
  3
AutoCAD 2000
 90
        0
280
     0
281
     1
  0
ENDSEC
  0
SECTION
  2
TABLES
  0
TABLE
  2
VPORT
  5
8
330
0
100
AcDbSymbolTable
 70
     1
  0
VPORT
  5
29
330
8
100
AcDbSymbolTableRecord
100
AcDbViewportTableRecord
  2
*ACTIVE
 70
     0
 10
0.0
 20
0.0
 11
1.0
 21
1.0
 12
1050.0
 22
742.5
 13
0.0
 23
0.0
 14
10.0
 24
10.0
 15
10.0
 25
10.0
 16
0.0
 26
0.0
 36
1.0
 17
0.0
 27
0.0
 37
0.0
 40
1485.0
 41
1.4141414141
 42
50.0
 43
0.0
 44
0.0
 50
0.0
 51
0.0
 71
     0
 72
  2000
 73
     1
 74
     3
 75
     0
 76
     0
 77
     0
 78
     0
  0
ENDTAB
  0
TABLE
  2
LTYPE
  5
5
330
0
100
AcDbSymbolTable
 70
     6
  0
LTYPE
  5
14
330
5
100
AcDbSymbolTableRecord
100
AcDbLinetypeTableRecord
  2
BYBLOCK
 70
     0
  3

 72
    65
 73
     0
 40
0.0
  0
LTYPE
  5
15
330
5
100
AcDbSymbolTableRecord
100
AcDbLinetypeTableRecord
  2
BYLAYER
 70
     0
  3

 72
    65
 73
     0
 40
0.0
  0
LTYPE
  5
16
330
5
100
AcDbSymbolTableRecord
100
AcDbLinetypeTableRecord
  2
CONTINUOUS
 70
     0
  3
Solid line
 72
    65
 73
     0
 40
0.0
  0
LTYPE
  5
3F
330
5
100
AcDbSymbolTableRecord
100
AcDbLinetypeTableRecord
  2
HIDDEN
 70
     0
  3
Hidden __ __ __ __ __ __ __ __ __ __ __ __ __ __
 72
    65
 73
     2
 40
1.905
 49
1.27
 74
     0
 49
-0.635
 74
     0
  0
LTYPE
  5
40
330
5
100
AcDbSymbolTableRecord
100
AcDbLinetypeTableRecord
  2
PHANTOM
 70
     0
  3
Phantom ______  __  __  ______  __  __  ______
 72
    65
 73
     6
 40
12.7
 49
6.35
 74
     0
 49
-1.27
 74
     0
 49
1.27
 74
     0
 49
-1.27
 74
     0
 49
1.27
 74
     0
 49
-1.27
 74
     0
  0
LTYPE
  5
41
330
5
100
AcDbSymbolTableRecord
100
AcDbLinetypeTableRecord
  2
CENTER
 70
     0
  3
Center ____ _ ____ _ ____ _ ____ _ ____ _ ____
 72
    65
 73
     4
 40
10.16
 49
6.35
 74
     0
 49
-1.27
 74
     0
 49
1.27
 74
     0
 49
-1.27
 74
     0
  0
LTYPE
  5
42
330
5
100
AcDbSymbolTableRecord
100
AcDbLinetypeTableRecord
  2
CENTERX2
 70
     0
  3
Center (2x) ________  __  ________  __  _____
 72
    65
 73
     4
 40
20.32
 49
12.7
 74
     0
 49
-2.54
 74
     0
 49
2.54
 74
     0
 49
-2.54
 74
     0
  0
LTYPE
  5
43
330
5
100
AcDbSymbolTableRecord
100
AcDbLinetypeTableRecord
  2
DOT2
 70
     0
  3
Dot (.5x) ........................................
 72
    65
 73
     2
 40
0.635
 49
0.0
 74
     0
 49
-0.635
 74
     0
  0
ENDTAB
  0
TABLE
  2
LAYER
  5
2
330
0
100
AcDbSymbolTable
 70
     1
  0
LAYER
  5
10
330
2
100
AcDbSymbolTableRecord
100
AcDbLayerTableRecord
  2
0
 70
     0
 62
     7
  6
CONTINUOUS
  0
ENDTAB
  0
TABLE
  2
STYLE
  5
3
330
0
100
AcDbSymbolTable
 70
     1
  0
STYLE
  5
11
330
3
100
AcDbSymbolTableRecord
100
AcDbTextStyleTableRecord
  2
STANDARD
 70
     0
 40
0.0
 41
1.0
 50
0.0
 71
     0
 42
2.5
  3
txt
  4

  0
ENDTAB
  0
TABLE
  2
VIEW
  5
6
330
0
100
AcDbSymbolTable
 70
     0
  0
ENDTAB
  0
TABLE
  2
UCS
  5
7
330
0
100
AcDbSymbolTable
 70
     0
  0
ENDTAB
  0
TABLE
  2
APPID
  5
9
330
0
100
AcDbSymbolTable
 70
     1
  0
APPID
  5
12
330
9
100
AcDbSymbolTableRecord
100
AcDbRegAppTableRecord
  2
ACAD
 70
     0
  0
ENDTAB
  0
TABLE
  2
DIMSTYLE
  5
A
330
0
100
AcDbSymbolTable
 70
     1
  0
DIMSTYLE
105
27
330
A
100
AcDbSymbolTableRecord
100
AcDbDimStyleTableRecord
  2
ISO-25
 70
     0
  3

  4

  5

  6

  7

 40
1.0
 41
2.5
 42
0.625
 43
3.75
 44
1.25
 45
0.0
 46
0.0
 47
0.0
 48
0.0
140
2.5
141
2.5
142
0.0
143
0.0393700787
144
1.0
145
0.0
146
1.0
147
0.625
 71
     0
 72
     0
 73
     0
 74
     0
 75
     0
 76
     0
 77
     1
 78
     8
170
     0
171
     3
172
     1
173
     0
174
     0
175
     0
176
     0
177
     0
178
     0
270
     2
271
     2
272
     2
273
     2
274
     3
340
11
275
     0
280
     0
281
     0
282
     0
283
     0
284
     8
285
     0
286
     0
287
     3
288
     0
  0
ENDTAB
  0
TABLE
  2
BLOCK_RECORD
  5
1
330
0
100
AcDbSymbolTable
 70
     1
  0
BLOCK_RECORD
  5
1F
330
1
100
AcDbSymbolTableRecord
100
AcDbBlockTableRecord
  2
*MODEL_SPACE
  0
BLOCK_RECORD
  5
1B
330
1
100
AcDbSymbolTableRecord
100
AcDbBlockTableRecord
  2
*PAPER_SPACE
  0
BLOCK_RECORD
  5
23
330
1
100
AcDbSymbolTableRecord
100
AcDbBlockTableRecord
  2
*PAPER_SPACE0
  0
ENDTAB
  0
ENDSEC
  0
SECTION
  2
BLOCKS
  0
BLOCK
  5
20
330
1F
100
AcDbEntity
  8
0
100
AcDbBlockBegin
  2
*MODEL_SPACE
 70
     0
 10
0.0
 20
0.0
 30
0.0
  3
*MODEL_SPACE
  1

  0
ENDBLK
  5
21
330
1F
100
AcDbEntity
  8
0
100
AcDbBlockEnd
  0
BLOCK
  5
1C
330
1B
100
AcDbEntity
 67
     1
  8
0
100
AcDbBlockBegin
  2
*PAPER_SPACE
 70
     0
 10
0.0
 20
0.0
 30
0.0
  3
*PAPER_SPACE
  1

  0
ENDBLK
  5
1D
330
1B
100
AcDbEntity
 67
     1
  8
0
100
AcDbBlockEnd
  0
BLOCK
  5
24
330
23
100
AcDbEntity
  8
0
100
AcDbBlockBegin
  2
*PAPER_SPACE0
 70
     0
 10
0.0
 20
0.0
 30
0.0
  3
*PAPER_SPACE0
  1

  0
ENDBLK
  5
25
330
23
100
AcDbEntity
  8
0
100
AcDbBlockEnd
  0
ENDSEC
  0
SECTION
  2
ENTITIES
  0
LINE
  5
44
330
1F
100
AcDbEntity
  8
0
  6
CONTINUOUS
 62
     7
100
AcDbLine
 10
950.6055944671
 20
707.1508098874
 30
0.0
 11
951.6837530842
 21
706.0715262327
 31
0.0
  0
LINE
  5
45
330
1F
100
AcDbEntity
  8
0
  6
CONTINUOUS
 62
     7
100
AcDbLine
 10
951.6837530842
 20
706.0704160962
 30
0.0
 11
951.8037968387
 21
705.9503723416
 31
0.0
  0
ARC
  5
46
330
1F
100
AcDbEntity
  8
0
  6
CONTINUOUS
 62
     7
100
AcDbCircle
 10
946.3115925343
 20
705.9492337693
 30
0.0
 40
5.49220431024271
100
AcDbArc
 50
269.997293851
 51
0.0026284267
  0
LINE
  5
47
330
1F
100
AcDbEntity
  8
0
  6
CONTINUOUS
 62
     7
100
AcDbLine
 10
946.3104539623
 20
700.4570220146
 30
0.0
 11
946.1791523804
 21
700.5872060094
 31
0.0
  0
LINE
  5
48
330
1F
100
AcDbEntity
  8
0
  6
CONTINUOUS
 62
     7
100
AcDbLine
 10
946.1791523804
 20
700.5872060094
 30
0.0
 11
945.1100164165
 21
701.6552318368
 31
0.0
  0
ELLIPSE
  5
49
330
1F
100
AcDbEntity
  8
0
  6
CONTINUOUS
 62
     7
100
AcDbEllipse
 10
945.094921257
 20
707.1659034853
 30
0.0
 11
3.901967200832587
 21
-3.901967200831905
 31
0.0
210
0.0
220
0.0
230
1.0
 40
0.9972646886
 41
5.499156671652451
 42
7.0672139428095
  0
LINE
  5
4A
330
1F
100
AcDbEntity
  8
0
  6
CONTINUOUS
 62
     7
100
AcDbLine
 10
951.6837530842
 20
902.1171335611
 30
0.0
 11
950.6055944671
 21
901.0378499064
 31
0.0
  0
LINE
  5
4B
330
1F
100
AcDbEntity
  8
0
  6
CONTINUOUS
 62
     7
100
AcDbLine
 10
951.6837530842
 20
902.1184448633
 30
0.0
 11
951.6837530842
 21
706.0715262327
 31
0.0
  0
LINE
  5
4C
330
1F
100
AcDbEntity
  8
0
  6
CONTINUOUS
 62
     7
100
AcDbLine
 10
950.6055944671
 20
901.0378499064
 30
0.0
 11
950.6055944671
 21
707.1508098874
 31
0.0
  0
LINE
  5
4D
330
1F
100
AcDbEntity
  8
0
  6
CONTINUOUS
 62
     7
100
AcDbLine
 10
749.5549553146
 20
700.5872134599
 30
0.0
 11
750.6229736914
 21
701.6552318368
 31
0.0
  0
LINE
  5
4E
330
1F
100
AcDbEntity
  8
0
  6
CONTINUOUS
 62
     7
100
AcDbLine
 10
945.1100164165
 20
701.6552318368
 30
0.0
 11
750.6229736914
 21
701.6552318368
 31
0.0
  0
LINE
  5
4F
330
1F
100
AcDbEntity
  8
0
  6
CONTINUOUS
 62
     7
100
AcDbLine
 10
749.5549553146
 20
700.5872134599
 30
0.0
 11
946.1791523804
 21
700.5872134599
 31
0.0
  0
LINE
  5
50
330
1F
100
AcDbEntity
  8
0
  6
CONTINUOUS
 62
     7
100
AcDbLine
 10
745.1273956408
 20
707.1508098874
 30
0.0
 11
744.0492370238
 21
706.0726438198
 31
0.0
  0
LINE
  5
51
330
1F
100
AcDbEntity
  8
0
  6
CONTINUOUS
 62
     7
100
AcDbLine
 10
744.0492370238
 20
902.1171335611
 30
0.0
 11
744.0492370238
 21
706.0726438198
 31
0.0
  0
LINE
  5
52
330
1F
100
AcDbEntity
  8
0
  6
CONTINUOUS
 62
     7
100
AcDbLine
 10
744.0492295732
 20
902.1171335611
 30
0.0
 11
745.1273956408
 21
901.0378499064
 31
0.0
  0
LINE
  5
53
330
1F
100
AcDbEntity
  8
0
  6
CONTINUOUS
 62
     7
100
AcDbLine
 10
745.1273956408
 20
901.0378499064
 30
0.0
 11
745.1273956408
 21
707.1508098874
 31
0.0
  0
LINE
  5
54
330
1F
100
AcDbEntity
  8
0
  6
CONTINUOUS
 62
     7
100
AcDbLine
 10
749.4225361457
 20
700.4570220146
 30
0.0
 11
749.5538451781
 21
700.5872134599
 31
0.0
  0
ARC
  5
55
330
1F
100
AcDbEntity
  8
0
  6
CONTINUOUS
 62
     7
100
AcDbCircle
 10
749.421182776
 20
705.9490189713
 30
0.0
 40
5.491989526624145
100
AcDbArc
 50
179.9951305673
 51
270.004947155
  0
LINE
  5
56
330
1F
100
AcDbEntity
  8
0
  6
CONTINUOUS
 62
     7
100
AcDbLine
 10
744.0492370238
 20
706.0704235468
 30
0.0
 11
743.9291858186
 21
705.9503723416
 31
0.0
  0
ELLIPSE
  5
57
330
1F
100
AcDbEntity
  8
0
  6
CONTINUOUS
 62
     7
100
AcDbEllipse
 10
750.6380684337
 20
707.1659034853
 30
0.0
 11
3.901967200832701
 21
3.901967200832132
 31
0.0
210
0.0
220
0.0
230
1.0
 40
0.9972646886
 41
2.357564020334303
 42
3.92562128911693
  0
LINE
  5
58
330
1F
100
AcDbEntity
  8
0
  6
CONTINUOUS
 62
     7
100
AcDbLine
 10
750.6229736914
 20
906.533427957
 30
0.0
 11
749.5538377275
 21
907.6014537844
 31
0.0
  0
LINE
  5
59
330
1F
100
AcDbEntity
  8
0
  6
CONTINUOUS
 62
     7
100
AcDbLine
 10
749.5525264253
 20
907.6014463339
 30
0.0
 11
946.1804636826
 21
907.6014463339
 31
0.0
  0
LINE
  5
5A
330
1F
100
AcDbEntity
  8
0
  6
CONTINUOUS
 62
     7
100
AcDbLine
 10
945.1100164165
 20
906.533427957
 30
0.0
 11
946.1780422439
 21
907.6014537844
 31
0.0
  0
LINE
  5
5B
330
1F
100
AcDbEntity
  8
0
  6
CONTINUOUS
 62
     7
100
AcDbLine
 10
750.6229736914
 20
906.533427957
 30
0.0
 11
945.1100164165
 21
906.533427957
 31
0.0
  0
LINE
  5
5C
330
1F
100
AcDbEntity
  8
0
  6
CONTINUOUS
 62
     7
100
AcDbLine
 10
946.1791523804
 20
907.6014537844
 30
0.0
 11
946.3104614129
 21
907.7316452298
 31
0.0
  0
ARC
  5
5D
330
1F
100
AcDbEntity
  8
0
  6
CONTINUOUS
 62
     7
100
AcDbCircle
 10
946.3115940842
 20
902.23943502
 30
0.0
 40
5.492202876011746
100
AcDbArc
 50
359.9879506128
 51
90.0118162578
  0
LINE
  5
5E
330
1F
100
AcDbEntity
  8
0
  6
CONTINUOUS
 62
     7
100
AcDbLine
 10
951.8037968387
 20
902.2382800016
 30
0.0
 11
951.6837530842
 21
902.1182436976
 31
0.0
  0
ELLIPSE
  5
5F
330
1F
100
AcDbEntity
  8
0
  6
CONTINUOUS
 62
     7
100
AcDbEllipse
 10
945.094921257
 20
901.0227563086
 30
0.0
 11
3.901967200832815
 21
3.901967200831564
 31
0.0
210
0.0
220
0.0
230
1.0
 40
0.9972646886
 41
5.499156671755663
 42
7.067213942706804
  0
LINE
  5
60
330
1F
100
AcDbEntity
  8
0
  6
CONTINUOUS
 62
     7
100
AcDbLine
 10
743.9291932692
 20
902.2382800016
 30
0.0
 11
744.0492295732
 21
902.1171335611
 31
0.0
  0
ARC
  5
61
330
1F
100
AcDbEntity
  8
0
  6
CONTINUOUS
 62
     7
100
AcDbCircle
 10
749.421195897
 20
902.2396351496
 30
0.0
 40
5.492002794948348
100
AcDbArc
 50
89.9859400144
 51
180.0141376953
  0
LINE
  5
62
330
1F
100
AcDbEntity
  8
0
  6
CONTINUOUS
 62
     7
100
AcDbLine
 10
749.552727591
 20
907.6014463339
 30
0.0
 11
749.4225435962
 21
907.7316303286
 31
0.0
  0
ELLIPSE
  5
63
330
1F
100
AcDbEntity
  8
0
  6
CONTINUOUS
 62
     7
100
AcDbEllipse
 10
750.6380684337
 20
901.0227563086
 30
0.0
 11
3.901967200832814
 21
-3.901967200831678
 31
0.0
210
0.0
220
0.0
230
1.0
 40
0.9972646886
 41
2.357564018171731
 42
3.925621291388239
  0
ARC
  5
64
330
1F
100
AcDbEntity
  8
0
  6
CONTINUOUS
 62
     7
100
AcDbCircle
 10
749.4160464935
 20
908.1339028715
 30
0.0
 40
0.5496696610344902
100
AcDbArc
 50
284.3766100597
 51
5.8284334111
  0
ARC
  5
65
330
1F
100
AcDbEntity
  8
0
  6
CONTINUOUS
 62
     7
100
AcDbCircle
 10
749.3732879835
 20
908.2526949093
 30
0.0
 40
0.5233709162538941
100
AcDbArc
 50
275.3895757528
 51
357.6183506023
  0
LINE
  5
66
330
1F
100
AcDbEntity
  8
0
  6
CONTINUOUS
 62
     7
100
AcDbLine
 10
749.8968922605
 20
908.2557116184
 30
0.0
 11
749.9628746023
 21
908.1897218261
 31
0.0
  0
ARC
  5
67
330
1F
100
AcDbEntity
  8
0
  6
CONTINUOUS
 62
     7
100
AcDbCircle
 10
946.3566350111
 20
908.2498676589
 30
0.0
 40
0.5202753955789718
100
AcDbArc
 50
179.3235931139
 51
264.9083936229
  0
ARC
  5
68
330
1F
100
AcDbEntity
  8
0
  6
CONTINUOUS
 62
     7
100
AcDbCircle
 10
946.3164975839
 20
908.1335790514
 30
0.0
 40
0.5492589430585371
100
AcDbArc
 50
174.1332371472
 51
255.6419854378
  0
LINE
  5
69
330
1F
100
AcDbEntity
  8
0
  6
CONTINUOUS
 62
     7
100
AcDbLine
 10
945.8363958707
 20
908.2560096416
 30
0.0
 11
945.7701155057
 21
908.1897218261
 31
0.0
  0
LINE
  5
6A
330
1F
100
AcDbEntity
  8
0
  6
CONTINUOUS
 62
     7
100
AcDbLine
 10
730.4490291586
 20
792.9449998323
 30
0.0
 11
733.8160433879
 21
792.9449998323
 31
0.0
  0
ELLIPSE
  5
6B
330
1F
100
AcDbEntity
  8
0
  6
CONTINUOUS
 62
     7
100
AcDbEllipse
 10
730.4434898443
 20
794.9422590303
 30
0.0
 11
0.0
 21
2.0
 31
0.0
210
0.0
220
0.0
230
1.0
 40
0.0529172061
 41
3.193952531150039
 42
4.712388980384691
  0
LINE
  5
6C
330
1F
100
AcDbEntity
  8
0
  6
CONTINUOUS
 62
     7
100
AcDbLine
 10
730.549321424
 20
794.9422592777
 30
0.0
 11
733.5355141272
 21
794.9422592777
 31
0.0
  0
ELLIPSE
  5
6D
330
1F
100
AcDbEntity
  8
0
  6
CONTINUOUS
 62
     7
100
AcDbEllipse
 10
733.8315373651
 20
794.9422590303
 30
0.0
 11
0.0
 21
2.0
 31
0.0
210
0.0
220
0.0
230
1.0
 40
0.1480122568
 41
1.570796326794897
 42
3.089232776029836
  0
LINE
  5
6E
330
1F
100
AcDbEntity
  8
0
  6
CONTINUOUS
 62
     7
100
AcDbLine
 10
733.8160433879
 20
815.2436599616
 30
0.0
 11
733.9795463791
 21
815.3015528354
 31
0.0
  0
LINE
  5
6F
330
1F
100
AcDbEntity
  8
0
  6
CONTINUOUS
 62
     7
100
AcDbLine
 10
733.9795463791
 20
815.3015528354
 30
0.0
 11
733.9795463791
 21
792.8871069584
 31
0.0
  0
LINE
  5
70
330
1F
100
AcDbEntity
  8
0
  6
CONTINUOUS
 62
     7
100
AcDbLine
 10
733.8160433879
 20
792.9449998323
 30
0.0
 11
733.9795463791
 21
792.8871069584
 31
0.0
  0
LINE
  5
71
330
1F
100
AcDbEntity
  8
0
  6
CONTINUOUS
 62
     7
100
AcDbLine
 10
733.5355141272
 20
813.2464005161
 30
0.0
 11
733.5355141272
 21
794.9422592777
 31
0.0
  0
ELLIPSE
  5
72
330
1F
100
AcDbEntity
  8
0
  6
CONTINUOUS
 62
     7
100
AcDbEllipse
 10
733.8315373651
 20
813.2464007635
 30
0.0
 11
0.0
 21
1.999999999999886
 31
0.0
210
0.0
220
0.0
230
1.0
 40
0.1480122568
 41
0.0523598775599562
 42
1.570796326794897
  0
LINE
  5
73
330
1F
100
AcDbEntity
  8
0
  6
CONTINUOUS
 62
     7
100
AcDbLine
 10
730.549321424
 20
813.2464005161
 30
0.0
 11
730.549321424
 21
794.9422592777
 31
0.0
  0
LINE
  5
74
330
1F
100
AcDbEntity
  8
0
  6
CONTINUOUS
 62
     7
100
AcDbLine
 10
733.5355141272
 20
813.2464005161
 30
0.0
 11
730.549321424
 21
813.2464005161
 31
0.0
  0
LINE
  5
75
330
1F
100
AcDbEntity
  8
0
  6
CONTINUOUS
 62
     7
100
AcDbLine
 10
962.1974759807
 20
813.2464005161
 30
0.0
 11
962.1974759807
 21
794.9422592777
 31
0.0
  0
ELLIPSE
  5
76
330
1F
100
AcDbEntity
  8
0
  6
CONTINUOUS
 62
     7
100
AcDbEllipse
 10
961.9014523257
 20
794.9422590303
 30
0.0
 11
0.0
 21
2.0
 31
0.0
210
0.0
220
0.0
230
1.0
 40
0.1480122568
 41
3.193952531149421
 42
4.712388980384691
  0
LINE
  5
77
330
1F
100
AcDbEntity
  8
0
  6
CONTINUOUS
 62
     7
100
AcDbLine
 10
961.9169467201
 20
792.9449998323
 30
0.0
 11
961.7534362783
 21
792.8871069584
 31
0.0
  0
LINE
  5
78
330
1F
100
AcDbEntity
  8
0
  6
CONTINUOUS
 62
     7
100
AcDbLine
 10
961.7534362783
 20
815.3015528354
 30
0.0
 11
961.7534362783
 21
792.8871069584
 31
0.0
  0
LINE
  5
79
330
1F
100
AcDbEntity
  8
0
  6
CONTINUOUS
 62
     7
100
AcDbLine
 10
961.9169467201
 20
815.2436599616
 30
0.0
 11
961.7534362783
 21
815.3015528354
 31
0.0
  0
ELLIPSE
  5
7A
330
1F
100
AcDbEntity
  8
0
  6
CONTINUOUS
 62
     7
100
AcDbEllipse
 10
961.9014523257
 20
813.2464007635
 30
0.0
 11
0.0
 21
1.999999999999886
 31
0.0
210
0.0
220
0.0
230
1.0
 40
0.1480122568
 41
4.712388980384691
 42
6.23082542962015
  0
LINE
  5
7B
330
1F
100
AcDbEntity
  8
0
  6
CONTINUOUS
 62
     7
100
AcDbLine
 10
965.183668684
 20
813.2464005161
 30
0.0
 11
965.183668684
 21
794.9422592777
 31
0.0
  0
LINE
  5
7C
330
1F
100
AcDbEntity
  8
0
  6
CONTINUOUS
 62
     7
100
AcDbLine
 10
965.183668684
 20
794.9422592777
 30
0.0
 11
962.1974759807
 21
794.9422592777
 31
0.0
  0
LINE
  5
7D
330
1F
100
AcDbEntity
  8
0
  6
CONTINUOUS
 62
     7
100
AcDbLine
 10
962.1974759807
 20
813.2464005161
 30
0.0
 11
965.183668684
 21
813.2464005161
 31
0.0
  0
LINE
  5
7E
330
1F
100
AcDbEntity
  8
0
  6
CONTINUOUS
 62
     7
100
AcDbLine
 10
733.8160433879
 20
815.2436599616
 30
0.0
 11
730.4490291586
 21
815.2436599616
 31
0.0
  0
ELLIPSE
  5
7F
330
1F
100
AcDbEntity
  8
0
  6
CONTINUOUS
 62
     7
100
AcDbEllipse
 10
730.4434898443
 20
813.2464007635
 30
0.0
 11
0.0
 21
1.999999999999886
 31
0.0
210
0.0
220
0.0
230
1.0
 40
0.0529172061
 41
4.712388980384691
 42
6.230825429619856
  0
ELLIPSE
  5
80
330
1F
100
AcDbEntity
  8
0
  6
CONTINUOUS
 62
     7
100
AcDbEllipse
 10
965.2894998465
 20
794.9422590303
 30
0.0
 11
0.0
 21
2.0
 31
0.0
210
0.0
220
0.0
230
1.0
 40
0.0529172061
 41
1.570796326794897
 42
3.089232776029755
  0
LINE
  5
81
330
1F
100
AcDbEntity
  8
0
  6
CONTINUOUS
 62
     7
100
AcDbLine
 10
965.2839534988
 20
792.9449998323
 30
0.0
 11
961.9169467201
 21
792.9449998323
 31
0.0
  0
LINE
  5
82
330
1F
100
AcDbEntity
  8
0
  6
CONTINUOUS
 62
     7
100
AcDbLine
 10
961.9169467201
 20
815.2436599616
 30
0.0
 11
965.2839534988
 21
815.2436599616
 31
0.0
  0
ELLIPSE
  5
83
330
1F
100
AcDbEntity
  8
0
  6
CONTINUOUS
 62
     7
100
AcDbEllipse
 10
965.2894998465
 20
813.2464007635
 30
0.0
 11
0.0
 21
1.999999999999886
 31
0.0
210
0.0
220
0.0
230
1.0
 40
0.0529172061
 41
0.052359877560042
 42
1.570796326794897
  0
LWPOLYLINE
  5
84
330
1F
100
AcDbEntity
  8
0
  6
CONTINUOUS
 62
     7
100
AcDbPolyline
 90
        4
 70
   128
 43
0.0
 10
750.2624624481
 20
908.3735052976
 10
750.1959809174
 20
908.0423344407
 10
750.0213542094
 20
907.8066427741
 10
749.5525264253
 20
907.6014463339
  0
LWPOLYLINE
  5
85
330
1F
100
AcDbEntity
  8
0
  6
CONTINUOUS
 62
     7
100
AcDbPolyline
 90
        3
 70
   128
 43
0.0
 10
750.2624624481
 20
908.3735052976
 10
750.2455496301
 20
908.8707644973
 10
750.2377563228
 20
909.4070125851
  0
LINE
  5
86
330
1F
100
AcDbEntity
  8
0
  6
CONTINUOUS
 62
     7
100
AcDbLine
 10
945.4952337851
 20
909.4070125851
 30
0.0
 11
750.2377563228
 21
909.4070125851
 31
0.0
  0
LWPOLYLINE
  5
87
330
1F
100
AcDbEntity
  8
0
  6
CONTINUOUS
 62
     7
100
AcDbPolyline
 90
        3
 70
   128
 43
0.0
 10
945.4705276599
 20
908.3735052976
 10
945.4874330272
 20
908.8706005845
 10
945.4952337851
 20
909.4070125851
  0
LWPOLYLINE
  5
88
330
1F
100
AcDbEntity
  8
0
  6
CONTINUOUS
 62
     7
100
AcDbPolyline
 90
        4
 70
   128
 43
0.0
 10
945.4705276599
 20
908.3735052976
 10
945.5370091905
 20
908.0423344407
 10
945.7116358986
 20
907.8066427741
 10
946.1804636826
 20
907.6014463339
  0
ARC
  5
89
330
1F
100
AcDbEntity
  8
0
  6
CONTINUOUS
 62
     7
100
AcDbCircle
 10
749.4241792157
 20
700.060446936
 30
0.0
 40
0.5421956037752251
100
AcDbArc
 50
353.4861006722
 51
76.281989901
  0
LINE
  5
8A
330
1F
100
AcDbEntity
  8
0
  6
CONTINUOUS
 62
     7
100
AcDbLine
 10
749.9628746023
 20
699.9989379678
 30
0.0
 11
749.8968922605
 21
699.9329481754
 31
0.0
  0
ARC
  5
8B
330
1F
100
AcDbEntity
  8
0
  6
CONTINUOUS
 62
     7
100
AcDbCircle
 10
749.3749117904
 20
699.9374886141
 30
0.0
 40
0.5216872212484076
100
AcDbArc
 50
2.221856833
 51
84.8189233694
  0
ARC
  5
8C
330
1F
100
AcDbEntity
  8
0
  6
CONTINUOUS
 62
     7
100
AcDbCircle
 10
946.3566944208
 20
699.9388028193
 30
0.0
 40
0.5202549393064984
100
AcDbArc
 50
95.0423603614
 51
177.9168594362
  0
LINE
  5
8D
330
1F
100
AcDbEntity
  8
0
  6
CONTINUOUS
 62
     7
100
AcDbLine
 10
945.7701155057
 20
699.9989379678
 30
0.0
 11
945.8360978474
 21
699.9329481754
 31
0.0
  0
ARC
  5
8E
330
1F
100
AcDbEntity
  8
0
  6
CONTINUOUS
 62
     7
100
AcDbCircle
 10
946.3184341261
 20
700.0537319223
 30
0.0
 40
0.5510496229314092
100
AcDbArc
 50
104.515857479
 51
185.7066712352
  0
LWPOLYLINE
  5
8F
330
1F
100
AcDbEntity
  8
0
  6
CONTINUOUS
 62
     7
100
AcDbPolyline
 90
        3
 70
   128
 43
0.0
 10
750.2377563228
 20
698.7816472087
 10
750.2455570807
 20
699.3180592093
 10
750.2624624481
 20
699.8151544962
  0
LWPOLYLINE
  5
90
330
1F
100
AcDbEntity
  8
0
  6
CONTINUOUS
 62
     7
100
AcDbPolyline
 90
        4
 70
   128
 43
0.0
 10
749.5532267799
 20
700.5871538553
 10
750.0207134595
 20
700.3818233046
 10
750.1919576039
 20
700.1457069549
 10
750.2624624481
 20
699.8151544962
  0
LWPOLYLINE
  5
91
330
1F
100
AcDbEntity
  8
0
  6
CONTINUOUS
 62
     7
100
AcDbPolyline
 90
        4
 70
   128
 43
0.0
 10
946.1800539007
 20
700.587176207
 10
945.7123660555
 20
700.3818978104
 10
945.5410548558
 20
700.1457740102
 10
945.4705276599
 20
699.8151544962
  0
LWPOLYLINE
  5
92
330
1F
100
AcDbEntity
  8
0
  6
CONTINUOUS
 62
     7
100
AcDbPolyline
 90
        3
 70
   128
 43
0.0
 10
945.4952337851
 20
698.7816472087
 10
945.4874404778
 20
699.317887846
 10
945.4705276599
 20
699.8151544962
  0
LINE
  5
93
330
1F
100
AcDbEntity
  8
0
  6
CONTINUOUS
 62
     7
100
AcDbLine
 10
945.4952337851
 20
698.7816472087
 30
0.0
 11
750.2377563228
 21
698.7816472087
 31
0.0
  0
ARC
  5
94
330
1F
100
AcDbEntity
  8
0
  6
CONTINUOUS
 62
     7
100
AcDbCircle
 10
750.2260468078
 20
908.0967941374
 30
0.0
 40
0.2790970531644691
100
AcDbArc
 50
82.5028647502
 51
160.551567229
  0
ARC
  5
95
330
1F
100
AcDbEntity
  8
0
  6
CONTINUOUS
 62
     7
100
AcDbCircle
 10
945.5069467666
 20
908.0967997881
 30
0.0
 40
0.2790919030166366
100
AcDbArc
 50
19.4475758431
 51
97.4979921777
  0
ARC
  5
96
330
1F
100
AcDbEntity
  8
0
  6
CONTINUOUS
 62
     7
100
AcDbCircle
 10
750.2260487113
 20
700.091872527
 30
0.0
 40
0.2791036166370742
100
AcDbArc
 50
199.4510748336
 51
277.4965638147
  0
ARC
  5
97
330
1F
100
AcDbEntity
  8
0
  6
CONTINUOUS
 62
     7
100
AcDbCircle
 10
945.5069467666
 20
700.0918600057
 30
0.0
 40
0.2790919030168689
100
AcDbArc
 50
262.5020078223
 51
340.5524241569
  0
ARC
  5
98
330
1F
100
AcDbEntity
  8
0
  6
CONTINUOUS
 62
     7
100
AcDbCircle
 10
743.5167393599
 20
705.9336606138
 30
0.0
 40
0.5497476553011333
100
AcDbArc
 50
14.4097871067
 51
95.8240756783
  0
ARC
  5
99
330
1F
100
AcDbEntity
  8
0
  6
CONTINUOUS
 62
     7
100
AcDbCircle
 10
743.4112486037
 20
705.9031653325
 30
0.0
 40
0.5200592713563813
100
AcDbArc
 50
5.1503475937
 51
87.9389480966
  0
LINE
  5
9A
330
1F
100
AcDbEntity
  8
0
  6
CONTINUOUS
 62
     7
100
AcDbLine
 10
743.4051119795
 20
706.4247210059
 30
0.0
 11
743.460954081
 21
706.4805705581
 31
0.0
  0
ARC
  5
9B
330
1F
100
AcDbEntity
  8
0
  6
CONTINUOUS
 62
     7
100
AcDbCircle
 10
952.3214272581
 20
705.9045776514
 30
0.0
 40
0.5196213389525641
100
AcDbArc
 50
92.0338717554
 51
175.001641932
  0
ARC
  5
9C
330
1F
100
AcDbEntity
  8
0
  6
CONTINUOUS
 62
     7
100
AcDbCircle
 10
952.2159036471
 20
705.9341639068
 30
0.0
 40
0.549282325027014
100
AcDbArc
 50
84.1345777552
 51
165.6399638845
  0
LINE
  5
9D
330
1F
100
AcDbEntity
  8
0
  6
CONTINUOUS
 62
     7
100
AcDbLine
 10
952.3278706779
 20
706.4247210059
 30
0.0
 11
952.2720360269
 21
706.4805705581
 31
0.0
  0
LWPOLYLINE
  5
9E
330
1F
100
AcDbEntity
  8
0
  6
CONTINUOUS
 62
     7
100
AcDbPolyline
 90
        4
 70
   128
 43
0.0
 10
743.27717806
 20
706.7801584039
 10
743.6081552019
 20
706.7137588296
 10
743.8437798133
 20
706.5393258366
 10
744.0491774192
 20
706.0709227357
  0
LWPOLYLINE
  5
9F
330
1F
100
AcDbEntity
  8
0
  6
CONTINUOUS
 62
     7
100
AcDbPolyline
 90
        3
 70
   128
 43
0.0
 10
743.27717806
 20
706.7801584039
 10
742.7799114098
 20
706.7632455859
 10
742.2436633219
 20
706.755444828
  0
LINE
  5
A0
330
1F
100
AcDbEntity
  8
0
  6
CONTINUOUS
 62
     7
100
AcDbLine
 10
742.2436633219
 20
706.755444828
 30
0.0
 11
742.2436633219
 21
901.4332149658
 31
0.0
  0
LWPOLYLINE
  5
A1
330
1F
100
AcDbEntity
  8
0
  6
CONTINUOUS
 62
     7
100
AcDbPolyline
 90
        3
 70
   128
 43
0.0
 10
742.2436633219
 20
901.4332149658
 10
742.7800753226
 20
901.4254142079
 10
743.27717806
 20
901.40850139
  0
LWPOLYLINE
  5
A2
330
1F
100
AcDbEntity
  8
0
  6
CONTINUOUS
 62
     7
100
AcDbPolyline
 90
        4
 70
   128
 43
0.0
 10
744.0491997709
 20
902.1180350814
 10
743.8439511766
 20
901.6503695879
 10
743.6078050246
 20
901.4790434871
 10
743.27717806
 20
901.40850139
  0
LWPOLYLINE
  5
A3
330
1F
100
AcDbEntity
  8
0
  6
CONTINUOUS
 62
     7
100
AcDbPolyline
 90
        4
 70
   128
 43
0.0
 10
951.6837530842
 20
902.1184448633
 10
951.8889122715
 20
901.6505111489
 10
952.1250807752
 20
901.4790881905
 10
952.4558120479
 20
901.40850139
  0
LWPOLYLINE
  5
A4
330
1F
100
AcDbEntity
  8
0
  6
CONTINUOUS
 62
     7
100
AcDbPolyline
 90
        3
 70
   128
 43
0.0
 10
953.489326786
 20
901.4332149658
 10
952.9530786981
 20
901.4254142079
 10
952.4558120479
 20
901.40850139
  0
LINE
  5
A5
330
1F
100
AcDbEntity
  8
0
  6
CONTINUOUS
 62
     7
100
AcDbLine
 10
953.489326786
 20
706.755444828
 30
0.0
 11
953.489326786
 21
901.4332149658
 31
0.0
  0
LWPOLYLINE
  5
A6
330
1F
100
AcDbEntity
  8
0
  6
CONTINUOUS
 62
     7
100
AcDbPolyline
 90
        3
 70
   128
 43
0.0
 10
952.4558120479
 20
706.7801584039
 10
952.9529147854
 20
706.7632455859
 10
953.489326786
 20
706.755444828
  0
LWPOLYLINE
  5
A7
330
1F
100
AcDbEntity
  8
0
  6
CONTINUOUS
 62
     7
100
AcDbPolyline
 90
        4
 70
   128
 43
0.0
 10
952.4558120479
 20
706.7801584039
 10
952.1247380485
 20
706.7137141261
 10
951.8890761842
 20
706.5391842756
 10
951.6837828865
 20
706.0706247124
  0
ARC
  5
A8
330
1F
100
AcDbEntity
  8
0
  6
CONTINUOUS
 62
     7
100
AcDbCircle
 10
743.5224699207
 20
902.2467752234
 30
0.0
 40
0.5421870450223382
100
AcDbArc
 50
263.4852665369
 51
346.2892751029
  0
LINE
  5
A9
330
1F
100
AcDbEntity
  8
0
  6
CONTINUOUS
 62
     7
100
AcDbLine
 10
743.460954081
 20
901.7080892358
 30
0.0
 11
743.4051119795
 21
901.7639387879
 31
0.0
  0
ARC
  5
AA
330
1F
100
AcDbEntity
  8
0
  6
CONTINUOUS
 62
     7
100
AcDbCircle
 10
743.4122323416
 20
902.2845223313
 30
0.0
 40
0.5190088336315054
100
AcDbArc
 50
271.9573818106
 51
354.8899691496
  0
ARC
  5
AB
330
1F
100
AcDbEntity
  8
0
  6
CONTINUOUS
 62
     7
100
AcDbCircle
 10
952.3220517828
 20
902.2845829131
 30
0.0
 40
0.5203106634542217
100
AcDbArc
 50
185.0948484778
 51
267.9147854081
  0
LINE
  5
AC
330
1F
100
AcDbEntity
  8
0
  6
CONTINUOUS
 62
     7
100
AcDbLine
 10
952.2720360269
 20
901.7080892358
 30
0.0
 11
952.3278706779
 21
901.7639387879
 31
0.0
  0
ARC
  5
AD
330
1F
100
AcDbEntity
  8
0
  6
CONTINUOUS
 62
     7
100
AcDbCircle
 10
952.2172397179
 20
902.2563905917
 30
0.0
 40
0.5510326781322276
100
AcDbArc
 50
194.4976548489
 51
275.7070933426
  0
ARC
  5
AE
330
1F
100
AcDbEntity
  8
0
  6
CONTINUOUS
 62
     7
100
AcDbCircle
 10
743.5538616508
 20
706.7437235405
 30
0.0
 40
0.2790722284133326
100
AcDbArc
 50
172.4982133001
 51
250.5541480516
  0
ARC
  5
AF
330
1F
100
AcDbEntity
  8
0
  6
CONTINUOUS
 62
     7
100
AcDbCircle
 10
952.1791136905
 20
706.7437325988
 30
0.0
 40
0.279085686289705
100
AcDbArc
 50
289.4480914808
 51
7.4995471675
  0
ARC
  5
B0
330
1F
100
AcDbEntity
  8
0
  6
CONTINUOUS
 62
     7
100
AcDbCircle
 10
743.5538719714
 20
901.4449299224
 30
0.0
 40
0.2790816342653591
100
AcDbArc
 50
109.4474172114
 51
187.5002214369
  0
ARC
  5
B1
330
1F
100
AcDbEntity
  8
0
  6
CONTINUOUS
 62
     7
100
AcDbCircle
 10
952.1791136905
 20
901.444927195
 30
0.0
 40
0.2790856862895022
100
AcDbArc
 50
352.5004528324
 51
70.5519085193
  0
LINE
  5
B2
330
1F
100
AcDbEntity
  8
0
  6
CONTINUOUS
 62
     7
100
AcDbLine
 10
966.2857585659
 20
918.721132401
 30
0.0
 11
965.4326074829
 21
917.867981318
 31
0.0
  0
LINE
  5
B3
330
1F
100
AcDbEntity
  8
0
  6
CONTINUOUS
 62
     7
100
AcDbLine
 10
966.2857585659
 20
689.4675273928
 30
0.0
 11
966.2857585659
 21
918.721132401
 31
0.0
  0
LINE
  5
B4
330
1F
100
AcDbEntity
  8
0
  6
CONTINUOUS
 62
     7
100
AcDbLine
 10
965.4326074829
 20
690.3206784758
 30
0.0
 11
966.2857585659
 21
689.4675273928
 31
0.0
  0
LINE
  5
B5
330
1F
100
AcDbEntity
  8
0
  6
CONTINUOUS
 62
     7
100
AcDbLine
 10
965.4326074829
 20
690.3206784758
 30
0.0
 11
965.4326074829
 21
792.7977838102
 31
0.0
  0
LINE
  5
B6
330
1F
100
AcDbEntity
  8
0
  6
CONTINUOUS
 62
     7
100
AcDbLine
 10
965.4326074829
 20
792.7977838102
 30
0.0
 11
965.2839534988
 21
792.9449998323
 31
0.0
  0
LINE
  5
B7
330
1F
100
AcDbEntity
  8
0
  6
CONTINUOUS
 62
     7
100
AcDbLine
 10
965.4326074829
 20
815.3908759836
 30
0.0
 11
965.2839534988
 21
815.2436599616
 31
0.0
  0
LINE
  5
B8
330
1F
100
AcDbEntity
  8
0
  6
CONTINUOUS
 62
     7
100
AcDbLine
 10
965.4326074829
 20
815.3908759836
 30
0.0
 11
965.4326074829
 21
917.867981318
 31
0.0
  0
LINE
  5
B9
330
1F
100
AcDbEntity
  8
0
  6
CONTINUOUS
 62
     7
100
AcDbLine
 10
730.3003826251
 20
815.3908759836
 30
0.0
 11
730.4490291586
 21
815.2436599616
 31
0.0
  0
LINE
  5
BA
330
1F
100
AcDbEntity
  8
0
  6
CONTINUOUS
 62
     7
100
AcDbLine
 10
730.3003826251
 20
792.7977838102
 30
0.0
 11
730.4490291586
 21
792.9449998323
 31
0.0
  0
LINE
  5
BB
330
1F
100
AcDbEntity
  8
0
  6
CONTINUOUS
 62
     7
100
AcDbLine
 10
730.3003826251
 20
690.3206784758
 30
0.0
 11
730.3003826251
 21
792.7977838102
 31
0.0
  0
LINE
  5
BC
330
1F
100
AcDbEntity
  8
0
  6
CONTINUOUS
 62
     7
100
AcDbLine
 10
730.3003826251
 20
690.3206784758
 30
0.0
 11
729.4472315421
 21
689.4675273928
 31
0.0
  0
LINE
  5
BD
330
1F
100
AcDbEntity
  8
0
  6
CONTINUOUS
 62
     7
100
AcDbLine
 10
729.4472315421
 20
689.4675273928
 30
0.0
 11
729.4472315421
 21
918.721132401
 31
0.0
  0
LINE
  5
BE
330
1F
100
AcDbEntity
  8
0
  6
CONTINUOUS
 62
     7
100
AcDbLine
 10
729.4472315421
 20
918.721132401
 30
0.0
 11
730.3003826251
 21
917.867981318
 31
0.0
  0
LINE
  5
BF
330
1F
100
AcDbEntity
  8
0
  6
CONTINUOUS
 62
     7
100
AcDbLine
 10
730.3003826251
 20
815.3908759836
 30
0.0
 11
730.3003826251
 21
917.867981318
 31
0.0
  0
LWPOLYLINE
  5
C0
330
1F
100
AcDbEntity
  8
0
  6
CONTINUOUS
 62
     7
100
AcDbPolyline
 90
        3
 70
   128
 43
0.0
 10
749.938168477
 20
909.3782607946
 10
749.9476754179
 20
908.6786736283
 10
749.9628746023
 20
908.1897218261
  0
ARC
  5
C1
330
1F
100
AcDbEntity
  8
0
  6
CONTINUOUS
 62
     7
100
AcDbCircle
 10
750.1731501338
 20
908.5049977215
 30
0.0
 40
0.9043255906530792
100
AcDbArc
 50
85.9032255119
 51
105.0606797563
  0
LWPOLYLINE
  5
C2
330
1F
100
AcDbEntity
  8
0
  6
CONTINUOUS
 62
     7
100
AcDbPolyline
 90
        3
 70
   128
 43
0.0
 10
945.7948216309
 20
909.3782607946
 10
945.7853146901
 20
908.6786736283
 10
945.7701155057
 20
908.1897218261
  0
ARC
  5
C3
330
1F
100
AcDbEntity
  8
0
  6
CONTINUOUS
 62
     7
100
AcDbCircle
 10
945.5598399742
 20
908.5049977215
 30
0.0
 40
0.9043255906545951
100
AcDbArc
 50
74.9393202437
 51
94.0967744881
  0
LWPOLYLINE
  5
C4
330
1F
100
AcDbEntity
  8
0
  6
CONTINUOUS
 62
     7
100
AcDbPolyline
 90
        3
 70
   128
 43
0.0
 10
749.9628746023
 20
699.9989379678
 10
749.9446728339
 20
699.3653405938
 10
749.938168477
 20
698.8103989992
  0
ARC
  5
C5
330
1F
100
AcDbEntity
  8
0
  6
CONTINUOUS
 62
     7
100
AcDbCircle
 10
750.1731501338
 20
699.6836620723
 30
0.0
 40
0.9043255906557787
100
AcDbArc
 50
254.9393202437
 51
274.0967744881
  0
LWPOLYLINE
  5
C6
330
1F
100
AcDbEntity
  8
0
  6
CONTINUOUS
 62
     7
100
AcDbPolyline
 90
        3
 70
   128
 43
0.0
 10
945.7701155057
 20
699.9989379678
 10
945.7883172741
 20
699.3653405938
 10
945.7948216309
 20
698.8103989992
  0
ARC
  5
C7
330
1F
100
AcDbEntity
  8
0
  6
CONTINUOUS
 62
     7
100
AcDbCircle
 10
945.5598399742
 20
699.6836620723
 30
0.0
 40
0.9043255906575686
100
AcDbArc
 50
265.9032255119
 51
285.0606797563
  0
LINE
  5
C8
330
1F
100
AcDbEntity
  8
0
  6
CONTINUOUS
 62
     7
100
AcDbLine
 10
749.8968177547
 20
917.5713737044
 30
0.0
 11
749.8968177547
 21
908.2309458885
 31
0.0
  0
LINE
  5
C9
330
1F
100
AcDbEntity
  8
0
  6
CONTINUOUS
 62
     7
100
AcDbLine
 10
749.8968177547
 20
917.5713737044
 30
0.0
 11
749.938168477
 21
909.3782607946
 31
0.0
  0
LINE
  5
CA
330
1F
100
AcDbEntity
  8
0
  6
CONTINUOUS
 62
     7
100
AcDbLine
 10
945.8361649027
 20
917.5713737044
 30
0.0
 11
945.8361649027
 21
908.2560096416
 31
0.0
  0
LINE
  5
CB
330
1F
100
AcDbEntity
  8
0
  6
CONTINUOUS
 62
     7
100
AcDbLine
 10
945.8361649027
 20
917.5713737044
 30
0.0
 11
945.7948216309
 21
909.3782607946
 31
0.0
  0
LWPOLYLINE
  5
CC
330
1F
100
AcDbEntity
  8
0
  6
CONTINUOUS
 62
     7
100
AcDbPolyline
 90
        3
 70
   128
 43
0.0
 10
742.272422563
 20
706.4558569822
 10
742.9720097294
 20
706.4653713736
 10
743.460954081
 20
706.4805705581
  0
ARC
  5
CD
330
1F
100
AcDbEntity
  8
0
  6
CONTINUOUS
 62
     7
100
AcDbCircle
 10
743.1456703156
 20
706.690859601
 30
0.0
 40
0.9043162434087922
100
AcDbArc
 50
175.9045146069
 51
195.0622144734
  0
ARC
  5
CE
330
1F
100
AcDbEntity
  8
0
  6
CONTINUOUS
 62
     7
100
AcDbCircle
 10
952.5869719073
 20
706.6908929965
 30
0.0
 40
0.9046608569572746
100
AcDbArc
 50
344.9414687693
 51
4.0918021505
  0
LWPOLYLINE
  5
CF
330
1F
100
AcDbEntity
  8
0
  6
CONTINUOUS
 62
     7
100
AcDbPolyline
 90
        3
 70
   128
 43
0.0
 10
953.4605675449
 20
706.4558569822
 10
952.7609878292
 20
706.4653713736
 10
952.2720360269
 20
706.4805705581
  0
LINE
  5
D0
330
1F
100
AcDbEntity
  8
0
  6
CONTINUOUS
 62
     7
100
AcDbLine
 10
749.938168477
 20
698.8103989992
 30
0.0
 11
749.8968177547
 21
690.6172860894
 31
0.0
  0
LINE
  5
D1
330
1F
100
AcDbEntity
  8
0
  6
CONTINUOUS
 62
     7
100
AcDbLine
 10
749.8968177547
 20
690.6172860894
 30
0.0
 11
749.8968177547
 21
699.9577139053
 31
0.0
  0
LINE
  5
D2
330
1F
100
AcDbEntity
  8
0
  6
CONTINUOUS
 62
     7
100
AcDbLine
 10
945.8361649027
 20
690.6172860894
 30
0.0
 11
945.8361649027
 21
699.9577139053
 31
0.0
  0
LINE
  5
D3
330
1F
100
AcDbEntity
  8
0
  6
CONTINUOUS
 62
     7
100
AcDbLine
 10
945.7948216309
 20
698.8103989992
 30
0.0
 11
945.8361649027
 21
690.6172860894
 31
0.0
  0
LWPOLYLINE
  5
D4
330
1F
100
AcDbEntity
  8
0
  6
CONTINUOUS
 62
     7
100
AcDbPolyline
 90
        3
 70
   128
 43
0.0
 10
743.460954081
 20
901.7080892358
 10
742.8273567071
 20
901.7262984547
 10
742.272422563
 20
901.7328028116
  0
ARC
  5
D5
330
1F
100
AcDbEntity
  8
0
  6
CONTINUOUS
 62
     7
100
AcDbCircle
 10
743.1456703156
 20
901.4978001929
 30
0.0
 40
0.9043162434090117
100
AcDbArc
 50
164.9377855266
 51
184.0954853931
  0
LWPOLYLINE
  5
D6
330
1F
100
AcDbEntity
  8
0
  6
CONTINUOUS
 62
     7
100
AcDbPolyline
 90
        3
 70
   128
 43
0.0
 10
952.2720360269
 20
901.7080892358
 10
952.9056334009
 20
901.7262984547
 10
953.4605675449
 20
901.7328028116
  0
ARC
  5
D7
330
1F
100
AcDbEntity
  8
0
  6
CONTINUOUS
 62
     7
100
AcDbCircle
 10
952.5869719073
 20
901.4977667973
 30
0.0
 40
0.9046608569569387
100
AcDbArc
 50
355.9081978495
 51
15.0585312307
  0
LINE
  5
D8
330
1F
100
AcDbEntity
  8
0
  6
CONTINUOUS
 62
     7
100
AcDbLine
 10
732.1059488764
 20
792.8871069584
 30
0.0
 11
733.9795463791
 21
792.8871069584
 31
0.0
  0
ELLIPSE
  5
D9
330
1F
100
AcDbEntity
  8
0
  6
CONTINUOUS
 62
     7
100
AcDbEllipse
 10
732.2976406177
 20
792.7822910005
 30
0.0
 11
1.9999999309656
 21
-0.01007353861177762
 31
0.0
210
0.0
220
0.0
230
1.0
 40
0.0521651845
 41
1.667052179657676
 42
3.089495520032292
  0
LINE
  5
DA
330
1F
100
AcDbEntity
  8
0
  6
CONTINUOUS
 62
     7
100
AcDbLine
 10
963.627033781
 20
815.3015528354
 30
0.0
 11
961.7534362783
 21
815.3015528354
 31
0.0
  0
ELLIPSE
  5
DB
330
1F
100
AcDbEntity
  8
0
  6
CONTINUOUS
 62
     7
100
AcDbEllipse
 10
963.435349073
 20
815.4063687933
 30
0.0
 11
1.9999999309656
 21
-0.01007353861189131
 31
0.0
210
0.0
220
0.0
230
1.0
 40
0.0521651845
 41
4.808644833247542
 42
6.231088173623376
  0
ELLIPSE
  5
DC
330
1F
100
AcDbEntity
  8
0
  6
CONTINUOUS
 62
     7
100
AcDbEllipse
 10
732.2976406177
 20
815.4063687933
 30
0.0
 11
1.9999999309656
 21
0.01007353861177762
 31
0.0
210
0.0
220
0.0
230
1.0
 40
0.0521651845
 41
3.193689787147561
 42
4.616133127521809
  0
LINE
  5
DD
330
1F
100
AcDbEntity
  8
0
  6
CONTINUOUS
 62
     7
100
AcDbLine
 10
732.1059488764
 20
815.3015528354
 30
0.0
 11
733.9795463791
 21
815.3015528354
 31
0.0
  0
ELLIPSE
  5
DE
330
1F
100
AcDbEntity
  8
0
  6
CONTINUOUS
 62
     7
100
AcDbEllipse
 10
963.435349073
 20
792.7822910005
 30
0.0
 11
1.9999999309656
 21
0.01007353861189131
 31
0.0
210
0.0
220
0.0
230
1.0
 40
0.0521651845
 41
0.0520971335564721
 42
1.474540473932151
  0
LINE
  5
DF
330
1F
100
AcDbEntity
  8
0
  6
CONTINUOUS
 62
     7
100
AcDbLine
 10
963.627033781
 20
792.8871069584
 30
0.0
 11
961.7534362783
 21
792.8871069584
 31
0.0
  0
LINE
  5
E0
330
1F
100
AcDbEntity
  8
0
  6
CONTINUOUS
 62
     7
100
AcDbLine
 10
736.0894539466
 20
706.4246539507
 30
0.0
 11
742.272422563
 21
706.4558569822
 31
0.0
  0
LINE
  5
E1
330
1F
100
AcDbEntity
  8
0
  6
CONTINUOUS
 62
     7
100
AcDbLine
 10
743.4298777094
 20
706.4246539507
 30
0.0
 11
736.0894539466
 21
706.4246539507
 31
0.0
  0
LINE
  5
E2
330
1F
100
AcDbEntity
  8
0
  6
CONTINUOUS
 62
     7
100
AcDbLine
 10
959.6435361614
 20
706.4246539507
 30
0.0
 11
953.4605675449
 21
706.4558569822
 31
0.0
  0
LINE
  5
E3
330
1F
100
AcDbEntity
  8
0
  6
CONTINUOUS
 62
     7
100
AcDbLine
 10
952.3031198492
 20
706.4246539507
 30
0.0
 11
959.6435361614
 21
706.4246539507
 31
0.0
  0
LINE
  5
E4
330
1F
100
AcDbEntity
  8
0
  6
CONTINUOUS
 62
     7
100
AcDbLine
 10
742.272422563
 20
901.7328028116
 30
0.0
 11
736.0894539466
 21
901.7640058431
 31
0.0
  0
LINE
  5
E5
330
1F
100
AcDbEntity
  8
0
  6
CONTINUOUS
 62
     7
100
AcDbLine
 10
743.4298777094
 20
901.7640058431
 30
0.0
 11
736.0894539466
 21
901.7640058431
 31
0.0
  0
LINE
  5
E6
330
1F
100
AcDbEntity
  8
0
  6
CONTINUOUS
 62
     7
100
AcDbLine
 10
952.3031198492
 20
901.7640058431
 30
0.0
 11
959.6435361614
 21
901.7640058431
 31
0.0
  0
LINE
  5
E7
330
1F
100
AcDbEntity
  8
0
  6
CONTINUOUS
 62
     7
100
AcDbLine
 10
953.4605675449
 20
901.7328028116
 30
0.0
 11
959.6435361614
 21
901.7640058431
 31
0.0
  0
LINE
  5
E8
330
1F
100
AcDbEntity
  8
0
  6
CONTINUOUS
 62
     7
100
AcDbLine
 10
750.2377563228
 20
698.7816472087
 30
0.0
 11
750.1815863957
 21
687.6503158841
 31
0.0
  0
ELLIPSE
  5
E9
330
1F
100
AcDbEntity
  8
0
  6
CONTINUOUS
 62
     7
100
AcDbEllipse
 10
750.1972328141
 20
690.780348173
 30
0.0
 11
0.01579504921937769
 21
3.130028791288169
 31
0.0
210
0.0
220
0.0
230
1.0
 40
0.0958445434
 41
1.623398590678238
 42
3.142076313410062
  0
LWPOLYLINE
  5
EA
330
1F
100
AcDbEntity
  8
0
  6
CONTINUOUS
 62
     7
100
AcDbPolyline
 90
        3
 70
   128
 43
0.0
 10
735.792846333
 20
686.6337810192
 10
735.2271908035
 20
686.6800342235
 10
734.7926803937
 20
686.7806021604
  0
LINE
  5
EB
330
1F
100
AcDbEntity
  8
0
  6
CONTINUOUS
 62
     7
100
AcDbLine
 10
734.7926803937
 20
686.7806021604
 30
0.0
 11
735.6623941173
 21
687.6503158841
 31
0.0
  0
LINE
  5
EC
330
1F
100
AcDbEntity
  8
0
  6
CONTINUOUS
 62
     7
100
AcDbLine
 10
735.6623941173
 20
687.6503158841
 30
0.0
 11
750.1815863957
 21
687.6503158841
 31
0.0
  0
LINE
  5
ED
330
1F
100
AcDbEntity
  8
0
  6
CONTINUOUS
 62
     7
100
AcDbLine
 10
945.4952337851
 20
698.7816472087
 30
0.0
 11
945.5514037122
 21
687.6503158841
 31
0.0
  0
LINE
  5
EE
330
1F
100
AcDbEntity
  8
0
  6
CONTINUOUS
 62
     7
100
AcDbLine
 10
960.07058854
 20
687.6503158841
 30
0.0
 11
945.5514037122
 21
687.6503158841
 31
0.0
  0
LINE
  5
EF
330
1F
100
AcDbEntity
  8
0
  6
CONTINUOUS
 62
     7
100
AcDbLine
 10
960.9403097143
 20
686.7806021604
 30
0.0
 11
960.07058854
 21
687.6503158841
 31
0.0
  0
LWPOLYLINE
  5
F0
330
1F
100
AcDbEntity
  8
0
  6
CONTINUOUS
 62
     7
100
AcDbPolyline
 90
        3
 70
   128
 43
0.0
 10
959.940143775
 20
686.6337810192
 10
960.505806755
 20
686.6800342235
 10
960.9403097143
 20
686.7806021604
  0
LINE
  5
F1
330
1F
100
AcDbEntity
  8
0
  6
CONTINUOUS
 62
     7
100
AcDbLine
 10
735.792846333
 20
686.6337810192
 30
0.0
 11
959.940143775
 21
686.6337810192
 31
0.0
  0
LINE
  5
F2
330
1F
100
AcDbEntity
  8
0
  6
CONTINUOUS
 62
     7
100
AcDbLine
 10
750.1815863957
 20
920.5383439097
 30
0.0
 11
750.2377563228
 21
909.4070125851
 31
0.0
  0
ELLIPSE
  5
F3
330
1F
100
AcDbEntity
  8
0
  6
CONTINUOUS
 62
     7
100
AcDbEllipse
 10
750.1972328141
 20
917.4083116209
 30
0.0
 11
-0.015795049219264
 21
3.130028791288169
 31
0.0
210
0.0
220
0.0
230
0.9999999999999998
 40
0.0958445434
 41
6.282701647359994
 42
7.801379370091386
  0
LINE
  5
F4
330
1F
100
AcDbEntity
  8
0
  6
CONTINUOUS
 62
     7
100
AcDbLine
 10
750.1815863957
 20
920.5383439097
 30
0.0
 11
735.6623941173
 21
920.5383439097
 31
0.0
  0
LINE
  5
F5
330
1F
100
AcDbEntity
  8
0
  6
CONTINUOUS
 62
     7
100
AcDbLine
 10
735.6623941173
 20
920.5383439097
 30
0.0
 11
734.7926803937
 21
921.4080576334
 31
0.0
  0
LWPOLYLINE
  5
F6
330
1F
100
AcDbEntity
  8
0
  6
CONTINUOUS
 62
     7
100
AcDbPolyline
 90
        3
 70
   128
 43
0.0
 10
734.7926803937
 20
921.4080576334
 10
735.3476666918
 20
921.526305798
 10
735.792846333
 20
921.5548787746
  0
LINE
  5
F7
330
1F
100
AcDbEntity
  8
0
  6
CONTINUOUS
 62
     7
100
AcDbLine
 10
959.940143775
 20
921.5548787746
 30
0.0
 11
735.792846333
 21
921.5548787746
 31
0.0
  0
LWPOLYLINE
  5
F8
330
1F
100
AcDbEntity
  8
0
  6
CONTINUOUS
 62
     7
100
AcDbPolyline
 90
        3
 70
   128
 43
0.0
 10
960.9403097143
 20
921.4080576334
 10
960.3853159656
 20
921.5263132486
 10
959.940143775
 20
921.5548787746
  0
LINE
  5
F9
330
1F
100
AcDbEntity
  8
0
  6
CONTINUOUS
 62
     7
100
AcDbLine
 10
960.07058854
 20
920.5383439097
 30
0.0
 11
960.9403097143
 21
921.4080576334
 31
0.0
  0
LINE
  5
FA
330
1F
100
AcDbEntity
  8
0
  6
CONTINUOUS
 62
     7
100
AcDbLine
 10
945.5514037122
 20
920.5383439097
 30
0.0
 11
960.07058854
 21
920.5383439097
 31
0.0
  0
LINE
  5
FB
330
1F
100
AcDbEntity
  8
0
  6
CONTINUOUS
 62
     7
100
AcDbLine
 10
945.5514037122
 20
920.5383439097
 30
0.0
 11
945.4952337851
 21
909.4070125851
 31
0.0
  0
ELLIPSE
  5
FC
330
1F
100
AcDbEntity
  8
0
  6
CONTINUOUS
 62
     7
100
AcDbEllipse
 10
945.5357568766
 20
917.4083116209
 30
0.0
 11
-0.01579504921937769
 21
-3.130028791288396
 31
0.0
210
0.0
220
0.0
230
1.0
 40
0.0958445434
 41
1.623398590677977
 42
3.142076313410053
  0
ELLIPSE
  5
FD
330
1F
100
AcDbEntity
  8
0
  6
CONTINUOUS
 62
     7
100
AcDbEllipse
 10
945.5357568766
 20
690.780348173
 30
0.0
 11
0.01579504921937769
 21
-3.130028791288169
 31
0.0
210
0.0
220
0.0
230
1.0
 40
0.0958445434
 41
6.282701647359985
 42
7.801379370091253
  0
LINE
  5
FE
330
1F
100
AcDbEntity
  8
0
  6
CONTINUOUS
 62
     7
100
AcDbLine
 10
953.489326786
 20
901.4332149658
 30
0.0
 11
962.6105063667
 21
901.4792446527
 31
0.0
  0
ELLIPSE
  5
FF
330
1F
100
AcDbEntity
  8
0
  6
CONTINUOUS
 62
     7
100
AcDbEllipse
 10
959.4804765693
 20
901.4635919282
 30
0.0
 11
3.130028791288169
 21
0.01579504921937769
 31
0.0
210
0.0
220
0.0
230
1.0
 40
0.0958445434
 41
6.282701647359234
 42
7.801379370091401
  0
LINE
  5
100
330
1F
100
AcDbEntity
  8
0
  6
CONTINUOUS
 62
     7
100
AcDbLine
 10
963.627033781
 20
792.8871069584
 30
0.0
 11
963.627033781
 21
690.3206784758
 31
0.0
  0
LWPOLYLINE
  5
101
330
1F
100
AcDbEntity
  8
0
  6
CONTINUOUS
 62
     7
100
AcDbPolyline
 90
        3
 70
   128
 43
0.0
 10
963.4802275409
 20
689.3205199871
 10
963.5984831562
 20
689.8754988346
 10
963.627033781
 20
690.3206784758
  0
LINE
  5
102
330
1F
100
AcDbEntity
  8
0
  6
CONTINUOUS
 62
     7
100
AcDbLine
 10
962.6105063667
 20
690.1902337107
 30
0.0
 11
963.4802275409
 21
689.3205199871
 31
0.0
  0
LINE
  5
103
330
1F
100
AcDbEntity
  8
0
  6
CONTINUOUS
 62
     7
100
AcDbLine
 10
962.6105063667
 20
706.7094151411
 30
0.0
 11
962.6105063667
 21
690.1902337107
 31
0.0
  0
LINE
  5
104
330
1F
100
AcDbEntity
  8
0
  6
CONTINUOUS
 62
     7
100
AcDbLine
 10
962.6105063667
 20
706.7094151411
 30
0.0
 11
953.489326786
 21
706.755444828
 31
0.0
  0
LINE
  5
105
330
1F
100
AcDbEntity
  8
0
  6
CONTINUOUS
 62
     7
100
AcDbLine
 10
962.6105063667
 20
917.9984260831
 30
0.0
 11
962.6105063667
 21
901.4792446527
 31
0.0
  0
LINE
  5
106
330
1F
100
AcDbEntity
  8
0
  6
CONTINUOUS
 62
     7
100
AcDbLine
 10
963.4802275409
 20
918.8681398067
 30
0.0
 11
962.6105063667
 21
917.9984260831
 31
0.0
  0
LWPOLYLINE
  5
107
330
1F
100
AcDbEntity
  8
0
  6
CONTINUOUS
 62
     7
100
AcDbPolyline
 90
        3
 70
   128
 43
0.0
 10
963.627033781
 20
917.867981318
 10
963.5807954778
 20
918.4336368475
 10
963.4802275409
 20
918.8681398067
  0
LINE
  5
108
330
1F
100
AcDbEntity
  8
0
  6
CONTINUOUS
 62
     7
100
AcDbLine
 10
963.627033781
 20
917.867981318
 30
0.0
 11
963.627033781
 21
815.3015528354
 31
0.0
  0
ELLIPSE
  5
109
330
1F
100
AcDbEntity
  8
0
  6
CONTINUOUS
 62
     7
100
AcDbEllipse
 10
959.4804765693
 20
706.7250678657
 30
0.0
 11
-3.130028791288169
 21
0.01579504921937769
 31
0.0
210
0.0
220
0.0
230
1.0
 40
0.0958445434
 41
1.623398590677944
 42
3.142076313410057
  0
LINE
  5
10A
330
1F
100
AcDbEntity
  8
0
  6
CONTINUOUS
 62
     7
100
AcDbLine
 10
732.2527700176
 20
918.8681398067
 30
0.0
 11
733.1224837413
 21
917.9984260831
 31
0.0
  0
LINE
  5
10B
330
1F
100
AcDbEntity
  8
0
  6
CONTINUOUS
 62
     7
100
AcDbLine
 10
733.1224837413
 20
917.9984260831
 30
0.0
 11
733.1224837413
 21
901.4792446527
 31
0.0
  0
LINE
  5
10C
330
1F
100
AcDbEntity
  8
0
  6
CONTINUOUS
 62
     7
100
AcDbLine
 10
742.2436633219
 20
901.4332149658
 30
0.0
 11
733.1224837413
 21
901.4792446527
 31
0.0
  0
LINE
  5
10D
330
1F
100
AcDbEntity
  8
0
  6
CONTINUOUS
 62
     7
100
AcDbLine
 10
733.1224837413
 20
706.7094151411
 30
0.0
 11
742.2436633219
 21
706.755444828
 31
0.0
  0
LINE
  5
10E
330
1F
100
AcDbEntity
  8
0
  6
CONTINUOUS
 62
     7
100
AcDbLine
 10
733.1224837413
 20
706.7094151411
 30
0.0
 11
733.1224837413
 21
690.1902337107
 31
0.0
  0
LINE
  5
10F
330
1F
100
AcDbEntity
  8
0
  6
CONTINUOUS
 62
     7
100
AcDbLine
 10
733.1224837413
 20
690.1902337107
 30
0.0
 11
732.2527700176
 21
689.3205199871
 31
0.0
  0
LWPOLYLINE
  5
110
330
1F
100
AcDbEntity
  8
0
  6
CONTINUOUS
 62
     7
100
AcDbPolyline
 90
        3
 70
   128
 43
0.0
 10
732.2527700176
 20
689.3205199871
 10
732.1345144024
 20
689.8754988346
 10
732.1059488764
 20
690.3206784758
  0
LINE
  5
111
330
1F
100
AcDbEntity
  8
0
  6
CONTINUOUS
 62
     7
100
AcDbLine
 10
732.1059488764
 20
792.8871069584
 30
0.0
 11
732.1059488764
 21
690.3206784758
 31
0.0
  0
LINE
  5
112
330
1F
100
AcDbEntity
  8
0
  6
CONTINUOUS
 62
     7
100
AcDbLine
 10
732.1059488764
 20
917.867981318
 30
0.0
 11
732.1059488764
 21
815.3015528354
 31
0.0
  0
LWPOLYLINE
  5
113
330
1F
100
AcDbEntity
  8
0
  6
CONTINUOUS
 62
     7
100
AcDbPolyline
 90
        3
 70
   128
 43
0.0
 10
732.1059488764
 20
917.867981318
 10
732.1522020807
 20
918.4336368475
 10
732.2527700176
 20
918.8681398067
  0
ELLIPSE
  5
114
330
1F
100
AcDbEntity
  8
0
  6
CONTINUOUS
 62
     7
100
AcDbEllipse
 10
736.2525131214
 20
706.7250678657
 30
0.0
 11
-3.130028791288282
 21
-0.015795049219264
 31
0.0
210
0.0
220
0.0
230
0.9999999999999998
 40
0.0958445434
 41
6.282701647359994
 42
7.801379370091391
  0
ELLIPSE
  5
115
330
1F
100
AcDbEntity
  8
0
  6
CONTINUOUS
 62
     7
100
AcDbEllipse
 10
736.2525131214
 20
901.4635919282
 30
0.0
 11
3.130028791288396
 21
-0.01579504921949137
 31
0.0
210
0.0
220
0.0
230
1.0
 40
0.0958445434
 41
1.623398590677945
 42
3.142076313410808
  0
LINE
  5
116
330
1F
100
AcDbEntity
  8
0
  6
CONTINUOUS
 62
     7
100
AcDbLine
 10
951.8037968387
 20
902.2391740713
 30
0.0
 11
952.3031198492
 21
902.2391740713
 31
0.0
  0
LINE
  5
117
330
1F
100
AcDbEntity
  8
0
  6
CONTINUOUS
 62
     7
100
AcDbLine
 10
952.3031198492
 20
901.7640058431
 30
0.0
 11
952.3031198492
 21
902.2391740713
 31
0.0
  0
LINE
  5
118
330
1F
100
AcDbEntity
  8
0
  6
CONTINUOUS
 62
     7
100
AcDbLine
 10
946.3113331308
 20
908.2309458885
 30
0.0
 11
945.8363958707
 21
908.2309458885
 31
0.0
  0
LINE
  5
119
330
1F
100
AcDbEntity
  8
0
  6
CONTINUOUS
 62
     7
100
AcDbLine
 10
946.3113331308
 20
908.2309458885
 30
0.0
 11
946.3113331308
 21
907.7316452298
 31
0.0
  0
LINE
  5
11A
330
1F
100
AcDbEntity
  8
0
  6
CONTINUOUS
 62
     7
100
AcDbLine
 10
946.3113331308
 20
700.4570294652
 30
0.0
 11
946.3113331308
 21
699.9577139053
 31
0.0
  0
LINE
  5
11B
330
1F
100
AcDbEntity
  8
0
  6
CONTINUOUS
 62
     7
100
AcDbLine
 10
945.8361649027
 20
699.9577139053
 30
0.0
 11
946.3113331308
 21
699.9577139053
 31
0.0
  0
LINE
  5
11C
330
1F
100
AcDbEntity
  8
0
  6
CONTINUOUS
 62
     7
100
AcDbLine
 10
952.3031198492
 20
705.9494857225
 30
0.0
 11
952.3031198492
 21
706.4246539507
 31
0.0
  0
LINE
  5
11D
330
1F
100
AcDbEntity
  8
0
  6
CONTINUOUS
 62
     7
100
AcDbLine
 10
952.3031198492
 20
705.9494857225
 30
0.0
 11
951.8037968387
 21
705.9494857225
 31
0.0
  0
ARC
  5
11E
330
1F
100
AcDbEntity
  8
0
  6
CONTINUOUS
 62
     7
100
AcDbCircle
 10
946.3107945917
 20
902.2386206297
 30
0.0
 40
5.992325283010628
100
AcDbArc
 50
0.0052917468
 51
89.994850744
  0
ARC
  5
11F
330
1F
100
AcDbEntity
  8
0
  6
CONTINUOUS
 62
     7
100
AcDbCircle
 10
946.3107945917
 20
705.9500391641
 30
0.0
 40
5.992325283010482
100
AcDbArc
 50
270.005149256
 51
359.9947082532
  0
LINE
  5
120
330
1F
100
AcDbEntity
  8
0
  6
CONTINUOUS
 62
     7
100
AcDbLine
 10
743.4298777094
 20
901.7640058431
 30
0.0
 11
743.4298777094
 21
902.2391740713
 31
0.0
  0
LINE
  5
121
330
1F
100
AcDbEntity
  8
0
  6
CONTINUOUS
 62
     7
100
AcDbLine
 10
743.9291932692
 20
902.2391740713
 30
0.0
 11
743.4298777094
 21
902.2391740713
 31
0.0
  0
LINE
  5
122
330
1F
100
AcDbEntity
  8
0
  6
CONTINUOUS
 62
     7
100
AcDbLine
 10
743.4298777094
 20
705.9494857225
 30
0.0
 11
743.9291932692
 21
705.9494857225
 31
0.0
  0
LINE
  5
123
330
1F
100
AcDbEntity
  8
0
  6
CONTINUOUS
 62
     7
100
AcDbLine
 10
743.4298777094
 20
705.9494857225
 30
0.0
 11
743.4298777094
 21
706.4246539507
 31
0.0
  0
LINE
  5
124
330
1F
100
AcDbEntity
  8
0
  6
CONTINUOUS
 62
     7
100
AcDbLine
 10
749.8968177547
 20
699.9577139053
 30
0.0
 11
749.4216569771
 21
699.9577139053
 31
0.0
  0
LINE
  5
125
330
1F
100
AcDbEntity
  8
0
  6
CONTINUOUS
 62
     7
100
AcDbLine
 10
749.4216569771
 20
700.4570294652
 30
0.0
 11
749.4216569771
 21
699.9577139053
 31
0.0
  0
LINE
  5
126
330
1F
100
AcDbEntity
  8
0
  6
CONTINUOUS
 62
     7
100
AcDbLine
 10
749.4216569771
 20
908.2309458885
 30
0.0
 11
749.4216569771
 21
907.7316303286
 31
0.0
  0
LINE
  5
127
330
1F
100
AcDbEntity
  8
0
  6
CONTINUOUS
 62
     7
100
AcDbLine
 10
749.4216569771
 20
908.2309458885
 30
0.0
 11
749.8968177547
 21
908.2309458885
 31
0.0
  0
ARC
  5
128
330
1F
100
AcDbEntity
  8
0
  6
CONTINUOUS
 62
     7
100
AcDbCircle
 10
749.4220248789
 20
902.2387987185
 30
0.0
 40
5.992147181259025
100
AcDbArc
 50
90.0035178067
 51
179.9964109478
  0
ARC
  5
129
330
1F
100
AcDbEntity
  8
0
  6
CONTINUOUS
 62
     7
100
AcDbCircle
 10
749.4220529496
 20
705.949889146
 30
0.0
 40
5.992175253779824
100
AcDbArc
 50
180.0038574411
 51
269.9962138043
  0
ELLIPSE
  5
12A
330
1F
100
AcDbEntity
  8
0
  6
CONTINUOUS
 62
     7
100
AcDbEllipse
 10
686.1245968242
 20
644.0524318757
 30
0.0
 11
275.8501999666788
 21
275.8501999666785
 31
0.0
210
0.0
220
0.0
230
1.0
 40
0.0679293678
 41
6.215360135415873
 42
6.351010478943683
  0
ARC
  5
12B
330
1F
100
AcDbEntity
  8
0
  6
CONTINUOUS
 62
     7
100
AcDbCircle
 10
954.8664948454
 20
912.7943298969
 30
0.0
 40
2.752651079563542
100
AcDbArc
 50
142.7672298069
 51
207.3376314007
  0
ARC
  5
12C
330
1F
100
AcDbEntity
  8
0
  6
CONTINUOUS
 62
     7
100
AcDbCircle
 10
951.9125761982
 20
908.5756968688
 30
0.0
 40
3.000000000000883
100
AcDbArc
 50
29.7402128278
 51
80.2363497186
  0
LWPOLYLINE
  5
12D
330
1F
100
AcDbEntity
  8
0
  6
CONTINUOUS
 62
     7
100
AcDbPolyline
 90
        3
 70
   128
 43
0.0
 10
954.8664921035
 20
910.0416753921
 10
954.670646142
 20
910.0486565862
 10
954.5174324026
 20
910.0639004741
  0
ARC
  5
12E
330
1F
100
AcDbEntity
  8
0
  6
CONTINUOUS
 62
     7
100
AcDbCircle
 10
954.8664948454
 20
912.7943298969
 30
0.0
 40
2.752651079563975
100
AcDbArc
 50
270.0
 51
327.3364701995
  0
ARC
  5
12F
330
1F
100
AcDbEntity
  8
0
  6
CONTINUOUS
 62
     7
100
AcDbCircle
 10
959.9968975405
 20
912.3454778218
 30
0.0
 40
2.999999999999471
100
AcDbArc
 50
149.7402128278
 51
200.2378353848
  0
ARC
  5
130
330
1F
100
AcDbEntity
  8
0
  6
CONTINUOUS
 62
     7
100
AcDbCircle
 10
954.8664948454
 20
912.7943298969
 30
0.0
 40
2.75265107956349
100
AcDbArc
 50
22.7146173718
 51
87.3373320889
  0
ARC
  5
131
330
1F
100
AcDbEntity
  8
0
  6
CONTINUOUS
 62
     7
100
AcDbCircle
 10
952.6900107974
 20
917.4618150001
 30
0.0
 40
2.999999999999027
100
AcDbArc
 50
269.7166534006
 51
320.2364840984
  0
ELLIPSE
  5
132
330
1F
100
AcDbEntity
  8
0
  6
CONTINUOUS
 62
     7
100
AcDbEllipse
 10
686.1245968242
 20
964.1362279181
 30
0.0
 11
275.8501999666787
 21
-275.8501999666788
 31
0.0
210
0.0
220
0.0
230
0.9999999999999999
 40
0.0679293678
 41
6.215360135415912
 42
6.351010478943683
  0
ARC
  5
133
330
1F
100
AcDbEntity
  8
0
  6
CONTINUOUS
 62
     7
100
AcDbCircle
 10
954.8664948454
 20
695.3943298969
 30
0.0
 40
2.752652173846725
100
AcDbArc
 50
32.7146345516
 51
90.0
  0
LWPOLYLINE
  5
134
330
1F
100
AcDbEntity
  8
0
  6
CONTINUOUS
 62
     7
100
AcDbPolyline
 90
        3
 70
   128
 43
0.0
 10
954.5174324026
 20
698.1247593198
 10
954.7125780096
 20
698.1426705155
 10
954.8664921035
 20
698.1469844017
  0
ARC
  5
135
330
1F
100
AcDbEntity
  8
0
  6
CONTINUOUS
 62
     7
100
AcDbCircle
 10
951.9125761982
 20
699.612962925
 30
0.0
 40
2.999999999998684
100
AcDbArc
 50
279.7402128278
 51
330.2597619847
  0
ARC
  5
136
330
1F
100
AcDbEntity
  8
0
  6
CONTINUOUS
 62
     7
100
AcDbCircle
 10
954.8664948454
 20
695.3943298969
 30
0.0
 40
2.752651079564448
100
AcDbArc
 50
152.7146173718
 51
217.2330727636
  0
ARC
  5
137
330
1F
100
AcDbEntity
  8
0
  6
CONTINUOUS
 62
     7
100
AcDbCircle
 10
952.6900107974
 20
690.7268447937
 30
0.0
 40
2.999999999999503
100
AcDbArc
 50
39.7401866503
 51
90.2832112286
  0
ARC
  5
138
330
1F
100
AcDbEntity
  8
0
  6
CONTINUOUS
 62
     7
100
AcDbCircle
 10
954.8664948454
 20
695.3943298969
 30
0.0
 40
2.752652173845303
100
AcDbArc
 50
272.7146345516
 51
337.2853826282
  0
ARC
  5
139
330
1F
100
AcDbEntity
  8
0
  6
CONTINUOUS
 62
     7
100
AcDbCircle
 10
959.9968975405
 20
695.8431819721
 30
0.0
 40
2.999999999998161
100
AcDbArc
 50
159.7401866503
 51
210.2597871722
  0
ELLIPSE
  5
13A
330
1F
100
AcDbEntity
  8
0
  6
CONTINUOUS
 62
     7
100
AcDbEllipse
 10
1009.6083928666
 20
964.1362279181
 30
0.0
 11
275.8501999666788
 21
275.8501999666788
 31
0.0
210
0.0
220
0.0
230
0.9999999999999998
 40
0.0679293678
 41
3.0737674818259
 42
3.209417825353885
  0
ARC
  5
13B
330
1F
100
AcDbEntity
  8
0
  6
CONTINUOUS
 62
     7
100
AcDbCircle
 10
740.8664948454
 20
695.3943298969
 30
0.0
 40
2.752651079563991
100
AcDbArc
 50
202.7146173718
 51
267.2853826282
  0
ARC
  5
13C
330
1F
100
AcDbEntity
  8
0
  6
CONTINUOUS
 62
     7
100
AcDbCircle
 10
743.0429788933
 20
690.7268447937
 30
0.0
 40
2.999999999999503
100
AcDbArc
 50
89.7167887714
 51
140.2597871722
  0
ARC
  5
13D
330
1F
100
AcDbEntity
  8
0
  6
CONTINUOUS
 62
     7
100
AcDbCircle
 10
740.8664948454
 20
695.3943298969
 30
0.0
 40
2.752651079563832
100
AcDbArc
 50
322.7669272364
 51
27.2853826282
  0
ARC
  5
13E
330
1F
100
AcDbEntity
  8
0
  6
CONTINUOUS
 62
     7
100
AcDbCircle
 10
743.8204134926
 20
699.612962925
 30
0.0
 40
2.999999999999078
100
AcDbArc
 50
209.7402128278
 51
260.2597871722
  0
LWPOLYLINE
  5
13F
330
1F
100
AcDbEntity
  8
0
  6
CONTINUOUS
 62
     7
100
AcDbPolyline
 90
        3
 70
   128
 43
0.0
 10
741.215565156
 20
698.1247593198
 10
741.020419549
 20
698.1426705155
 10
740.8664980044
 20
698.1469844017
  0
ARC
  5
140
330
1F
100
AcDbEntity
  8
0
  6
CONTINUOUS
 62
     7
100
AcDbCircle
 10
740.8664948454
 20
695.3943298969
 30
0.0
 40
2.752651079563939
100
AcDbArc
 50
90.0
 51
147.2853826282
  0
ARC
  5
141
330
1F
100
AcDbEntity
  8
0
  6
CONTINUOUS
 62
     7
100
AcDbCircle
 10
735.7360921502
 20
695.8431819721
 30
0.0
 40
2.999999999999503
100
AcDbArc
 50
329.7402128278
 51
20.2597871722
  0
ELLIPSE
  5
142
330
1F
100
AcDbEntity
  8
0
  6
CONTINUOUS
 62
     7
100
AcDbEllipse
 10
1009.6083928666
 20
644.0524318757
 30
0.0
 11
275.8501999666788
 21
-275.8501999666785
 31
0.0
210
0.0
220
0.0
230
1.0
 40
0.0679293678
 41
3.073767481825899
 42
3.209417825353905
  0
ARC
  5
143
330
1F
100
AcDbEntity
  8
0
  6
CONTINUOUS
 62
     7
100
AcDbCircle
 10
740.8664948454
 20
912.7943298969
 30
0.0
 40
2.752651079563591
100
AcDbArc
 50
92.7146173718
 51
157.2853826282
  0
ARC
  5
144
330
1F
100
AcDbEntity
  8
0
  6
CONTINUOUS
 62
     7
100
AcDbCircle
 10
735.7360921502
 20
912.3454778218
 30
0.0
 40
2.99999999999934
100
AcDbArc
 50
339.7621646152
 51
30.2597871722
  0
ARC
  5
145
330
1F
100
AcDbEntity
  8
0
  6
CONTINUOUS
 62
     7
100
AcDbCircle
 10
740.8664948454
 20
912.7943298969
 30
0.0
 40
2.752651079563537
100
AcDbArc
 50
212.6635298005
 51
270.0
  0
LWPOLYLINE
  5
146
330
1F
100
AcDbEntity
  8
0
  6
CONTINUOUS
 62
     7
100
AcDbPolyline
 90
        3
 70
   128
 43
0.0
 10
740.8664980044
 20
910.0416753921
 10
741.0623365154
 20
910.0486565862
 10
741.215565156
 20
910.0639004741
  0
ARC
  5
147
330
1F
100
AcDbEntity
  8
0
  6
CONTINUOUS
 62
     7
100
AcDbCircle
 10
743.8204134926
 20
908.5756968688
 30
0.0
 40
2.999999999998669
100
AcDbArc
 50
99.7636502814
 51
150.2597871722
  0
ARC
  5
148
330
1F
100
AcDbEntity
  8
0
  6
CONTINUOUS
 62
     7
100
AcDbCircle
 10
740.8664948454
 20
912.7943298969
 30
0.0
 40
2.752651079563542
100
AcDbArc
 50
332.6623685993
 51
37.2327701931
  0
ARC
  5
149
330
1F
100
AcDbEntity
  8
0
  6
CONTINUOUS
 62
     7
100
AcDbCircle
 10
743.0429788933
 20
917.4618150001
 30
0.0
 40
2.999999999998967
100
AcDbArc
 50
219.7402128278
 51
270.2833465994
  0
LINE
  5
14A
330
1F
100
AcDbEntity
  8
0
  6
CONTINUOUS
 62
     7
100
AcDbLine
 10
738.350541245
 20
913.9110450182
 30
0.0
 11
738.3506604542
 21
913.9110524688
 31
0.0
  0
ARC
  5
14B
330
1F
100
AcDbEntity
  8
0
  6
CONTINUOUS
 62
     7
100
AcDbCircle
 10
735.7281482235
 20
912.3448298836
 30
0.0
 40
3.054606944670335
100
AcDbArc
 50
339.1514725358
 51
30.8465874594
  0
LINE
  5
14C
330
1F
100
AcDbEntity
  8
0
  6
CONTINUOUS
 62
     7
100
AcDbLine
 10
738.5826789846
 20
911.2576921019
 30
0.0
 11
738.5827534904
 21
911.2576995525
 31
0.0
  0
LINE
  5
14D
330
1F
100
AcDbEntity
  8
0
  6
CONTINUOUS
 62
     7
100
AcDbLine
 10
955.0553494205
 20
915.5404944453
 30
0.0
 11
955.0555282345
 21
915.5400995645
 31
0.0
  0
ARC
  5
14E
330
1F
100
AcDbEntity
  8
0
  6
CONTINUOUS
 62
     7
100
AcDbCircle
 10
952.6886507067
 20
917.4685765272
 30
0.0
 40
3.053053000997679
100
AcDbArc
 50
270.025577003
 51
320.8276501218
  0
ARC
  5
14F
330
1F
100
AcDbEntity
  8
0
  6
CONTINUOUS
 62
     7
100
AcDbCircle
 10
952.6887254886
 20
690.7202405684
 30
0.0
 40
3.052895666800848
100
AcDbArc
 50
39.1709477128
 51
89.9758251624
  0
LINE
  5
150
330
1F
100
AcDbEntity
  8
0
  6
CONTINUOUS
 62
     7
100
AcDbLine
 10
955.0553494205
 20
692.6481653485
 30
0.0
 11
955.0555282345
 21
692.6485602293
 31
0.0
  0
ARC
  5
151
330
1F
100
AcDbEntity
  8
0
  6
CONTINUOUS
 62
     7
100
AcDbCircle
 10
951.9121536145
 20
908.5723510474
 30
0.0
 40
3.044604410326931
100
AcDbArc
 50
29.0912293747
 51
80.9754065708
  0
ARC
  5
152
330
1F
100
AcDbEntity
  8
0
  6
CONTINUOUS
 62
     7
100
AcDbCircle
 10
743.8208683004
 20
908.5722964953
 30
0.0
 40
3.044664329061143
100
AcDbArc
 50
98.8016349622
 51
151.0206375512
  0
LINE
  5
153
330
1F
100
AcDbEntity
  8
0
  6
CONTINUOUS
 62
     7
100
AcDbLine
 10
957.1503185739
 20
911.2576921019
 30
0.0
 11
957.1502440681
 21
911.2576995525
 31
0.0
  0
ARC
  5
154
330
1F
100
AcDbEntity
  8
0
  6
CONTINUOUS
 62
     7
100
AcDbCircle
 10
960.0047615298
 20
912.3448449278
 30
0.0
 40
3.054530243152321
100
AcDbArc
 50
149.1528819809
 51
200.8493773523
  0
LINE
  5
155
330
1F
100
AcDbEntity
  8
0
  6
CONTINUOUS
 62
     7
100
AcDbLine
 10
957.382448863
 20
913.9110450182
 30
0.0
 11
957.3823296537
 21
913.9110524688
 31
0.0
  0
ARC
  5
156
330
1F
100
AcDbEntity
  8
0
  6
CONTINUOUS
 62
     7
100
AcDbCircle
 10
743.044343779
 20
917.4685857358
 30
0.0
 40
3.053062211521581
100
AcDbArc
 50
219.1724319576
 51
269.9743409176
  0
LINE
  5
157
330
1F
100
AcDbEntity
  8
0
  6
CONTINUOUS
 62
     7
100
AcDbLine
 10
740.6776332369
 20
915.5404944453
 30
0.0
 11
740.6774618735
 21
915.5400995645
 31
0.0
  0
LINE
  5
158
330
1F
100
AcDbEntity
  8
0
  6
CONTINUOUS
 62
     7
100
AcDbLine
 10
740.6776332369
 20
692.6481653485
 30
0.0
 11
740.6774618735
 21
692.6485602293
 31
0.0
  0
ARC
  5
159
330
1F
100
AcDbEntity
  8
0
  6
CONTINUOUS
 62
     7
100
AcDbCircle
 10
743.0442508123
 20
690.7202696111
 30
0.0
 40
3.052866618251072
100
AcDbArc
 50
90.0239159388
 51
140.829311186
  0
ARC
  5
15A
330
1F
100
AcDbEntity
  8
0
  6
CONTINUOUS
 62
     7
100
AcDbCircle
 10
736.1336699087
 20
917.5271616759
 30
0.0
 40
4.106045093740776
100
AcDbArc
 50
109.0618771225
 51
160.9382909489
  0
ARC
  5
15B
330
1F
100
AcDbEntity
  8
0
  6
CONTINUOUS
 62
     7
100
AcDbCircle
 10
736.1333077326
 20
690.6611359429
 30
0.0
 40
4.10558450146979
100
AcDbArc
 50
199.0585825251
 51
250.9412494035
  0
LINE
  5
15C
330
1F
100
AcDbEntity
  8
0
  6
CONTINUOUS
 62
     7
100
AcDbLine
 10
957.382448863
 20
694.2776147756
 30
0.0
 11
957.3823296537
 21
694.2776073251
 31
0.0
  0
ARC
  5
15D
330
1F
100
AcDbEntity
  8
0
  6
CONTINUOUS
 62
     7
100
AcDbCircle
 10
960.0051387086
 20
695.8438478574
 30
0.0
 40
3.054870986376614
100
AcDbArc
 50
159.1537186951
 51
210.8440219717
  0
LINE
  5
15E
330
1F
100
AcDbEntity
  8
0
  6
CONTINUOUS
 62
     7
100
AcDbLine
 10
957.1503185739
 20
696.9309676919
 30
0.0
 11
957.1502440681
 21
696.9309602413
 31
0.0
  0
ARC
  5
15F
330
1F
100
AcDbEntity
  8
0
  6
CONTINUOUS
 62
     7
100
AcDbCircle
 10
951.9122534774
 20
699.6161640667
 30
0.0
 40
3.044445858199045
100
AcDbArc
 50
279.0231643983
 51
331.2576771236
  0
ARC
  5
160
330
1F
100
AcDbEntity
  8
0
  6
CONTINUOUS
 62
     7
100
AcDbCircle
 10
743.8208105101
 20
699.6162755883
 30
0.0
 40
3.044570674540917
100
AcDbArc
 50
209.0916707986
 51
261.1505235835
  0
ARC
  5
161
330
1F
100
AcDbEntity
  8
0
  6
CONTINUOUS
 62
     7
100
AcDbCircle
 10
959.6043025856
 20
690.6565271158
 30
0.0
 40
4.09972063775965
100
AcDbArc
 50
289.0187526887
 51
340.9812473113
  0
ARC
  5
162
330
1F
100
AcDbEntity
  8
0
  6
CONTINUOUS
 62
     7
100
AcDbCircle
 10
959.6046395634
 20
917.5324696558
 30
0.0
 40
4.099292246712903
100
AcDbArc
 50
19.0158347212
 51
70.9841652788
  0
LINE
  5
163
330
1F
100
AcDbEntity
  8
0
  6
CONTINUOUS
 62
     7
100
AcDbLine
 10
738.5826789846
 20
696.9309676919
 30
0.0
 11
738.5827534904
 21
696.9309602413
 31
0.0
  0
ARC
  5
164
330
1F
100
AcDbEntity
  8
0
  6
CONTINUOUS
 62
     7
100
AcDbCircle
 10
735.7278136982
 20
695.8438591717
 30
0.0
 40
3.05490915620135
100
AcDbArc
 50
329.1561583683
 51
20.8457816365
  0
LINE
  5
165
330
1F
100
AcDbEntity
  8
0
  6
CONTINUOUS
 62
     7
100
AcDbLine
 10
738.350541245
 20
694.2776147756
 30
0.0
 11
738.3506604542
 21
694.2776073251
 31
0.0
  0
ARC
  5
166
330
1F
100
AcDbEntity
  8
0
  6
CONTINUOUS
 62
     7
100
AcDbCircle
 10
735.8110736086
 20
917.8497433835
 30
0.0
 40
5.513031610063372
100
AcDbArc
 50
106.7518260122
 51
163.2480583022
  0
ARC
  5
167
330
1F
100
AcDbEntity
  8
0
  6
CONTINUOUS
 62
     7
100
AcDbCircle
 10
716.914001276
 20
916.4343975046
 30
0.0
 40
18.55759849954948
100
AcDbArc
 50
15.5460067826
 51
21.1454778889
  0
ARC
  5
168
330
1F
100
AcDbEntity
  8
0
  6
CONTINUOUS
 62
     7
100
AcDbCircle
 10
737.5814534061
 20
937.8175416677
 30
0.0
 40
19.68436981910675
100
AcDbArc
 50
249.014965099
 51
254.2936984588
  0
ARC
  5
169
330
1F
100
AcDbEntity
  8
0
  6
CONTINUOUS
 62
     7
100
AcDbCircle
 10
735.8110736086
 20
690.3389164104
 30
0.0
 40
5.513031610063655
100
AcDbArc
 50
196.7519416978
 51
253.2481739878
  0
ARC
  5
16A
330
1F
100
AcDbEntity
  8
0
  6
CONTINUOUS
 62
     7
100
AcDbCircle
 10
737.2275997472
 20
671.4384523852
 30
0.0
 40
18.56117648628069
100
AcDbArc
 50
105.5466817463
 51
111.145101702
  0
ARC
  5
16B
330
1F
100
AcDbEntity
  8
0
  6
CONTINUOUS
 62
     7
100
AcDbCircle
 10
715.8387086018
 20
692.1108339511
 30
0.0
 40
19.68919545412449
100
AcDbArc
 50
339.0155486265
 51
344.2929667021
  0
ARC
  5
16C
330
1F
100
AcDbEntity
  8
0
  6
CONTINUOUS
 62
     7
100
AcDbCircle
 10
978.8183377895
 20
916.434613393
 30
0.0
 40
18.55691341442838
100
AcDbArc
 50
158.854418668
 51
164.4540966605
  0
ARC
  5
16D
330
1F
100
AcDbEntity
  8
0
  6
CONTINUOUS
 62
     7
100
AcDbCircle
 10
959.9234476615
 20
917.8512745487
 30
0.0
 40
5.511124197521768
100
AcDbArc
 50
16.7412868555
 51
73.2588288301
  0
ARC
  5
16E
330
1F
100
AcDbEntity
  8
0
  6
CONTINUOUS
 62
     7
100
AcDbCircle
 10
958.5045780343
 20
936.7525921063
 30
0.0
 40
18.56369365372276
100
AcDbArc
 50
285.5471466529
 51
291.1447850262
  0
ARC
  5
16F
330
1F
100
AcDbEntity
  8
0
  6
CONTINUOUS
 62
     7
100
AcDbCircle
 10
958.5045780343
 20
671.4360676875
 30
0.0
 40
18.56369365374781
100
AcDbArc
 50
68.8552149738
 51
74.4528533471
  0
ARC
  5
170
330
1F
100
AcDbEntity
  8
0
  6
CONTINUOUS
 62
     7
100
AcDbCircle
 10
959.9234722139
 20
690.3373606927
 30
0.0
 40
5.511093613447944
100
AcDbArc
 50
286.7410002579
 51
343.2588840565
  0
ARC
  5
171
330
1F
100
AcDbEntity
  8
0
  6
CONTINUOUS
 62
     7
100
AcDbCircle
 10
978.8183377895
 20
691.7540464008
 30
0.0
 40
18.55691341442688
100
AcDbArc
 50
195.5459033395
 51
201.145581332
  0
LINE
  5
172
330
1F
100
AcDbEntity
  8
0
  6
CONTINUOUS
 62
     7
100
AcDbLine
 10
730.5320062747
 20
919.4387574229
 30
0.0
 11
730.3003826251
 21
917.867981318
 31
0.0
  0
LINE
  5
173
330
1F
100
AcDbEntity
  8
0
  6
CONTINUOUS
 62
     7
100
AcDbLine
 10
732.1059488764
 20
917.867981318
 30
0.0
 11
730.3003826251
 21
917.867981318
 31
0.0
  0
LINE
  5
174
330
1F
100
AcDbEntity
  8
0
  6
CONTINUOUS
 62
     7
100
AcDbLine
 10
735.792846333
 20
923.3604450259
 30
0.0
 11
734.2220702281
 21
923.1288139257
 31
0.0
  0
LINE
  5
175
330
1F
100
AcDbEntity
  8
0
  6
CONTINUOUS
 62
     7
100
AcDbLine
 10
735.792846333
 20
923.3604450259
 30
0.0
 11
735.792846333
 21
921.5548787746
 31
0.0
  0
LINE
  5
176
330
1F
100
AcDbEntity
  8
0
  6
CONTINUOUS
 62
     7
100
AcDbLine
 10
734.2220702281
 20
685.0598458681
 30
0.0
 11
735.792846333
 21
684.8282147679
 31
0.0
  0
LINE
  5
177
330
1F
100
AcDbEntity
  8
0
  6
CONTINUOUS
 62
     7
100
AcDbLine
 10
735.792846333
 20
686.6337810192
 30
0.0
 11
735.792846333
 21
684.8282147679
 31
0.0
  0
LINE
  5
178
330
1F
100
AcDbEntity
  8
0
  6
CONTINUOUS
 62
     7
100
AcDbLine
 10
730.3003826251
 20
690.3206784758
 30
0.0
 11
730.5320062747
 21
688.7499023709
 31
0.0
  0
LINE
  5
179
330
1F
100
AcDbEntity
  8
0
  6
CONTINUOUS
 62
     7
100
AcDbLine
 10
730.3003826251
 20
690.3206784758
 30
0.0
 11
732.1059488764
 21
690.3206784758
 31
0.0
  0
LINE
  5
17A
330
1F
100
AcDbEntity
  8
0
  6
CONTINUOUS
 62
     7
100
AcDbLine
 10
965.4326074829
 20
690.3206784758
 30
0.0
 11
963.627033781
 21
690.3206784758
 31
0.0
  0
LINE
  5
17B
330
1F
100
AcDbEntity
  8
0
  6
CONTINUOUS
 62
     7
100
AcDbLine
 10
965.4326074829
 20
690.3206784758
 30
0.0
 11
965.2009838333
 21
688.7499023709
 31
0.0
  0
LINE
  5
17C
330
1F
100
AcDbEntity
  8
0
  6
CONTINUOUS
 62
     7
100
AcDbLine
 10
959.940143775
 20
923.3604450259
 30
0.0
 11
959.940143775
 21
921.5548787746
 31
0.0
  0
LINE
  5
17D
330
1F
100
AcDbEntity
  8
0
  6
CONTINUOUS
 62
     7
100
AcDbLine
 10
959.940143775
 20
923.3604450259
 30
0.0
 11
961.5109198799
 21
923.1288139257
 31
0.0
  0
LINE
  5
17E
330
1F
100
AcDbEntity
  8
0
  6
CONTINUOUS
 62
     7
100
AcDbLine
 10
965.2009838333
 20
919.4387574229
 30
0.0
 11
965.4326074829
 21
917.867981318
 31
0.0
  0
LINE
  5
17F
330
1F
100
AcDbEntity
  8
0
  6
CONTINUOUS
 62
     7
100
AcDbLine
 10
963.627033781
 20
917.867981318
 30
0.0
 11
965.4326074829
 21
917.867981318
 31
0.0
  0
LINE
  5
180
330
1F
100
AcDbEntity
  8
0
  6
CONTINUOUS
 62
     7
100
AcDbLine
 10
961.5109198799
 20
685.0598458681
 30
0.0
 11
959.940143775
 21
684.8282147679
 31
0.0
  0
LINE
  5
181
330
1F
100
AcDbEntity
  8
0
  6
CONTINUOUS
 62
     7
100
AcDbLine
 10
959.940143775
 20
686.6337810192
 30
0.0
 11
959.940143775
 21
684.8282147679
 31
0.0
  0
LINE
  5
182
330
1F
100
AcDbEntity
  8
0
  6
CONTINUOUS
 62
     7
100
AcDbLine
 10
735.792846333
 20
923.3604450259
 30
0.0
 11
959.940143775
 21
923.3604450259
 31
0.0
  0
LINE
  5
183
330
1F
100
AcDbEntity
  8
0
  6
CONTINUOUS
 62
     7
100
AcDbLine
 10
735.792846333
 20
684.8282147679
 30
0.0
 11
959.940143775
 21
684.8282147679
 31
0.0
  0
LINE
  5
184
330
1F
100
AcDbEntity
  8
0
  6
CONTINUOUS
 62
     7
100
AcDbLine
 10
743.6143093815
 20
912.5660215053
 30
0.0
 11
743.3459916224
 21
911.5847800407
 31
0.0
  0
LINE
  5
185
330
1F
100
AcDbEntity
  8
0
  6
CONTINUOUS
 62
     7
100
AcDbLine
 10
952.0807349195
 20
912.5626761946
 30
0.0
 11
952.3581647386
 21
911.5638811621
 31
0.0
  0
ELLIPSE
  5
186
330
1F
100
AcDbEntity
  8
0
  6
CONTINUOUS
 62
     7
100
AcDbEllipse
 10
734.9547805141
 20
918.7060442282
 30
0.0
 11
3.899754338892876
 21
-3.899754338892762
 31
0.0
210
0.0
220
0.0
230
0.9999999999999998
 40
0.9972646886
 41
2.357564018062687
 42
3.925621289116842
  0
LINE
  5
187
330
1F
100
AcDbEntity
  8
0
  6
CONTINUOUS
 62
     7
100
AcDbLine
 10
735.792846333
 20
923.3604450259
 30
0.0
 11
734.93969525
 21
924.2135886583
 31
0.0
  0
LINE
  5
188
330
1F
100
AcDbEntity
  8
0
  6
CONTINUOUS
 62
     7
100
AcDbLine
 10
734.93969525
 20
683.9750711355
 30
0.0
 11
735.792846333
 21
684.8282147679
 31
0.0
  0
ELLIPSE
  5
189
330
1F
100
AcDbEntity
  8
0
  6
CONTINUOUS
 62
     7
100
AcDbEllipse
 10
734.9547805141
 20
689.4826155656
 30
0.0
 11
3.899754338892876
 21
3.899754338892762
 31
0.0
210
0.0
220
0.0
230
0.9999999999999998
 40
0.9972646886
 41
2.35756401806278
 42
3.925621289116891
  0
LINE
  5
18A
330
1F
100
AcDbEntity
  8
0
  6
CONTINUOUS
 62
     7
100
AcDbLine
 10
959.940143775
 20
923.3604450259
 30
0.0
 11
960.7932948579
 21
924.2135886583
 31
0.0
  0
ELLIPSE
  5
18B
330
1F
100
AcDbEntity
  8
0
  6
CONTINUOUS
 62
     7
100
AcDbEllipse
 10
960.7782091766
 20
918.7060442282
 30
0.0
 11
3.899754338892876
 21
3.899754338892989
 31
0.0
210
0.0
220
0.0
230
1.0
 40
0.9972646886
 41
5.499156671652556
 42
7.067213942706635
  0
ELLIPSE
  5
18C
330
1F
100
AcDbEntity
  8
0
  6
CONTINUOUS
 62
     7
100
AcDbEllipse
 10
960.7782091766
 20
689.4826155656
 30
0.0
 11
3.899754338892876
 21
-3.899754338892989
 31
0.0
210
0.0
220
0.0
230
1.0
 40
0.9972646886
 41
5.499156671652565
 42
7.067213942706644
  0
LINE
  5
18D
330
1F
100
AcDbEntity
  8
0
  6
CONTINUOUS
 62
     7
100
AcDbLine
 10
960.7932948579
 20
683.9750711355
 30
0.0
 11
959.940143775
 21
684.8282147679
 31
0.0
  0
LINE
  5
18E
330
1F
100
AcDbEntity
  8
0
  6
CONTINUOUS
 62
     7
100
AcDbLine
 10
734.93969525
 20
924.2135886583
 30
0.0
 11
960.7932948579
 21
924.2135886583
 31
0.0
  0
LINE
  5
18F
330
1F
100
AcDbEntity
  8
0
  6
CONTINUOUS
 62
     7
100
AcDbLine
 10
960.7932948579
 20
683.9750711355
 30
0.0
 11
734.93969525
 21
683.9750711355
 31
0.0
  0
LWPOLYLINE
  5
190
330
1F
100
AcDbEntity
  8
0
  6
CONTINUOUS
 62
     7
100
AcDbPolyline
 90
        3
 70
   128
 43
0.0
 10
605.9028067841
 20
921.7202891145
 10
605.8585289149
 20
921.4764390621
 10
605.8376533194
 20
921.2865982685
  0
LWPOLYLINE
  5
191
330
1F
100
AcDbEntity
  8
0
  6
CONTINUOUS
 62
     7
100
AcDbPolyline
 90
        3
 70
   128
 43
0.0
 10
605.8376663579
 20
686.9018380079
 10
605.8585270522
 20
686.7121536765
 10
605.9028067841
 20
686.4683706794
  0
LINE
  5
192
330
1F
100
AcDbEntity
  8
0
  6
CONTINUOUS
 62
     7
100
AcDbLine
 10
607.7412403403
 20
923.3566079769
 30
0.0
 11
607.4108666955
 21
923.314415339
 31
0.0
  0
LINE
  5
193
330
1F
100
AcDbEntity
  8
0
  6
CONTINUOUS
 62
     7
100
AcDbLine
 10
607.4108666955
 20
684.8742444548
 30
0.0
 11
607.7412403403
 21
684.8320518169
 31
0.0
  0
LWPOLYLINE
  5
194
330
1F
100
AcDbEntity
  8
0
  6
CONTINUOUS
 62
     7
100
AcDbPolyline
 90
        3
 70
   128
 43
0.0
 10
604.516282606
 20
706.4753253493
 10
604.5888903765
 20
706.4854655895
 10
604.6525583817
 20
706.4875443015
  0
LWPOLYLINE
  5
195
330
1F
100
AcDbEntity
  8
0
  6
CONTINUOUS
 62
     7
100
AcDbPolyline
 90
        3
 70
   128
 43
0.0
 10
604.6534729405
 20
901.7013762626
 10
604.5894473074
 20
901.7035071287
 10
604.5163319661
 20
901.7138559851
  0
ARC
  5
196
330
1F
100
AcDbEntity
  8
0
  6
CONTINUOUS
 62
     7
100
AcDbCircle
 10
586.6263561317
 20
900.4040662059
 30
0.0
 40
20.01361161925604
100
AcDbArc
 50
18.0698594037
 51
20.1955313564
  0
ARC
  5
197
330
1F
100
AcDbEntity
  8
0
  6
CONTINUOUS
 62
     7
100
AcDbCircle
 10
562.085932269
 20
903.6745810823
 30
0.0
 40
43.66584505491772
100
AcDbArc
 50
358.1162031173
 51
3.8569803833
  0
LWPOLYLINE
  5
198
330
1F
100
AcDbEntity
  8
0
  6
CONTINUOUS
 62
     7
100
AcDbPolyline
 90
       12
 70
   128
 43
0.0
 10
605.2916794298
 20
700.5417947206
 10
605.3622876508
 20
700.5341802273
 10
605.4286350711
 20
700.5210523042
 10
605.4887091024
 20
700.5043481025
 10
605.5413027508
 20
700.48673493
 10
605.6224423675
 20
700.4612315926
 10
605.6742388038
 20
700.4667822752
 10
605.7339375122
 20
700.8781213794
 10
605.753370489
 20
701.5325505767
 10
605.7534589647
 20
702.058025125
 10
605.7534217118
 20
703.442305747
 10
605.7533565192
 20
704.6407390866
  0
LWPOLYLINE
  5
199
330
1F
100
AcDbEntity
  8
0
  6
CONTINUOUS
 62
     7
100
AcDbPolyline
 90
        3
 70
   128
 43
0.0
 10
605.7285628496
 20
907.9398889575
 10
605.5891643493
 20
907.8260813389
 10
605.3759287326
 20
907.744326118
  0
LINE
  5
19A
330
1F
100
AcDbEntity
  8
0
  6
CONTINUOUS
 62
     7
100
AcDbLine
 10
624.0242271899
 20
683.9750711355
 30
0.0
 11
624.0242271899
 21
689.4675273928
 31
0.0
  0
LINE
  5
19B
330
1F
100
AcDbEntity
  8
0
  6
CONTINUOUS
 62
     7
100
AcDbLine
 10
624.0242271899
 20
683.9750711355
 30
0.0
 11
607.7451751782
 21
684.8282147679
 31
0.0
  0
LINE
  5
19C
330
1F
100
AcDbEntity
  8
0
  6
CONTINUOUS
 62
     7
100
AcDbLine
 10
607.7055781363
 20
685.0598458681
 30
0.0
 11
607.7451751782
 21
684.8282147679
 31
0.0
  0
ARC
  5
19D
330
1F
100
AcDbEntity
  8
0
  6
CONTINUOUS
 62
     7
100
AcDbCircle
 10
642.9907662444
 20
686.9048741195
 30
0.0
 40
35.33339254970269
100
AcDbArc
 50
177.0067852519
 51
182.9932147481
  0
LINE
  5
19E
330
1F
100
AcDbEntity
  8
0
  6
CONTINUOUS
 62
     7
100
AcDbLine
 10
607.7451733155
 20
690.3206784758
 30
0.0
 11
607.7055762736
 21
688.7499023709
 31
0.0
  0
LINE
  5
19F
330
1F
100
AcDbEntity
  8
0
  6
CONTINUOUS
 62
     7
100
AcDbLine
 10
607.7451751782
 20
690.3206784758
 30
0.0
 11
624.0242271899
 21
689.4675273928
 31
0.0
  0
LINE
  5
1A0
330
1F
100
AcDbEntity
  8
0
  6
CONTINUOUS
 62
     7
100
AcDbLine
 10
624.0242271899
 20
918.721132401
 30
0.0
 11
607.7451733155
 21
917.867981318
 31
0.0
  0
LINE
  5
1A1
330
1F
100
AcDbEntity
  8
0
  6
CONTINUOUS
 62
     7
100
AcDbLine
 10
624.0242271899
 20
689.4675273928
 30
0.0
 11
624.0242271899
 21
918.721132401
 31
0.0
  0
LINE
  5
1A2
330
1F
100
AcDbEntity
  8
0
  6
CONTINUOUS
 62
     7
100
AcDbLine
 10
607.7451751782
 20
690.3206784758
 30
0.0
 11
607.7451751782
 21
792.7977838102
 31
0.0
  0
LINE
  5
1A3
330
1F
100
AcDbEntity
  8
0
  6
CONTINUOUS
 62
     7
100
AcDbLine
 10
607.7451751782
 20
792.7977838102
 30
0.0
 11
604.908817376
 21
792.9449998323
 31
0.0
  0
ELLIPSE
  5
1A4
330
1F
100
AcDbEntity
  8
0
  6
CONTINUOUS
 62
     7
100
AcDbEllipse
 10
605.0145063678
 20
794.9422590303
 30
0.0
 11
2.019440884112669
 21
0.0
 31
0.0
210
0.0
220
0.0
230
1.0
 40
0.9903731353
 41
3.141592653589793
 42
4.660029102824849
  0
LINE
  5
1A5
330
1F
100
AcDbEntity
  8
0
  6
CONTINUOUS
 62
     7
100
AcDbLine
 10
602.9950659005
 20
813.2464005161
 30
0.0
 11
602.9950659005
 21
794.9422592777
 31
0.0
  0
ELLIPSE
  5
1A6
330
1F
100
AcDbEntity
  8
0
  6
CONTINUOUS
 62
     7
100
AcDbEllipse
 10
605.0145063678
 20
813.2464007635
 30
0.0
 11
2.019440884112669
 21
0.0
 31
0.0
210
0.0
220
0.0
230
1.0
 40
0.9903731353
 41
1.623156204354751
 42
3.141592653589793
  0
LINE
  5
1A7
330
1F
100
AcDbEntity
  8
0
  6
CONTINUOUS
 62
     7
100
AcDbLine
 10
607.7451751782
 20
815.3908759836
 30
0.0
 11
604.908817376
 21
815.2436599616
 31
0.0
  0
LINE
  5
1A8
330
1F
100
AcDbEntity
  8
0
  6
CONTINUOUS
 62
     7
100
AcDbLine
 10
607.7451751782
 20
815.3908759836
 30
0.0
 11
607.7451751782
 21
917.867981318
 31
0.0
  0
LINE
  5
1A9
330
1F
100
AcDbEntity
  8
0
  6
CONTINUOUS
 62
     7
100
AcDbLine
 10
607.7451733155
 20
923.3604450259
 30
0.0
 11
607.7403267129
 21
923.3320955667
 31
0.0
  0
LINE
  5
1AA
330
1F
100
AcDbEntity
  8
0
  6
CONTINUOUS
 62
     7
100
AcDbLine
 10
607.7451751782
 20
923.3604450259
 30
0.0
 11
624.0242271899
 21
924.2135886583
 31
0.0
  0
LINE
  5
1AB
330
1F
100
AcDbEntity
  8
0
  6
CONTINUOUS
 62
     7
100
AcDbLine
 10
624.0242271899
 20
918.721132401
 30
0.0
 11
624.0242271899
 21
924.2135886583
 31
0.0
  0
LINE
  5
1AC
330
1F
100
AcDbEntity
  8
0
  6
CONTINUOUS
 62
     7
100
AcDbLine
 10
607.7055762736
 20
919.4387574229
 30
0.0
 11
607.7451733155
 21
917.867981318
 31
0.0
  0
ARC
  5
1AD
330
1F
100
AcDbEntity
  8
0
  6
CONTINUOUS
 62
     7
100
AcDbCircle
 10
643.0554374886
 20
921.2837856743
 30
0.0
 40
35.39797572570172
100
AcDbArc
 50
177.0122512957
 51
182.9877487043
  0
LINE
  5
1AE
330
1F
100
AcDbEntity
  8
0
  6
CONTINUOUS
 62
     7
100
AcDbLine
 10
605.8590551121
 20
792.8871069584
 30
0.0
 11
605.8590551121
 21
690.3206784758
 31
0.0
  0
ELLIPSE
  5
1AF
330
1F
100
AcDbEntity
  8
0
  6
CONTINUOUS
 62
     7
100
AcDbEllipse
 10
607.8498472386
 20
792.7822910005
 30
0.0
 11
1.999999931706157
 21
-0.1043356303281371
 31
0.0
210
0.0
220
0.0
230
1.0
 40
0.0050094303
 41
1.62341753539203
 42
3.045860875741103
  0
LINE
  5
1B0
330
1F
100
AcDbEntity
  8
0
  6
CONTINUOUS
 62
     7
100
AcDbLine
 10
607.7451751782
 20
690.3206784758
 30
0.0
 11
605.8590551121
 21
690.3206784758
 31
0.0
  0
LINE
  5
1B1
330
1F
100
AcDbEntity
  8
0
  6
CONTINUOUS
 62
     7
100
AcDbLine
 10
605.8590551121
 20
917.867981318
 30
0.0
 11
605.8590551121
 21
815.3015528354
 31
0.0
  0
LINE
  5
1B2
330
1F
100
AcDbEntity
  8
0
  6
CONTINUOUS
 62
     7
100
AcDbLine
 10
605.8590551121
 20
917.867981318
 30
0.0
 11
607.7451733155
 21
917.867981318
 31
0.0
  0
ELLIPSE
  5
1B3
330
1F
100
AcDbEntity
  8
0
  6
CONTINUOUS
 62
     7
100
AcDbEllipse
 10
607.8498472386
 20
815.4063687933
 30
0.0
 11
1.999999931706157
 21
0.1043356303282508
 31
0.0
210
0.0
220
0.0
230
0.9999999999999998
 40
0.0050094303
 41
3.237324431418847
 42
4.659767771787532
  0
LWPOLYLINE
  5
1B4
330
1F
100
AcDbEntity
  8
0
  6
CONTINUOUS
 62
     7
100
AcDbPolyline
 90
        3
 70
   128
 43
0.0
 10
605.8449176355
 20
689.3205199871
 10
605.8563039853
 20
689.8754988346
 10
605.8590551121
 20
690.3206784758
  0
ARC
  5
1B5
330
1F
100
AcDbEntity
  8
0
  6
CONTINUOUS
 62
     7
100
AcDbCircle
 10
607.4332330344
 20
691.1807582867
 30
0.0
 40
2.44606466344303
100
AcDbArc
 50
229.5085175092
 51
276.3925726377
  0
LWPOLYLINE
  5
1B6
330
1F
100
AcDbEntity
  8
0
  6
CONTINUOUS
 62
     7
100
AcDbPolyline
 90
        3
 70
   128
 43
0.0
 10
605.8590551121
 20
917.867981318
 10
605.8546015276
 20
918.4336368475
 10
605.8449176355
 20
918.8681398067
  0
ARC
  5
1B7
330
1F
100
AcDbEntity
  8
0
  6
CONTINUOUS
 62
     7
100
AcDbCircle
 10
607.4332346186
 20
917.0078963413
 30
0.0
 40
2.446069620760696
100
AcDbArc
 50
83.6074777123
 51
130.4914321408
  0
LINE
  5
1B8
330
1F
100
AcDbEntity
  8
0
  6
CONTINUOUS
 62
     7
100
AcDbLine
 10
604.584610018
 20
815.2436599616
 30
0.0
 11
605.6786476849
 21
815.3015528354
 31
0.0
  0
LINE
  5
1B9
330
1F
100
AcDbEntity
  8
0
  6
CONTINUOUS
 62
     7
100
AcDbLine
 10
605.8590551121
 20
815.3015528354
 30
0.0
 11
605.6786476849
 21
815.3015528354
 31
0.0
  0
LINE
  5
1BA
330
1F
100
AcDbEntity
  8
0
  6
CONTINUOUS
 62
     7
100
AcDbLine
 10
604.584610018
 20
815.2436599616
 30
0.0
 11
604.908817376
 21
815.2436599616
 31
0.0
  0
LINE
  5
1BB
330
1F
100
AcDbEntity
  8
0
  6
CONTINUOUS
 62
     7
100
AcDbLine
 10
605.8590551121
 20
792.8871069584
 30
0.0
 11
605.6786476849
 21
792.8871069584
 31
0.0
  0
LINE
  5
1BC
330
1F
100
AcDbEntity
  8
0
  6
CONTINUOUS
 62
     7
100
AcDbLine
 10
604.584610018
 20
792.9449998323
 30
0.0
 11
605.6786476849
 21
792.8871069584
 31
0.0
  0
LINE
  5
1BD
330
1F
100
AcDbEntity
  8
0
  6
CONTINUOUS
 62
     7
100
AcDbLine
 10
604.908817376
 20
792.9449998323
 30
0.0
 11
604.584610018
 21
792.9449998323
 31
0.0
  0
LINE
  5
1BE
330
1F
100
AcDbEntity
  8
0
  6
CONTINUOUS
 62
     7
100
AcDbLine
 10
602.9950659005
 20
794.9422592777
 30
0.0
 11
602.7075284375
 21
794.9422592777
 31
0.0
  0
ELLIPSE
  5
1BF
330
1F
100
AcDbEntity
  8
0
  6
CONTINUOUS
 62
     7
100
AcDbEllipse
 10
604.6882744968
 20
794.9422590303
 30
0.0
 11
0.0
 21
2.0
 31
0.0
210
0.0
220
0.0
230
1.0
 40
0.9903731353
 41
1.570796326794897
 42
3.089232776029966
  0
LINE
  5
1C0
330
1F
100
AcDbEntity
  8
0
  6
CONTINUOUS
 62
     7
100
AcDbLine
 10
602.7075284375
 20
813.2464005161
 30
0.0
 11
602.9950659005
 21
813.2464005161
 31
0.0
  0
ELLIPSE
  5
1C1
330
1F
100
AcDbEntity
  8
0
  6
CONTINUOUS
 62
     7
100
AcDbEllipse
 10
604.6882744968
 20
813.2464007635
 30
0.0
 11
0.0
 21
1.999999999999886
 31
0.0
210
0.0
220
0.0
230
1.0
 40
0.9903731353
 41
0.0523598775598851
 42
1.570796326794897
  0
LINE
  5
1C2
330
1F
100
AcDbEntity
  8
0
  6
CONTINUOUS
 62
     7
100
AcDbLine
 10
605.8449176355
 20
921.4080576334
 30
0.0
 11
605.8358903257
 21
921.2571237716
 31
0.0
  0
LINE
  5
1C3
330
1F
100
AcDbEntity
  8
0
  6
CONTINUOUS
 62
     7
100
AcDbLine
 10
605.9304959355
 20
921.7119817171
 30
0.0
 11
605.8449176355
 21
921.4080576334
 31
0.0
  0
LINE
  5
1C4
330
1F
100
AcDbEntity
  8
0
  6
CONTINUOUS
 62
     7
100
AcDbLine
 10
605.8358866005
 20
686.9315956268
 30
0.0
 11
605.8449176355
 21
686.7806021604
 31
0.0
  0
LINE
  5
1C5
330
1F
100
AcDbEntity
  8
0
  6
CONTINUOUS
 62
     7
100
AcDbLine
 10
605.9304968668
 20
686.4766780767
 30
0.0
 11
605.8449176355
 21
686.7806021604
 31
0.0
  0
LINE
  5
1C6
330
1F
100
AcDbEntity
  8
0
  6
CONTINUOUS
 62
     7
100
AcDbLine
 10
602.7075284375
 20
813.2464005161
 30
0.0
 11
602.7075284375
 21
794.9422592777
 31
0.0
  0
LINE
  5
1C7
330
1F
100
AcDbEntity
  8
0
  6
CONTINUOUS
 62
     7
100
AcDbLine
 10
605.8449176355
 20
686.7806021604
 30
0.0
 11
605.7611740409
 21
687.6503158841
 31
0.0
  0
LINE
  5
1C8
330
1F
100
AcDbEntity
  8
0
  6
CONTINUOUS
 62
     7
100
AcDbLine
 10
605.7611740409
 20
687.6503158841
 30
0.0
 11
605.7611740409
 21
690.1902337107
 31
0.0
  0
LINE
  5
1C9
330
1F
100
AcDbEntity
  8
0
  6
CONTINUOUS
 62
     7
100
AcDbLine
 10
605.7611740409
 20
690.1902337107
 30
0.0
 11
605.8449176355
 21
689.3205199871
 31
0.0
  0
LINE
  5
1CA
330
1F
100
AcDbEntity
  8
0
  6
CONTINUOUS
 62
     7
100
AcDbLine
 10
605.8449176355
 20
918.8681398067
 30
0.0
 11
605.7611740409
 21
917.9984260831
 31
0.0
  0
LINE
  5
1CB
330
1F
100
AcDbEntity
  8
0
  6
CONTINUOUS
 62
     7
100
AcDbLine
 10
605.7611740409
 20
917.9984260831
 30
0.0
 11
605.7611740409
 21
920.5383439097
 31
0.0
  0
LINE
  5
1CC
330
1F
100
AcDbEntity
  8
0
  6
CONTINUOUS
 62
     7
100
AcDbLine
 10
605.7611740409
 20
920.5383439097
 30
0.0
 11
605.8449176355
 21
921.4080576334
 31
0.0
  0
LINE
  5
1CD
330
1F
100
AcDbEntity
  8
0
  6
CONTINUOUS
 62
     7
100
AcDbLine
 10
605.7611740409
 20
706.7094151411
 30
0.0
 11
605.7611740409
 21
690.1902337107
 31
0.0
  0
LINE
  5
1CE
330
1F
100
AcDbEntity
  8
0
  6
CONTINUOUS
 62
     7
100
AcDbLine
 10
605.7611740409
 20
706.7094151411
 30
0.0
 11
604.8829033254
 21
706.755444828
 31
0.0
  0
LINE
  5
1CF
330
1F
100
AcDbEntity
  8
0
  6
CONTINUOUS
 62
     7
100
AcDbLine
 10
604.8829033254
 20
901.4332149658
 30
0.0
 11
605.7611740409
 21
901.4792446527
 31
0.0
  0
LINE
  5
1D0
330
1F
100
AcDbEntity
  8
0
  6
CONTINUOUS
 62
     7
100
AcDbLine
 10
605.7611740409
 20
917.9984260831
 30
0.0
 11
605.7611740409
 21
901.4792446527
 31
0.0
  0
LINE
  5
1D1
330
1F
100
AcDbEntity
  8
0
  6
CONTINUOUS
 62
     7
100
AcDbLine
 10
605.7611740409
 20
706.4246539507
 30
0.0
 11
605.1658223598
 21
706.4558569822
 31
0.0
  0
ARC
  5
1D2
330
1F
100
AcDbEntity
  8
0
  6
CONTINUOUS
 62
     7
100
AcDbCircle
 10
605.1821263544
 20
706.7546365901
 30
0.0
 40
0.2992241205725935
100
AcDbArc
 50
179.8452374849
 51
266.8765454768
  0
ARC
  5
1D3
330
1F
100
AcDbEntity
  8
0
  6
CONTINUOUS
 62
     7
100
AcDbCircle
 10
605.1821264619
 20
901.4340231529
 30
0.0
 40
0.2992242279127165
100
AcDbArc
 50
93.1236526082
 51
180.15475273
  0
LINE
  5
1D4
330
1F
100
AcDbEntity
  8
0
  6
CONTINUOUS
 62
     7
100
AcDbLine
 10
605.1658214284
 20
901.7328028116
 30
0.0
 11
605.7611740409
 21
901.7640058431
 31
0.0
  0
LWPOLYLINE
  5
1D5
330
1F
100
AcDbEntity
  8
0
  6
CONTINUOUS
 62
     7
100
AcDbPolyline
 90
        3
 70
   128
 43
0.0
 10
605.8449176355
 20
921.4080576334
 10
605.8563039853
 20
921.5263132486
 10
605.8590551121
 20
921.5548787746
  0
ARC
  5
1D6
330
1F
100
AcDbEntity
  8
0
  6
CONTINUOUS
 62
     7
100
AcDbCircle
 10
607.8498472386
 20
921.3631841246
 30
0.0
 40
1.999999999999992
100
AcDbArc
 50
93.0
 51
174.5
  0
LWPOLYLINE
  5
1D7
330
1F
100
AcDbEntity
  8
0
  6
CONTINUOUS
 62
     7
100
AcDbPolyline
 90
        3
 70
   128
 43
0.0
 10
605.8590551121
 20
686.6337810192
 10
605.8546015276
 20
686.6800342235
 10
605.8449176355
 20
686.7806021604
  0
ARC
  5
1D8
330
1F
100
AcDbEntity
  8
0
  6
CONTINUOUS
 62
     7
100
AcDbCircle
 10
607.8498472386
 20
686.8254756693
 30
0.0
 40
1.999999999999992
100
AcDbArc
 50
185.5
 51
267.0
  0
LWPOLYLINE
  5
1D9
330
1F
100
AcDbEntity
  8
0
  6
CONTINUOUS
 62
     7
100
AcDbPolyline
 90
        3
 70
   128
 43
0.0
 10
604.4728969438
 20
706.7801584039
 10
604.7548688231
 20
706.7632455859
 10
604.8829033254
 20
706.755444828
  0
ARC
  5
1DA
330
1F
100
AcDbEntity
  8
0
  6
CONTINUOUS
 62
     7
100
AcDbCircle
 10
604.7420584681
 20
706.7474725777
 30
0.0
 40
0.2711388747041055
100
AcDbArc
 50
173.076146903
 51
259.8578344885
  0
LWPOLYLINE
  5
1DB
330
1F
100
AcDbEntity
  8
0
  6
CONTINUOUS
 62
     7
100
AcDbPolyline
 90
        3
 70
   128
 43
0.0
 10
605.1658214284
 20
706.4558569822
 10
604.9843187658
 20
706.4653713736
 10
604.6943142293
 20
706.4805705581
  0
LWPOLYLINE
  5
1DC
330
1F
100
AcDbEntity
  8
0
  6
CONTINUOUS
 62
     7
100
AcDbPolyline
 90
        3
 70
   128
 43
0.0
 10
604.8829033254
 20
901.4332149658
 10
604.7549340157
 20
901.4254142079
 10
604.4728969438
 20
901.40850139
  0
ARC
  5
1DD
330
1F
100
AcDbEntity
  8
0
  6
CONTINUOUS
 62
     7
100
AcDbCircle
 10
604.7420581208
 20
901.4411873243
 30
0.0
 40
0.2711385429787558
100
AcDbArc
 50
100.1419035674
 51
186.9238846554
  0
LWPOLYLINE
  5
1DE
330
1F
100
AcDbEntity
  8
0
  6
CONTINUOUS
 62
     7
100
AcDbPolyline
 90
        3
 70
   128
 43
0.0
 10
604.6943142293
 20
901.7080892358
 10
605.0417087255
 20
901.7262984547
 10
605.1658214284
 20
901.7328028116
  0
ARC
  5
1DF
330
1F
100
AcDbEntity
  8
0
  6
CONTINUOUS
 62
     7
100
AcDbCircle
 10
605.1891489768
 20
904.7872705314
 30
0.0
 40
3.453852614950877
100
AcDbArc
 50
230.5978515765
 51
258.0312767611
  0
ARC
  5
1E0
330
1F
100
AcDbEntity
  8
0
  6
CONTINUOUS
 62
     7
100
AcDbCircle
 10
605.148890677
 20
703.4855471658
 30
0.0
 40
3.363247052630749
100
AcDbArc
 50
101.5951132864
 51
129.7693774642
  0
ARC
  5
1E1
330
1F
100
AcDbEntity
  8
0
  6
CONTINUOUS
 62
     7
100
AcDbCircle
 10
605.1042737397
 20
701.0689275017
 30
0.0
 40
5.427149101509791
100
AcDbArc
 50
94.3321724104
 51
112.8441628456
  0
LINE
  5
1E2
330
1F
100
AcDbEntity
  8
0
  6
CONTINUOUS
 62
     7
100
AcDbLine
 10
604.6943142293
 20
901.7080892358
 30
0.0
 11
604.5098518236
 21
901.723221365
 31
0.0
  0
ARC
  5
1E3
330
1F
100
AcDbEntity
  8
0
  6
CONTINUOUS
 62
     7
100
AcDbCircle
 10
600.47676445
 20
896.9541753189
 30
0.0
 40
7.146001110962987
100
AcDbArc
 50
42.3118529282
 51
47.6856690999
  0
LINE
  5
1E4
330
1F
100
AcDbEntity
  8
0
  6
CONTINUOUS
 62
     7
100
AcDbLine
 10
605.2873450546
 20
902.2382800016
 30
0.0
 11
602.9967935039
 21
902.1182436976
 31
0.0
  0
LINE
  5
1E5
330
1F
100
AcDbEntity
  8
0
  6
CONTINUOUS
 62
     7
100
AcDbLine
 10
605.2873450546
 20
902.2391740713
 30
0.0
 11
605.7611740409
 21
902.2391740713
 31
0.0
  0
LINE
  5
1E6
330
1F
100
AcDbEntity
  8
0
  6
CONTINUOUS
 62
     7
100
AcDbLine
 10
605.7611740409
 20
705.9494857225
 30
0.0
 11
605.2873413293
 21
705.9494857225
 31
0.0
  0
LWPOLYLINE
  5
1E7
330
1F
100
AcDbEntity
  8
0
  6
CONTINUOUS
 62
     7
100
AcDbPolyline
 90
        7
 70
   128
 43
0.0
 10
605.2869976713
 20
705.949850801
 10
605.4801055445
 20
706.1370168361
 10
605.5975155188
 20
706.2504593763
 10
605.6649944959
 20
706.3194517526
 10
605.715222585
 20
706.3730288777
 10
605.7482435582
 20
706.4084936414
 10
605.7641701056
 20
706.4238716397
  0
LINE
  5
1E8
330
1F
100
AcDbEntity
  8
0
  6
CONTINUOUS
 62
     7
100
AcDbLine
 10
602.9967925726
 20
706.0704160962
 30
0.0
 11
605.2873878954
 21
705.9503723416
 31
0.0
  0
LWPOLYLINE
  5
1E9
330
1F
100
AcDbEntity
  8
0
  6
CONTINUOUS
 62
     7
100
AcDbPolyline
 90
        5
 70
   128
 43
0.0
 10
605.2873441233
 20
902.2382800016
 10
605.2912305324
 20
904.3414894972
 10
605.2909688307
 20
906.123117033
 10
605.2912305324
 20
907.3133770857
 10
605.2873450546
 20
907.7316377792
  0
ARC
  5
1EA
330
1F
100
AcDbEntity
  8
0
  6
CONTINUOUS
 62
     7
100
AcDbCircle
 10
605.2611630104
 20
699.9577041941
 30
0.0
 40
0.5000110305860277
100
AcDbArc
 50
0.0011127974
 51
86.9988796745
  0
LWPOLYLINE
  5
1EB
330
1F
100
AcDbEntity
  8
0
  6
CONTINUOUS
 62
     7
100
AcDbPolyline
 90
        5
 70
   128
 43
0.0
 10
605.2873413293
 20
700.4570294652
 10
605.2911839662
 20
700.8757073912
 10
605.2909334405
 20
702.0661686096
 10
605.2912212191
 20
703.8473789129
 10
605.2873413293
 20
705.9494857225
  0
LINE
  5
1EC
330
1F
100
AcDbEntity
  8
0
  6
CONTINUOUS
 62
     7
100
AcDbLine
 10
582.4242280079
 20
906.533427957
 30
0.0
 11
602.8033550112
 21
907.6014537844
 31
0.0
  0
LINE
  5
1ED
330
1F
100
AcDbEntity
  8
0
  6
CONTINUOUS
 62
     7
100
AcDbLine
 10
602.8032972692
 20
907.6014537844
 30
0.0
 11
605.2875378384
 21
907.7316452298
 31
0.0
  0
LINE
  5
1EE
330
1F
100
AcDbEntity
  8
0
  6
CONTINUOUS
 62
     7
100
AcDbLine
 10
602.9968521772
 20
902.1171335611
 30
0.0
 11
582.4242280079
 21
901.0378499064
 31
0.0
  0
LINE
  5
1EF
330
1F
100
AcDbEntity
  8
0
  6
CONTINUOUS
 62
     7
100
AcDbLine
 10
582.4242280079
 20
906.533427957
 30
0.0
 11
582.4242280079
 21
901.0378499064
 31
0.0
  0
LINE
  5
1F0
330
1F
100
AcDbEntity
  8
0
  6
CONTINUOUS
 62
     7
100
AcDbLine
 10
582.4242280079
 20
707.1508098874
 30
0.0
 11
602.9968503146
 21
706.0715262327
 31
0.0
  0
LINE
  5
1F1
330
1F
100
AcDbEntity
  8
0
  6
CONTINUOUS
 62
     7
100
AcDbLine
 10
605.2873878954
 20
700.4570220146
 30
0.0
 11
602.8032954065
 21
700.5872060094
 31
0.0
  0
LINE
  5
1F2
330
1F
100
AcDbEntity
  8
0
  6
CONTINUOUS
 62
     7
100
AcDbLine
 10
602.8032954065
 20
700.5872060094
 30
0.0
 11
582.4242280079
 21
701.6552318368
 31
0.0
  0
LINE
  5
1F3
330
1F
100
AcDbEntity
  8
0
  6
CONTINUOUS
 62
     7
100
AcDbLine
 10
582.4242280079
 20
707.1508098874
 30
0.0
 11
582.4242280079
 21
701.6552318368
 31
0.0
  0
LINE
  5
1F4
330
1F
100
AcDbEntity
  8
0
  6
CONTINUOUS
 62
     7
100
AcDbLine
 10
582.4242280079
 20
901.0378499064
 30
0.0
 11
582.4242280079
 21
707.1508098874
 31
0.0
  0
ARC
  5
1F5
330
1F
100
AcDbEntity
  8
0
  6
CONTINUOUS
 62
     7
100
AcDbCircle
 10
602.7121656628
 20
910.6076274106
 30
0.0
 40
3.007546290721363
100
AcDbArc
 50
271.7451706742
 51
306.4913880552
  0
LINE
  5
1F6
330
1F
100
AcDbEntity
  8
0
  6
CONTINUOUS
 62
     7
100
AcDbLine
 10
605.7655642955
 20
908.2560096416
 30
0.0
 11
604.5007593213
 21
908.1897218261
 31
0.0
  0
LINE
  5
1F7
330
1F
100
AcDbEntity
  8
0
  6
CONTINUOUS
 62
     7
100
AcDbLine
 10
604.5007593213
 20
699.9989379678
 30
0.0
 11
605.7598795025
 21
699.9329481754
 31
0.0
  0
ARC
  5
1F8
330
1F
100
AcDbEntity
  8
0
  6
CONTINUOUS
 62
     7
100
AcDbCircle
 10
602.7375371101
 20
697.65425336
 30
0.0
 40
2.933683431458176
100
AcDbArc
 50
53.0565315298
 51
88.7081342047
  0
ARC
  5
1F9
330
1F
100
AcDbEntity
  8
0
  6
CONTINUOUS
 62
     7
100
AcDbCircle
 10
605.8040945796
 20
909.9852148675
 30
0.0
 40
2.218665828274293
100
AcDbArc
 50
226.5880933543
 51
234.0243771526
  0
ARC
  5
1FA
330
1F
100
AcDbEntity
  8
0
  6
CONTINUOUS
 62
     7
100
AcDbCircle
 10
602.6985596213
 20
909.5986982842
 30
0.0
 40
1.999992724031626
100
AcDbArc
 50
272.9999196264
 51
322.2223543926
  0
ARC
  5
1FB
330
1F
100
AcDbEntity
  8
0
  6
CONTINUOUS
 62
     7
100
AcDbCircle
 10
605.8040945796
 20
698.2034449263
 30
0.0
 40
2.218665828274783
100
AcDbArc
 50
125.9756228474
 51
133.4119066457
  0
ARC
  5
1FC
330
1F
100
AcDbEntity
  8
0
  6
CONTINUOUS
 62
     7
100
AcDbCircle
 10
602.6985626485
 20
698.5899583125
 30
0.0
 40
1.999992289909215
100
AcDbArc
 50
37.7777711276
 51
86.9817315819
  0
LWPOLYLINE
  5
1FD
330
1F
100
AcDbEntity
  8
0
  6
CONTINUOUS
 62
     7
100
AcDbPolyline
 90
        3
 70
   128
 43
0.0
 10
604.9722665204
 20
909.3782607946
 10
604.7907666518
 20
908.6786736283
 10
604.5007593213
 20
908.1897218261
  0
LINE
  5
1FE
330
1F
100
AcDbEntity
  8
0
  6
CONTINUOUS
 62
     7
100
AcDbLine
 10
605.7611740409
 20
917.5713737044
 30
0.0
 11
604.9722665204
 21
909.3782607946
 31
0.0
  0
LINE
  5
1FF
330
1F
100
AcDbEntity
  8
0
  6
CONTINUOUS
 62
     7
100
AcDbLine
 10
604.9722665204
 20
698.8103989992
 30
0.0
 11
605.7611740409
 21
690.6172860894
 31
0.0
  0
LWPOLYLINE
  5
200
330
1F
100
AcDbEntity
  8
0
  6
CONTINUOUS
 62
     7
100
AcDbPolyline
 90
        3
 70
   128
 43
0.0
 10
604.5007593213
 20
699.9989379678
 10
604.8481538175
 20
699.3653405938
 10
604.9722665204
 20
698.8103989992
  0
ARC
  5
201
330
1F
100
AcDbEntity
  8
0
  6
CONTINUOUS
 62
     7
100
AcDbCircle
 10
606.2335298524
 20
684.9932112227
 30
0.0
 40
13.87463380576421
100
AcDbArc
 50
95.2156306835
 51
96.3899889155
  0
LINE
  5
202
330
1F
100
AcDbEntity
  8
0
  6
CONTINUOUS
 62
     7
100
AcDbLine
 10
604.6893484174
 20
698.7816472087
 30
0.0
 11
605.7611740409
 21
687.6503158841
 31
0.0
  0
ARC
  5
203
330
1F
100
AcDbEntity
  8
0
  6
CONTINUOUS
 62
     7
100
AcDbCircle
 10
606.2335298524
 20
923.1954485711
 30
0.0
 40
13.87463380576107
100
AcDbArc
 50
263.6100110845
 51
264.7843693166
  0
LINE
  5
204
330
1F
100
AcDbEntity
  8
0
  6
CONTINUOUS
 62
     7
100
AcDbLine
 10
605.7611740409
 20
920.5383439097
 30
0.0
 11
604.6893484174
 21
909.4070125851
 31
0.0
  0
LWPOLYLINE
  5
205
330
1F
100
AcDbEntity
  8
0
  6
CONTINUOUS
 62
     7
100
AcDbPolyline
 90
        3
 70
   128
 43
0.0
 10
604.2793420358
 20
908.3735052976
 10
604.5613139151
 20
908.8706005845
 10
604.6893484174
 20
909.4070125851
  0
LWPOLYLINE
  5
206
330
1F
100
AcDbEntity
  8
0
  6
CONTINUOUS
 62
     7
100
AcDbPolyline
 90
        3
 70
   128
 43
0.0
 10
604.6893484174
 20
698.7816472087
 10
604.5613791077
 20
699.317887846
 10
604.2793420358
 20
699.8151544962
  0
LINE
  5
207
330
1F
100
AcDbEntity
  8
0
  6
CONTINUOUS
 62
     7
100
AcDbLine
 10
605.7285013823
 20
904.4397403035
 30
0.0
 11
605.7611740409
 21
904.4414092336
 31
0.0
  0
ARC
  5
208
330
1F
100
AcDbEntity
  8
0
  6
CONTINUOUS
 62
     7
100
AcDbCircle
 10
605.2611641169
 20
908.2309543543
 30
0.0
 40
0.5000099240482607
100
AcDbArc
 50
273.0014274689
 51
359.9990299051
  0
LINE
  5
209
330
1F
100
AcDbEntity
  8
0
  6
CONTINUOUS
 62
     8
100
AcDbLine
 10
607.7403267129
 20
923.3320955667
 30
0.0
 11
607.7055762736
 21
923.1288139257
 31
0.0
  0
ARC
  5
20A
330
1F
100
AcDbEntity
  8
0
  6
CONTINUOUS
 62
     8
100
AcDbCircle
 10
629.8336708499
 20
920.1532957092
 30
0.0
 40
24.0231535497615
100
AcDbArc
 50
177.3664171645
 51
183.0665905851
  0
ARC
  5
20B
330
1F
100
AcDbEntity
  8
0
  6
CONTINUOUS
 62
     8
100
AcDbCircle
 10
607.7183734423
 20
921.292408833
 30
0.0
 40
1.836449668340896
100
AcDbArc
 50
90.3992066744
 51
166.7930137537
  0
ARC
  5
20C
330
1F
100
AcDbEntity
  8
0
  6
CONTINUOUS
 62
     8
100
AcDbCircle
 10
629.8310583607
 20
688.0353640789
 30
0.0
 40
24.02054480227033
100
AcDbArc
 50
176.9330760361
 51
182.633726719
  0
ARC
  5
20D
330
1F
100
AcDbEntity
  8
0
  6
CONTINUOUS
 62
     8
100
AcDbCircle
 10
607.7183748396
 20
686.8962515362
 30
0.0
 40
1.836450253497719
100
AcDbArc
 50
193.2070004028
 51
269.600749856
  0
LINE
  5
20E
330
1F
100
AcDbEntity
  8
0
  6
CONTINUOUS
 62
     8
100
AcDbLine
 10
604.8829033254
 20
706.755444828
 30
0.0
 11
604.8829033254
 21
792.9292148459
 31
0.0
  0
LINE
  5
20F
330
1F
100
AcDbEntity
  8
0
  6
CONTINUOUS
 62
     8
100
AcDbLine
 10
604.8829033254
 20
815.2594449479
 30
0.0
 11
604.8829033254
 21
901.4332149658
 31
0.0
  0
LINE
  5
210
330
1F
100
AcDbEntity
  8
0
  6
CONTINUOUS
 62
     8
100
AcDbLine
 10
602.9967832594
 20
902.1184448633
 30
0.0
 11
602.9967832594
 21
814.2870557043
 31
0.0
  0
LINE
  5
211
330
1F
100
AcDbEntity
  8
0
  6
CONTINUOUS
 62
     8
100
AcDbLine
 10
602.9967832594
 20
793.9016040895
 30
0.0
 11
602.9967832594
 21
706.0715262327
 31
0.0
  0
ARC
  5
212
330
1F
100
AcDbEntity
  8
0
  6
CONTINUOUS
 62
     8
100
AcDbCircle
 10
605.2024523293
 20
907.4686821212
 30
0.0
 40
5.787055793970382
100
AcDbArc
 50
247.5957856308
 51
263.1263086365
  0
LINE
  5
213
330
1F
100
AcDbEntity
  8
0
  6
CONTINUOUS
 62
     8
100
AcDbLine
 10
605.7283952115
 20
902.942307714
 30
0.0
 11
605.7611740409
 21
902.943976644
 31
0.0
  0
LWPOLYLINE
  5
214
330
1F
100
AcDbEntity
  8
0
  6
CONTINUOUS
 62
     7
100
AcDbPolyline
 90
        3
 70
   128
 43
0.0
 10
732.4463733544
 20
1046.1274741332
 10
732.0771523823
 20
1046.0796069468
 10
731.7383446803
 20
1045.9920616935
  0
LWPOLYLINE
  5
215
330
1F
100
AcDbEntity
  8
0
  6
CONTINUOUS
 62
     7
100
AcDbPolyline
 90
        3
 70
   128
 43
0.0
 10
963.7924515714
 20
1046.0580179582
 10
963.5486089697
 20
1046.1022958274
 10
963.3587532749
 20
1046.1231723542
  0
LINE
  5
216
330
1F
100
AcDbEntity
  8
0
  6
CONTINUOUS
 62
     7
100
AcDbLine
 10
730.346412312
 20
1044.5499580468
 30
0.0
 11
730.315306138
 21
1044.2238209883
 31
0.0
  0
LINE
  5
217
330
1F
100
AcDbEntity
  8
0
  6
CONTINUOUS
 62
     7
100
AcDbLine
 10
965.4287778845
 20
1044.219584402
 30
0.0
 11
965.386577796
 21
1044.5499580468
 31
0.0
  0
LWPOLYLINE
  5
218
330
1F
100
AcDbEntity
  8
0
  6
CONTINUOUS
 62
     7
100
AcDbPolyline
 90
        3
 70
   128
 43
0.0
 10
749.9454104414
 20
1047.7334430556
 10
749.964461576
 20
1047.6394856463
 10
749.969595026
 20
1047.5009067098
  0
LWPOLYLINE
  5
219
330
1F
100
AcDbEntity
  8
0
  6
CONTINUOUS
 62
     7
100
AcDbPolyline
 90
        3
 70
   128
 43
0.0
 10
945.763395082
 20
1047.5009067098
 10
945.765525948
 20
1047.5649323429
 10
945.7758748045
 20
1047.6380476842
  0
LWPOLYLINE
  5
21A
330
1F
100
AcDbEntity
  8
0
  6
CONTINUOUS
 62
     7
100
AcDbPolyline
 90
        8
 70
   128
 43
0.0
 10
951.0574274769
 20
1046.2073750908
 10
951.4315807333
 20
1046.2073862667
 10
951.9505136718
 20
1046.2074402834
 10
952.0394139995
 20
1046.2107129509
 10
952.0039790382
 20
1046.2460268403
 10
951.8791371097
 20
1046.3822290416
 10
951.8196516742
 20
1046.5113019685
 10
951.7956161012
 20
1046.6721749048
  0
LWPOLYLINE
  5
21B
330
1F
100
AcDbEntity
  8
0
  6
CONTINUOUS
 62
     7
100
AcDbPolyline
 90
        9
 70
   128
 43
0.0
 10
743.9555459728
 20
1046.6710470731
 10
743.9460986366
 20
1046.5958828221
 10
743.9277329554
 20
1046.5256983529
 10
743.9026170482
 20
1046.4628256972
 10
743.8737460484
 20
1046.4085985089
 10
743.8173079004
 20
1046.327339683
 10
743.7794738521
 20
1046.2779469902
 10
743.8130461683
 20
1046.2391983832
 10
743.9260789265
 20
1046.2260015423
  0
LWPOLYLINE
  5
21C
330
1F
100
AcDbEntity
  8
0
  6
CONTINUOUS
 62
     7
100
AcDbPolyline
 90
        3
 70
   128
 43
0.0
 10
743.5445495953
 20
1046.1996507014
 10
743.6308943739
 20
1046.2074663604
 10
743.7189080825
 20
1046.2322637553
  0
LWPOLYLINE
  5
21D
330
1F
100
AcDbEntity
  8
0
  6
CONTINUOUS
 62
     7
100
AcDbPolyline
 90
        3
 70
   128
 43
0.0
 10
743.8413062205
 20
1046.415747341
 10
743.7646173944
 20
1046.3052813078
 10
743.718915533
 20
1046.2322637553
  0
LWPOLYLINE
  5
21E
330
1F
100
AcDbEntity
  8
0
  6
CONTINUOUS
 62
     7
100
AcDbPolyline
 90
        3
 70
   128
 43
0.0
 10
743.8108184447
 20
1046.2417688335
 10
743.7189080825
 20
1046.2322637553
 10
743.5182266941
 20
1046.2075483168
  0
LINE
  5
21F
330
1F
100
AcDbEntity
  8
0
  6
CONTINUOUS
 62
     7
100
AcDbLine
 10
734.93969525
 20
1027.9365975524
 30
0.0
 11
735.792846333
 21
1044.2156495641
 31
0.0
  0
LINE
  5
220
330
1F
100
AcDbEntity
  8
0
  6
CONTINUOUS
 62
     7
100
AcDbLine
 10
735.792846333
 20
1044.2156495641
 30
0.0
 11
959.940143775
 21
1044.2156495641
 31
0.0
  0
LINE
  5
221
330
1F
100
AcDbEntity
  8
0
  6
CONTINUOUS
 62
     7
100
AcDbLine
 10
960.7932948579
 20
1027.9365975524
 30
0.0
 11
959.940143775
 21
1044.2156495641
 31
0.0
  0
LINE
  5
222
330
1F
100
AcDbEntity
  8
0
  6
CONTINUOUS
 62
     7
100
AcDbLine
 10
960.7932948579
 20
1027.9365975524
 30
0.0
 11
734.93969525
 21
1027.9365975524
 31
0.0
  0
LINE
  5
223
330
1F
100
AcDbEntity
  8
0
  6
CONTINUOUS
 62
     7
100
AcDbLine
 10
730.3003826251
 20
1044.2156495641
 30
0.0
 11
730.5320062747
 21
1044.255246606
 31
0.0
  0
ARC
  5
224
330
1F
100
AcDbEntity
  8
0
  6
CONTINUOUS
 62
     7
100
AcDbCircle
 10
732.3770382514
 20
1011.5126792537
 30
0.0
 40
32.79450959866364
100
AcDbArc
 50
86.7748140265
 51
93.2251859735
  0
LINE
  5
225
330
1F
100
AcDbEntity
  8
0
  6
CONTINUOUS
 62
     7
100
AcDbLine
 10
734.2220702281
 20
1044.2552484686
 30
0.0
 11
735.792846333
 21
1044.2156514267
 31
0.0
  0
LINE
  5
226
330
1F
100
AcDbEntity
  8
0
  6
CONTINUOUS
 62
     7
100
AcDbLine
 10
734.93969525
 20
1027.9365975524
 30
0.0
 11
729.4472315421
 21
1027.9365975524
 31
0.0
  0
LINE
  5
227
330
1F
100
AcDbEntity
  8
0
  6
CONTINUOUS
 62
     7
100
AcDbLine
 10
730.3003826251
 20
1044.2156495641
 30
0.0
 11
729.4472315421
 21
1027.9365975524
 31
0.0
  0
LINE
  5
228
330
1F
100
AcDbEntity
  8
0
  6
CONTINUOUS
 62
     7
100
AcDbLine
 10
960.7932948579
 20
1027.9365975524
 30
0.0
 11
966.2857585659
 21
1027.9365975524
 31
0.0
  0
LINE
  5
229
330
1F
100
AcDbEntity
  8
0
  6
CONTINUOUS
 62
     7
100
AcDbLine
 10
961.5109198799
 20
1044.255246606
 30
0.0
 11
959.940143775
 21
1044.2156495641
 31
0.0
  0
ARC
  5
22A
330
1F
100
AcDbEntity
  8
0
  6
CONTINUOUS
 62
     7
100
AcDbCircle
 10
963.3559518566
 20
1008.9050236553
 30
0.0
 40
35.39833902404678
100
AcDbArc
 50
87.0122759493
 51
92.9877240507
  0
LINE
  5
22B
330
1F
100
AcDbEntity
  8
0
  6
CONTINUOUS
 62
     7
100
AcDbLine
 10
965.4326074829
 20
1044.2156514267
 30
0.0
 11
965.4042654743
 21
1044.2204980294
 31
0.0
  0
LINE
  5
22C
330
1F
100
AcDbEntity
  8
0
  6
CONTINUOUS
 62
     7
100
AcDbLine
 10
965.4326074829
 20
1044.2156495641
 30
0.0
 11
966.2857585659
 21
1027.9365975524
 31
0.0
  0
LINE
  5
22D
330
1F
100
AcDbEntity
  8
0
  6
CONTINUOUS
 62
     7
100
AcDbLine
 10
735.792846333
 20
1046.1017696301
 30
0.0
 11
735.792846333
 21
1044.2156495641
 31
0.0
  0
LINE
  5
22E
330
1F
100
AcDbEntity
  8
0
  6
CONTINUOUS
 62
     7
100
AcDbLine
 10
735.792846333
 20
1046.1017696301
 30
0.0
 11
959.940143775
 21
1046.1017696301
 31
0.0
  0
LINE
  5
22F
330
1F
100
AcDbEntity
  8
0
  6
CONTINUOUS
 62
     7
100
AcDbLine
 10
959.940143775
 20
1046.1017696301
 30
0.0
 11
959.940143775
 21
1044.2156495641
 31
0.0
  0
ARC
  5
230
330
1F
100
AcDbEntity
  8
0
  6
CONTINUOUS
 62
     7
100
AcDbCircle
 10
736.5445690875
 20
1044.5608298757
 30
0.0
 40
2.342516187089088
100
AcDbArc
 50
138.4058786178
 51
187.4956470171
  0
LWPOLYLINE
  5
231
330
1F
100
AcDbEntity
  8
0
  6
CONTINUOUS
 62
     7
100
AcDbPolyline
 90
        3
 70
   128
 43
0.0
 10
735.792846333
 20
1046.1017696301
 10
735.2271908035
 20
1046.1062232147
 10
734.7926803937
 20
1046.1159071068
  0
LWPOLYLINE
  5
232
330
1F
100
AcDbEntity
  8
0
  6
CONTINUOUS
 62
     7
100
AcDbPolyline
 90
        3
 70
   128
 43
0.0
 10
959.940143775
 20
1046.1017696301
 10
960.505806755
 20
1046.1062232147
 10
960.9403097143
 20
1046.1159071068
  0
ARC
  5
233
330
1F
100
AcDbEntity
  8
0
  6
CONTINUOUS
 62
     7
100
AcDbCircle
 10
959.080036396
 20
1044.5275907025
 30
0.0
 40
2.446091948187121
100
AcDbArc
 50
353.6075226629
 51
40.4909677799
  0
LINE
  5
234
330
1F
100
AcDbEntity
  8
0
  6
CONTINUOUS
 62
     7
100
AcDbLine
 10
731.7689367642
 20
1045.9796704466
 30
0.0
 11
732.2527700176
 21
1046.1159071068
 31
0.0
  0
LINE
  5
235
330
1F
100
AcDbEntity
  8
0
  6
CONTINUOUS
 62
     7
100
AcDbLine
 10
732.2527700176
 20
1046.1159071068
 30
0.0
 11
732.4645304193
 21
1046.128559124
 31
0.0
  0
LINE
  5
236
330
1F
100
AcDbEntity
  8
0
  6
CONTINUOUS
 62
     7
100
AcDbLine
 10
963.4802275409
 20
1046.1159071068
 30
0.0
 11
963.329278778
 21
1046.1249353478
 31
0.0
  0
LINE
  5
237
330
1F
100
AcDbEntity
  8
0
  6
CONTINUOUS
 62
     7
100
AcDbLine
 10
963.7841516246
 20
1046.0303288067
 30
0.0
 11
963.4802275409
 21
1046.1159071068
 31
0.0
  0
LINE
  5
238
330
1F
100
AcDbEntity
  8
0
  6
CONTINUOUS
 62
     7
100
AcDbLine
 10
735.6623941173
 20
1046.1996507014
 30
0.0
 11
733.1224837413
 21
1046.1996507014
 31
0.0
  0
LINE
  5
239
330
1F
100
AcDbEntity
  8
0
  6
CONTINUOUS
 62
     7
100
AcDbLine
 10
734.7926803937
 20
1046.1159071068
 30
0.0
 11
735.6623941173
 21
1046.1996507014
 31
0.0
  0
LINE
  5
23A
330
1F
100
AcDbEntity
  8
0
  6
CONTINUOUS
 62
     7
100
AcDbLine
 10
733.1224837413
 20
1046.1996507014
 30
0.0
 11
732.2527700176
 21
1046.1159071068
 31
0.0
  0
LINE
  5
23B
330
1F
100
AcDbEntity
  8
0
  6
CONTINUOUS
 62
     7
100
AcDbLine
 10
960.9403097143
 20
1046.1159071068
 30
0.0
 11
960.07058854
 21
1046.1996507014
 31
0.0
  0
LINE
  5
23C
330
1F
100
AcDbEntity
  8
0
  6
CONTINUOUS
 62
     7
100
AcDbLine
 10
960.07058854
 20
1046.1996507014
 30
0.0
 11
962.6105063667
 21
1046.1996507014
 31
0.0
  0
LINE
  5
23D
330
1F
100
AcDbEntity
  8
0
  6
CONTINUOUS
 62
     7
100
AcDbLine
 10
962.6105063667
 20
1046.1996507014
 30
0.0
 11
963.4802275409
 21
1046.1159071068
 31
0.0
  0
LINE
  5
23E
330
1F
100
AcDbEntity
  8
0
  6
CONTINUOUS
 62
     7
100
AcDbLine
 10
735.6623941173
 20
1046.1996507014
 30
0.0
 11
750.1815863957
 21
1046.1996507014
 31
0.0
  0
LINE
  5
23F
330
1F
100
AcDbEntity
  8
0
  6
CONTINUOUS
 62
     7
100
AcDbLine
 10
750.2377563228
 20
1047.2714763249
 30
0.0
 11
750.1815863957
 21
1046.1996507014
 31
0.0
  0
LINE
  5
240
330
1F
100
AcDbEntity
  8
0
  6
CONTINUOUS
 62
     7
100
AcDbLine
 10
945.4952337851
 20
1047.2714763249
 30
0.0
 11
750.2377563228
 21
1047.2714763249
 31
0.0
  0
LINE
  5
241
330
1F
100
AcDbEntity
  8
0
  6
CONTINUOUS
 62
     7
100
AcDbLine
 10
945.4952337851
 20
1047.2714763249
 30
0.0
 11
945.5514037122
 21
1046.1996507014
 31
0.0
  0
LINE
  5
242
330
1F
100
AcDbEntity
  8
0
  6
CONTINUOUS
 62
     7
100
AcDbLine
 10
960.07058854
 20
1046.1996507014
 30
0.0
 11
945.5514037122
 21
1046.1996507014
 31
0.0
  0
LINE
  5
243
330
1F
100
AcDbEntity
  8
0
  6
CONTINUOUS
 62
     7
100
AcDbLine
 10
749.938168477
 20
1046.9885572905
 30
0.0
 11
749.8968177547
 21
1046.1996507014
 31
0.0
  0
ARC
  5
244
330
1F
100
AcDbEntity
  8
0
  6
CONTINUOUS
 62
     7
100
AcDbCircle
 10
750.2369480849
 20
1046.9722532959
 30
0.0
 40
0.299224120572523
100
AcDbArc
 50
89.8452374848
 51
176.8765454768
  0
ARC
  5
245
330
1F
100
AcDbEntity
  8
0
  6
CONTINUOUS
 62
     7
100
AcDbCircle
 10
945.4960419722
 20
1046.9722531884
 30
0.0
 40
0.299224227913057
100
AcDbArc
 50
3.1236526083
 51
90.15475273
  0
LINE
  5
246
330
1F
100
AcDbEntity
  8
0
  6
CONTINUOUS
 62
     7
100
AcDbLine
 10
945.7948216309
 20
1046.9885582219
 30
0.0
 11
945.8361649027
 21
1046.1996507014
 31
0.0
  0
ARC
  5
247
330
1F
100
AcDbEntity
  8
0
  6
CONTINUOUS
 62
     7
100
AcDbCircle
 10
732.2976406177
 20
1044.1109775037
 30
0.0
 40
2.000000000000054
100
AcDbArc
 50
95.5
 51
177.0
  0
LWPOLYLINE
  5
248
330
1F
100
AcDbEntity
  8
0
  6
CONTINUOUS
 62
     7
100
AcDbPolyline
 90
        3
 70
   128
 43
0.0
 10
732.2527700176
 20
1046.1159071068
 10
732.1345144024
 20
1046.104520757
 10
732.1059488764
 20
1046.1017696301
  0
LWPOLYLINE
  5
249
330
1F
100
AcDbEntity
  8
0
  6
CONTINUOUS
 62
     7
100
AcDbPolyline
 90
        3
 70
   128
 43
0.0
 10
963.4802275409
 20
1046.1159071068
 10
963.5984831562
 20
1046.104520757
 10
963.627033781
 20
1046.1017696301
  0
ARC
  5
24A
330
1F
100
AcDbEntity
  8
0
  6
CONTINUOUS
 62
     7
100
AcDbCircle
 10
963.435349073
 20
1044.1109775037
 30
0.0
 40
2.000000000000065
100
AcDbArc
 50
3.0
 51
84.5
  0
ARC
  5
24B
330
1F
100
AcDbEntity
  8
0
  6
CONTINUOUS
 62
     7
100
AcDbCircle
 10
750.2297897216
 20
1047.4123036586
 30
0.0
 40
0.2711546917392166
100
AcDbArc
 50
83.0793410756
 51
169.8548707015
  0
LWPOLYLINE
  5
24C
330
1F
100
AcDbEntity
  8
0
  6
CONTINUOUS
 62
     7
100
AcDbPolyline
 90
        3
 70
   128
 43
0.0
 10
750.2377563228
 20
1047.2714763249
 10
750.2455570807
 20
1047.3995098959
 10
750.2624624481
 20
1047.6814827065
  0
LWPOLYLINE
  5
24D
330
1F
100
AcDbEntity
  8
0
  6
CONTINUOUS
 62
     7
100
AcDbPolyline
 90
        3
 70
   128
 43
0.0
 10
749.9628746023
 20
1047.460065421
 10
749.9446728339
 20
1047.1126709248
 10
749.938168477
 20
1046.9885582219
  0
LWPOLYLINE
  5
24E
330
1F
100
AcDbEntity
  8
0
  6
CONTINUOUS
 62
     7
100
AcDbPolyline
 90
        3
 70
   128
 43
0.0
 10
945.4952337851
 20
1047.2714763249
 10
945.4874404778
 20
1047.3994456346
 10
945.4705276599
 20
1047.6814827065
  0
ARC
  5
24F
330
1F
100
AcDbEntity
  8
0
  6
CONTINUOUS
 62
     7
100
AcDbCircle
 10
945.5032012466
 20
1047.4123048225
 30
0.0
 40
0.2711536399883852
100
AcDbArc
 50
10.1449192271
 51
96.9208689958
  0
LWPOLYLINE
  5
250
330
1F
100
AcDbEntity
  8
0
  6
CONTINUOUS
 62
     7
100
AcDbPolyline
 90
        3
 70
   128
 43
0.0
 10
945.7701155057
 20
1047.460065421
 10
945.7883172741
 20
1047.1126709248
 10
945.7948216309
 20
1046.9885582219
  0
ARC
  5
251
330
1F
100
AcDbEntity
  8
0
  6
CONTINUOUS
 62
     7
100
AcDbCircle
 10
746.8868949994
 20
1046.9664152139
 30
0.0
 40
3.450474912163035
100
AcDbArc
 50
11.9605064946
 51
39.3991112668
  0
LINE
  5
252
330
1F
100
AcDbEntity
  8
0
  6
CONTINUOUS
 62
     7
100
AcDbLine
 10
749.5549553146
 20
1049.157596391
 30
0.0
 11
946.1791523804
 21
1049.157596391
 31
0.0
  0
ARC
  5
253
330
1F
100
AcDbEntity
  8
0
  6
CONTINUOUS
 62
     7
100
AcDbCircle
 10
948.8472354481
 20
1046.9660219846
 30
0.0
 40
3.451671990738246
100
AcDbArc
 50
140.5989203423
 51
168.0370306228
  0
LINE
  5
254
330
1F
100
AcDbEntity
  8
0
  6
CONTINUOUS
 62
     7
100
AcDbLine
 10
749.9628746023
 20
1047.460065421
 30
0.0
 11
749.933638524
 21
1047.8164313475
 31
0.0
  0
LINE
  5
255
330
1F
100
AcDbEntity
  8
0
  6
CONTINUOUS
 62
     7
100
AcDbLine
 10
945.7701155057
 20
1047.460065421
 30
0.0
 11
945.7852327337
 21
1047.6445259641
 31
0.0
  0
ARC
  5
256
330
1F
100
AcDbEntity
  8
0
  6
CONTINUOUS
 62
     7
100
AcDbCircle
 10
941.0173222403
 20
1051.4933059791
 30
0.0
 40
7.158909910967374
100
AcDbArc
 50
312.3154227334
 51
317.6844647347
  0
LINE
  5
257
330
1F
100
AcDbEntity
  8
0
  6
CONTINUOUS
 62
     7
100
AcDbLine
 10
946.3104539623
 20
1046.6734368468
 30
0.0
 11
946.1791523804
 21
1049.1575293357
 31
0.0
  0
LINE
  5
258
330
1F
100
AcDbEntity
  8
0
  6
CONTINUOUS
 62
     7
100
AcDbLine
 10
946.3113331308
 20
1046.673483413
 30
0.0
 11
946.3113331308
 21
1046.1996507014
 31
0.0
  0
LINE
  5
259
330
1F
100
AcDbEntity
  8
0
  6
CONTINUOUS
 62
     7
100
AcDbLine
 10
749.4216569771
 20
1046.673483413
 30
0.0
 11
749.4216569771
 21
1046.1996507014
 31
0.0
  0
ARC
  5
25A
330
1F
100
AcDbEntity
  8
0
  6
CONTINUOUS
 62
     7
100
AcDbCircle
 10
753.9529354314
 20
1050.7305720448
 30
0.0
 40
6.081635910749669
100
AcDbArc
 50
221.8395646809
 51
228.160547851
  0
LINE
  5
25B
330
1F
100
AcDbEntity
  8
0
  6
CONTINUOUS
 62
     7
100
AcDbLine
 10
749.4225361457
 20
1046.6734368468
 30
0.0
 11
749.5538451781
 21
1049.1576550643
 31
0.0
  0
ARC
  5
25C
330
1F
100
AcDbEntity
  8
0
  6
CONTINUOUS
 62
     7
100
AcDbCircle
 10
952.3031116087
 20
1046.699650666
 30
0.0
 40
0.4999999646278758
100
AcDbArc
 50
182.9999170036
 51
270.0009442901
  0
LWPOLYLINE
  5
25D
330
1F
100
AcDbEntity
  8
0
  6
CONTINUOUS
 62
     7
100
AcDbPolyline
 90
        5
 70
   128
 43
0.0
 10
946.3113331308
 20
1046.673483413
 10
948.4146767368
 20
1046.669640776
 10
950.1959168424
 20
1046.6698913018
 10
951.3856255521
 20
1046.6696035231
 10
951.8037968387
 20
1046.673483413
  0
ARC
  5
25E
330
1F
100
AcDbEntity
  8
0
  6
CONTINUOUS
 62
     7
100
AcDbCircle
 10
743.4298753972
 20
1046.6996539349
 30
0.0
 40
0.5000032335123542
100
AcDbArc
 50
270.0002649503
 51
356.9997275216
  0
ARC
  5
25F
330
1F
100
AcDbEntity
  8
0
  6
CONTINUOUS
 62
     7
100
AcDbCircle
 10
746.6754251232
 20
1356.9829222024
 30
0.0
 40
310.3215905979055
100
AcDbArc
 50
269.4929468221
 51
270.5070531779
  0
LINE
  5
260
330
1F
100
AcDbEntity
  8
0
  6
CONTINUOUS
 62
     7
100
AcDbLine
 10
950.6055944671
 20
1069.5365967343
 30
0.0
 11
951.6837530842
 21
1048.9639744277
 31
0.0
  0
LINE
  5
261
330
1F
100
AcDbEntity
  8
0
  6
CONTINUOUS
 62
     7
100
AcDbLine
 10
951.6837530842
 20
1048.9640321697
 30
0.0
 11
951.8037968387
 21
1046.6734368468
 31
0.0
  0
LINE
  5
262
330
1F
100
AcDbEntity
  8
0
  6
CONTINUOUS
 62
     7
100
AcDbLine
 10
946.1791523804
 20
1049.1575293357
 30
0.0
 11
945.1100164165
 21
1069.5365967343
 31
0.0
  0
LINE
  5
263
330
1F
100
AcDbEntity
  8
0
  6
CONTINUOUS
 62
     7
100
AcDbLine
 10
950.6055944671
 20
1069.5365967343
 30
0.0
 11
945.1100164165
 21
1069.5365967343
 31
0.0
  0
LINE
  5
264
330
1F
100
AcDbEntity
  8
0
  6
CONTINUOUS
 62
     7
100
AcDbLine
 10
749.5549553146
 20
1049.157596391
 30
0.0
 11
750.6229736914
 21
1069.5365967343
 31
0.0
  0
LINE
  5
265
330
1F
100
AcDbEntity
  8
0
  6
CONTINUOUS
 62
     7
100
AcDbLine
 10
744.0492370238
 20
1048.9641578982
 30
0.0
 11
743.9291858186
 21
1046.6734368468
 31
0.0
  0
LINE
  5
266
330
1F
100
AcDbEntity
  8
0
  6
CONTINUOUS
 62
     7
100
AcDbLine
 10
745.1273956408
 20
1069.5365967343
 30
0.0
 11
744.0492370238
 21
1048.9640414829
 31
0.0
  0
LINE
  5
267
330
1F
100
AcDbEntity
  8
0
  6
CONTINUOUS
 62
     7
100
AcDbLine
 10
745.1273956408
 20
1069.5365967343
 30
0.0
 11
750.6229736914
 21
1069.5365967343
 31
0.0
  0
LINE
  5
268
330
1F
100
AcDbEntity
  8
0
  6
CONTINUOUS
 62
     7
100
AcDbLine
 10
945.1100164165
 20
1069.5365967343
 30
0.0
 11
750.6229736914
 21
1069.5365967343
 31
0.0
  0
ARC
  5
269
330
1F
100
AcDbEntity
  8
0
  6
CONTINUOUS
 62
     7
100
AcDbCircle
 10
954.6899091049
 20
1049.0551061016
 30
0.0
 40
3.007521305208548
100
AcDbArc
 50
181.745221966
 51
216.4917859024
  0
LINE
  5
26A
330
1F
100
AcDbEntity
  8
0
  6
CONTINUOUS
 62
     7
100
AcDbLine
 10
952.3278706779
 20
1046.2009452398
 30
0.0
 11
952.2720360269
 21
1047.2665105129
 31
0.0
  0
ARC
  5
26B
330
1F
100
AcDbEntity
  8
0
  6
CONTINUOUS
 62
     7
100
AcDbCircle
 10
741.0989738888
 20
1049.0357141805
 30
0.0
 40
2.951106918726674
100
AcDbArc
 50
323.1655382742
 51
358.5940118746
  0
LINE
  5
26C
330
1F
100
AcDbEntity
  8
0
  6
CONTINUOUS
 62
     7
100
AcDbLine
 10
743.4051119795
 20
1046.2009452398
 30
0.0
 11
743.460954081
 21
1047.2665105129
 31
0.0
  0
ARC
  5
26D
330
1F
100
AcDbEntity
  8
0
  6
CONTINUOUS
 62
     7
100
AcDbCircle
 10
741.6661048919
 20
1045.9637638845
 30
0.0
 40
2.217798996654672
100
AcDbArc
 50
35.9730876165
 51
43.4121587986
  0
ARC
  5
26E
330
1F
100
AcDbEntity
  8
0
  6
CONTINUOUS
 62
     7
100
AcDbCircle
 10
742.0519745595
 20
1049.0687135354
 30
0.0
 40
2.00000179097595
100
AcDbArc
 50
307.7778253675
 51
356.9684187005
  0
ARC
  5
26F
330
1F
100
AcDbEntity
  8
0
  6
CONTINUOUS
 62
     7
100
AcDbCircle
 10
954.0665654337
 20
1045.9640238249
 30
0.0
 40
2.217388055866797
100
AcDbArc
 50
136.5870417441
 51
144.0274749673
  0
ARC
  5
270
330
1F
100
AcDbEntity
  8
0
  6
CONTINUOUS
 62
     7
100
AcDbCircle
 10
953.6810456034
 20
1049.0687367589
 30
0.0
 40
2.00003855838565
100
AcDbArc
 50
183.0190201842
 51
232.2219016682
  0
LWPOLYLINE
  5
271
330
1F
100
AcDbEntity
  8
0
  6
CONTINUOUS
 62
     7
100
AcDbPolyline
 90
        3
 70
   128
 43
0.0
 10
953.4605675449
 20
1046.7950033138
 10
952.7609878292
 20
1046.9765059764
 10
952.2720360269
 20
1047.2665105129
  0
LINE
  5
272
330
1F
100
AcDbEntity
  8
0
  6
CONTINUOUS
 62
     7
100
AcDbLine
 10
959.6435361614
 20
1046.1996507014
 30
0.0
 11
953.4605675449
 21
1046.7950023825
 31
0.0
  0
LINE
  5
273
330
1F
100
AcDbEntity
  8
0
  6
CONTINUOUS
 62
     7
100
AcDbLine
 10
736.0894539466
 20
1046.1996507014
 30
0.0
 11
742.272422563
 21
1046.7950033138
 31
0.0
  0
LWPOLYLINE
  5
274
330
1F
100
AcDbEntity
  8
0
  6
CONTINUOUS
 62
     7
100
AcDbPolyline
 90
        3
 70
   128
 43
0.0
 10
742.272422563
 20
1046.7950033138
 10
742.9720097294
 20
1046.9765031825
 10
743.460954081
 20
1047.2665105129
  0
ARC
  5
275
330
1F
100
AcDbEntity
  8
0
  6
CONTINUOUS
 62
     7
100
AcDbCircle
 10
728.3976538243
 20
1045.5275236366
 30
0.0
 40
13.93254148695359
100
AcDbArc
 50
5.2195631484
 51
6.3890433358
  0
LINE
  5
276
330
1F
100
AcDbEntity
  8
0
  6
CONTINUOUS
 62
     7
100
AcDbLine
 10
733.1224837413
 20
1046.1996507014
 30
0.0
 11
742.2436633219
 21
1047.0779214169
 31
0.0
  0
ARC
  5
277
330
1F
100
AcDbEntity
  8
0
  6
CONTINUOUS
 62
     7
100
AcDbCircle
 10
967.1596737123
 20
1045.5453842329
 30
0.0
 40
13.75598252782495
100
AcDbArc
 50
173.6034682669
 51
174.7879632016
  0
LINE
  5
278
330
1F
100
AcDbEntity
  8
0
  6
CONTINUOUS
 62
     7
100
AcDbLine
 10
962.6105063667
 20
1046.1996507014
 30
0.0
 11
953.489326786
 21
1047.0779214169
 31
0.0
  0
LWPOLYLINE
  5
279
330
1F
100
AcDbEntity
  8
0
  6
CONTINUOUS
 62
     7
100
AcDbPolyline
 90
        3
 70
   128
 43
0.0
 10
743.27717806
 20
1047.4879277984
 10
742.7799114098
 20
1047.2058916579
 10
742.2436633219
 20
1047.0779214169
  0
LWPOLYLINE
  5
27A
330
1F
100
AcDbEntity
  8
0
  6
CONTINUOUS
 62
     7
100
AcDbPolyline
 90
        3
 70
   128
 43
0.0
 10
952.4558120479
 20
1047.4879277984
 10
952.9529147854
 20
1047.2059559191
 10
953.489326786
 20
1047.0779214169
  0
LINE
  5
27B
330
1F
100
AcDbEntity
  8
0
  6
CONTINUOUS
 62
     7
100
AcDbLine
 10
733.8160433879
 20
1047.3762147243
 30
0.0
 11
733.9795463791
 21
1046.2821770574
 31
0.0
  0
LINE
  5
27C
330
1F
100
AcDbEntity
  8
0
  6
CONTINUOUS
 62
     7
100
AcDbLine
 10
730.4490291586
 20
1047.0520073662
 30
0.0
 11
733.8160433879
 21
1047.3762147243
 31
0.0
  0
LINE
  5
27D
330
1F
100
AcDbEntity
  8
0
  6
CONTINUOUS
 62
     7
100
AcDbLine
 10
730.3003826251
 20
1044.2156495641
 30
0.0
 11
730.4490291586
 21
1047.0520073662
 31
0.0
  0
LINE
  5
27E
330
1F
100
AcDbEntity
  8
0
  6
CONTINUOUS
 62
     7
100
AcDbLine
 10
961.9169467201
 20
1047.3762147243
 30
0.0
 11
961.7534362783
 21
1046.2821770574
 31
0.0
  0
LINE
  5
27F
330
1F
100
AcDbEntity
  8
0
  6
CONTINUOUS
 62
     7
100
AcDbLine
 10
965.2839534988
 20
1047.0520073662
 30
0.0
 11
961.9169467201
 21
1047.3762147243
 31
0.0
  0
LINE
  5
280
330
1F
100
AcDbEntity
  8
0
  6
CONTINUOUS
 62
     7
100
AcDbLine
 10
965.4326074829
 20
1044.2156495641
 30
0.0
 11
965.2839534988
 21
1047.0520073662
 31
0.0
  0
LINE
  5
281
330
1F
100
AcDbEntity
  8
0
  6
CONTINUOUS
 62
     7
100
AcDbLine
 10
965.183668684
 20
1048.9657588417
 30
0.0
 11
962.1974759807
 21
1049.2532963048
 31
0.0
  0
LWPOLYLINE
  5
282
330
1F
100
AcDbEntity
  8
0
  6
CONTINUOUS
 62
     7
100
AcDbPolyline
 90
        9
 70
   128
 43
0.0
 10
961.9169467201
 20
1047.3762147243
 10
961.9724386444
 20
1047.747542348
 10
962.0253824701
 20
1048.1018090735
 10
962.0738857498
 20
1048.4262911717
 10
962.1161752453
 20
1048.7093331407
 10
962.1507757415
 20
1048.9407686631
 10
962.1764057388
 20
1049.1122866164
 10
962.1921562662
 20
1049.217724439
 10
962.1974759807
 20
1049.2532963048
  0
LWPOLYLINE
  5
283
330
1F
100
AcDbEntity
  8
0
  6
CONTINUOUS
 62
     7
100
AcDbPolyline
 90
        9
 70
   128
 43
0.0
 10
965.183668684
 20
1048.9657588417
 10
965.1855611314
 20
1048.9294922094
 10
965.1911937704
 20
1048.8219943012
 10
965.2003579845
 20
1048.6471263806
 10
965.2127259483
 20
1048.4111692871
 10
965.2278506269
 20
1048.122598056
 10
965.2451955785
 20
1047.7917773763
 10
965.2641200533
 20
1047.4305890615
 10
965.2839534988
 20
1047.0520073662
  0
LINE
  5
284
330
1F
100
AcDbEntity
  8
0
  6
CONTINUOUS
 62
     7
100
AcDbLine
 10
730.549321424
 20
1048.9657588417
 30
0.0
 11
733.5355141272
 21
1049.2532963048
 31
0.0
  0
LWPOLYLINE
  5
285
330
1F
100
AcDbEntity
  8
0
  6
CONTINUOUS
 62
     7
100
AcDbPolyline
 90
        9
 70
   128
 43
0.0
 10
733.8160433879
 20
1047.3762147243
 10
733.7605514636
 20
1047.747542348
 10
733.7076001873
 20
1048.1018090735
 10
733.6591118087
 20
1048.4262911717
 10
733.6168074121
 20
1048.7093331407
 10
733.582221817
 20
1048.9407686631
 10
733.5565843692
 20
1049.1122866164
 10
733.5408263912
 20
1049.217724439
 10
733.5355141272
 20
1049.2532963048
  0
LWPOLYLINE
  5
286
330
1F
100
AcDbEntity
  8
0
  6
CONTINUOUS
 62
     7
100
AcDbPolyline
 90
        9
 70
   128
 43
0.0
 10
730.549321424
 20
1048.9657588417
 10
730.5474215259
 20
1048.9294922094
 10
730.541788887
 20
1048.8219943012
 10
730.5326246729
 20
1048.6471263806
 10
730.5202567091
 20
1048.4111692871
 10
730.505139481
 20
1048.122598056
 10
730.48780198
 20
1047.7917773763
 10
730.4688700547
 20
1047.4305890615
 10
730.4490291586
 20
1047.0520073662
  0
LINE
  5
287
330
1F
100
AcDbEntity
  8
0
  6
CONTINUOUS
 62
     8
100
AcDbLine
 10
965.4042654743
 20
1044.2204980294
 30
0.0
 11
965.2009838333
 21
1044.2552484686
 31
0.0
  0
ARC
  5
288
330
1F
100
AcDbEntity
  8
0
  6
CONTINUOUS
 62
     8
100
AcDbCircle
 10
732.3388621681
 20
1044.2650250397
 30
0.0
 40
1.806882352973181
100
AcDbArc
 50
108.3861229529
 51
180.3100731581
  0
ARC
  5
289
330
1F
100
AcDbEntity
  8
0
  6
CONTINUOUS
 62
     8
100
AcDbCircle
 10
733.496506261
 20
1021.8141233573
 30
0.0
 40
24.33632595092989
100
AcDbArc
 50
86.9469317585
 51
92.4303419923
  0
ARC
  5
28A
330
1F
100
AcDbEntity
  8
0
  6
CONTINUOUS
 62
     8
100
AcDbCircle
 10
962.2254579302
 20
1022.1298415088
 30
0.0
 40
24.02046937109628
100
AcDbArc
 50
87.3661398932
 51
93.0669152294
  0
ARC
  5
28B
330
1F
100
AcDbEntity
  8
0
  6
CONTINUOUS
 62
     8
100
AcDbCircle
 10
963.3645609836
 20
1044.2424371267
 30
0.0
 40
1.836467523703623
100
AcDbArc
 50
0.3996449934
 51
76.7925754347
  0
ARC
  5
28C
330
1F
100
AcDbEntity
  8
0
  6
CONTINUOUS
 62
     8
100
AcDbCircle
 10
739.1321396124
 20
1045.4715694166
 30
0.0
 40
11.05308808487133
100
AcDbArc
 50
12.248108598
 51
19.4764078527
  0
ARC
  5
28D
330
1F
100
AcDbEntity
  8
0
  6
CONTINUOUS
 62
     8
100
AcDbCircle
 10
951.5292849524
 20
1046.9521409242
 30
0.0
 40
5.785631593452946
100
AcDbArc
 50
157.5970776059
 51
173.1267576638
  0
LWPOLYLINE
  5
28E
330
1F
100
AcDbEntity
  8
0
  6
CONTINUOUS
 62
     7
100
AcDbPolyline
 90
        3
 70
   128
 43
0.0
 10
731.7383446803
 20
562.1965981003
 10
732.1363248934
 20
562.1040143919
 10
732.567624103
 20
562.0518985119
  0
LWPOLYLINE
  5
28F
330
1F
100
AcDbEntity
  8
0
  6
CONTINUOUS
 62
     7
100
AcDbPolyline
 90
        3
 70
   128
 43
0.0
 10
963.3589916935
 20
562.0655014094
 10
963.5486685743
 20
562.0863621038
 10
963.7924515714
 20
562.1306418356
  0
LINE
  5
290
330
1F
100
AcDbEntity
  8
0
  6
CONTINUOUS
 62
     7
100
AcDbLine
 10
730.315306138
 20
563.9648388055
 30
0.0
 11
730.3459578266
 21
563.6407264423
 31
0.0
  0
LINE
  5
291
330
1F
100
AcDbEntity
  8
0
  6
CONTINUOUS
 62
     7
100
AcDbLine
 10
965.3870397319
 20
563.6407264423
 30
0.0
 11
965.4287778845
 21
563.9690753919
 31
0.0
  0
LWPOLYLINE
  5
292
330
1F
100
AcDbEntity
  8
0
  6
CONTINUOUS
 62
     7
100
AcDbPolyline
 90
        3
 70
   128
 43
0.0
 10
749.9698557963
 20
560.6868385252
 10
749.9660858025
 20
560.5664017525
 10
749.9450379123
 20
560.4500516233
  0
LWPOLYLINE
  5
293
330
1F
100
AcDbEntity
  8
0
  6
CONTINUOUS
 62
     7
100
AcDbPolyline
 90
        3
 70
   128
 43
0.0
 10
945.7753532638
 20
560.5505627495
 10
945.7652130236
 20
560.62317052
 10
945.7631343116
 20
560.6868385252
  0
LWPOLYLINE
  5
294
330
1F
100
AcDbEntity
  8
0
  6
CONTINUOUS
 62
     7
100
AcDbPolyline
 90
        9
 70
   128
 43
0.0
 10
951.7956161012
 20
561.5164848891
 10
951.8138700237
 20
561.8133756247
 10
951.7466806879
 20
561.9347837668
 10
951.3739728441
 20
561.9567629796
 10
950.8345210066
 20
561.9568505239
 10
949.6707403173
 20
561.9568216529
 10
948.710136961
 20
561.9566782292
 10
947.6770096531
 20
561.9564426046
 10
946.3113331308
 20
561.9560132649
  0
LWPOLYLINE
  5
295
330
1F
100
AcDbEntity
  8
0
  6
CONTINUOUS
 62
     7
100
AcDbPolyline
 90
        6
 70
   128
 43
0.0
 10
747.7546193709
 20
561.9777773422
 10
746.8462818374
 20
561.9726988402
 10
745.8809846153
 20
561.9573627513
 10
745.1597162594
 20
561.9267017495
 10
744.3396457543
 20
561.7859546941
 10
744.0341719498
 20
561.5197566253
  0
LWPOLYLINE
  5
296
330
1F
100
AcDbEntity
  8
0
  6
CONTINUOUS
 62
     7
100
AcDbPolyline
 90
        3
 70
   128
 43
0.0
 10
952.1160804739
 20
561.9561371308
 10
952.1160804739
 20
561.9561380621
 10
952.2147559633
 20
561.981111477
  0
LINE
  5
297
330
1F
100
AcDbEntity
  8
0
  6
CONTINUOUS
 62
     7
100
AcDbLine
 10
743.769385766
 20
561.8546825748
 30
0.0
 11
743.7830203285
 21
561.8391779166
 31
0.0
  0
LINE
  5
298
330
1F
100
AcDbEntity
  8
0
  6
CONTINUOUS
 62
     7
100
AcDbLine
 10
732.1313777079
 20
562.1020232242
 30
0.0
 11
732.4463733544
 21
562.0611856606
 31
0.0
  0
LINE
  5
299
330
1F
100
AcDbEntity
  8
0
  6
CONTINUOUS
 62
     7
100
AcDbLine
 10
959.940143775
 20
563.9730083671
 30
0.0
 11
961.5109198799
 21
563.9334113252
 31
0.0
  0
LINE
  5
29A
330
1F
100
AcDbEntity
  8
0
  6
CONTINUOUS
 62
     7
100
AcDbLine
 10
959.940143775
 20
563.9730102297
 30
0.0
 11
960.7932948579
 21
580.2520622414
 31
0.0
  0
LINE
  5
29B
330
1F
100
AcDbEntity
  8
0
  6
CONTINUOUS
 62
     7
100
AcDbLine
 10
966.2857585659
 20
580.2520622414
 30
0.0
 11
960.7932948579
 21
580.2520622414
 31
0.0
  0
LINE
  5
29C
330
1F
100
AcDbEntity
  8
0
  6
CONTINUOUS
 62
     7
100
AcDbLine
 10
966.2857585659
 20
580.2520622414
 30
0.0
 11
965.4326074829
 21
563.9730083671
 31
0.0
  0
LINE
  5
29D
330
1F
100
AcDbEntity
  8
0
  6
CONTINUOUS
 62
     7
100
AcDbLine
 10
965.4042654743
 20
563.9681626957
 30
0.0
 11
965.4326074829
 21
563.9730083671
 31
0.0
  0
ARC
  5
29E
330
1F
100
AcDbEntity
  8
0
  6
CONTINUOUS
 62
     7
100
AcDbCircle
 10
963.3559518566
 20
599.2186101718
 30
0.0
 40
35.33340160799691
100
AcDbArc
 50
267.0067799709
 51
272.9932200291
  0
LINE
  5
29F
330
1F
100
AcDbEntity
  8
0
  6
CONTINUOUS
 62
     7
100
AcDbLine
 10
735.792846333
 20
563.9730102297
 30
0.0
 11
734.93969525
 21
580.2520622414
 31
0.0
  0
LINE
  5
2A0
330
1F
100
AcDbEntity
  8
0
  6
CONTINUOUS
 62
     7
100
AcDbLine
 10
734.93969525
 20
580.2520622414
 30
0.0
 11
960.7932948579
 21
580.2520622414
 31
0.0
  0
LINE
  5
2A1
330
1F
100
AcDbEntity
  8
0
  6
CONTINUOUS
 62
     7
100
AcDbLine
 10
735.792846333
 20
563.9730102297
 30
0.0
 11
959.940143775
 21
563.9730102297
 31
0.0
  0
LINE
  5
2A2
330
1F
100
AcDbEntity
  8
0
  6
CONTINUOUS
 62
     7
100
AcDbLine
 10
730.3560980668
 20
563.9634827998
 30
0.0
 11
730.3003826251
 21
563.9730083671
 31
0.0
  0
LINE
  5
2A3
330
1F
100
AcDbEntity
  8
0
  6
CONTINUOUS
 62
     7
100
AcDbLine
 10
729.4472315421
 20
580.2520622414
 30
0.0
 11
730.3003826251
 21
563.9730102297
 31
0.0
  0
LINE
  5
2A4
330
1F
100
AcDbEntity
  8
0
  6
CONTINUOUS
 62
     7
100
AcDbLine
 10
729.4472315421
 20
580.2520622414
 30
0.0
 11
734.93969525
 21
580.2520622414
 31
0.0
  0
LINE
  5
2A5
330
1F
100
AcDbEntity
  8
0
  6
CONTINUOUS
 62
     7
100
AcDbLine
 10
735.792846333
 20
563.9730102297
 30
0.0
 11
734.2220702281
 21
563.9334131878
 31
0.0
  0
ARC
  5
2A6
330
1F
100
AcDbEntity
  8
0
  6
CONTINUOUS
 62
     7
100
AcDbCircle
 10
732.3770382514
 20
596.6759805402
 30
0.0
 40
32.79450959866092
100
AcDbArc
 50
266.7748140265
 51
273.2251859735
  0
LINE
  5
2A7
330
1F
100
AcDbEntity
  8
0
  6
CONTINUOUS
 62
     7
100
AcDbLine
 10
735.792846333
 20
563.9730102297
 30
0.0
 11
735.792846333
 21
562.0868901637
 31
0.0
  0
LWPOLYLINE
  5
2A8
330
1F
100
AcDbEntity
  8
0
  6
CONTINUOUS
 62
     7
100
AcDbPolyline
 90
        3
 70
   128
 43
0.0
 10
734.7926803937
 20
562.072752687
 10
735.3476666918
 20
562.0841390368
 10
735.792846333
 20
562.0868901637
  0
ARC
  5
2A9
330
1F
100
AcDbEntity
  8
0
  6
CONTINUOUS
 62
     7
100
AcDbCircle
 10
736.6529813921
 20
563.6610775801
 30
0.0
 40
2.446118511175294
100
AcDbArc
 50
173.6077924458
 51
220.490697997
  0
LINE
  5
2AA
330
1F
100
AcDbEntity
  8
0
  6
CONTINUOUS
 62
     7
100
AcDbLine
 10
959.940143775
 20
563.9730102297
 30
0.0
 11
959.940143775
 21
562.0868901637
 31
0.0
  0
LINE
  5
2AB
330
1F
100
AcDbEntity
  8
0
  6
CONTINUOUS
 62
     7
100
AcDbLine
 10
959.940143775
 20
562.0868901637
 30
0.0
 11
735.792846333
 21
562.0868901637
 31
0.0
  0
LWPOLYLINE
  5
2AC
330
1F
100
AcDbEntity
  8
0
  6
CONTINUOUS
 62
     7
100
AcDbPolyline
 90
        3
 70
   128
 43
0.0
 10
960.9403097143
 20
562.072752687
 10
960.3853159656
 20
562.0841390368
 10
959.940143775
 20
562.0868901637
  0
ARC
  5
2AD
330
1F
100
AcDbEntity
  8
0
  6
CONTINUOUS
 62
     7
100
AcDbCircle
 10
959.0800415621
 20
563.6610675071
 30
0.0
 40
2.446086990579708
100
AcDbArc
 50
319.5089818682
 51
6.392527689
  0
LINE
  5
2AE
330
1F
100
AcDbEntity
  8
0
  6
CONTINUOUS
 62
     7
100
AcDbLine
 10
732.5711854806
 20
562.0537294921
 30
0.0
 11
732.2527700176
 21
562.072752687
 31
0.0
  0
LINE
  5
2AF
330
1F
100
AcDbEntity
  8
0
  6
CONTINUOUS
 62
     7
100
AcDbLine
 10
731.7372345438
 20
562.1970637616
 30
0.0
 11
732.2527700176
 21
562.0727517557
 31
0.0
  0
LINE
  5
2B0
330
1F
100
AcDbEntity
  8
0
  6
CONTINUOUS
 62
     7
100
AcDbLine
 10
963.3292489757
 20
562.0637225833
 30
0.0
 11
963.4802275409
 21
562.072752687
 31
0.0
  0
LINE
  5
2B1
330
1F
100
AcDbEntity
  8
0
  6
CONTINUOUS
 62
     7
100
AcDbLine
 10
963.7841516246
 20
562.1583319184
 30
0.0
 11
963.4802275409
 21
562.072752687
 31
0.0
  0
LINE
  5
2B2
330
1F
100
AcDbEntity
  8
0
  6
CONTINUOUS
 62
     7
100
AcDbLine
 10
733.1224837413
 20
561.9890090924
 30
0.0
 11
735.6623941173
 21
561.9890090924
 31
0.0
  0
LINE
  5
2B3
330
1F
100
AcDbEntity
  8
0
  6
CONTINUOUS
 62
     7
100
AcDbLine
 10
732.2527700176
 20
562.072752687
 30
0.0
 11
733.1224837413
 21
561.9890090924
 31
0.0
  0
LINE
  5
2B4
330
1F
100
AcDbEntity
  8
0
  6
CONTINUOUS
 62
     7
100
AcDbLine
 10
735.6623941173
 20
561.9890090924
 30
0.0
 11
734.7926803937
 21
562.072752687
 31
0.0
  0
LINE
  5
2B5
330
1F
100
AcDbEntity
  8
0
  6
CONTINUOUS
 62
     7
100
AcDbLine
 10
963.4802275409
 20
562.072752687
 30
0.0
 11
962.6105063667
 21
561.9890090924
 31
0.0
  0
LINE
  5
2B6
330
1F
100
AcDbEntity
  8
0
  6
CONTINUOUS
 62
     7
100
AcDbLine
 10
962.6105063667
 20
561.9890090924
 30
0.0
 11
960.07058854
 21
561.9890090924
 31
0.0
  0
LINE
  5
2B7
330
1F
100
AcDbEntity
  8
0
  6
CONTINUOUS
 62
     7
100
AcDbLine
 10
960.07058854
 20
561.9890090924
 30
0.0
 11
960.9403097143
 21
562.072752687
 31
0.0
  0
LINE
  5
2B8
330
1F
100
AcDbEntity
  8
0
  6
CONTINUOUS
 62
     7
100
AcDbLine
 10
750.1815863957
 20
561.9890090924
 30
0.0
 11
750.2377563228
 21
560.9171834689
 31
0.0
  0
LINE
  5
2B9
330
1F
100
AcDbEntity
  8
0
  6
CONTINUOUS
 62
     7
100
AcDbLine
 10
750.1815863957
 20
561.9890090924
 30
0.0
 11
735.6623941173
 21
561.9890090924
 31
0.0
  0
LINE
  5
2BA
330
1F
100
AcDbEntity
  8
0
  6
CONTINUOUS
 62
     7
100
AcDbLine
 10
945.5514037122
 20
561.9890090924
 30
0.0
 11
960.07058854
 21
561.9890090924
 31
0.0
  0
LINE
  5
2BB
330
1F
100
AcDbEntity
  8
0
  6
CONTINUOUS
 62
     7
100
AcDbLine
 10
945.5514037122
 20
561.9890090924
 30
0.0
 11
945.4952337851
 21
560.9171834689
 31
0.0
  0
LINE
  5
2BC
330
1F
100
AcDbEntity
  8
0
  6
CONTINUOUS
 62
     7
100
AcDbLine
 10
945.4952337851
 20
560.9171834689
 30
0.0
 11
750.2377563228
 21
560.9171834689
 31
0.0
  0
ARC
  5
2BD
330
1F
100
AcDbEntity
  8
0
  6
CONTINUOUS
 62
     7
100
AcDbCircle
 10
750.2369481357
 20
561.2164066054
 30
0.0
 40
0.2992242279126031
100
AcDbArc
 50
183.1236526082
 51
270.1547527301
  0
LINE
  5
2BE
330
1F
100
AcDbEntity
  8
0
  6
CONTINUOUS
 62
     7
100
AcDbLine
 10
749.8968177547
 20
561.9890090924
 30
0.0
 11
749.938168477
 21
561.2001015719
 31
0.0
  0
LINE
  5
2BF
330
1F
100
AcDbEntity
  8
0
  6
CONTINUOUS
 62
     7
100
AcDbLine
 10
945.8361649027
 20
561.9890090924
 30
0.0
 11
945.7948216309
 21
561.2001015719
 31
0.0
  0
ARC
  5
2C0
330
1F
100
AcDbEntity
  8
0
  6
CONTINUOUS
 62
     7
100
AcDbCircle
 10
945.4960419722
 20
561.2164066054
 30
0.0
 40
0.2992242279129497
100
AcDbArc
 50
269.84524727
 51
356.8763473918
  0
LWPOLYLINE
  5
2C1
330
1F
100
AcDbEntity
  8
0
  6
CONTINUOUS
 62
     7
100
AcDbPolyline
 90
        3
 70
   128
 43
0.0
 10
732.1059488764
 20
562.0868901637
 10
732.1522020807
 20
562.0824365791
 10
732.2527700176
 20
562.072752687
  0
ARC
  5
2C2
330
1F
100
AcDbEntity
  8
0
  6
CONTINUOUS
 62
     7
100
AcDbCircle
 10
732.2285548553
 20
563.9614035161
 30
0.0
 40
1.878518707496381
100
AcDbArc
 50
189.5231014964
 51
266.2577949818
  0
LWPOLYLINE
  5
2C3
330
1F
100
AcDbEntity
  8
0
  6
CONTINUOUS
 62
     7
100
AcDbPolyline
 90
        3
 70
   128
 43
0.0
 10
963.627033781
 20
562.0868901637
 10
963.5807954778
 20
562.0824365791
 10
963.4802275409
 20
562.072752687
  0
ARC
  5
2C4
330
1F
100
AcDbEntity
  8
0
  6
CONTINUOUS
 62
     7
100
AcDbCircle
 10
963.5033531791
 20
563.9630648686
 30
0.0
 40
1.880246902562521
100
AcDbArc
 50
273.7715774263
 51
350.6116066648
  0
LWPOLYLINE
  5
2C5
330
1F
100
AcDbEntity
  8
0
  6
CONTINUOUS
 62
     7
100
AcDbPolyline
 90
        3
 70
   128
 43
0.0
 10
750.2624624481
 20
560.5071770873
 10
750.2455496301
 20
560.7892132279
 10
750.2377563228
 20
560.9171834689
  0
ARC
  5
2C6
330
1F
100
AcDbEntity
  8
0
  6
CONTINUOUS
 62
     7
100
AcDbCircle
 10
750.2297888614
 20
560.7763549713
 30
0.0
 40
0.2711536399886624
100
AcDbArc
 50
190.1449192272
 51
276.9208689958
  0
LWPOLYLINE
  5
2C7
330
1F
100
AcDbEntity
  8
0
  6
CONTINUOUS
 62
     7
100
AcDbPolyline
 90
        3
 70
   128
 43
0.0
 10
749.938168477
 20
561.2001015719
 10
749.9476754179
 20
561.0185989093
 10
749.9628746023
 20
560.7285943728
  0
ARC
  5
2C8
330
1F
100
AcDbEntity
  8
0
  6
CONTINUOUS
 62
     7
100
AcDbCircle
 10
945.5032012466
 20
560.7763549713
 30
0.0
 40
0.2711536399885571
100
AcDbArc
 50
263.0791310042
 51
349.8550807729
  0
LWPOLYLINE
  5
2C9
330
1F
100
AcDbEntity
  8
0
  6
CONTINUOUS
 62
     7
100
AcDbPolyline
 90
        3
 70
   128
 43
0.0
 10
945.4705276599
 20
560.5071770873
 10
945.4874330272
 20
560.7891489666
 10
945.4952337851
 20
560.9171834689
  0
LWPOLYLINE
  5
2CA
330
1F
100
AcDbEntity
  8
0
  6
CONTINUOUS
 62
     7
100
AcDbPolyline
 90
        3
 70
   128
 43
0.0
 10
945.7948216309
 20
561.2001015719
 10
945.7853146901
 20
561.0186017033
 10
945.7701155057
 20
560.7285943728
  0
ARC
  5
2CB
330
1F
100
AcDbEntity
  8
0
  6
CONTINUOUS
 62
     7
100
AcDbCircle
 10
746.9661089119
 20
561.1837779119
 30
0.0
 40
3.365075825475379
100
AcDbArc
 50
320.2288745322
 51
348.4007235414
  0
ARC
  5
2CC
330
1F
100
AcDbEntity
  8
0
  6
CONTINUOUS
 62
     7
100
AcDbCircle
 10
948.766881196
 20
561.1837779119
 30
0.0
 40
3.365075825474665
100
AcDbArc
 50
191.5992764586
 51
219.7711254678
  0
LINE
  5
2CD
330
1F
100
AcDbEntity
  8
0
  6
CONTINUOUS
 62
     7
100
AcDbLine
 10
749.5525264253
 20
559.0310634029
 30
0.0
 11
946.1804636826
 21
559.0310634029
 31
0.0
  0
ARC
  5
2CE
330
1F
100
AcDbEntity
  8
0
  6
CONTINUOUS
 62
     7
100
AcDbCircle
 10
744.3698204173
 20
561.1822538888
 30
0.0
 40
5.611422464303571
100
AcDbArc
 50
337.4580842443
 51
355.3628203354
  0
ARC
  5
2CF
330
1F
100
AcDbEntity
  8
0
  6
CONTINUOUS
 62
     7
100
AcDbCircle
 10
951.1814852656
 20
561.1384878256
 30
0.0
 40
5.42687159620799
100
AcDbArc
 50
184.3316949401
 51
202.8446403159
  0
LINE
  5
2D0
330
1F
100
AcDbEntity
  8
0
  6
CONTINUOUS
 62
     7
100
AcDbLine
 10
946.3113331308
 20
561.9890090924
 30
0.0
 11
946.3113331308
 21
561.5153728899
 31
0.0
  0
ARC
  5
2D1
330
1F
100
AcDbEntity
  8
0
  6
CONTINUOUS
 62
     7
100
AcDbCircle
 10
940.319047877
 20
556.0476860045
 30
0.0
 40
8.111265994542494
100
AcDbArc
 50
42.3831751112
 51
47.1401012145
  0
LINE
  5
2D2
330
1F
100
AcDbEntity
  8
0
  6
CONTINUOUS
 62
     7
100
AcDbLine
 10
946.1791523804
 20
559.0311323207
 30
0.0
 11
946.3104614129
 21
561.5153728899
 31
0.0
  0
LINE
  5
2D3
330
1F
100
AcDbEntity
  8
0
  6
CONTINUOUS
 62
     7
100
AcDbLine
 10
749.4216569771
 20
561.9890090924
 30
0.0
 11
749.4216569771
 21
561.5151801061
 31
0.0
  0
ARC
  5
2D4
330
1F
100
AcDbEntity
  8
0
  6
CONTINUOUS
 62
     7
100
AcDbCircle
 10
753.1444921683
 20
558.266823175
 30
0.0
 40
4.940245519343127
100
AcDbArc
 50
131.1106241692
 51
138.8868978589
  0
LINE
  5
2D5
330
1F
100
AcDbEntity
  8
0
  6
CONTINUOUS
 62
     7
100
AcDbLine
 10
749.552727591
 20
559.0310736474
 30
0.0
 11
749.4225435962
 21
561.5151801061
 31
0.0
  0
ARC
  5
2D6
330
1F
100
AcDbEntity
  8
0
  6
CONTINUOUS
 62
     7
100
AcDbCircle
 10
952.303108948
 20
561.489011726
 30
0.0
 40
0.4999973665794976
100
AcDbArc
 50
89.998750811
 51
176.9999380497
  0
LWPOLYLINE
  5
2D7
330
1F
100
AcDbEntity
  8
0
  6
CONTINUOUS
 62
     7
100
AcDbPolyline
 90
        5
 70
   128
 43
0.0
 10
951.8037968387
 20
561.5151791748
 10
951.3855510463
 20
561.5190655839
 10
950.1952909937
 20
561.5188038823
 10
948.4136634578
 20
561.5190655839
 10
946.3104614129
 20
561.5151801061
  0
ARC
  5
2D8
330
1F
100
AcDbEntity
  8
0
  6
CONTINUOUS
 62
     7
100
AcDbCircle
 10
746.6758684327
 20
252.1942236395
 30
0.0
 40
309.3331501112236
100
AcDbArc
 50
89.4912444317
 51
90.5087555683
  0
ARC
  5
2D9
330
1F
100
AcDbEntity
  8
0
  6
CONTINUOUS
 62
     7
100
AcDbCircle
 10
743.4298692932
 20
561.4889992723
 30
0.0
 40
0.5000098202341662
100
AcDbArc
 50
3.0013093143
 51
89.999035598
  0
LINE
  5
2DA
330
1F
100
AcDbEntity
  8
0
  6
CONTINUOUS
 62
     7
100
AcDbLine
 10
945.1100164165
 20
538.6520630595
 30
0.0
 11
946.1780422439
 21
559.0311900627
 31
0.0
  0
LINE
  5
2DB
330
1F
100
AcDbEntity
  8
0
  6
CONTINUOUS
 62
     7
100
AcDbLine
 10
951.8037968387
 20
561.5151801061
 30
0.0
 11
951.6837530842
 21
559.2246285554
 31
0.0
  0
LINE
  5
2DC
330
1F
100
AcDbEntity
  8
0
  6
CONTINUOUS
 62
     7
100
AcDbLine
 10
951.6837530842
 20
559.2246872288
 30
0.0
 11
950.6055944671
 21
538.6520630595
 31
0.0
  0
LINE
  5
2DD
330
1F
100
AcDbEntity
  8
0
  6
CONTINUOUS
 62
     7
100
AcDbLine
 10
945.1100164165
 20
538.6520630595
 30
0.0
 11
950.6055944671
 21
538.6520630595
 31
0.0
  0
LINE
  5
2DE
330
1F
100
AcDbEntity
  8
0
  6
CONTINUOUS
 62
     7
100
AcDbLine
 10
744.0492295732
 20
559.2246853661
 30
0.0
 11
745.1273956408
 21
538.6520630595
 31
0.0
  0
LINE
  5
2DF
330
1F
100
AcDbEntity
  8
0
  6
CONTINUOUS
 62
     7
100
AcDbLine
 10
743.9291932692
 20
561.5151791748
 30
0.0
 11
744.0492295732
 21
559.2246853661
 31
0.0
  0
LINE
  5
2E0
330
1F
100
AcDbEntity
  8
0
  6
CONTINUOUS
 62
     7
100
AcDbLine
 10
750.6229736914
 20
538.6520630595
 30
0.0
 11
749.5538377275
 21
559.0311323207
 31
0.0
  0
LINE
  5
2E1
330
1F
100
AcDbEntity
  8
0
  6
CONTINUOUS
 62
     7
100
AcDbLine
 10
750.6229736914
 20
538.6520630595
 30
0.0
 11
745.1273956408
 21
538.6520630595
 31
0.0
  0
LINE
  5
2E2
330
1F
100
AcDbEntity
  8
0
  6
CONTINUOUS
 62
     7
100
AcDbLine
 10
750.6229736914
 20
538.6520630595
 30
0.0
 11
945.1100164165
 21
538.6520630595
 31
0.0
  0
LINE
  5
2E3
330
1F
100
AcDbEntity
  8
0
  6
CONTINUOUS
 62
     7
100
AcDbLine
 10
952.2720360269
 20
560.9221492809
 30
0.0
 11
952.3278706779
 21
561.987714554
 31
0.0
  0
ARC
  5
2E4
330
1F
100
AcDbEntity
  8
0
  6
CONTINUOUS
 62
     7
100
AcDbCircle
 10
954.6168194265
 20
559.1588588085
 30
0.0
 40
2.93380341548986
100
AcDbArc
 50
143.0566256673
 51
178.7156407655
  0
ARC
  5
2E5
330
1F
100
AcDbEntity
  8
0
  6
CONTINUOUS
 62
     7
100
AcDbCircle
 10
741.057966182
 20
559.1387131523
 30
0.0
 40
2.992489810808888
100
AcDbArc
 50
1.6553043128
 51
36.5818592468
  0
LINE
  5
2E6
330
1F
100
AcDbEntity
  8
0
  6
CONTINUOUS
 62
     7
100
AcDbLine
 10
743.460954081
 20
560.9221492809
 30
0.0
 11
743.4051119795
 21
561.987714554
 31
0.0
  0
ARC
  5
2E7
330
1F
100
AcDbEntity
  8
0
  6
CONTINUOUS
 62
     7
100
AcDbCircle
 10
741.6655641798
 20
562.2253501811
 30
0.0
 40
2.218503980408545
100
AcDbArc
 50
316.5889156739
 51
324.0256010376
  0
ARC
  5
2E8
330
1F
100
AcDbEntity
  8
0
  6
CONTINUOUS
 62
     7
100
AcDbCircle
 10
742.0519582393
 20
559.1199403068
 30
0.0
 40
2.000016492888918
100
AcDbArc
 50
3.0185580352
 51
52.2219095436
  0
ARC
  5
2E9
330
1F
100
AcDbEntity
  8
0
  6
CONTINUOUS
 62
     7
100
AcDbCircle
 10
954.0664285375
 20
562.2245168668
 30
0.0
 40
2.217206758764044
100
AcDbArc
 50
215.9720926931
 51
223.413153722
  0
ARC
  5
2EA
330
1F
100
AcDbEntity
  8
0
  6
CONTINUOUS
 62
     7
100
AcDbCircle
 10
953.681001827
 20
559.1199512586
 30
0.0
 40
1.99998943309117
100
AcDbArc
 50
127.7776024208
 51
177.0001235602
  0
LINE
  5
2EB
330
1F
100
AcDbEntity
  8
0
  6
CONTINUOUS
 62
     7
100
AcDbLine
 10
953.4605675449
 20
561.39365648
 30
0.0
 11
959.6435361614
 21
561.9890090924
 31
0.0
  0
LWPOLYLINE
  5
2EC
330
1F
100
AcDbEntity
  8
0
  6
CONTINUOUS
 62
     7
100
AcDbPolyline
 90
        3
 70
   128
 43
0.0
 10
952.2720360269
 20
560.9221492809
 10
952.9056334009
 20
561.2695437771
 10
953.4605675449
 20
561.39365648
  0
LWPOLYLINE
  5
2ED
330
1F
100
AcDbEntity
  8
0
  6
CONTINUOUS
 62
     7
100
AcDbPolyline
 90
        3
 70
   128
 43
0.0
 10
743.460954081
 20
560.9221492809
 10
742.8273567071
 20
561.2695409831
 10
742.272422563
 20
561.39365648
  0
LINE
  5
2EE
330
1F
100
AcDbEntity
  8
0
  6
CONTINUOUS
 62
     7
100
AcDbLine
 10
742.272422563
 20
561.39365648
 30
0.0
 11
736.0894539466
 21
561.9890090924
 31
0.0
  0
ARC
  5
2EF
330
1F
100
AcDbEntity
  8
0
  6
CONTINUOUS
 62
     7
100
AcDbCircle
 10
967.1607316122
 20
562.6433872123
 30
0.0
 40
13.75704628090437
100
AcDbArc
 50
185.212103501
 51
186.3965029832
  0
LINE
  5
2F0
330
1F
100
AcDbEntity
  8
0
  6
CONTINUOUS
 62
     7
100
AcDbLine
 10
953.489326786
 20
561.1107383769
 30
0.0
 11
962.6105063667
 21
561.9890090924
 31
0.0
  0
ARC
  5
2F1
330
1F
100
AcDbEntity
  8
0
  6
CONTINUOUS
 62
     7
100
AcDbCircle
 10
728.3976538262
 20
562.6611361571
 30
0.0
 40
13.93254148510177
100
AcDbArc
 50
353.6109566641
 51
354.7804368516
  0
LINE
  5
2F2
330
1F
100
AcDbEntity
  8
0
  6
CONTINUOUS
 62
     7
100
AcDbLine
 10
742.2436633219
 20
561.1107383769
 30
0.0
 11
733.1224837413
 21
561.9890090924
 31
0.0
  0
LWPOLYLINE
  5
2F3
330
1F
100
AcDbEntity
  8
0
  6
CONTINUOUS
 62
     7
100
AcDbPolyline
 90
        3
 70
   128
 43
0.0
 10
742.2436633219
 20
561.1107383769
 10
742.7800753226
 20
560.982704806
 10
743.27717806
 20
560.7007319954
  0
LWPOLYLINE
  5
2F4
330
1F
100
AcDbEntity
  8
0
  6
CONTINUOUS
 62
     7
100
AcDbPolyline
 90
        3
 70
   128
 43
0.0
 10
953.489326786
 20
561.1107383769
 10
952.9530786981
 20
560.9827690673
 10
952.4558120479
 20
560.7007319954
  0
LINE
  5
2F5
330
1F
100
AcDbEntity
  8
0
  6
CONTINUOUS
 62
     7
100
AcDbLine
 10
961.9169467201
 20
560.8124450695
 30
0.0
 11
961.7534362783
 21
561.9064827364
 31
0.0
  0
LINE
  5
2F6
330
1F
100
AcDbEntity
  8
0
  6
CONTINUOUS
 62
     7
100
AcDbLine
 10
961.9169467201
 20
560.8124450695
 30
0.0
 11
965.2839534988
 21
561.1366524276
 31
0.0
  0
LINE
  5
2F7
330
1F
100
AcDbEntity
  8
0
  6
CONTINUOUS
 62
     7
100
AcDbLine
 10
965.4326074829
 20
563.9730102297
 30
0.0
 11
965.2839534988
 21
561.1366524276
 31
0.0
  0
LINE
  5
2F8
330
1F
100
AcDbEntity
  8
0
  6
CONTINUOUS
 62
     7
100
AcDbLine
 10
733.8160433879
 20
560.8124450695
 30
0.0
 11
733.9795463791
 21
561.9064827364
 31
0.0
  0
LINE
  5
2F9
330
1F
100
AcDbEntity
  8
0
  6
CONTINUOUS
 62
     7
100
AcDbLine
 10
733.8160433879
 20
560.8124450695
 30
0.0
 11
730.4490291586
 21
561.1366524276
 31
0.0
  0
LINE
  5
2FA
330
1F
100
AcDbEntity
  8
0
  6
CONTINUOUS
 62
     7
100
AcDbLine
 10
730.3003826251
 20
563.9730102297
 30
0.0
 11
730.4490291586
 21
561.1366524276
 31
0.0
  0
LINE
  5
2FB
330
1F
100
AcDbEntity
  8
0
  6
CONTINUOUS
 62
     7
100
AcDbLine
 10
962.1974759807
 20
558.9353634891
 30
0.0
 11
965.183668684
 21
559.2229009521
 31
0.0
  0
LWPOLYLINE
  5
2FC
330
1F
100
AcDbEntity
  8
0
  6
CONTINUOUS
 62
     7
100
AcDbPolyline
 90
        9
 70
   128
 43
0.0
 10
962.1974759807
 20
558.9353634891
 10
962.1921562662
 20
558.9709353548
 10
962.1764057388
 20
559.0763731774
 10
962.1507757415
 20
559.2478911307
 10
962.1161752453
 20
559.4793266532
 10
962.0738857498
 20
559.7623686221
 10
962.0253824701
 20
560.0868507203
 10
961.9724386444
 20
560.4411174458
 10
961.9169467201
 20
560.8124450695
  0
LWPOLYLINE
  5
2FD
330
1F
100
AcDbEntity
  8
0
  6
CONTINUOUS
 62
     7
100
AcDbPolyline
 90
        9
 70
   128
 43
0.0
 10
965.2839534988
 20
561.1366524276
 10
965.2641200533
 20
560.7580707323
 10
965.2451955785
 20
560.3968824175
 10
965.2278506269
 20
560.0660617378
 10
965.2127259483
 20
559.7774905067
 10
965.2003579845
 20
559.5415334132
 10
965.1911937704
 20
559.3666654926
 10
965.1855611314
 20
559.2591675844
 10
965.183668684
 20
559.2229009521
  0
LINE
  5
2FE
330
1F
100
AcDbEntity
  8
0
  6
CONTINUOUS
 62
     7
100
AcDbLine
 10
733.5355141272
 20
558.9353634891
 30
0.0
 11
730.549321424
 21
559.2229009521
 31
0.0
  0
LWPOLYLINE
  5
2FF
330
1F
100
AcDbEntity
  8
0
  6
CONTINUOUS
 62
     7
100
AcDbPolyline
 90
        9
 70
   128
 43
0.0
 10
733.5355141272
 20
558.9353634891
 10
733.5408263912
 20
558.9709353548
 10
733.5565843692
 20
559.0763731774
 10
733.582221817
 20
559.2478911307
 10
733.6168074121
 20
559.4793266532
 10
733.6591118087
 20
559.7623686221
 10
733.7076001873
 20
560.0868507203
 10
733.7605514636
 20
560.4411174458
 10
733.8160433879
 20
560.8124450695
  0
LWPOLYLINE
  5
300
330
1F
100
AcDbEntity
  8
0
  6
CONTINUOUS
 62
     7
100
AcDbPolyline
 90
        9
 70
   128
 43
0.0
 10
730.4490291586
 20
561.1366524276
 10
730.4688700547
 20
560.7580707323
 10
730.48780198
 20
560.3968824175
 10
730.505139481
 20
560.0660617378
 10
730.5202567091
 20
559.7774905067
 10
730.5326246729
 20
559.5415334132
 10
730.541788887
 20
559.3666654926
 10
730.5474215259
 20
559.2591675844
 10
730.549321424
 20
559.2229009521
  0
LINE
  5
301
330
1F
100
AcDbEntity
  8
0
  6
CONTINUOUS
 62
     8
100
AcDbLine
 10
965.2009838333
 20
563.9334113252
 30
0.0
 11
965.4042654743
 21
563.9681626957
 31
0.0
  0
LINE
  5
302
330
1F
100
AcDbEntity
  8
0
  6
CONTINUOUS
 62
     8
100
AcDbLine
 10
730.5320062747
 20
563.9334113252
 30
0.0
 11
730.3560980668
 21
563.9634827998
 31
0.0
  0
ARC
  5
303
330
1F
100
AcDbEntity
  8
0
  6
CONTINUOUS
 62
     8
100
AcDbCircle
 10
733.4639117218
 20
587.5233713714
 30
0.0
 40
25.48528237245259
100
AcDbArc
 50
267.9925703277
 51
272.9886807517
  0
ARC
  5
304
330
1F
100
AcDbEntity
  8
0
  6
CONTINUOUS
 62
     8
100
AcDbCircle
 10
732.5188870132
 20
564.0260803524
 30
0.0
 40
1.989040540654833
100
AcDbArc
 50
182.6703126009
 51
246.8599701234
  0
ARC
  5
305
330
1F
100
AcDbEntity
  8
0
  6
CONTINUOUS
 62
     8
100
AcDbCircle
 10
962.225472151
 20
586.0612738818
 30
0.0
 40
24.02292221199145
100
AcDbArc
 50
266.9333642489
 51
272.6334858809
  0
ARC
  5
306
330
1F
100
AcDbEntity
  8
0
  6
CONTINUOUS
 62
     8
100
AcDbCircle
 10
963.3645604081
 20
563.9462240645
 30
0.0
 40
1.836468108929554
100
AcDbArc
 50
283.2074387229
 51
359.6003115359
  0
LWPOLYLINE
  5
307
330
1F
100
AcDbEntity
  8
0
  6
CONTINUOUS
 62
     7
100
AcDbPolyline
 90
        3
 70
   128
 43
0.0
 10
1119.3955163016
 20
921.214446846
 10
1119.3476481839
 20
921.583667818
 10
1119.2601029306
 20
921.9224829707
  0
LWPOLYLINE
  5
308
330
1F
100
AcDbEntity
  8
0
  6
CONTINUOUS
 62
     7
100
AcDbPolyline
 90
        3
 70
   128
 43
0.0
 10
1119.2601029306
 20
686.2661768231
 10
1119.3526866391
 20
686.6641644869
 10
1119.404802519
 20
687.0954562459
  0
LINE
  5
309
330
1F
100
AcDbEntity
  8
0
  6
CONTINUOUS
 62
     7
100
AcDbLine
 10
1117.8179983526
 20
923.314415339
 30
0.0
 11
1117.4918622255
 21
923.345521513
 31
0.0
  0
LINE
  5
30A
330
1F
100
AcDbEntity
  8
0
  6
CONTINUOUS
 62
     7
100
AcDbLine
 10
1117.4918622255
 20
684.8431382808
 30
0.0
 11
1117.8179992839
 21
684.8742444548
 31
0.0
  0
LWPOLYLINE
  5
30B
330
1F
100
AcDbEntity
  8
0
  6
CONTINUOUS
 62
     7
100
AcDbPolyline
 90
        3
 70
   128
 43
0.0
 10
1120.8130600407
 20
901.7266411814
 10
1120.6961669504
 20
901.7053101692
 10
1120.5753930389
 20
901.7013762626
  0
LWPOLYLINE
  5
30C
330
1F
100
AcDbEntity
  8
0
  6
CONTINUOUS
 62
     7
100
AcDbPolyline
 90
        8
 70
   128
 43
0.0
 10
1119.4754768639
 20
704.076648179
 10
1119.4754321604
 20
703.1169612441
 10
1119.4754060834
 20
701.7022524509
 10
1119.4754386797
 20
700.6750856075
 10
1119.481641288
 20
700.4997287426
 10
1119.5238236814
 20
700.434737328
 10
1119.6637949451
 20
700.4656870398
 10
1119.9390836536
 20
700.4839856658
  0
LWPOLYLINE
  5
30D
330
1F
100
AcDbEntity
  8
0
  6
CONTINUOUS
 62
     7
100
AcDbPolyline
 90
        7
 70
   128
 43
0.0
 10
1119.9369267105
 20
907.6247592006
 10
1119.9235594376
 20
907.6253701482
 10
1119.9101977526
 20
907.6256234679
 10
1119.8835693776
 20
907.624982718
 10
1119.8312057658
 20
907.6180834803
 10
1119.7335621818
 20
907.5673673782
 10
1119.7050003811
 20
907.4773345623
  0
LINE
  5
30E
330
1F
100
AcDbEntity
  8
0
  6
CONTINUOUS
 62
     7
100
AcDbLine
 10
1119.7957708045
 20
700.4210208092
 30
0.0
 11
1119.8535677522
 21
700.4444826875
 31
0.0
  0
LINE
  5
30F
330
1F
100
AcDbEntity
  8
0
  6
CONTINUOUS
 62
     7
100
AcDbLine
 10
1119.3727668851
 20
686.7342297468
 30
0.0
 11
1119.3911996215
 21
686.9018380079
 31
0.0
  0
LINE
  5
310
330
1F
100
AcDbEntity
  8
0
  6
CONTINUOUS
 62
     7
100
AcDbLine
 10
1119.39121266
 20
921.2865982685
 30
0.0
 11
1119.3739543214
 21
921.4435521993
 31
0.0
  0
LINE
  5
311
330
1F
100
AcDbEntity
  8
0
  6
CONTINUOUS
 62
     7
100
AcDbLine
 10
1117.4836908012
 20
815.3908759836
 30
0.0
 11
1120.3200486033
 21
815.2436599616
 31
0.0
  0
ELLIPSE
  5
312
330
1F
100
AcDbEntity
  8
0
  6
CONTINUOUS
 62
     7
100
AcDbEllipse
 10
1120.2143596116
 20
813.2464007635
 30
0.0
 11
2.019440884112782
 21
0.0
 31
0.0
210
0.0
220
0.0
230
1.0
 40
0.9903731353
 41
0.0
 42
1.518436449235036
  0
LINE
  5
313
330
1F
100
AcDbEntity
  8
0
  6
CONTINUOUS
 62
     7
100
AcDbLine
 10
1122.2338000789
 20
813.2464005161
 30
0.0
 11
1122.2338000789
 21
794.9422592777
 31
0.0
  0
ELLIPSE
  5
314
330
1F
100
AcDbEntity
  8
0
  6
CONTINUOUS
 62
     7
100
AcDbEllipse
 10
1120.2143596116
 20
794.9422590303
 30
0.0
 11
2.019440884112782
 21
0.0
 31
0.0
210
0.0
220
0.0
230
1.0
 40
0.9903731353
 41
4.764748857944554
 42
6.283185307179586
  0
LINE
  5
315
330
1F
100
AcDbEntity
  8
0
  6
CONTINUOUS
 62
     7
100
AcDbLine
 10
1117.4836908012
 20
792.7977838102
 30
0.0
 11
1120.3200486033
 21
792.9449998323
 31
0.0
  0
LINE
  5
316
330
1F
100
AcDbEntity
  8
0
  6
CONTINUOUS
 62
     7
100
AcDbLine
 10
1117.4836908012
 20
690.3206784758
 30
0.0
 11
1117.4836908012
 21
792.7977838102
 31
0.0
  0
LINE
  5
317
330
1F
100
AcDbEntity
  8
0
  6
CONTINUOUS
 62
     7
100
AcDbLine
 10
1117.4836908012
 20
690.3206784758
 30
0.0
 11
1101.2046387895
 21
689.4675273928
 31
0.0
  0
LINE
  5
318
330
1F
100
AcDbEntity
  8
0
  6
CONTINUOUS
 62
     7
100
AcDbLine
 10
1101.2046387895
 20
689.4675273928
 30
0.0
 11
1101.2046387895
 21
918.721132401
 31
0.0
  0
LINE
  5
319
330
1F
100
AcDbEntity
  8
0
  6
CONTINUOUS
 62
     7
100
AcDbLine
 10
1101.2046387895
 20
918.721132401
 30
0.0
 11
1117.4836908012
 21
917.867981318
 31
0.0
  0
LINE
  5
31A
330
1F
100
AcDbEntity
  8
0
  6
CONTINUOUS
 62
     7
100
AcDbLine
 10
1117.4836908012
 20
815.3908759836
 30
0.0
 11
1117.4836908012
 21
917.867981318
 31
0.0
  0
LINE
  5
31B
330
1F
100
AcDbEntity
  8
0
  6
CONTINUOUS
 62
     7
100
AcDbLine
 10
1117.5232897057
 20
919.4387574229
 30
0.0
 11
1117.4836926638
 21
917.867981318
 31
0.0
  0
LINE
  5
31C
330
1F
100
AcDbEntity
  8
0
  6
CONTINUOUS
 62
     7
100
AcDbLine
 10
1101.2046387895
 20
918.721132401
 30
0.0
 11
1101.2046387895
 21
924.2135886583
 31
0.0
  0
LINE
  5
31D
330
1F
100
AcDbEntity
  8
0
  6
CONTINUOUS
 62
     7
100
AcDbLine
 10
1117.4836908012
 20
923.3604450259
 30
0.0
 11
1101.2046387895
 21
924.2135886583
 31
0.0
  0
LINE
  5
31E
330
1F
100
AcDbEntity
  8
0
  6
CONTINUOUS
 62
     7
100
AcDbLine
 10
1117.4836908012
 20
923.3604450259
 30
0.0
 11
1117.5232878431
 21
923.1288139257
 31
0.0
  0
ARC
  5
31F
330
1F
100
AcDbEntity
  8
0
  6
CONTINUOUS
 62
     7
100
AcDbCircle
 10
1084.7809293237
 20
921.2837856743
 30
0.0
 40
32.79430088686427
100
AcDbArc
 50
356.7747999977
 51
3.2252000023
  0
LINE
  5
320
330
1F
100
AcDbEntity
  8
0
  6
CONTINUOUS
 62
     7
100
AcDbLine
 10
1117.4836908012
 20
690.3206784758
 30
0.0
 11
1117.5232878431
 21
688.7499023709
 31
0.0
  0
ARC
  5
321
330
1F
100
AcDbEntity
  8
0
  6
CONTINUOUS
 62
     7
100
AcDbCircle
 10
1084.7809293237
 20
686.9048741195
 30
0.0
 40
32.79430088686609
100
AcDbArc
 50
356.7747999977
 51
3.2252000023
  0
LINE
  5
322
330
1F
100
AcDbEntity
  8
0
  6
CONTINUOUS
 62
     7
100
AcDbLine
 10
1117.4932200938
 20
684.8839525614
 30
0.0
 11
1117.4836926638
 21
684.8282147679
 31
0.0
  0
LINE
  5
323
330
1F
100
AcDbEntity
  8
0
  6
CONTINUOUS
 62
     7
100
AcDbLine
 10
1101.2046387895
 20
683.9750711355
 30
0.0
 11
1117.4836908012
 21
684.8282147679
 31
0.0
  0
LINE
  5
324
330
1F
100
AcDbEntity
  8
0
  6
CONTINUOUS
 62
     7
100
AcDbLine
 10
1101.2046387895
 20
683.9750711355
 30
0.0
 11
1101.2046387895
 21
689.4675273928
 31
0.0
  0
ARC
  5
325
330
1F
100
AcDbEntity
  8
0
  6
CONTINUOUS
 62
     7
100
AcDbCircle
 10
1117.8288645184
 20
917.11623706
 30
0.0
 40
2.342536646530911
100
AcDbArc
 50
48.4061071433
 51
97.4954184916
  0
LWPOLYLINE
  5
326
330
1F
100
AcDbEntity
  8
0
  6
CONTINUOUS
 62
     7
100
AcDbPolyline
 90
        3
 70
   128
 43
0.0
 10
1119.3698108672
 20
917.867981318
 10
1119.3742644518
 20
918.4336368475
 10
1119.3839483439
 20
918.8681398067
  0
LINE
  5
327
330
1F
100
AcDbEntity
  8
0
  6
CONTINUOUS
 62
     7
100
AcDbLine
 10
1119.3698108672
 20
917.867981318
 30
0.0
 11
1117.4836926638
 21
917.867981318
 31
0.0
  0
LINE
  5
328
330
1F
100
AcDbEntity
  8
0
  6
CONTINUOUS
 62
     7
100
AcDbLine
 10
1119.3698108672
 20
792.8871069584
 30
0.0
 11
1119.3698108672
 21
690.3206784758
 31
0.0
  0
LINE
  5
329
330
1F
100
AcDbEntity
  8
0
  6
CONTINUOUS
 62
     7
100
AcDbLine
 10
1117.4836908012
 20
690.3206784758
 30
0.0
 11
1119.3698108672
 21
690.3206784758
 31
0.0
  0
ELLIPSE
  5
32A
330
1F
100
AcDbEntity
  8
0
  6
CONTINUOUS
 62
     7
100
AcDbEllipse
 10
1117.3790187408
 20
792.7822910005
 30
0.0
 11
1.999999931706043
 21
0.1043356303283645
 31
0.0
210
0.0
220
0.0
230
0.9999999999999998
 40
0.0050094303
 41
0.0957317778246412
 42
1.518175118197101
  0
LINE
  5
32B
330
1F
100
AcDbEntity
  8
0
  6
CONTINUOUS
 62
     7
100
AcDbLine
 10
1119.3698108672
 20
917.867981318
 30
0.0
 11
1119.3698108672
 21
815.3015528354
 31
0.0
  0
ELLIPSE
  5
32C
330
1F
100
AcDbEntity
  8
0
  6
CONTINUOUS
 62
     7
100
AcDbEllipse
 10
1117.3790187408
 20
815.4063687933
 30
0.0
 11
1.999999931706043
 21
-0.1043356303282508
 31
0.0
210
0.0
220
0.0
230
1.0
 40
0.0050094303
 41
4.765010188982462
 42
6.187453529357691
  0
LWPOLYLINE
  5
32D
330
1F
100
AcDbEntity
  8
0
  6
CONTINUOUS
 62
     7
100
AcDbPolyline
 90
        3
 70
   128
 43
0.0
 10
1119.3839483439
 20
689.3205199871
 10
1119.3725619941
 20
689.8754988346
 10
1119.3698108672
 20
690.3206784758
  0
ARC
  5
32E
330
1F
100
AcDbEntity
  8
0
  6
CONTINUOUS
 62
     7
100
AcDbCircle
 10
1117.7956313608
 20
691.1807634525
 30
0.0
 40
2.446069620760412
100
AcDbArc
 50
263.6074777123
 51
310.4914321408
  0
LINE
  5
32F
330
1F
100
AcDbEntity
  8
0
  6
CONTINUOUS
 62
     7
100
AcDbLine
 10
1119.3698108672
 20
815.3015528354
 30
0.0
 11
1119.5502182945
 21
815.3015528354
 31
0.0
  0
LINE
  5
330
330
1F
100
AcDbEntity
  8
0
  6
CONTINUOUS
 62
     7
100
AcDbLine
 10
1120.6442559614
 20
815.2436599616
 30
0.0
 11
1119.5502182945
 21
815.3015528354
 31
0.0
  0
LINE
  5
331
330
1F
100
AcDbEntity
  8
0
  6
CONTINUOUS
 62
     7
100
AcDbLine
 10
1120.6442559614
 20
815.2436599616
 30
0.0
 11
1120.3200486033
 21
815.2436599616
 31
0.0
  0
LINE
  5
332
330
1F
100
AcDbEntity
  8
0
  6
CONTINUOUS
 62
     7
100
AcDbLine
 10
1120.6442559614
 20
792.9449998323
 30
0.0
 11
1119.5502182945
 21
792.8871069584
 31
0.0
  0
LINE
  5
333
330
1F
100
AcDbEntity
  8
0
  6
CONTINUOUS
 62
     7
100
AcDbLine
 10
1119.3698108672
 20
792.8871069584
 30
0.0
 11
1119.5502182945
 21
792.8871069584
 31
0.0
  0
LINE
  5
334
330
1F
100
AcDbEntity
  8
0
  6
CONTINUOUS
 62
     7
100
AcDbLine
 10
1120.3200486033
 20
792.9449998323
 30
0.0
 11
1120.6442559614
 21
792.9449998323
 31
0.0
  0
LINE
  5
335
330
1F
100
AcDbEntity
  8
0
  6
CONTINUOUS
 62
     7
100
AcDbLine
 10
1122.2338000789
 20
794.9422592777
 30
0.0
 11
1122.5213375419
 21
794.9422592777
 31
0.0
  0
ELLIPSE
  5
336
330
1F
100
AcDbEntity
  8
0
  6
CONTINUOUS
 62
     7
100
AcDbEllipse
 10
1120.5405914826
 20
794.9422590303
 30
0.0
 11
0.0
 21
2.0
 31
0.0
210
0.0
220
0.0
230
1.0
 40
0.9903731353
 41
3.193952531149632
 42
4.712388980384704
  0
ELLIPSE
  5
337
330
1F
100
AcDbEntity
  8
0
  6
CONTINUOUS
 62
     7
100
AcDbEllipse
 10
1120.5405914826
 20
813.2464007635
 30
0.0
 11
0.0
 21
1.999999999999886
 31
0.0
210
0.0
220
0.0
230
1.0
 40
0.9903731353
 41
4.712388980384704
 42
6.230825429619776
  0
LINE
  5
338
330
1F
100
AcDbEntity
  8
0
  6
CONTINUOUS
 62
     7
100
AcDbLine
 10
1122.5213375419
 20
813.2464005161
 30
0.0
 11
1122.2338000789
 21
813.2464005161
 31
0.0
  0
LINE
  5
339
330
1F
100
AcDbEntity
  8
0
  6
CONTINUOUS
 62
     7
100
AcDbLine
 10
1119.2477116837
 20
921.8918834362
 30
0.0
 11
1119.3839483439
 21
921.4080576334
 31
0.0
  0
LINE
  5
33A
330
1F
100
AcDbEntity
  8
0
  6
CONTINUOUS
 62
     7
100
AcDbLine
 10
1119.3839483439
 20
921.4080576334
 30
0.0
 11
1119.3966012924
 21
921.1962823305
 31
0.0
  0
LINE
  5
33B
330
1F
100
AcDbEntity
  8
0
  6
CONTINUOUS
 62
     7
100
AcDbLine
 10
1119.4029687449
 20
687.0989878211
 30
0.0
 11
1119.3839483439
 21
686.7806021604
 31
0.0
  0
LINE
  5
33C
330
1F
100
AcDbEntity
  8
0
  6
CONTINUOUS
 62
     7
100
AcDbLine
 10
1119.2596372693
 20
686.2650666866
 30
0.0
 11
1119.3839492752
 21
686.7806021604
 31
0.0
  0
LINE
  5
33D
330
1F
100
AcDbEntity
  8
0
  6
CONTINUOUS
 62
     7
100
AcDbLine
 10
1122.5213375419
 20
813.2464005161
 30
0.0
 11
1122.5213375419
 21
794.9422592777
 31
0.0
  0
LINE
  5
33E
330
1F
100
AcDbEntity
  8
0
  6
CONTINUOUS
 62
     7
100
AcDbLine
 10
1119.4676919385
 20
917.9984260831
 30
0.0
 11
1119.4676919385
 21
920.5383439097
 31
0.0
  0
LINE
  5
33F
330
1F
100
AcDbEntity
  8
0
  6
CONTINUOUS
 62
     7
100
AcDbLine
 10
1119.3839483439
 20
918.8681398067
 30
0.0
 11
1119.4676919385
 21
917.9984260831
 31
0.0
  0
LINE
  5
340
330
1F
100
AcDbEntity
  8
0
  6
CONTINUOUS
 62
     7
100
AcDbLine
 10
1119.4676919385
 20
920.5383439097
 30
0.0
 11
1119.3839483439
 21
921.4080576334
 31
0.0
  0
LINE
  5
341
330
1F
100
AcDbEntity
  8
0
  6
CONTINUOUS
 62
     7
100
AcDbLine
 10
1119.4676919385
 20
687.6503158841
 30
0.0
 11
1119.4676919385
 21
690.1902337107
 31
0.0
  0
LINE
  5
342
330
1F
100
AcDbEntity
  8
0
  6
CONTINUOUS
 62
     7
100
AcDbLine
 10
1119.3839483439
 20
686.7806021604
 30
0.0
 11
1119.4676919385
 21
687.6503158841
 31
0.0
  0
LINE
  5
343
330
1F
100
AcDbEntity
  8
0
  6
CONTINUOUS
 62
     7
100
AcDbLine
 10
1119.4676919385
 20
690.1902337107
 30
0.0
 11
1119.3839483439
 21
689.3205199871
 31
0.0
  0
LINE
  5
344
330
1F
100
AcDbEntity
  8
0
  6
CONTINUOUS
 62
     7
100
AcDbLine
 10
1119.4676919385
 20
917.9984260831
 30
0.0
 11
1119.4676919385
 21
901.4792446527
 31
0.0
  0
LINE
  5
345
330
1F
100
AcDbEntity
  8
0
  6
CONTINUOUS
 62
     7
100
AcDbLine
 10
1120.345962654
 20
901.4332149658
 30
0.0
 11
1119.4676919385
 21
901.4792446527
 31
0.0
  0
LINE
  5
346
330
1F
100
AcDbEntity
  8
0
  6
CONTINUOUS
 62
     7
100
AcDbLine
 10
1119.4676919385
 20
706.7094151411
 30
0.0
 11
1120.345962654
 21
706.755444828
 31
0.0
  0
LINE
  5
347
330
1F
100
AcDbEntity
  8
0
  6
CONTINUOUS
 62
     7
100
AcDbLine
 10
1119.4676919385
 20
706.7094151411
 30
0.0
 11
1119.4676919385
 21
690.1902337107
 31
0.0
  0
LINE
  5
348
330
1F
100
AcDbEntity
  8
0
  6
CONTINUOUS
 62
     7
100
AcDbLine
 10
1120.0630445509
 20
901.7328028116
 30
0.0
 11
1119.4676919385
 21
901.7640058431
 31
0.0
  0
ARC
  5
349
330
1F
100
AcDbEntity
  8
0
  6
CONTINUOUS
 62
     7
100
AcDbCircle
 10
1120.0467395175
 20
901.4340231529
 30
0.0
 40
0.2992242279126038
100
AcDbArc
 50
359.8452472699
 51
86.8763473918
  0
LINE
  5
34A
330
1F
100
AcDbEntity
  8
0
  6
CONTINUOUS
 62
     7
100
AcDbLine
 10
1119.4676919385
 20
706.4246539507
 30
0.0
 11
1120.0630445509
 21
706.4558569822
 31
0.0
  0
ARC
  5
34B
330
1F
100
AcDbEntity
  8
0
  6
CONTINUOUS
 62
     7
100
AcDbCircle
 10
1120.0467395175
 20
706.7546366409
 30
0.0
 40
0.2992242279126034
100
AcDbArc
 50
273.1236526082
 51
0.1547527301
  0
ARC
  5
34C
330
1F
100
AcDbEntity
  8
0
  6
CONTINUOUS
 62
     7
100
AcDbCircle
 10
1117.3790187408
 20
921.3631841246
 30
0.0
 40
1.999999999999978
100
AcDbArc
 50
5.5
 51
77.448896547
  0
LWPOLYLINE
  5
34D
330
1F
100
AcDbEntity
  8
0
  6
CONTINUOUS
 62
     7
100
AcDbPolyline
 90
        3
 70
   128
 43
0.0
 10
1119.3839483439
 20
921.4080576334
 10
1119.3725619941
 20
921.526305798
 10
1119.3698108672
 20
921.5548787746
  0
LWPOLYLINE
  5
34E
330
1F
100
AcDbEntity
  8
0
  6
CONTINUOUS
 62
     7
100
AcDbPolyline
 90
        3
 70
   128
 43
0.0
 10
1119.3698108672
 20
686.6337810192
 10
1119.3742644518
 20
686.6800342235
 10
1119.3839483439
 20
686.7806021604
  0
ARC
  5
34F
330
1F
100
AcDbEntity
  8
0
  6
CONTINUOUS
 62
     7
100
AcDbCircle
 10
1117.3790187408
 20
686.8254756693
 30
0.0
 40
2.000000000000032
100
AcDbArc
 50
273.0
 51
354.5
  0
LWPOLYLINE
  5
350
330
1F
100
AcDbEntity
  8
0
  6
CONTINUOUS
 62
     7
100
AcDbPolyline
 90
        3
 70
   128
 43
0.0
 10
1120.7559690356
 20
706.7801584039
 10
1120.473932895
 20
706.7632455859
 10
1120.345962654
 20
706.755444828
  0
ARC
  5
351
330
1F
100
AcDbEntity
  8
0
  6
CONTINUOUS
 62
     7
100
AcDbCircle
 10
1120.4868078586
 20
706.7474724695
 30
0.0
 40
0.271138542979046
100
AcDbArc
 50
280.1419035675
 51
6.9238846554
  0
LWPOLYLINE
  5
352
330
1F
100
AcDbEntity
  8
0
  6
CONTINUOUS
 62
     7
100
AcDbPolyline
 90
        3
 70
   128
 43
0.0
 10
1120.0630445509
 20
706.4558569822
 10
1120.2445444196
 20
706.4653713736
 10
1120.5345517501
 20
706.4805705581
  0
ARC
  5
353
330
1F
100
AcDbEntity
  8
0
  6
CONTINUOUS
 62
     7
100
AcDbCircle
 10
1120.4867984737
 20
901.4411805367
 30
0.0
 40
0.2711470412897917
100
AcDbArc
 50
353.0777782457
 51
79.8562031457
  0
LWPOLYLINE
  5
354
330
1F
100
AcDbEntity
  8
0
  6
CONTINUOUS
 62
     7
100
AcDbPolyline
 90
        3
 70
   128
 43
0.0
 10
1120.345962654
 20
901.4332149658
 10
1120.4739962249
 20
901.4254142079
 10
1120.7559690356
 20
901.40850139
  0
LWPOLYLINE
  5
355
330
1F
100
AcDbEntity
  8
0
  6
CONTINUOUS
 62
     7
100
AcDbPolyline
 90
        3
 70
   128
 43
0.0
 10
1120.5345517501
 20
901.7080892358
 10
1120.1871600478
 20
901.7262984547
 10
1120.0630445509
 20
901.7328028116
  0
ARC
  5
356
330
1F
100
AcDbEntity
  8
0
  6
CONTINUOUS
 62
     7
100
AcDbCircle
 10
1120.0804409483
 20
703.4868219172
 30
0.0
 40
3.361904729639403
100
AcDbArc
 50
50.2320882661
 51
78.4082939725
  0
ARC
  5
357
330
1F
100
AcDbEntity
  8
0
  6
CONTINUOUS
 62
     7
100
AcDbCircle
 10
1120.0404117778
 20
904.7853847929
 30
0.0
 40
3.451863801794859
100
AcDbArc
 50
281.963932722
 51
309.4005580286
  0
ARC
  5
358
330
1F
100
AcDbEntity
  8
0
  6
CONTINUOUS
 62
     7
100
AcDbCircle
 10
1120.0812551706
 20
700.8897792051
 30
0.0
 40
5.609137700339772
100
AcDbArc
 50
67.4605688772
 51
85.3646468113
  0
LINE
  5
359
330
1F
100
AcDbEntity
  8
0
  6
CONTINUOUS
 62
     7
100
AcDbLine
 10
1120.5345517501
 20
901.7080892358
 30
0.0
 11
1120.8909521356
 21
901.7373327646
 31
0.0
  0
LINE
  5
35A
330
1F
100
AcDbEntity
  8
0
  6
CONTINUOUS
 62
     7
100
AcDbLine
 10
1119.4676919385
 20
705.9494857225
 30
0.0
 11
1119.9415246501
 21
705.9494857225
 31
0.0
  0
ARC
  5
35B
330
1F
100
AcDbEntity
  8
0
  6
CONTINUOUS
 62
     7
100
AcDbCircle
 10
1123.5809882847
 20
710.0719110081
 30
0.0
 40
5.498597508032429
100
AcDbArc
 50
221.5771493143
 51
228.560644912
  0
LINE
  5
35C
330
1F
100
AcDbEntity
  8
0
  6
CONTINUOUS
 62
     7
100
AcDbLine
 10
1122.2321991354
 20
706.0704235468
 30
0.0
 11
1119.941478084
 21
705.9503723416
 31
0.0
  0
ARC
  5
35D
330
1F
100
AcDbEntity
  8
0
  6
CONTINUOUS
 62
     7
100
AcDbCircle
 10
1124.3420953044
 20
897.3531076666
 30
0.0
 40
6.57508980615499
100
AcDbArc
 50
132.0137599326
 51
137.8460297904
  0
LINE
  5
35E
330
1F
100
AcDbEntity
  8
0
  6
CONTINUOUS
 62
     7
100
AcDbLine
 10
1119.9415218561
 20
902.2382800016
 30
0.0
 11
1122.2320156648
 21
902.1171335611
 31
0.0
  0
LINE
  5
35F
330
1F
100
AcDbEntity
  8
0
  6
CONTINUOUS
 62
     7
100
AcDbLine
 10
1119.9415218561
 20
902.2391740713
 30
0.0
 11
1119.4676919385
 21
902.2391740713
 31
0.0
  0
ARC
  5
360
330
1F
100
AcDbEntity
  8
0
  6
CONTINUOUS
 62
     7
100
AcDbCircle
 10
1119.967702969
 20
699.9577041941
 30
0.0
 40
0.5000110305860098
100
AcDbArc
 50
93.0011203255
 51
179.9988872026
  0
ARC
  5
361
330
1F
100
AcDbEntity
  8
0
  6
CONTINUOUS
 62
     7
100
AcDbCircle
 10
1428.9985577622
 20
703.2032575939
 30
0.0
 40
309.0692341288511
100
AcDbArc
 50
179.4908928663
 51
180.5091071337
  0
LINE
  5
362
330
1F
100
AcDbEntity
  8
0
  6
CONTINUOUS
 62
     7
100
AcDbLine
 10
1119.9373644321
 20
907.6208699975
 30
0.0
 11
1119.9415218561
 21
907.7316377792
 31
0.0
  0
LINE
  5
363
330
1F
100
AcDbEntity
  8
0
  6
CONTINUOUS
 62
     7
100
AcDbLine
 10
1122.2320156648
 20
902.1171335611
 30
0.0
 11
1142.8046379714
 21
901.0378499064
 31
0.0
  0
LINE
  5
364
330
1F
100
AcDbEntity
  8
0
  6
CONTINUOUS
 62
     7
100
AcDbLine
 10
1122.4256273835
 20
907.6014463339
 30
0.0
 11
1119.9415209248
 21
907.7316303286
 31
0.0
  0
LINE
  5
365
330
1F
100
AcDbEntity
  8
0
  6
CONTINUOUS
 62
     7
100
AcDbLine
 10
1142.8046379714
 20
906.533427957
 30
0.0
 11
1122.4255687102
 21
907.6014537844
 31
0.0
  0
LINE
  5
366
330
1F
100
AcDbEntity
  8
0
  6
CONTINUOUS
 62
     7
100
AcDbLine
 10
1142.8046379714
 20
906.533427957
 30
0.0
 11
1142.8046379714
 21
901.0378499064
 31
0.0
  0
LINE
  5
367
330
1F
100
AcDbEntity
  8
0
  6
CONTINUOUS
 62
     7
100
AcDbLine
 10
1122.4256376281
 20
700.5872134599
 30
0.0
 11
1142.8046379714
 21
701.6552318368
 31
0.0
  0
LINE
  5
368
330
1F
100
AcDbEntity
  8
0
  6
CONTINUOUS
 62
     7
100
AcDbLine
 10
1119.941478084
 20
700.4570220146
 30
0.0
 11
1122.4256963014
 21
700.5872134599
 31
0.0
  0
LINE
  5
369
330
1F
100
AcDbEntity
  8
0
  6
CONTINUOUS
 62
     7
100
AcDbLine
 10
1142.8046379714
 20
707.1508098874
 30
0.0
 11
1122.23208272
 21
706.0726438198
 31
0.0
  0
LINE
  5
36A
330
1F
100
AcDbEntity
  8
0
  6
CONTINUOUS
 62
     7
100
AcDbLine
 10
1142.8046379714
 20
707.1508098874
 30
0.0
 11
1142.8046379714
 21
701.6552318368
 31
0.0
  0
LINE
  5
36B
330
1F
100
AcDbEntity
  8
0
  6
CONTINUOUS
 62
     7
100
AcDbLine
 10
1142.8046379714
 20
901.0378499064
 30
0.0
 11
1142.8046379714
 21
707.1508098874
 31
0.0
  0
ARC
  5
36C
330
1F
100
AcDbEntity
  8
0
  6
CONTINUOUS
 62
     7
100
AcDbCircle
 10
1122.4974356684
 20
910.5519672113
 30
0.0
 40
2.951394315682114
100
AcDbArc
 50
233.1666771241
 51
268.6060383326
  0
LINE
  5
36D
330
1F
100
AcDbEntity
  8
0
  6
CONTINUOUS
 62
     7
100
AcDbLine
 10
1119.4689864769
 20
908.2557116184
 30
0.0
 11
1120.7281066581
 21
908.1897218261
 31
0.0
  0
ARC
  5
36E
330
1F
100
AcDbEntity
  8
0
  6
CONTINUOUS
 62
     7
100
AcDbCircle
 10
1122.5115256861
 20
697.5959506127
 30
0.0
 40
2.992479182556905
100
AcDbArc
 50
91.6584969445
 51
126.5816025365
  0
LINE
  5
36F
330
1F
100
AcDbEntity
  8
0
  6
CONTINUOUS
 62
     7
100
AcDbLine
 10
1120.7281066581
 20
699.9989379678
 30
0.0
 11
1119.4689864769
 21
699.9329481754
 31
0.0
  0
ARC
  5
370
330
1F
100
AcDbEntity
  8
0
  6
CONTINUOUS
 62
     7
100
AcDbCircle
 10
1119.4263039485
 20
909.9833684948
 30
0.0
 40
2.216271343284452
100
AcDbArc
 50
305.9716000665
 51
313.4159294265
  0
ARC
  5
371
330
1F
100
AcDbEntity
  8
0
  6
CONTINUOUS
 62
     7
100
AcDbCircle
 10
1122.530306358
 20
909.5986982842
 30
0.0
 40
1.999992724032015
100
AcDbArc
 50
217.7776456074
 51
267.0000803736
  0
ARC
  5
372
330
1F
100
AcDbEntity
  8
0
  6
CONTINUOUS
 62
     7
100
AcDbCircle
 10
1119.4271613863
 20
698.2062516411
 30
0.0
 40
2.21498445884028
100
AcDbArc
 50
46.5831081962
 51
54.0316453887
  0
ARC
  5
373
330
1F
100
AcDbEntity
  8
0
  6
CONTINUOUS
 62
     7
100
AcDbCircle
 10
1122.5302962839
 20
698.5899765918
 30
0.0
 40
1.999975522140101
100
AcDbArc
 50
93.0312368267
 51
142.2225191053
  0
LWPOLYLINE
  5
374
330
1F
100
AcDbEntity
  8
0
  6
CONTINUOUS
 62
     7
100
AcDbPolyline
 90
        3
 70
   128
 43
0.0
 10
1120.256599459
 20
909.3782607946
 10
1120.4381021216
 20
908.6786736283
 10
1120.7281066581
 20
908.1897218261
  0
LINE
  5
375
330
1F
100
AcDbEntity
  8
0
  6
CONTINUOUS
 62
     7
100
AcDbLine
 10
1119.4676919385
 20
917.5713737044
 30
0.0
 11
1120.256599459
 21
909.3782607946
 31
0.0
  0
LWPOLYLINE
  5
376
330
1F
100
AcDbEntity
  8
0
  6
CONTINUOUS
 62
     7
100
AcDbPolyline
 90
        3
 70
   128
 43
0.0
 10
1120.7281066581
 20
699.9989379678
 10
1120.3807121619
 20
699.3653405938
 10
1120.256599459
 20
698.8103989992
  0
LINE
  5
377
330
1F
100
AcDbEntity
  8
0
  6
CONTINUOUS
 62
     7
100
AcDbLine
 10
1120.2565985277
 20
698.8103989992
 30
0.0
 11
1119.4676919385
 21
690.6172860894
 31
0.0
  0
ARC
  5
378
330
1F
100
AcDbEntity
  8
0
  6
CONTINUOUS
 62
     7
100
AcDbCircle
 10
1118.9954493448
 20
684.9942844376
 30
0.0
 40
13.87355465767764
100
AcDbArc
 50
83.6099824676
 51
84.7844358765
  0
LINE
  5
379
330
1F
100
AcDbEntity
  8
0
  6
CONTINUOUS
 62
     7
100
AcDbLine
 10
1120.539517562
 20
698.7816472087
 30
0.0
 11
1119.4676919385
 21
687.6503158841
 31
0.0
  0
ARC
  5
37A
330
1F
100
AcDbEntity
  8
0
  6
CONTINUOUS
 62
     7
100
AcDbCircle
 10
1118.9953361267
 20
923.1954485733
 30
0.0
 40
13.87463380797719
100
AcDbArc
 50
275.2156306835
 51
276.3899889154
  0
LINE
  5
37B
330
1F
100
AcDbEntity
  8
0
  6
CONTINUOUS
 62
     7
100
AcDbLine
 10
1119.4676919385
 20
920.5383439097
 30
0.0
 11
1120.539517562
 21
909.4070125851
 31
0.0
  0
LWPOLYLINE
  5
37C
330
1F
100
AcDbEntity
  8
0
  6
CONTINUOUS
 62
     7
100
AcDbPolyline
 90
        3
 70
   128
 43
0.0
 10
1120.9495239436
 20
908.3735052976
 10
1120.667487803
 20
908.8707644973
 10
1120.539517562
 20
909.4070125851
  0
LWPOLYLINE
  5
37D
330
1F
100
AcDbEntity
  8
0
  6
CONTINUOUS
 62
     7
100
AcDbPolyline
 90
        3
 70
   128
 43
0.0
 10
1120.539517562
 20
698.7816472087
 10
1120.667551133
 20
699.3180592093
 10
1120.9495239436
 20
699.8151544962
  0
LINE
  5
37E
330
1F
100
AcDbEntity
  8
0
  6
CONTINUOUS
 62
     8
100
AcDbLine
 10
1117.5232897057
 20
685.0598458681
 30
0.0
 11
1117.4932200938
 21
684.8839525614
 31
0.0
  0
ARC
  5
37F
330
1F
100
AcDbEntity
  8
0
  6
CONTINUOUS
 62
     8
100
AcDbCircle
 10
1117.5330726546
 20
921.3219669236
 30
0.0
 40
1.80687349632578
100
AcDbArc
 50
18.3859191926
 51
90.3102769185
  0
ARC
  5
380
330
1F
100
AcDbEntity
  8
0
  6
CONTINUOUS
 62
     8
100
AcDbCircle
 10
1095.0845714902
 20
920.1643072823
 30
0.0
 40
24.33392211714804
100
AcDbArc
 50
356.9466455711
 51
2.4305803483
  0
ARC
  5
381
330
1F
100
AcDbEntity
  8
0
  6
CONTINUOUS
 62
     8
100
AcDbCircle
 10
1093.9318936747
 20
687.9917560827
 30
0.0
 40
25.48671615567808
100
AcDbArc
 50
357.9925887817
 51
2.9885017355
  0
ARC
  5
382
330
1F
100
AcDbEntity
  8
0
  6
CONTINUOUS
 62
     8
100
AcDbCircle
 10
1117.430638382
 20
687.0467059335
 30
0.0
 40
1.989019065282871
100
AcDbArc
 50
272.6698309311
 51
336.8601199616
  0
LINE
  5
383
330
1F
100
AcDbEntity
  8
0
  6
CONTINUOUS
 62
     8
100
AcDbLine
 10
1120.345962654
 20
706.755444828
 30
0.0
 11
1120.345962654
 21
792.9292148459
 31
0.0
  0
LINE
  5
384
330
1F
100
AcDbEntity
  8
0
  6
CONTINUOUS
 62
     8
100
AcDbLine
 10
1120.345962654
 20
815.2594449479
 30
0.0
 11
1120.345962654
 21
901.4332149658
 31
0.0
  0
LINE
  5
385
330
1F
100
AcDbEntity
  8
0
  6
CONTINUOUS
 62
     8
100
AcDbLine
 10
1122.23208272
 20
902.1171335611
 30
0.0
 11
1122.23208272
 21
814.2870557043
 31
0.0
  0
LINE
  5
386
330
1F
100
AcDbEntity
  8
0
  6
CONTINUOUS
 62
     8
100
AcDbLine
 10
1122.23208272
 20
793.9016040895
 30
0.0
 11
1122.23208272
 21
706.0726438198
 31
0.0
  0
ARC
  5
387
330
1F
100
AcDbEntity
  8
0
  6
CONTINUOUS
 62
     8
100
AcDbCircle
 10
1118.5451642556
 20
912.5421052396
 30
0.0
 40
11.05648357358869
100
AcDbArc
 50
282.2491989176
 51
289.4760936729
  0
ARC
  5
388
330
1F
100
AcDbEntity
  8
0
  6
CONTINUOUS
 62
     8
100
AcDbCircle
 10
1497.9867134175
 20
905.2215724925
 30
0.0
 40
378.0569625027471
100
AcDbArc
 50
179.6363761092
 51
180.4521325084
  0
ARC
  5
389
330
1F
100
AcDbEntity
  8
0
  6
CONTINUOUS
 62
     7
100
AcDbCircle
 10
467.9725723905
 20
689.5336177184
 30
0.0
 40
3.554430725221924
100
AcDbArc
 50
270.0411334232
 51
359.9588665768
  0
LINE
  5
38A
330
1F
100
AcDbEntity
  8
0
  6
CONTINUOUS
 62
     7
100
AcDbLine
 10
471.5270021998
 20
918.6575938496
 30
0.0
 11
471.5270021998
 21
689.5310659442
 31
0.0
  0
ARC
  5
38B
330
1F
100
AcDbEntity
  8
0
  6
CONTINUOUS
 62
     7
100
AcDbCircle
 10
467.9725925171
 20
918.655062202
 30
0.0
 40
3.554410584274082
100
AcDbArc
 50
0.0408092235
 51
89.9591907765
  0
LINE
  5
38C
330
1F
100
AcDbEntity
  8
0
  6
CONTINUOUS
 62
     7
100
AcDbLine
 10
242.2485942088
 20
922.2094718847
 30
0.0
 11
467.9751241647
 21
922.2094718847
 31
0.0
  0
ARC
  5
38D
330
1F
100
AcDbEntity
  8
0
  6
CONTINUOUS
 62
     7
100
AcDbCircle
 10
242.2511335158
 20
918.6550470867
 30
0.0
 40
3.554425705027332
100
AcDbArc
 50
90.0409325157
 51
179.9589472982
  0
LINE
  5
38E
330
1F
100
AcDbEntity
  8
0
  6
CONTINUOUS
 62
     7
100
AcDbLine
 10
238.6967087232
 20
918.6575938496
 30
0.0
 11
238.6967087232
 21
689.5310659442
 31
0.0
  0
ARC
  5
38F
330
1F
100
AcDbEntity
  8
0
  6
CONTINUOUS
 62
     7
100
AcDbCircle
 10
242.2511183929
 20
689.5335975841
 30
0.0
 40
3.554410571261061
100
AcDbArc
 50
180.0408090994
 51
269.9593110867
  0
LINE
  5
390
330
1F
100
AcDbEntity
  8
0
  6
CONTINUOUS
 62
     7
100
AcDbLine
 10
467.9751241647
 20
685.9791879091
 30
0.0
 11
242.2485942088
 21
685.9791879091
 31
0.0
  0
LINE
  5
391
330
1F
100
AcDbEntity
  8
0
  6
CONTINUOUS
 62
     7
100
AcDbLine
 10
236.6925919496
 20
689.4675273928
 30
0.0
 11
236.6925919496
 21
918.721132401
 31
0.0
  0
ELLIPSE
  5
392
330
1F
100
AcDbEntity
  8
0
  6
CONTINUOUS
 62
     7
100
AcDbEllipse
 10
242.2001413388
 20
689.4826155656
 30
0.0
 11
-3.899754338892848
 21
-3.89975433889299
 31
0.0
210
0.0
220
0.0
230
0.9999999999999998
 40
0.9972646886
 41
5.499156671652549
 42
7.067213942706635
  0
ELLIPSE
  5
393
330
1F
100
AcDbEntity
  8
0
  6
CONTINUOUS
 62
     7
100
AcDbEllipse
 10
242.2001413388
 20
918.7060442282
 30
0.0
 11
-3.899754338892848
 21
3.89975433889299
 31
0.0
210
0.0
220
0.0
230
0.9999999999999998
 40
0.9972646886
 41
5.499156671652572
 42
7.067213942706644
  0
LINE
  5
394
330
1F
100
AcDbEntity
  8
0
  6
CONTINUOUS
 62
     7
100
AcDbLine
 10
242.1850556575
 20
683.9750711355
 30
0.0
 11
468.0386552655
 21
683.9750711355
 31
0.0
  0
LINE
  5
395
330
1F
100
AcDbEntity
  8
0
  6
CONTINUOUS
 62
     7
100
AcDbLine
 10
468.0386552655
 20
924.2135886583
 30
0.0
 11
242.1850556575
 21
924.2135886583
 31
0.0
  0
ELLIPSE
  5
396
330
1F
100
AcDbEntity
  8
0
  6
CONTINUOUS
 62
     7
100
AcDbEllipse
 10
468.0235700014
 20
918.7060442282
 30
0.0
 11
-3.899754338892876
 21
-3.899754338892762
 31
0.0
210
0.0
220
0.0
230
0.9999999999999998
 40
0.9972646886
 41
2.357564018062769
 42
3.925621289116871
  0
LINE
  5
397
330
1F
100
AcDbEntity
  8
0
  6
CONTINUOUS
 62
     7
100
AcDbLine
 10
473.5311189734
 20
689.4675273928
 30
0.0
 11
473.5311189734
 21
918.721132401
 31
0.0
  0
ELLIPSE
  5
398
330
1F
100
AcDbEntity
  8
0
  6
CONTINUOUS
 62
     7
100
AcDbEllipse
 10
468.0235700014
 20
689.4826155656
 30
0.0
 11
-3.899754338892876
 21
3.899754338892762
 31
0.0
210
0.0
220
0.0
230
0.9999999999999998
 40
0.9972646886
 41
2.357564018062716
 42
3.925621289116824
  0
LINE
  5
399
330
1F
100
AcDbEntity
  8
0
  6
CONTINUOUS
 62
     7
100
AcDbLine
 10
471.5270021998
 20
918.6575938496
 30
0.0
 11
470.4716945134
 21
918.6575938496
 31
0.0
  0
ARC
  5
39A
330
1F
100
AcDbEntity
  8
0
  6
CONTINUOUS
 62
     7
100
AcDbCircle
 10
467.9799714348
 20
918.6624485558
 30
0.0
 40
2.491727807970691
100
AcDbArc
 50
359.8883688865
 51
90.1114601244
  0
LINE
  5
39B
330
1F
100
AcDbEntity
  8
0
  6
CONTINUOUS
 62
     7
100
AcDbLine
 10
467.9751241647
 20
921.154171649
 30
0.0
 11
467.9751241647
 21
922.2094718847
 31
0.0
  0
LINE
  5
39C
330
1F
100
AcDbEntity
  8
0
  6
CONTINUOUS
 62
     7
100
AcDbLine
 10
470.4716945134
 20
689.5310659442
 30
0.0
 11
471.5270021998
 21
689.5310659442
 31
0.0
  0
LINE
  5
39D
330
1F
100
AcDbEntity
  8
0
  6
CONTINUOUS
 62
     7
100
AcDbLine
 10
470.4716945134
 20
689.5310659442
 30
0.0
 11
470.4716945134
 21
918.6575938496
 31
0.0
  0
ARC
  5
39E
330
1F
100
AcDbEntity
  8
0
  6
CONTINUOUS
 62
     7
100
AcDbCircle
 10
467.9799824816
 20
689.5262001912
 30
0.0
 40
2.491716782680591
100
AcDbArc
 50
269.8882853649
 51
0.1118856241
  0
LINE
  5
39F
330
1F
100
AcDbEntity
  8
0
  6
CONTINUOUS
 62
     7
100
AcDbLine
 10
467.9751241647
 20
685.9791879091
 30
0.0
 11
467.9751241647
 21
687.0344881449
 31
0.0
  0
LINE
  5
3A0
330
1F
100
AcDbEntity
  8
0
  6
CONTINUOUS
 62
     7
100
AcDbLine
 10
467.9751241647
 20
921.154171649
 30
0.0
 11
242.2485942088
 21
921.154171649
 31
0.0
  0
LINE
  5
3A1
330
1F
100
AcDbEntity
  8
0
  6
CONTINUOUS
 62
     7
100
AcDbLine
 10
242.2485942088
 20
921.154171649
 30
0.0
 11
242.2485942088
 21
922.2094718847
 31
0.0
  0
LINE
  5
3A2
330
1F
100
AcDbEntity
  8
0
  6
CONTINUOUS
 62
     7
100
AcDbLine
 10
242.2485942088
 20
685.9791879091
 30
0.0
 11
242.2485942088
 21
687.0344881449
 31
0.0
  0
LINE
  5
3A3
330
1F
100
AcDbEntity
  8
0
  6
CONTINUOUS
 62
     7
100
AcDbLine
 10
242.2485942088
 20
687.0344881449
 30
0.0
 11
467.9751241647
 21
687.0344881449
 31
0.0
  0
ARC
  5
3A4
330
1F
100
AcDbEntity
  8
0
  6
CONTINUOUS
 62
     7
100
AcDbCircle
 10
242.2437222677
 20
918.6624732268
 30
0.0
 40
2.491703185142564
100
AcDbArc
 50
89.8879714712
 51
180.1121995179
  0
LINE
  5
3A5
330
1F
100
AcDbEntity
  8
0
  6
CONTINUOUS
 62
     7
100
AcDbLine
 10
238.6967087232
 20
918.6575938496
 30
0.0
 11
239.7520238601
 21
918.6575938496
 31
0.0
  0
LINE
  5
3A6
330
1F
100
AcDbEntity
  8
0
  6
CONTINUOUS
 62
     7
100
AcDbLine
 10
239.7520238601
 20
689.5310659442
 30
0.0
 11
238.6967087232
 21
689.5310659442
 31
0.0
  0
LINE
  5
3A7
330
1F
100
AcDbEntity
  8
0
  6
CONTINUOUS
 62
     7
100
AcDbLine
 10
239.7520238601
 20
689.5310659442
 30
0.0
 11
239.7520238601
 21
918.6575938496
 31
0.0
  0
ARC
  5
3A8
330
1F
100
AcDbEntity
  8
0
  6
CONTINUOUS
 62
     7
100
AcDbCircle
 10
242.243722324
 20
689.5261866233
 30
0.0
 40
2.491703241330202
100
AcDbArc
 50
179.8878017792
 51
270.1120272318
  0
LINE
  5
3A9
330
1F
100
AcDbEntity
  8
0
  6
CONTINUOUS
 62
     7
100
AcDbLine
 10
469.7271728956
 20
917.9130796823
 30
0.0
 11
470.4716945134
 21
918.6575938496
 31
0.0
  0
LWPOLYLINE
  5
3AA
330
1F
100
AcDbEntity
  8
0
  6
CONTINUOUS
 62
     7
100
AcDbPolyline
 90
        3
 70
   128
 43
0.0
 10
469.7162205421
 20
918.1463201079
 10
469.7250569307
 20
918.0158231888
 10
469.7271728956
 20
917.9130796823
  0
ARC
  5
3AB
330
1F
100
AcDbEntity
  8
0
  6
CONTINUOUS
 62
     7
100
AcDbCircle
 10
467.2290142132
 20
917.9114921255
 30
0.0
 40
2.498267300307269
100
AcDbArc
 50
5.3935558325
 51
84.60625464
  0
LWPOLYLINE
  5
3AC
330
1F
100
AcDbEntity
  8
0
  6
CONTINUOUS
 62
     7
100
AcDbPolyline
 90
        3
 70
   128
 43
0.0
 10
467.2306025468
 20
920.4096500311
 10
467.3613527857
 20
920.4062153134
 10
467.463850423
 20
920.3986976776
  0
LINE
  5
3AD
330
1F
100
AcDbEntity
  8
0
  6
CONTINUOUS
 62
     7
100
AcDbLine
 10
467.9751241647
 20
921.154171649
 30
0.0
 11
467.2306025468
 21
920.4096500311
 31
0.0
  0
LINE
  5
3AE
330
1F
100
AcDbEntity
  8
0
  6
CONTINUOUS
 62
     7
100
AcDbLine
 10
467.2306025468
 20
687.7790097627
 30
0.0
 11
467.9751241647
 21
687.0344881449
 31
0.0
  0
LWPOLYLINE
  5
3AF
330
1F
100
AcDbEntity
  8
0
  6
CONTINUOUS
 62
     7
100
AcDbPolyline
 90
        3
 70
   128
 43
0.0
 10
467.463850423
 20
687.7899621162
 10
467.3333535038
 20
687.7811331782
 10
467.2306025468
 20
687.7790097627
  0
ARC
  5
3B0
330
1F
100
AcDbEntity
  8
0
  6
CONTINUOUS
 62
     7
100
AcDbCircle
 10
467.2290086089
 20
690.2771732726
 30
0.0
 40
2.498273406608551
100
AcDbArc
 50
275.3938612396
 51
354.6063282879
  0
LWPOLYLINE
  5
3B1
330
1F
100
AcDbEntity
  8
0
  6
CONTINUOUS
 62
     7
100
AcDbPolyline
 90
        3
 70
   128
 43
0.0
 10
469.7271728956
 20
690.2755801115
 10
469.7237381779
 20
690.1448298726
 10
469.7162205421
 20
690.0423396859
  0
LINE
  5
3B2
330
1F
100
AcDbEntity
  8
0
  6
CONTINUOUS
 62
     7
100
AcDbLine
 10
470.4716945134
 20
689.5310659442
 30
0.0
 11
469.7271728956
 21
690.2755801115
 31
0.0
  0
LWPOLYLINE
  5
3B3
330
1F
100
AcDbEntity
  8
0
  6
CONTINUOUS
 62
     7
100
AcDbPolyline
 90
        3
 70
   128
 43
0.0
 10
240.4965305768
 20
690.2755801115
 10
240.4999727451
 20
690.1448298726
 10
240.5074829303
 20
690.0423396859
  0
ARC
  5
3B4
330
1F
100
AcDbEntity
  8
0
  6
CONTINUOUS
 62
     7
100
AcDbCircle
 10
242.9946957409
 20
690.2771757036
 30
0.0
 40
2.498274508610317
100
AcDbArc
 50
185.3937253264
 51
264.6064642005
  0
LWPOLYLINE
  5
3B5
330
1F
100
AcDbEntity
  8
0
  6
CONTINUOUS
 62
     7
100
AcDbPolyline
 90
        3
 70
   128
 43
0.0
 10
242.7598679506
 20
687.7899621162
 10
242.8903574191
 20
687.7811331782
 10
242.9931158267
 20
687.7790097627
  0
LINE
  5
3B6
330
1F
100
AcDbEntity
  8
0
  6
CONTINUOUS
 62
     7
100
AcDbLine
 10
242.9931158267
 20
687.7790097627
 30
0.0
 11
242.2485942088
 21
687.0344881449
 31
0.0
  0
LINE
  5
3B7
330
1F
100
AcDbEntity
  8
0
  6
CONTINUOUS
 62
     7
100
AcDbLine
 10
239.7520238601
 20
689.5310659442
 30
0.0
 11
240.4965305768
 21
690.2755801115
 31
0.0
  0
LWPOLYLINE
  5
3B8
330
1F
100
AcDbEntity
  8
0
  6
CONTINUOUS
 62
     7
100
AcDbPolyline
 90
        3
 70
   128
 43
0.0
 10
242.9931158267
 20
920.4096500311
 10
242.8623581373
 20
920.4062153134
 10
242.7598679506
 20
920.3986976776
  0
ARC
  5
3B9
330
1F
100
AcDbEntity
  8
0
  6
CONTINUOUS
 62
     7
100
AcDbCircle
 10
242.9947108943
 20
917.9114689368
 30
0.0
 40
2.498291019311986
100
AcDbArc
 50
95.3938491214
 51
174.6059613517
  0
LWPOLYLINE
  5
3BA
330
1F
100
AcDbEntity
  8
0
  6
CONTINUOUS
 62
     7
100
AcDbPolyline
 90
        3
 70
   128
 43
0.0
 10
240.5074829303
 20
918.1463201079
 10
240.4986614429
 20
918.0158231888
 10
240.4965305768
 20
917.9130796823
  0
LINE
  5
3BB
330
1F
100
AcDbEntity
  8
0
  6
CONTINUOUS
 62
     7
100
AcDbLine
 10
240.4965305768
 20
917.9130796823
 30
0.0
 11
239.7520238601
 21
918.6575938496
 31
0.0
  0
LINE
  5
3BC
330
1F
100
AcDbEntity
  8
0
  6
CONTINUOUS
 62
     7
100
AcDbLine
 10
242.2485942088
 20
921.154171649
 30
0.0
 11
242.9931158267
 21
920.4096500311
 31
0.0
  0
LINE
  5
3BD
330
1F
100
AcDbEntity
  8
0
  6
CONTINUOUS
 62
     7
100
AcDbLine
 10
469.7271728956
 20
690.2755801115
 30
0.0
 11
469.7271728956
 21
917.9130796823
 31
0.0
  0
LINE
  5
3BE
330
1F
100
AcDbEntity
  8
0
  6
CONTINUOUS
 62
     7
100
AcDbLine
 10
242.9931158267
 20
920.4096500311
 30
0.0
 11
467.2306025468
 21
920.4096500311
 31
0.0
  0
LINE
  5
3BF
330
1F
100
AcDbEntity
  8
0
  6
CONTINUOUS
 62
     7
100
AcDbLine
 10
467.2306025468
 20
687.7790097627
 30
0.0
 11
242.9931158267
 21
687.7790097627
 31
0.0
  0
LINE
  5
3C0
330
1F
100
AcDbEntity
  8
0
  6
CONTINUOUS
 62
     7
100
AcDbLine
 10
240.4965305768
 20
690.2755801115
 30
0.0
 11
240.4965305768
 21
917.9130796823
 31
0.0
  0
LINE
  5
3C1
330
1F
100
AcDbEntity
  8
0
  6
CONTINUOUS
 62
     7
100
AcDbLine
 10
456.6100979291
 20
912.6884196434
 30
0.0
 11
355.1118554615
 21
915.3462503586
 31
0.0
  0
LWPOLYLINE
  5
3C2
330
1F
100
AcDbEntity
  8
0
  6
CONTINUOUS
 62
     7
100
AcDbPolyline
 90
        3
 70
   128
 43
0.0
 10
457.897528454
 20
912.5596363578
 10
457.1788305484
 20
912.655100647
 10
456.6100979291
 20
912.6884196434
  0
ARC
  5
3C3
330
1F
100
AcDbEntity
  8
0
  6
CONTINUOUS
 62
     7
100
AcDbCircle
 10
462.1118556701
 20
912.7943298969
 30
0.0
 40
4.220857741056292
100
AcDbArc
 50
63.4042877027
 51
183.1874269466
  0
ELLIPSE
  5
3C4
330
1F
100
AcDbEntity
  8
0
  6
CONTINUOUS
 62
     7
100
AcDbEllipse
 10
463.9117904115
 20
916.389721611
 30
0.0
 11
8.097682461993827E-5
 21
-0.2001307405796524
 31
0.0
210
0.0
220
0.0
230
0.9999999999999999
 40
0.9998101301
 41
1.571274341245248
 42
2.676183743623579
  0
LINE
  5
3C5
330
1F
100
AcDbEntity
  8
0
  6
CONTINUOUS
 62
     7
100
AcDbLine
 10
464.1118565642
 20
916.3898978863
 30
0.0
 11
464.1118565642
 21
915.3571431074
 31
0.0
  0
ELLIPSE
  5
3C6
330
1F
100
AcDbEntity
  8
0
  6
CONTINUOUS
 62
     7
100
AcDbEllipse
 10
463.9119586441
 20
915.3572383707
 30
0.0
 11
-0.0003008267175914625
 21
-0.199958585000104
 31
0.0
210
0.0
220
0.0
230
0.9999999999999999
 40
0.9997700789
 41
5.841717403586135
 42
7.855015946449893
  0
ARC
  5
3C7
330
1F
100
AcDbEntity
  8
0
  6
CONTINUOUS
 62
     7
100
AcDbCircle
 10
462.1118556701
 20
912.7943298969
 30
0.0
 40
2.931793338508744
100
AcDbArc
 50
54.2603431473
 51
213.5721134793
  0
LINE
  5
3C8
330
1F
100
AcDbEntity
  8
0
  6
CONTINUOUS
 62
     7
100
AcDbLine
 10
459.6691126071
 20
911.1730907593
 30
0.0
 11
461.4238509976
 21
909.9444080624
 31
0.0
  0
ARC
  5
3C9
330
1F
100
AcDbEntity
  8
0
  6
CONTINUOUS
 62
     7
100
AcDbCircle
 10
462.1118556701
 20
912.7943298969
 30
0.0
 40
2.931793338508813
100
AcDbArc
 50
256.4278865208
 51
305.2948520181
  0
ELLIPSE
  5
3CA
330
1F
100
AcDbEntity
  8
0
  6
CONTINUOUS
 62
     7
100
AcDbEllipse
 10
463.9117617207
 20
910.2315628137
 30
0.0
 11
0.0008398344260172052
 21
0.1999056620255715
 31
0.0
210
0.0
220
0.0
230
1.0
 40
0.9997713077
 41
4.713880492419749
 42
6.844887829172857
  0
LINE
  5
3CB
330
1F
100
AcDbEntity
  8
0
  6
CONTINUOUS
 62
     7
100
AcDbLine
 10
464.1118565642
 20
910.2305848632
 30
0.0
 11
464.1118565642
 21
909.1989327702
 31
0.0
  0
ELLIPSE
  5
3CC
330
1F
100
AcDbEntity
  8
0
  6
CONTINUOUS
 62
     7
100
AcDbEllipse
 10
463.9117576924
 20
909.198894066
 30
0.0
 11
8.221633152061258E-5
 21
-0.2001317927248465
 31
0.0
210
0.0
220
0.0
230
1.0
 40
0.9998105658
 41
0.4656912973951091
 42
1.570569204588855
  0
LWPOLYLINE
  5
3CD
330
1F
100
AcDbEntity
  8
0
  6
CONTINUOUS
 62
     7
100
AcDbPolyline
 90
        3
 70
   128
 43
0.0
 10
464.0016550266
 20
909.0201635394
 10
463.8005415045
 20
908.9260031018
 10
463.6392215334
 20
908.8595141206
  0
ELLIPSE
  5
3CE
330
1F
100
AcDbEntity
  8
0
  6
CONTINUOUS
 62
     7
100
AcDbEllipse
 10
456.3559219579
 20
903.8799810375
 30
0.0
 11
6.320305865382465
 21
6.156969385088927
 31
0.0
210
0.0
220
0.0
230
1.0
 40
0.9973341855
 41
5.512211294684015
 42
6.110121449402698
  0
LINE
  5
3CF
330
1F
100
AcDbEntity
  8
0
  6
CONTINUOUS
 62
     7
100
AcDbLine
 10
465.1679987155
 20
704.2851675782
 30
0.0
 11
465.1679987155
 21
903.9034922156
 31
0.0
  0
ELLIPSE
  5
3D0
330
1F
100
AcDbEntity
  8
0
  6
CONTINUOUS
 62
     7
100
AcDbEllipse
 10
456.3559219579
 20
704.3086787563
 30
0.0
 11
6.320305865382409
 21
-6.156969385088928
 31
0.0
210
0.0
220
0.0
230
1.0
 40
0.9973341855
 41
0.1730638577769923
 42
0.7709740124956006
  0
LWPOLYLINE
  5
3D1
330
1F
100
AcDbEntity
  8
0
  6
CONTINUOUS
 62
     7
100
AcDbPolyline
 90
        3
 70
   128
 43
0.0
 10
463.6392215334
 20
699.3291456733
 10
463.84398584
 20
699.2434043917
 10
464.0015432679
 20
699.1685558591
  0
ELLIPSE
  5
3D2
330
1F
100
AcDbEntity
  8
0
  6
CONTINUOUS
 62
     7
100
AcDbEllipse
 10
463.9117904114
 20
698.989721611
 30
0.0
 11
8.097681916297006E-5
 21
-0.2001307405882926
 31
0.0
210
0.0
220
0.0
230
1.0
 40
0.9998101301
 41
1.571274310566979
 42
2.675968090306899
  0
LINE
  5
3D3
330
1F
100
AcDbEntity
  8
0
  6
CONTINUOUS
 62
     7
100
AcDbLine
 10
464.1118565642
 20
698.9898983869
 30
0.0
 11
464.1118565642
 21
697.9571436081
 31
0.0
  0
ELLIPSE
  5
3D4
330
1F
100
AcDbEntity
  8
0
  6
CONTINUOUS
 62
     7
100
AcDbEllipse
 10
463.9119586441
 20
697.9572383707
 30
0.0
 11
-0.00030082655860042
 21
-0.1999585850129506
 31
0.0
210
0.0
220
0.0
230
1.0
 40
0.9997700789
 41
5.841727453817389
 42
7.85501594607164
  0
ARC
  5
3D5
330
1F
100
AcDbEntity
  8
0
  6
CONTINUOUS
 62
     7
100
AcDbCircle
 10
462.1118556701
 20
695.3943298969
 30
0.0
 40
2.931793338509096
100
AcDbArc
 50
54.2603041705
 51
103.5721134793
  0
LINE
  5
3D6
330
1F
100
AcDbEntity
  8
0
  6
CONTINUOUS
 62
     7
100
AcDbLine
 10
461.4238509976
 20
698.2442517314
 30
0.0
 11
459.6691126071
 21
697.0155690346
 31
0.0
  0
ARC
  5
3D7
330
1F
100
AcDbEntity
  8
0
  6
CONTINUOUS
 62
     7
100
AcDbCircle
 10
462.1118556701
 20
695.3943298969
 30
0.0
 40
2.931793338509146
100
AcDbArc
 50
146.4278865208
 51
305.2948565422
  0
ELLIPSE
  5
3D8
330
1F
100
AcDbEntity
  8
0
  6
CONTINUOUS
 62
     7
100
AcDbEllipse
 10
463.9117617207
 20
692.8315628137
 30
0.0
 11
0.0008398346922717791
 21
0.1999056619947623
 31
0.0
210
0.0
220
0.0
230
0.9999999999999999
 40
0.9997713077
 41
4.713880477322405
 42
6.844886662455393
  0
LINE
  5
3D9
330
1F
100
AcDbEntity
  8
0
  6
CONTINUOUS
 62
     7
100
AcDbLine
 10
464.1118565642
 20
692.8305853638
 30
0.0
 11
464.1118565642
 21
691.7989332709
 31
0.0
  0
ELLIPSE
  5
3DA
330
1F
100
AcDbEntity
  8
0
  6
CONTINUOUS
 62
     7
100
AcDbEllipse
 10
463.9117576924
 20
691.798894066
 30
0.0
 11
8.221633748917158E-5
 21
-0.2001317927185937
 31
0.0
210
0.0
220
0.0
230
0.9999999999999999
 40
0.9998105658
 41
0.4653267459506562
 42
1.570569193349506
  0
ARC
  5
3DB
330
1F
100
AcDbEntity
  8
0
  6
CONTINUOUS
 62
     7
100
AcDbCircle
 10
462.1118556701
 20
695.3943298969
 30
0.0
 40
4.220857741057729
100
AcDbArc
 50
176.8125730534
 51
296.5970388582
  0
LWPOLYLINE
  5
3DC
330
1F
100
AcDbEntity
  8
0
  6
CONTINUOUS
 62
     7
100
AcDbPolyline
 90
        3
 70
   128
 43
0.0
 10
456.6100979291
 20
695.5002401504
 10
457.3334673487
 20
695.5490265522
 10
457.897528454
 20
695.629023436
  0
LINE
  5
3DD
330
1F
100
AcDbEntity
  8
0
  6
CONTINUOUS
 62
     7
100
AcDbLine
 10
355.1118554615
 20
692.8424094353
 30
0.0
 11
456.6100979291
 21
695.5002401504
 31
0.0
  0
LINE
  5
3DE
330
1F
100
AcDbEntity
  8
0
  6
CONTINUOUS
 62
     7
100
AcDbLine
 10
355.1118554615
 20
692.8424094353
 30
0.0
 11
253.6136055433
 21
695.5002401504
 31
0.0
  0
LWPOLYLINE
  5
3DF
330
1F
100
AcDbEntity
  8
0
  6
CONTINUOUS
 62
     7
100
AcDbPolyline
 90
        3
 70
   128
 43
0.0
 10
253.6136055433
 20
695.5002401504
 10
252.8902435743
 20
695.5490265522
 10
252.3261899196
 20
695.629023436
  0
ARC
  5
3E0
330
1F
100
AcDbEntity
  8
0
  6
CONTINUOUS
 62
     7
100
AcDbCircle
 10
248.1118556701
 20
695.3943298969
 30
0.0
 40
4.22085774105762
100
AcDbArc
 50
243.4062027865
 51
3.1874269466
  0
ELLIPSE
  5
3E1
330
1F
100
AcDbEntity
  8
0
  6
CONTINUOUS
 62
     7
100
AcDbEllipse
 10
246.3119536478
 20
691.798894066
 30
0.0
 11
8.221633754601498E-5
 21
0.2001317927187074
 31
0.0
210
0.0
220
0.0
230
1.0
 40
0.9998105658
 41
1.571132825170246
 42
2.677459553877962
  0
LINE
  5
3E2
330
1F
100
AcDbEntity
  8
0
  6
CONTINUOUS
 62
     7
100
AcDbLine
 10
246.1118543588
 20
692.8315390382
 30
0.0
 11
246.1118543588
 21
691.7989109192
 31
0.0
  0
ELLIPSE
  5
3E3
330
1F
100
AcDbEntity
  8
0
  6
CONTINUOUS
 62
     7
100
AcDbEllipse
 10
246.3119496195
 20
692.8315628137
 30
0.0
 11
0.0008398346922717791
 21
-0.1999056619947623
 31
0.0
210
0.0
220
0.0
230
0.9999999999999999
 40
0.9997713077
 41
2.525270343170687
 42
4.708320651032789
  0
ARC
  5
3E4
330
1F
100
AcDbEntity
  8
0
  6
CONTINUOUS
 62
     7
100
AcDbCircle
 10
248.1118556701
 20
695.3943298969
 30
0.0
 40
2.931793338509162
100
AcDbArc
 50
234.9174424035
 51
33.5721134792
  0
LINE
  5
3E5
330
1F
100
AcDbEntity
  8
0
  6
CONTINUOUS
 62
     7
100
AcDbLine
 10
248.7998599254
 20
698.2442517314
 30
0.0
 11
250.5545908653
 21
697.0155690346
 31
0.0
  0
LWPOLYLINE
  5
3E6
330
1F
100
AcDbEntity
  8
0
  6
CONTINUOUS
 62
     7
100
AcDbPolyline
 90
        3
 70
   128
 43
0.0
 10
248.1118584119
 20
698.3261261616
 10
248.4996313297
 20
698.3003620539
 10
248.7998599254
 20
698.2442517314
  0
ARC
  5
3E7
330
1F
100
AcDbEntity
  8
0
  6
CONTINUOUS
 62
     7
100
AcDbCircle
 10
248.1118556701
 20
695.3943298969
 30
0.0
 40
2.93179333850907
100
AcDbArc
 50
90.0
 51
125.0825575965
  0
ELLIPSE
  5
3E8
330
1F
100
AcDbEntity
  8
0
  6
CONTINUOUS
 62
     7
100
AcDbEllipse
 10
246.3117526961
 20
697.9572383707
 30
0.0
 11
-0.00030082655860042
 21
0.1999585850128369
 31
0.0
210
0.0
220
0.0
230
1.0
 40
0.9997700789
 41
1.569467379552363
 42
3.752608877449486
  0
LINE
  5
3E9
330
1F
100
AcDbEntity
  8
0
  6
CONTINUOUS
 62
     7
100
AcDbLine
 10
246.1118543588
 20
698.9897493753
 30
0.0
 11
246.1118543588
 21
697.9572032127
 31
0.0
  0
ELLIPSE
  5
3EA
330
1F
100
AcDbEntity
  8
0
  6
CONTINUOUS
 62
     7
100
AcDbEllipse
 10
246.3119209288
 20
698.989721611
 30
0.0
 11
8.097681916297007E-5
 21
0.2001307405881789
 31
0.0
210
0.0
220
0.0
230
1.0
 40
0.9998101301
 41
0.4647037812532031
 42
1.571054646392872
  0
LWPOLYLINE
  5
3EB
330
1F
100
AcDbEntity
  8
0
  6
CONTINUOUS
 62
     7
100
AcDbPolyline
 90
        3
 70
   128
 43
0.0
 10
246.5844893895
 20
699.3291456733
 10
246.3798219405
 20
699.2434416446
 10
246.2223315679
 20
699.1686303649
  0
ELLIPSE
  5
3EC
330
1F
100
AcDbEntity
  8
0
  6
CONTINUOUS
 62
     7
100
AcDbEllipse
 10
253.8677893823
 20
704.3086787563
 30
0.0
 11
6.320305865382465
 21
6.156969385088927
 31
0.0
210
0.0
220
0.0
230
1.0
 40
0.9973341855
 41
2.370618641094164
 42
2.968528795812846
  0
LINE
  5
3ED
330
1F
100
AcDbEntity
  8
0
  6
CONTINUOUS
 62
     7
100
AcDbLine
 10
245.055719658
 20
704.2851675782
 30
0.0
 11
245.055719658
 21
903.9034922156
 31
0.0
  0
ELLIPSE
  5
3EE
330
1F
100
AcDbEntity
  8
0
  6
CONTINUOUS
 62
     7
100
AcDbEllipse
 10
253.8677893823
 20
903.8799810375
 30
0.0
 11
6.320305865382465
 21
-6.156969385088927
 31
0.0
210
0.0
220
0.0
230
1.0
 40
0.9973341855
 41
3.314656511366818
 42
3.912566666085396
  0
LWPOLYLINE
  5
3EF
330
1F
100
AcDbEntity
  8
0
  6
CONTINUOUS
 62
     7
100
AcDbPolyline
 90
        3
 70
   128
 43
0.0
 10
246.2223315679
 20
909.0200219784
 10
246.4232886278
 20
908.9259434972
 10
246.5844893895
 20
908.8595141206
  0
ELLIPSE
  5
3F0
330
1F
100
AcDbEntity
  8
0
  6
CONTINUOUS
 62
     7
100
AcDbEllipse
 10
246.3119536478
 20
909.198894066
 30
0.0
 11
8.221633152061258E-5
 21
0.2001317927247328
 31
0.0
210
0.0
220
0.0
230
1.0
 40
0.9998105658
 41
1.571132825150927
 42
2.677459553842263
  0
LINE
  5
3F1
330
1F
100
AcDbEntity
  8
0
  6
CONTINUOUS
 62
     7
100
AcDbLine
 10
246.1118543588
 20
910.2315385375
 30
0.0
 11
246.1118543588
 21
909.1989104185
 31
0.0
  0
ELLIPSE
  5
3F2
330
1F
100
AcDbEntity
  8
0
  6
CONTINUOUS
 62
     7
100
AcDbEllipse
 10
246.3119496195
 20
910.2315628137
 30
0.0
 11
0.0008398344260740489
 21
-0.1999056620256851
 31
0.0
210
0.0
220
0.0
230
1.0
 40
0.9997713077
 41
2.525270344349126
 42
4.708320652351629
  0
ARC
  5
3F3
330
1F
100
AcDbEntity
  8
0
  6
CONTINUOUS
 62
     7
100
AcDbCircle
 10
248.1118556701
 20
912.7943298969
 30
0.0
 40
2.931793338508736
100
AcDbArc
 50
234.9174424035
 51
270.0
  0
LWPOLYLINE
  5
3F4
330
1F
100
AcDbEntity
  8
0
  6
CONTINUOUS
 62
     7
100
AcDbPolyline
 90
        3
 70
   128
 43
0.0
 10
248.7998599254
 20
909.9444080624
 10
248.4168702804
 20
909.8784480724
 10
248.1118584119
 20
909.8625336323
  0
LINE
  5
3F5
330
1F
100
AcDbEntity
  8
0
  6
CONTINUOUS
 62
     7
100
AcDbLine
 10
250.5545908653
 20
911.1730907593
 30
0.0
 11
248.7998599254
 21
909.9444080624
 31
0.0
  0
ARC
  5
3F6
330
1F
100
AcDbEntity
  8
0
  6
CONTINUOUS
 62
     7
100
AcDbCircle
 10
248.1118556701
 20
912.7943298969
 30
0.0
 40
2.931793338508622
100
AcDbArc
 50
326.4278865205
 51
125.0825575951
  0
ELLIPSE
  5
3F7
330
1F
100
AcDbEntity
  8
0
  6
CONTINUOUS
 62
     7
100
AcDbEllipse
 10
246.3117526961
 20
915.3572383707
 30
0.0
 11
-0.0003008267175914625
 21
0.1999585849999903
 31
0.0
210
0.0
220
0.0
230
0.9999999999999999
 40
0.9997700789
 41
1.569467378951218
 42
3.752608877014722
  0
LINE
  5
3F8
330
1F
100
AcDbEntity
  8
0
  6
CONTINUOUS
 62
     7
100
AcDbLine
 10
246.1118543588
 20
916.3897488746
 30
0.0
 11
246.1118543588
 21
915.357202712
 31
0.0
  0
ELLIPSE
  5
3F9
330
1F
100
AcDbEntity
  8
0
  6
CONTINUOUS
 62
     7
100
AcDbEllipse
 10
246.3119209287
 20
916.389721611
 30
0.0
 11
8.097682464835998E-5
 21
0.2001307405796524
 31
0.0
210
0.0
220
0.0
230
1.0
 40
0.9998101301
 41
0.4647037516380605
 42
1.57105464641631
  0
ARC
  5
3FA
330
1F
100
AcDbEntity
  8
0
  6
CONTINUOUS
 62
     7
100
AcDbCircle
 10
248.1118556701
 20
912.7943298969
 30
0.0
 40
4.22085774105793
100
AcDbArc
 50
356.8125730534
 51
116.5937972476
  0
LWPOLYLINE
  5
3FB
330
1F
100
AcDbEntity
  8
0
  6
CONTINUOUS
 62
     7
100
AcDbPolyline
 90
        3
 70
   128
 43
0.0
 10
252.3261899196
 20
912.5596363578
 10
253.0448878251
 20
912.655100647
 10
253.6136055433
 20
912.6884196434
  0
LINE
  5
3FC
330
1F
100
AcDbEntity
  8
0
  6
CONTINUOUS
 62
     7
100
AcDbLine
 10
253.6136055433
 20
912.6884196434
 30
0.0
 11
355.1118554615
 21
915.3462503586
 31
0.0
  0
LINE
  5
3FD
330
1F
100
AcDbEntity
  8
0
  6
CONTINUOUS
 62
     7
100
AcDbLine
 10
442.7439341389
 20
702.8984506163
 30
0.0
 11
455.1490018212
 21
703.2232884798
 31
0.0
  0
ELLIPSE
  5
3FE
330
1F
100
AcDbEntity
  8
0
  6
CONTINUOUS
 62
     7
100
AcDbEllipse
 10
455.1056756795
 20
704.7247248041
 30
0.0
 11
1.077324863417459
 21
-1.049483417912938
 31
0.0
210
0.0
220
0.0
230
1.0
 40
0.9973341855
 41
5.512211294683942
 42
7.054159319675335
  0
LINE
  5
3FF
330
1F
100
AcDbEntity
  8
0
  6
CONTINUOUS
 62
     7
100
AcDbLine
 10
456.6077360951
 20
704.7207136187
 30
0.0
 11
456.6077360951
 21
903.4679461751
 31
0.0
  0
ELLIPSE
  5
400
330
1F
100
AcDbEntity
  8
0
  6
CONTINUOUS
 62
     7
100
AcDbEllipse
 10
455.1056756795
 20
903.4639349897
 30
0.0
 11
-1.077324863417516
 21
-1.049483417912825
 31
0.0
210
0.0
220
0.0
230
1.0
 40
0.9973341855
 41
2.370618641094302
 42
3.912566666085495
  0
LINE
  5
401
330
1F
100
AcDbEntity
  8
0
  6
CONTINUOUS
 62
     7
100
AcDbLine
 10
442.7439341389
 20
905.2902091775
 30
0.0
 11
455.1490018212
 21
904.965371314
 31
0.0
  0
LINE
  5
402
330
1F
100
AcDbEntity
  8
0
  6
CONTINUOUS
 62
     7
100
AcDbLine
 10
442.7439341389
 20
905.2902091775
 30
0.0
 11
267.4797767841
 21
905.2902091775
 31
0.0
  0
LINE
  5
403
330
1F
100
AcDbEntity
  8
0
  6
CONTINUOUS
 62
     7
100
AcDbLine
 10
267.4797767841
 20
905.2902091775
 30
0.0
 11
255.0747091018
 21
904.965371314
 31
0.0
  0
ELLIPSE
  5
404
330
1F
100
AcDbEntity
  8
0
  6
CONTINUOUS
 62
     7
100
AcDbEllipse
 10
255.1180356607
 20
903.4639349897
 30
0.0
 11
-1.077324863417431
 21
1.049483417913052
 31
0.0
210
0.0
220
0.0
230
0.9999999999999998
 40
0.9973341855
 41
5.512211294684063
 42
7.054159319675293
  0
LINE
  5
405
330
1F
100
AcDbEntity
  8
0
  6
CONTINUOUS
 62
     7
100
AcDbLine
 10
253.6159748279
 20
704.7207136187
 30
0.0
 11
253.6159748279
 21
903.4679461751
 31
0.0
  0
ELLIPSE
  5
406
330
1F
100
AcDbEntity
  8
0
  6
CONTINUOUS
 62
     7
100
AcDbEllipse
 10
255.1180356607
 20
704.7247248041
 30
0.0
 11
1.077324863417488
 21
1.049483417912825
 31
0.0
210
0.0
220
0.0
230
0.9999999999999998
 40
0.9973341855
 41
2.370618641094179
 42
3.912566666085461
  0
LINE
  5
407
330
1F
100
AcDbEntity
  8
0
  6
CONTINUOUS
 62
     7
100
AcDbLine
 10
267.4797767841
 20
702.8984506163
 30
0.0
 11
255.0747091018
 21
703.2232884798
 31
0.0
  0
LINE
  5
408
330
1F
100
AcDbEntity
  8
0
  6
CONTINUOUS
 62
     7
100
AcDbLine
 10
267.4797767841
 20
702.8984506163
 30
0.0
 11
442.7439341389
 21
702.8984506163
 31
0.0
  0
LWPOLYLINE
  5
409
330
1F
100
AcDbEntity
  8
0
  6
CONTINUOUS
 62
     7
100
AcDbPolyline
 90
        3
 70
   128
 43
0.0
 10
459.770090326
 20
696.9175342951
 10
459.7000176154
 20
696.9854686889
 10
459.6691126071
 20
697.0155690346
  0
LINE
  5
40A
330
1F
100
AcDbEntity
  8
0
  6
CONTINUOUS
 62
     7
100
AcDbLine
 10
459.603100463
 20
696.6238771114
 30
0.0
 11
459.770090326
 21
696.9175342951
 31
0.0
  0
LWPOLYLINE
  5
40B
330
1F
100
AcDbEntity
  8
0
  6
CONTINUOUS
 62
     7
100
AcDbPolyline
 90
        3
 70
   128
 43
0.0
 10
459.635078355
 20
696.6093931827
 10
459.4187656485
 20
695.988014761
 10
459.3557933413
 20
695.3333322439
  0
ARC
  5
40C
330
1F
100
AcDbEntity
  8
0
  6
CONTINUOUS
 62
     7
100
AcDbCircle
 10
462.1146375529
 20
695.3914901145
 30
0.0
 40
2.798649572414551
100
AcDbArc
 50
181.2087344302
 51
90.0597628003
  0
LINE
  5
40D
330
1F
100
AcDbEntity
  8
0
  6
CONTINUOUS
 62
     7
100
AcDbLine
 10
461.8139633976
 20
698.1739257011
 30
0.0
 11
462.1118525111
 21
698.1898401413
 31
0.0
  0
LWPOLYLINE
  5
40E
330
1F
100
AcDbEntity
  8
0
  6
CONTINUOUS
 62
     7
100
AcDbPolyline
 90
        3
 70
   128
 43
0.0
 10
461.4809820496
 20
698.1168840561
 10
461.6665909134
 20
698.1536377702
 10
461.8138590895
 20
698.1736574802
  0
LWPOLYLINE
  5
40F
330
1F
100
AcDbEntity
  8
0
  6
CONTINUOUS
 62
     7
100
AcDbPolyline
 90
        3
 70
   128
 43
0.0
 10
461.4809820496
 20
698.1168840561
 10
461.4410841905
 20
698.2060004506
 10
461.4238509976
 20
698.2442517314
  0
LINE
  5
410
330
1F
100
AcDbEntity
  8
0
  6
CONTINUOUS
 62
     7
100
AcDbLine
 10
463.7946778976
 20
697.7201555404
 30
0.0
 11
463.7970248305
 21
697.7936257157
 31
0.0
  0
ARC
  5
411
330
1F
100
AcDbEntity
  8
0
  6
CONTINUOUS
 62
     7
100
AcDbCircle
 10
462.1118556701
 20
695.3943298969
 30
0.0
 40
2.870700611258751
100
AcDbArc
 50
305.8683346634
 51
54.124342644
  0
LINE
  5
412
330
1F
100
AcDbEntity
  8
0
  6
CONTINUOUS
 62
     7
100
AcDbLine
 10
463.7969205223
 20
692.9951761398
 30
0.0
 11
463.7948194586
 21
693.068311039
 31
0.0
  0
LINE
  5
413
330
1F
100
AcDbEntity
  8
0
  6
CONTINUOUS
 62
     7
100
AcDbLine
 10
464.1117597066
 20
697.8821609649
 30
0.0
 11
464.1118714653
 21
697.9572255645
 31
0.0
  0
ELLIPSE
  5
414
330
1F
100
AcDbEntity
  8
0
  6
CONTINUOUS
 62
     7
100
AcDbEllipse
 10
463.9118457106
 20
697.8821717514
 30
0.0
 11
-0.00030082655860042
 21
-0.1999585850129506
 31
0.0
210
0.0
220
0.0
230
1.0
 40
0.9997700789
 41
5.655581981827503
 42
7.857330462763323
  0
LWPOLYLINE
  5
415
330
1F
100
AcDbEntity
  8
0
  6
CONTINUOUS
 62
     7
100
AcDbPolyline
 90
        3
 70
   128
 43
0.0
 10
461.4809820496
 20
910.0717757377
 10
461.4410841905
 20
909.9826593432
 10
461.4238509976
 20
909.9444080624
  0
LINE
  5
416
330
1F
100
AcDbEntity
  8
0
  6
CONTINUOUS
 62
     7
100
AcDbLine
 10
461.4809820496
 20
910.0717757377
 30
0.0
 11
461.8139708482
 21
910.0149874124
 31
0.0
  0
LINE
  5
417
330
1F
100
AcDbEntity
  8
0
  6
CONTINUOUS
 62
     7
100
AcDbLine
 10
461.8180537664
 20
910.0529034171
 30
0.0
 11
462.1118525111
 21
910.0372050438
 31
0.0
  0
ARC
  5
418
330
1F
100
AcDbEntity
  8
0
  6
CONTINUOUS
 62
     7
100
AcDbCircle
 10
462.1149140508
 20
912.7971880521
 30
0.0
 40
2.798668081037736
100
AcDbArc
 50
269.9376276284
 51
184.8028574202
  0
LINE
  5
419
330
1F
100
AcDbEntity
  8
0
  6
CONTINUOUS
 62
     7
100
AcDbLine
 10
459.364041134
 20
912.5660215053
 30
0.0
 11
459.632358893
 21
911.5847800407
 31
0.0
  0
LINE
  5
41A
330
1F
100
AcDbEntity
  8
0
  6
CONTINUOUS
 62
     7
100
AcDbLine
 10
459.6008354865
 20
911.5694094929
 30
0.0
 11
459.770090326
 21
911.2711254988
 31
0.0
  0
LWPOLYLINE
  5
41B
330
1F
100
AcDbEntity
  8
0
  6
CONTINUOUS
 62
     7
100
AcDbPolyline
 90
        3
 70
   128
 43
0.0
 10
459.770090326
 20
911.2711254988
 10
459.7000176154
 20
911.2031911049
 10
459.6691126071
 20
911.1730907593
  0
LINE
  5
41C
330
1F
100
AcDbEntity
  8
0
  6
CONTINUOUS
 62
     7
100
AcDbLine
 10
463.7946778976
 20
915.1201550398
 30
0.0
 11
463.7970248305
 21
915.193625215
 31
0.0
  0
ARC
  5
41D
330
1F
100
AcDbEntity
  8
0
  6
CONTINUOUS
 62
     7
100
AcDbCircle
 10
462.1118556701
 20
912.7943298969
 30
0.0
 40
2.87070061125836
100
AcDbArc
 50
305.868334668
 51
54.124342092
  0
LINE
  5
41E
330
1F
100
AcDbEntity
  8
0
  6
CONTINUOUS
 62
     7
100
AcDbLine
 10
463.7969205223
 20
910.3951756391
 30
0.0
 11
463.7948194586
 21
910.4683105383
 31
0.0
  0
LINE
  5
41F
330
1F
100
AcDbEntity
  8
0
  6
CONTINUOUS
 62
     7
100
AcDbLine
 10
464.1117597066
 20
915.2821604643
 30
0.0
 11
464.1118714653
 21
915.3572250638
 31
0.0
  0
ELLIPSE
  5
420
330
1F
100
AcDbEntity
  8
0
  6
CONTINUOUS
 62
     7
100
AcDbEllipse
 10
463.9118457105
 20
915.2821717514
 30
0.0
 11
-0.0003008267175914625
 21
-0.199958585000104
 31
0.0
210
0.0
220
0.0
230
0.9999999999999999
 40
0.9997700789
 41
5.655582121004294
 42
7.857330413167117
  0
LINE
  5
421
330
1F
100
AcDbEntity
  8
0
  6
CONTINUOUS
 62
     7
100
AcDbLine
 10
464.1116255962
 20
692.8314570818
 30
0.0
 11
464.1119385206
 21
692.9064844284
 31
0.0
  0
ELLIPSE
  5
422
330
1F
100
AcDbEntity
  8
0
  6
CONTINUOUS
 62
     7
100
AcDbEllipse
 10
463.9120762406
 20
692.9064279317
 30
0.0
 11
0.0008398346923286226
 21
0.1999056619947623
 31
0.0
210
0.0
220
0.0
230
1.0
 40
0.9997713077
 41
4.718397325030265
 42
6.919083887653487
  0
ELLIPSE
  5
423
330
1F
100
AcDbEntity
  8
0
  6
CONTINUOUS
 62
     7
100
AcDbEllipse
 10
463.9120762406
 20
910.3064279317
 30
0.0
 11
0.0008398344260740489
 21
0.1999056620256851
 31
0.0
210
0.0
220
0.0
230
1.0
 40
0.9997713077
 41
4.718397323411716
 42
6.919083884928936
  0
LINE
  5
424
330
1F
100
AcDbEntity
  8
0
  6
CONTINUOUS
 62
     7
100
AcDbLine
 10
464.1116255962
 20
910.2314565811
 30
0.0
 11
464.1119385206
 21
910.3064839277
 31
0.0
  0
LWPOLYLINE
  5
425
330
1F
100
AcDbEntity
  8
0
  6
CONTINUOUS
 62
     7
100
AcDbPolyline
 90
        3
 70
   128
 43
0.0
 10
250.6201559745
 20
696.6248531375
 10
250.8412147008
 20
695.9960166845
 10
250.9070778333
 20
695.3324679766
  0
LINE
  5
426
330
1F
100
AcDbEntity
  8
0
  6
CONTINUOUS
 62
     7
100
AcDbLine
 10
250.6201708757
 20
696.6247786317
 30
0.0
 11
250.453620597
 21
696.9175342951
 31
0.0
  0
LWPOLYLINE
  5
427
330
1F
100
AcDbEntity
  8
0
  6
CONTINUOUS
 62
     7
100
AcDbPolyline
 90
        3
 70
   128
 43
0.0
 10
250.453620597
 20
696.9175342951
 10
250.5237007581
 20
696.9854686889
 10
250.5545908653
 20
697.0155690346
  0
LINE
  5
428
330
1F
100
AcDbEntity
  8
0
  6
CONTINUOUS
 62
     7
100
AcDbLine
 10
246.4267904006
 20
692.9951761398
 30
0.0
 11
246.4288914644
 21
693.068311039
 31
0.0
  0
ARC
  5
429
330
1F
100
AcDbEntity
  8
0
  6
CONTINUOUS
 62
     7
100
AcDbCircle
 10
248.1118556701
 20
695.3943298969
 30
0.0
 40
2.870700611258664
100
AcDbArc
 50
125.8871916168
 51
234.1128083891
  0
LINE
  5
42A
330
1F
100
AcDbEntity
  8
0
  6
CONTINUOUS
 62
     7
100
AcDbLine
 10
246.4290255748
 20
697.7201555404
 30
0.0
 11
246.4266860925
 21
697.7936331663
 31
0.0
  0
LWPOLYLINE
  5
42B
330
1F
100
AcDbEntity
  8
0
  6
CONTINUOUS
 62
     7
100
AcDbPolyline
 90
        3
 70
   128
 43
0.0
 10
248.7427288734
 20
698.1168840561
 10
248.7826192819
 20
698.2060004506
 10
248.7998599254
 20
698.2442517314
  0
LINE
  5
42C
330
1F
100
AcDbEntity
  8
0
  6
CONTINUOUS
 62
     7
100
AcDbLine
 10
248.7427288734
 20
698.1168840561
 30
0.0
 11
248.4095836126
 21
698.1736872825
 31
0.0
  0
LINE
  5
42D
330
1F
100
AcDbEntity
  8
0
  6
CONTINUOUS
 62
     7
100
AcDbLine
 10
248.4056944095
 20
698.1357563767
 30
0.0
 11
248.1119925224
 21
698.15145475
 31
0.0
  0
ARC
  5
42E
330
1F
100
AcDbEntity
  8
0
  6
CONTINUOUS
 62
     7
100
AcDbCircle
 10
248.1091769443
 20
695.3915989513
 30
0.0
 40
2.798540555543251
100
AcDbArc
 50
89.9438807858
 51
358.7892948605
  0
LWPOLYLINE
  5
42F
330
1F
100
AcDbEntity
  8
0
  6
CONTINUOUS
 62
     7
100
AcDbPolyline
 90
        3
 70
   128
 43
0.0
 10
246.3119471513
 20
697.6822097335
 10
246.3805818998
 20
697.6944063339
 10
246.4290255748
 20
697.7201555404
  0
ELLIPSE
  5
430
330
1F
100
AcDbEntity
  8
0
  6
CONTINUOUS
 62
     7
100
AcDbEllipse
 10
246.3118656296
 20
697.8821717514
 30
0.0
 11
-0.00030082655860042
 21
0.1999585850129506
 31
0.0
210
0.0
220
0.0
230
1.0
 40
0.9997700789
 41
1.56744749800607
 42
3.140525571227248
  0
LWPOLYLINE
  5
431
330
1F
100
AcDbEntity
  8
0
  6
CONTINUOUS
 62
     7
100
AcDbPolyline
 90
        3
 70
   128
 43
0.0
 10
248.7427288734
 20
910.0717757377
 10
248.7826192819
 20
909.9826593432
 10
248.7998599254
 20
909.9444080624
  0
LINE
  5
432
330
1F
100
AcDbEntity
  8
0
  6
CONTINUOUS
 62
     7
100
AcDbLine
 10
246.4267904006
 20
910.3951756391
 30
0.0
 11
246.4288914644
 21
910.4683179889
 31
0.0
  0
ARC
  5
433
330
1F
100
AcDbEntity
  8
0
  6
CONTINUOUS
 62
     7
100
AcDbCircle
 10
248.1118556701
 20
912.7943298969
 30
0.0
 40
2.870700611258389
100
AcDbArc
 50
125.8871916168
 51
234.1128083828
  0
LINE
  5
434
330
1F
100
AcDbEntity
  8
0
  6
CONTINUOUS
 62
     7
100
AcDbLine
 10
246.4290255748
 20
915.1201550398
 30
0.0
 11
246.4266860925
 21
915.1936326656
 31
0.0
  0
LWPOLYLINE
  5
435
330
1F
100
AcDbEntity
  8
0
  6
CONTINUOUS
 62
     7
100
AcDbPolyline
 90
        3
 70
   128
 43
0.0
 10
250.453620597
 20
911.2711254988
 10
250.5237007581
 20
911.2031911049
 10
250.5545908653
 20
911.1730907593
  0
LINE
  5
436
330
1F
100
AcDbEntity
  8
0
  6
CONTINUOUS
 62
     7
100
AcDbLine
 10
250.6201708757
 20
911.5638811621
 30
0.0
 11
250.453620597
 21
911.2711254988
 31
0.0
  0
LINE
  5
437
330
1F
100
AcDbEntity
  8
0
  6
CONTINUOUS
 62
     7
100
AcDbLine
 10
250.8976155959
 20
912.5626761946
 30
0.0
 11
250.6201857768
 21
911.5638811621
 31
0.0
  0
ARC
  5
438
330
1F
100
AcDbEntity
  8
0
  6
CONTINUOUS
 62
     7
100
AcDbCircle
 10
248.108950609
 20
912.7970182945
 30
0.0
 40
2.798498238446943
100
AcDbArc
 50
355.1991135949
 51
270.0607539995
  0
LINE
  5
439
330
1F
100
AcDbEntity
  8
0
  6
CONTINUOUS
 62
     7
100
AcDbLine
 10
248.4096432172
 20
910.0147266421
 30
0.0
 11
248.1118584119
 21
909.9988196525
 31
0.0
  0
LWPOLYLINE
  5
43A
330
1F
100
AcDbEntity
  8
0
  6
CONTINUOUS
 62
     7
100
AcDbPolyline
 90
        3
 70
   128
 43
0.0
 10
248.7427288734
 20
910.0717757377
 10
248.5570753061
 20
910.0350145731
 10
248.4097624265
 20
910.0149874124
  0
LWPOLYLINE
  5
43B
330
1F
100
AcDbEntity
  8
0
  6
CONTINUOUS
 62
     7
100
AcDbPolyline
 90
        3
 70
   128
 43
0.0
 10
246.3119471513
 20
915.0822092328
 10
246.3805818998
 20
915.0944058332
 10
246.4290255748
 20
915.1201550398
  0
ELLIPSE
  5
43C
330
1F
100
AcDbEntity
  8
0
  6
CONTINUOUS
 62
     7
100
AcDbEllipse
 10
246.3118656297
 20
915.2821717514
 30
0.0
 11
-0.0003008267175630408
 21
0.1999585849999903
 31
0.0
210
0.0
220
0.0
230
1.0
 40
0.9997700789
 41
1.567447547602415
 42
3.140525645045116
  0
ARC
  5
43D
330
1F
100
AcDbEntity
  8
0
  6
CONTINUOUS
 62
     7
100
AcDbCircle
 10
462.117678116
 20
912.8001552515
 30
0.0
 40
4.34603707678287
100
AcDbArc
 50
23.5022170218
 51
66.4977829782
  0
ARC
  5
43E
330
1F
100
AcDbEntity
  8
0
  6
CONTINUOUS
 62
     7
100
AcDbCircle
 10
462.1045219116
 20
912.7943353994
 30
0.0
 40
4.360422771606391
100
AcDbArc
 50
299.1146834381
 51
23.5034071483
  0
LINE
  5
43F
330
1F
100
AcDbEntity
  8
0
  6
CONTINUOUS
 62
     7
100
AcDbLine
 10
464.2261261188
 20
908.9848626885
 30
0.0
 11
463.6392215334
 21
908.8595141206
 31
0.0
  0
LINE
  5
440
330
1F
100
AcDbEntity
  8
0
  6
CONTINUOUS
 62
     7
100
AcDbLine
 10
463.9998668872
 20
908.9414928589
 30
0.0
 11
464.0014017068
 21
909.0199698243
 31
0.0
  0
ARC
  5
441
330
1F
100
AcDbEntity
  8
0
  6
CONTINUOUS
 62
     7
100
AcDbCircle
 10
462.1118556701
 20
912.7943298969
 30
0.0
 40
4.290525277231899
100
AcDbArc
 50
296.1063035953
 51
63.8936961379
  0
LINE
  5
442
330
1F
100
AcDbEntity
  8
0
  6
CONTINUOUS
 62
     7
100
AcDbLine
 10
464.0013942562
 20
916.5686671171
 30
0.0
 11
463.9998743378
 21
916.647188786
 31
0.0
  0
LINE
  5
443
330
1F
100
AcDbEntity
  8
0
  6
CONTINUOUS
 62
     7
100
AcDbLine
 10
457.897528454
 20
912.5596363578
 30
0.0
 11
457.7591190182
 21
913.0456973347
 31
0.0
  0
ARC
  5
444
330
1F
100
AcDbEntity
  8
0
  6
CONTINUOUS
 62
     7
100
AcDbCircle
 10
462.1118625816
 20
912.7869950896
 30
0.0
 40
4.360424678865756
100
AcDbArc
 50
66.4966656169
 51
176.5986669673
  0
ARC
  5
445
330
1F
100
AcDbEntity
  8
0
  6
CONTINUOUS
 62
     7
100
AcDbCircle
 10
463.901803265
 20
916.461435032
 30
0.0
 40
0.2100533086392611
100
AcDbArc
 50
0.0171663226
 51
62.1676126479
  0
LINE
  5
446
330
1F
100
AcDbEntity
  8
0
  6
CONTINUOUS
 62
     7
100
AcDbLine
 10
464.1118863665
 20
916.3897488746
 30
0.0
 11
464.1118565642
 21
916.4614979658
 31
0.0
  0
LINE
  5
447
330
1F
100
AcDbEntity
  8
0
  6
CONTINUOUS
 62
     7
100
AcDbLine
 10
463.9998668872
 20
691.5414933595
 30
0.0
 11
464.0014017068
 21
691.619970325
 31
0.0
  0
ARC
  5
448
330
1F
100
AcDbEntity
  8
0
  6
CONTINUOUS
 62
     7
100
AcDbCircle
 10
462.1118556701
 20
695.3943298969
 30
0.0
 40
4.290525277231387
100
AcDbArc
 50
296.1063035953
 51
63.8936961386
  0
LINE
  5
449
330
1F
100
AcDbEntity
  8
0
  6
CONTINUOUS
 62
     7
100
AcDbLine
 10
464.0013942562
 20
699.1686676178
 30
0.0
 11
463.9998743378
 21
699.2471892867
 31
0.0
  0
LINE
  5
44A
330
1F
100
AcDbEntity
  8
0
  6
CONTINUOUS
 62
     7
100
AcDbLine
 10
464.2261261188
 20
699.2037971053
 30
0.0
 11
463.6392215334
 21
699.3291456733
 31
0.0
  0
ARC
  5
44B
330
1F
100
AcDbEntity
  8
0
  6
CONTINUOUS
 62
     7
100
AcDbCircle
 10
462.1045219116
 20
695.3943243944
 30
0.0
 40
4.36042277160608
100
AcDbArc
 50
336.4965928517
 51
60.8853165619
  0
ARC
  5
44C
330
1F
100
AcDbEntity
  8
0
  6
CONTINUOUS
 62
     7
100
AcDbCircle
 10
462.117678116
 20
695.3885045423
 30
0.0
 40
4.346037076781329
100
AcDbArc
 50
293.5022170218
 51
336.4977829782
  0
ARC
  5
44D
330
1F
100
AcDbEntity
  8
0
  6
CONTINUOUS
 62
     7
100
AcDbCircle
 10
462.1118642926
 20
695.4016674911
 30
0.0
 40
4.360426552179408
100
AcDbArc
 50
183.4013682536
 51
293.5032991622
  0
LINE
  5
44E
330
1F
100
AcDbEntity
  8
0
  6
CONTINUOUS
 62
     7
100
AcDbLine
 10
457.897528454
 20
695.629023436
 30
0.0
 11
457.7591190182
 21
695.1429624591
 31
0.0
  0
LWPOLYLINE
  5
44F
330
1F
100
AcDbEntity
  8
0
  6
CONTINUOUS
 62
     7
100
AcDbPolyline
 90
        3
 70
   128
 43
0.0
 10
463.9998668872
 20
691.5414933595
 10
464.0781054341
 20
691.6130263839
 10
464.1118789159
 20
691.727161828
  0
LINE
  5
450
330
1F
100
AcDbEntity
  8
0
  6
CONTINUOUS
 62
     7
100
AcDbLine
 10
464.1118789159
 20
691.7271841798
 30
0.0
 11
464.1118491136
 21
691.7988811168
 31
0.0
  0
ELLIPSE
  5
451
330
1F
100
AcDbEntity
  8
0
  6
CONTINUOUS
 62
     7
100
AcDbEllipse
 10
246.3116350996
 20
692.9064279317
 30
0.0
 11
0.0008398346922717791
 21
-0.1999056619947623
 31
0.0
210
0.0
220
0.0
230
0.9999999999999999
 40
0.9997713077
 41
2.510417866786617
 42
4.708320634246547
  0
ELLIPSE
  5
452
330
1F
100
AcDbEntity
  8
0
  6
CONTINUOUS
 62
     7
100
AcDbEllipse
 10
246.3116350996
 20
910.3064279317
 30
0.0
 11
0.0008398344261024703
 21
-0.1999056620255715
 31
0.0
210
0.0
220
0.0
230
1.0
 40
0.9997713077
 41
2.510417869975883
 42
4.708320635514056
  0
LWPOLYLINE
  5
453
330
1F
100
AcDbEntity
  8
0
  6
CONTINUOUS
 62
     7
100
AcDbPolyline
 90
        3
 70
   128
 43
0.0
 10
463.9998668872
 20
908.9414928589
 10
464.0781054341
 20
909.0130258832
 10
464.1118789159
 20
909.1271613273
  0
LINE
  5
454
330
1F
100
AcDbEntity
  8
0
  6
CONTINUOUS
 62
     7
100
AcDbLine
 10
464.1118789159
 20
909.1271911297
 30
0.0
 11
464.1118491136
 21
909.1988806162
 31
0.0
  0
ARC
  5
455
330
1F
100
AcDbEntity
  8
0
  6
CONTINUOUS
 62
     7
100
AcDbCircle
 10
463.9018105943
 20
699.0614399527
 30
0.0
 40
0.2100459779864235
100
AcDbArc
 50
0.0159612365
 51
62.1688177339
  0
LINE
  5
456
330
1F
100
AcDbEntity
  8
0
  6
CONTINUOUS
 62
     7
100
AcDbLine
 10
464.1118863665
 20
698.9897493753
 30
0.0
 11
464.1118565642
 21
699.0614984665
 31
0.0
  0
LINE
  5
457
330
1F
100
AcDbEntity
  8
0
  6
CONTINUOUS
 62
     7
100
AcDbLine
 10
252.3261899196
 20
695.629023436
 30
0.0
 11
252.4645919048
 21
695.1429624591
 31
0.0
  0
ARC
  5
458
330
1F
100
AcDbEntity
  8
0
  6
CONTINUOUS
 62
     7
100
AcDbCircle
 10
248.1118440089
 20
695.4016682968
 30
0.0
 40
4.360429216919242
100
AcDbArc
 50
246.4966468713
 51
356.5986232211
  0
ARC
  5
459
330
1F
100
AcDbEntity
  8
0
  6
CONTINUOUS
 62
     7
100
AcDbCircle
 10
248.1060504947
 20
695.388516497
 30
0.0
 40
4.346058064527641
100
AcDbArc
 50
203.5022685605
 51
246.497541912
  0
ARC
  5
45A
330
1F
100
AcDbEntity
  8
0
  6
CONTINUOUS
 62
     7
100
AcDbCircle
 10
248.1191613359
 20
695.3943309083
 30
0.0
 40
4.360399989948376
100
AcDbArc
 50
119.1143218451
 51
203.5036306673
  0
LINE
  5
45B
330
1F
100
AcDbEntity
  8
0
  6
CONTINUOUS
 62
     7
100
AcDbLine
 10
245.9975922548
 20
699.2037971053
 30
0.0
 11
246.5844893895
 21
699.3291456733
 31
0.0
  0
LINE
  5
45C
330
1F
100
AcDbEntity
  8
0
  6
CONTINUOUS
 62
     7
100
AcDbLine
 10
246.2223166667
 20
699.1686676178
 30
0.0
 11
246.2238365852
 21
699.2471892867
 31
0.0
  0
ARC
  5
45D
330
1F
100
AcDbEntity
  8
0
  6
CONTINUOUS
 62
     7
100
AcDbCircle
 10
248.1118556701
 20
695.3943298969
 30
0.0
 40
4.290525684325655
100
AcDbArc
 50
116.1063034482
 51
243.8936965518
  0
LINE
  5
45E
330
1F
100
AcDbEntity
  8
0
  6
CONTINUOUS
 62
     7
100
AcDbLine
 10
246.2238514863
 20
691.5414933595
 30
0.0
 11
246.2223017656
 21
691.619970325
 31
0.0
  0
LINE
  5
45F
330
1F
100
AcDbEntity
  8
0
  6
CONTINUOUS
 62
     7
100
AcDbLine
 10
252.3261899196
 20
912.5596363578
 30
0.0
 11
252.4645919048
 21
913.0456973347
 31
0.0
  0
LINE
  5
460
330
1F
100
AcDbEntity
  8
0
  6
CONTINUOUS
 62
     7
100
AcDbLine
 10
246.2223166667
 20
916.5686671171
 30
0.0
 11
246.2238365852
 21
916.647188786
 31
0.0
  0
ARC
  5
461
330
1F
100
AcDbEntity
  8
0
  6
CONTINUOUS
 62
     7
100
AcDbCircle
 10
248.1118556701
 20
912.7943298969
 30
0.0
 40
4.29052568432569
100
AcDbArc
 50
116.1063038621
 51
243.8936964047
  0
LINE
  5
462
330
1F
100
AcDbEntity
  8
0
  6
CONTINUOUS
 62
     7
100
AcDbLine
 10
246.2238514863
 20
908.9414928589
 30
0.0
 11
246.2223017656
 21
909.0199698243
 31
0.0
  0
LINE
  5
463
330
1F
100
AcDbEntity
  8
0
  6
CONTINUOUS
 62
     7
100
AcDbLine
 10
245.9975922548
 20
908.9848626885
 30
0.0
 11
246.5844893895
 21
908.8595141206
 31
0.0
  0
ARC
  5
464
330
1F
100
AcDbEntity
  8
0
  6
CONTINUOUS
 62
     7
100
AcDbCircle
 10
248.1191613359
 20
912.7943288856
 30
0.0
 40
4.360399989948599
100
AcDbArc
 50
156.4963693327
 51
240.8856781549
  0
ARC
  5
465
330
1F
100
AcDbEntity
  8
0
  6
CONTINUOUS
 62
     7
100
AcDbCircle
 10
248.1060504947
 20
912.8001432968
 30
0.0
 40
4.346058064529642
100
AcDbArc
 50
113.502458088
 51
156.4977314395
  0
ARC
  5
466
330
1F
100
AcDbEntity
  8
0
  6
CONTINUOUS
 62
     7
100
AcDbCircle
 10
248.1118440089
 20
912.786991497
 30
0.0
 40
4.360429216919863
100
AcDbArc
 50
3.4013767789
 51
113.5033531287
  0
LWPOLYLINE
  5
467
330
1F
100
AcDbEntity
  8
0
  6
CONTINUOUS
 62
     7
100
AcDbPolyline
 90
        3
 70
   128
 43
0.0
 10
246.2238514863
 20
691.5414933595
 10
246.1455756866
 20
691.6130785379
 10
246.1118245565
 20
691.727161828
  0
ARC
  5
468
330
1F
100
AcDbEntity
  8
0
  6
CONTINUOUS
 62
     7
100
AcDbCircle
 10
246.3218859648
 20
909.1272751218
 30
0.0
 40
0.2100614391047164
100
AcDbArc
 50
180.0310382774
 51
242.1800698826
  0
LWPOLYLINE
  5
469
330
1F
100
AcDbEntity
  8
0
  6
CONTINUOUS
 62
     7
100
AcDbPolyline
 90
        3
 70
   128
 43
0.0
 10
246.1118543588
 20
699.0614984665
 10
246.1456054889
 20
699.1756339106
 10
246.2238365852
 20
699.2471892867
  0
ARC
  5
46A
330
1F
100
AcDbEntity
  8
0
  6
CONTINUOUS
 62
     7
100
AcDbCircle
 10
246.3212746361
 20
916.4618167805
 30
0.0
 40
0.2094205199690514
100
AcDbArc
 50
117.7279958342
 51
180.0872251953
  0
LINE
  5
46B
330
1F
100
AcDbEntity
  8
0
  6
CONTINUOUS
 62
     7
100
AcDbLine
 10
453.5949895226
 20
903.4515176449
 30
0.0
 11
455.1490018212
 21
904.965371314
 31
0.0
  0
LINE
  5
46C
330
1F
100
AcDbEntity
  8
0
  6
CONTINUOUS
 62
     7
100
AcDbLine
 10
455.0537237965
 20
901.9540925059
 30
0.0
 11
456.6077360951
 21
903.4679461751
 31
0.0
  0
ARC
  5
46D
330
1F
100
AcDbEntity
  8
0
  6
CONTINUOUS
 62
     7
100
AcDbCircle
 10
453.5527447697
 20
901.9511302967
 30
0.0
 40
1.50098194981612
100
AcDbArc
 50
0.1130741086
 51
88.387211976
  0
LINE
  5
46E
330
1F
100
AcDbEntity
  8
0
  6
CONTINUOUS
 62
     7
100
AcDbLine
 10
456.6077360951
 20
704.7207136187
 30
0.0
 11
455.0537237965
 21
706.2345672879
 31
0.0
  0
LINE
  5
46F
330
1F
100
AcDbEntity
  8
0
  6
CONTINUOUS
 62
     7
100
AcDbLine
 10
455.0537237965
 20
706.2345672879
 30
0.0
 11
455.0537237965
 21
901.9540925059
 31
0.0
  0
LINE
  5
470
330
1F
100
AcDbEntity
  8
0
  6
CONTINUOUS
 62
     7
100
AcDbLine
 10
455.1490018212
 20
703.2232884798
 30
0.0
 11
453.5949895226
 21
704.737142149
 31
0.0
  0
ARC
  5
471
330
1F
100
AcDbEntity
  8
0
  6
CONTINUOUS
 62
     7
100
AcDbCircle
 10
453.5527473665
 20
706.2375269674
 30
0.0
 40
1.500979348034581
100
AcDbArc
 50
271.6126916555
 51
359.8870222599
  0
LINE
  5
472
330
1F
100
AcDbEntity
  8
0
  6
CONTINUOUS
 62
     7
100
AcDbLine
 10
442.7235940539
 20
903.7361968789
 30
0.0
 11
442.7439341389
 21
905.2902091775
 31
0.0
  0
LINE
  5
473
330
1F
100
AcDbEntity
  8
0
  6
CONTINUOUS
 62
     7
100
AcDbLine
 10
453.5949895226
 20
903.4515176449
 30
0.0
 11
442.7235940539
 21
903.7361968789
 31
0.0
  0
LINE
  5
474
330
1F
100
AcDbEntity
  8
0
  6
CONTINUOUS
 62
     7
100
AcDbLine
 10
442.7439341389
 20
702.8984506163
 30
0.0
 11
442.7235940539
 21
704.4524629149
 31
0.0
  0
LINE
  5
475
330
1F
100
AcDbEntity
  8
0
  6
CONTINUOUS
 62
     7
100
AcDbLine
 10
442.7235940539
 20
704.4524629149
 30
0.0
 11
453.5949895226
 21
704.737142149
 31
0.0
  0
LINE
  5
476
330
1F
100
AcDbEntity
  8
0
  6
CONTINUOUS
 62
     7
100
AcDbLine
 10
256.6287214004
 20
903.4515176449
 30
0.0
 11
255.0747091018
 21
904.965371314
 31
0.0
  0
LINE
  5
477
330
1F
100
AcDbEntity
  8
0
  6
CONTINUOUS
 62
     7
100
AcDbLine
 10
267.5001168691
 20
903.7361968789
 30
0.0
 11
267.4797767841
 21
905.2902091775
 31
0.0
  0
LINE
  5
478
330
1F
100
AcDbEntity
  8
0
  6
CONTINUOUS
 62
     7
100
AcDbLine
 10
256.6287214004
 20
903.4515176449
 30
0.0
 11
267.5001168691
 21
903.7361968789
 31
0.0
  0
LINE
  5
479
330
1F
100
AcDbEntity
  8
0
  6
CONTINUOUS
 62
     7
100
AcDbLine
 10
267.4797767841
 20
702.8984506163
 30
0.0
 11
267.5001168691
 21
704.4524629149
 31
0.0
  0
LINE
  5
47A
330
1F
100
AcDbEntity
  8
0
  6
CONTINUOUS
 62
     7
100
AcDbLine
 10
255.0747091018
 20
703.2232884798
 30
0.0
 11
256.6287214004
 21
704.737142149
 31
0.0
  0
LINE
  5
47B
330
1F
100
AcDbEntity
  8
0
  6
CONTINUOUS
 62
     7
100
AcDbLine
 10
267.5001168691
 20
704.4524629149
 30
0.0
 11
256.6287214004
 21
704.737142149
 31
0.0
  0
LINE
  5
47C
330
1F
100
AcDbEntity
  8
0
  6
CONTINUOUS
 62
     7
100
AcDbLine
 10
255.1699871265
 20
901.9540925059
 30
0.0
 11
253.6159748279
 21
903.4679461751
 31
0.0
  0
ARC
  5
47D
330
1F
100
AcDbEntity
  8
0
  6
CONTINUOUS
 62
     7
100
AcDbCircle
 10
256.6709661533
 20
901.9511302967
 30
0.0
 40
1.500981949816035
100
AcDbArc
 50
91.612788024
 51
179.8869258914
  0
LINE
  5
47E
330
1F
100
AcDbEntity
  8
0
  6
CONTINUOUS
 62
     7
100
AcDbLine
 10
253.6159748279
 20
704.7207136187
 30
0.0
 11
255.1699871265
 21
706.2345672879
 31
0.0
  0
ARC
  5
47F
330
1F
100
AcDbEntity
  8
0
  6
CONTINUOUS
 62
     7
100
AcDbCircle
 10
256.6709635565
 20
706.2375269674
 30
0.0
 40
1.500979348034609
100
AcDbArc
 50
180.1129777401
 51
268.3873083445
  0
LINE
  5
480
330
1F
100
AcDbEntity
  8
0
  6
CONTINUOUS
 62
     7
100
AcDbLine
 10
255.1699871265
 20
706.2345672879
 30
0.0
 11
255.1699871265
 21
901.9540925059
 31
0.0
  0
LINE
  5
481
330
1F
100
AcDbEntity
  8
0
  6
CONTINUOUS
 62
     7
100
AcDbLine
 10
253.1961346113
 20
913.0951095853
 30
0.0
 11
253.6136055433
 21
912.6884196434
 31
0.0
  0
LWPOLYLINE
  5
482
330
1F
100
AcDbEntity
  8
0
  6
CONTINUOUS
 62
     7
100
AcDbPolyline
 90
        3
 70
   128
 43
0.0
 10
253.1961346113
 20
913.0951095853
 10
252.7859503471
 20
913.0748961601
 10
252.4645919048
 20
913.0456973347
  0
LINE
  5
483
330
1F
100
AcDbEntity
  8
0
  6
CONTINUOUS
 62
     7
100
AcDbLine
 10
253.6136055433
 20
695.5002401504
 30
0.0
 11
253.1961346113
 21
695.0935502085
 31
0.0
  0
LWPOLYLINE
  5
484
330
1F
100
AcDbEntity
  8
0
  6
CONTINUOUS
 62
     7
100
AcDbPolyline
 90
        3
 70
   128
 43
0.0
 10
252.4645919048
 20
695.1429624591
 10
252.87376289
 20
695.1078329716
 10
253.1961346113
 20
695.0935502085
  0
LINE
  5
485
330
1F
100
AcDbEntity
  8
0
  6
CONTINUOUS
 62
     7
100
AcDbLine
 10
457.0275763117
 20
913.0951095853
 30
0.0
 11
456.6100979291
 21
912.6884196434
 31
0.0
  0
LWPOLYLINE
  5
486
330
1F
100
AcDbEntity
  8
0
  6
CONTINUOUS
 62
     7
100
AcDbPolyline
 90
        3
 70
   128
 43
0.0
 10
457.0275763117
 20
913.0951095853
 10
457.4377605759
 20
913.0748961601
 10
457.7591190182
 20
913.0456973347
  0
LINE
  5
487
330
1F
100
AcDbEntity
  8
0
  6
CONTINUOUS
 62
     7
100
AcDbLine
 10
465.5695403062
 20
703.8939971957
 30
0.0
 11
465.1679987155
 21
704.2851675782
 31
0.0
  0
ELLIPSE
  5
488
330
1F
100
AcDbEntity
  8
0
  6
CONTINUOUS
 62
     7
100
AcDbEllipse
 10
456.8017103964
 20
703.874410886
 30
0.0
 11
1.842264487547993
 21
8.618842566595049
 31
0.0
210
0.0
220
0.0
230
1.0
 40
0.9945769286
 41
4.363186634171546
 42
4.924082912482493
  0
LINE
  5
489
330
1F
100
AcDbEntity
  8
0
  6
CONTINUOUS
 62
     7
100
AcDbLine
 10
465.1679987155
 20
903.9034922156
 30
0.0
 11
465.5695403062
 21
904.2946625981
 31
0.0
  0
LINE
  5
48A
330
1F
100
AcDbEntity
  8
0
  6
CONTINUOUS
 62
     7
100
AcDbLine
 10
465.5695403062
 20
904.2946625981
 30
0.0
 11
465.5695403062
 21
703.8939971957
 31
0.0
  0
ELLIPSE
  5
48B
330
1F
100
AcDbEntity
  8
0
  6
CONTINUOUS
 62
     7
100
AcDbEllipse
 10
456.8017103964
 20
904.3142489078
 30
0.0
 11
-1.842264487547993
 21
8.618842566595049
 31
0.0
210
0.0
220
0.0
230
1.0
 40
0.9945769286
 41
4.500695048286939
 42
5.061591326597839
  0
LWPOLYLINE
  5
48C
330
1F
100
AcDbEntity
  8
0
  6
CONTINUOUS
 62
     7
100
AcDbPolyline
 90
        3
 70
   128
 43
0.0
 10
459.770090326
 20
911.2711254988
 10
460.7290098511
 20
910.5993886027
 10
461.4809820496
 20
910.0717757377
  0
LWPOLYLINE
  5
48D
330
1F
100
AcDbEntity
  8
0
  6
CONTINUOUS
 62
     7
100
AcDbPolyline
 90
        3
 70
   128
 43
0.0
 10
459.770090326
 20
696.9175342951
 10
460.7290098511
 20
697.5892711911
 10
461.4809820496
 20
698.1168840561
  0
LWPOLYLINE
  5
48E
330
1F
100
AcDbEntity
  8
0
  6
CONTINUOUS
 62
     7
100
AcDbPolyline
 90
        3
 70
   128
 43
0.0
 10
457.7591190182
 20
695.1429624591
 10
457.349948033
 20
695.1078329716
 10
457.0275763117
 20
695.0935502085
  0
LINE
  5
48F
330
1F
100
AcDbEntity
  8
0
  6
CONTINUOUS
 62
     7
100
AcDbLine
 10
456.6100979291
 20
695.5002401504
 30
0.0
 11
457.0275763117
 21
695.0935502085
 31
0.0
  0
LINE
  5
490
330
1F
100
AcDbEntity
  8
0
  6
CONTINUOUS
 62
     7
100
AcDbLine
 10
355.1118554615
 20
915.7504592571
 30
0.0
 11
457.0275763117
 21
913.0951095853
 31
0.0
  0
LINE
  5
491
330
1F
100
AcDbEntity
  8
0
  6
CONTINUOUS
 62
     7
100
AcDbLine
 10
355.1118554615
 20
915.3462503586
 30
0.0
 11
355.1118554615
 21
915.7504592571
 31
0.0
  0
LINE
  5
492
330
1F
100
AcDbEntity
  8
0
  6
CONTINUOUS
 62
     7
100
AcDbLine
 10
457.0275763117
 20
695.0935502085
 30
0.0
 11
355.1118554615
 21
692.4382005367
 31
0.0
  0
LINE
  5
493
330
1F
100
AcDbEntity
  8
0
  6
CONTINUOUS
 62
     7
100
AcDbLine
 10
355.1118554615
 20
692.4382005367
 30
0.0
 11
355.1118554615
 21
692.8424094353
 31
0.0
  0
LINE
  5
494
330
1F
100
AcDbEntity
  8
0
  6
CONTINUOUS
 62
     7
100
AcDbLine
 10
442.7235940539
 20
704.4524629149
 30
0.0
 11
267.5001168691
 21
704.4524629149
 31
0.0
  0
LINE
  5
495
330
1F
100
AcDbEntity
  8
0
  6
CONTINUOUS
 62
     7
100
AcDbLine
 10
267.5001168691
 20
903.7361968789
 30
0.0
 11
442.7235940539
 21
903.7361968789
 31
0.0
  0
LINE
  5
496
330
1F
100
AcDbEntity
  8
0
  6
CONTINUOUS
 62
     7
100
AcDbLine
 10
355.1118554615
 20
915.7504592571
 30
0.0
 11
253.1961346113
 21
913.0951095853
 31
0.0
  0
LINE
  5
497
330
1F
100
AcDbEntity
  8
0
  6
CONTINUOUS
 62
     7
100
AcDbLine
 10
253.1961346113
 20
695.0935502085
 30
0.0
 11
355.1118554615
 21
692.4382005367
 31
0.0
  0
LWPOLYLINE
  5
498
330
1F
100
AcDbEntity
  8
0
  6
CONTINUOUS
 62
     7
100
AcDbPolyline
 90
        3
 70
   128
 43
0.0
 10
250.453620597
 20
911.2711254988
 10
249.4947010719
 20
910.5993886027
 10
248.7427288734
 20
910.0717757377
  0
LWPOLYLINE
  5
499
330
1F
100
AcDbEntity
  8
0
  6
CONTINUOUS
 62
     7
100
AcDbPolyline
 90
        3
 70
   128
 43
0.0
 10
250.453620597
 20
696.9175342951
 10
249.4947010719
 20
697.5892711911
 10
248.7427288734
 20
698.1168840561
  0
LINE
  5
49A
330
1F
100
AcDbEntity
  8
0
  6
CONTINUOUS
 62
     7
100
AcDbLine
 10
245.055719658
 20
903.9034922156
 30
0.0
 11
244.6541631662
 21
904.2946625981
 31
0.0
  0
ELLIPSE
  5
49B
330
1F
100
AcDbEntity
  8
0
  6
CONTINUOUS
 62
     7
100
AcDbEllipse
 10
253.4220009438
 20
904.3142489078
 30
0.0
 11
1.84226448754788
 21
8.618842566595049
 31
0.0
210
0.0
220
0.0
230
1.0
 40
0.9945769286
 41
1.221593980581717
 42
1.782490258892648
  0
LINE
  5
49C
330
1F
100
AcDbEntity
  8
0
  6
CONTINUOUS
 62
     7
100
AcDbLine
 10
244.6541631662
 20
703.8939971957
 30
0.0
 11
245.055719658
 21
704.2851675782
 31
0.0
  0
ELLIPSE
  5
49D
330
1F
100
AcDbEntity
  8
0
  6
CONTINUOUS
 62
     7
100
AcDbEllipse
 10
253.4220009438
 20
703.874410886
 30
0.0
 11
-1.842264487547793
 21
8.618842566595047
 31
0.0
210
0.0
220
0.0
230
1.0
 40
0.9945769286
 41
1.359102394697141
 42
1.919998673008066
  0
LINE
  5
49E
330
1F
100
AcDbEntity
  8
0
  6
CONTINUOUS
 62
     7
100
AcDbLine
 10
244.6541631662
 20
904.2946625981
 30
0.0
 11
244.6541631662
 21
703.8939971957
 31
0.0
  0
ARC
  5
49F
330
1F
100
AcDbEntity
  8
0
  6
CONTINUOUS
 62
     7
100
AcDbCircle
 10
248.1126384306
 20
695.3943301472
 30
0.0
 40
3.791018432568596
100
AcDbArc
 50
121.8548754508
 51
238.1451245492
  0
ARC
  5
4A0
330
1F
100
AcDbEntity
  8
0
  6
CONTINUOUS
 62
     7
100
AcDbCircle
 10
248.1126426775
 20
912.7943296466
 30
0.0
 40
3.791020673990211
100
AcDbArc
 50
121.8549299702
 51
238.1450700298
  0
ARC
  5
4A1
330
1F
100
AcDbEntity
  8
0
  6
CONTINUOUS
 62
     7
100
AcDbCircle
 10
462.1110586211
 20
695.3943301472
 30
0.0
 40
3.791025753450426
100
AcDbArc
 50
301.8550535204
 51
58.1449464796
  0
ARC
  5
4A2
330
1F
100
AcDbEntity
  8
0
  6
CONTINUOUS
 62
     7
100
AcDbCircle
 10
462.1110543741
 20
912.7943296466
 30
0.0
 40
3.791027994897322
100
AcDbArc
 50
301.85510804
 51
58.14489196
  0
LINE
  5
4A3
330
1F
100
AcDbEntity
  8
0
  6
CONTINUOUS
 62
     7
100
AcDbLine
 10
469.7162205421
 20
690.0423396859
 30
0.0
 11
466.1031881415
 21
693.6553720865
 31
0.0
  0
LINE
  5
4A4
330
1F
100
AcDbEntity
  8
0
  6
CONTINUOUS
 62
     7
100
AcDbLine
 10
463.8508105718
 20
691.4029945168
 30
0.0
 11
467.463850423
 21
687.7899621162
 31
0.0
  0
LINE
  5
4A5
330
1F
100
AcDbEntity
  8
0
  6
CONTINUOUS
 62
     7
100
AcDbLine
 10
467.463850423
 20
920.3986976776
 30
0.0
 11
463.8508105718
 21
916.785665277
 31
0.0
  0
LINE
  5
4A6
330
1F
100
AcDbEntity
  8
0
  6
CONTINUOUS
 62
     7
100
AcDbLine
 10
466.1031881415
 20
914.5332877073
 30
0.0
 11
469.7162205421
 21
918.1463201079
 31
0.0
  0
LINE
  5
4A7
330
1F
100
AcDbEntity
  8
0
  6
CONTINUOUS
 62
     7
100
AcDbLine
 10
244.1205227815
 20
914.5332877073
 30
0.0
 11
240.5074829303
 21
918.1463201079
 31
0.0
  0
LINE
  5
4A8
330
1F
100
AcDbEntity
  8
0
  6
CONTINUOUS
 62
     7
100
AcDbLine
 10
242.7598679506
 20
920.3986976776
 30
0.0
 11
246.3728929006
 21
916.785665277
 31
0.0
  0
LINE
  5
4A9
330
1F
100
AcDbEntity
  8
0
  6
CONTINUOUS
 62
     7
100
AcDbLine
 10
240.5074829303
 20
690.0423396859
 30
0.0
 11
244.1205227815
 21
693.6553720865
 31
0.0
  0
LINE
  5
4AA
330
1F
100
AcDbEntity
  8
0
  6
CONTINUOUS
 62
     7
100
AcDbLine
 10
246.3728929006
 20
691.4029945168
 30
0.0
 11
242.7598679506
 21
687.7899621162
 31
0.0
  0
ARC
  5
4AB
330
1F
100
AcDbEntity
  8
0
  6
CONTINUOUS
 62
     7
100
AcDbCircle
 10
462.1061813208
 20
912.7953160907
 30
0.0
 40
2.757841345193432
100
AcDbArc
 50
270.1192155185
 51
326.1139153871
  0
ARC
  5
4AC
330
1F
100
AcDbEntity
  8
0
  6
CONTINUOUS
 62
     7
100
AcDbCircle
 10
467.2502022919
 20
912.3448298836
 30
0.0
 40
3.054606944669847
100
AcDbArc
 50
149.1534125406
 51
200.8485274642
  0
ARC
  5
4AD
330
1F
100
AcDbEntity
  8
0
  6
CONTINUOUS
 62
     7
100
AcDbCircle
 10
462.1129085479
 20
912.7953710642
 30
0.0
 40
2.7511581299899
100
AcDbArc
 50
23.9244407165
 51
86.0820629772
  0
ARC
  5
4AE
330
1F
100
AcDbEntity
  8
0
  6
CONTINUOUS
 62
     7
100
AcDbCircle
 10
459.9340067364
 20
917.4685857358
 30
0.0
 40
3.053062211521581
100
AcDbArc
 50
270.0256590824
 51
320.8275680424
  0
LWPOLYLINE
  5
4AF
330
1F
100
AcDbEntity
  8
0
  6
CONTINUOUS
 62
     7
100
AcDbPolyline
 90
        3
 70
   128
 43
0.0
 10
459.9353740059
 20
914.4155387316
 10
459.9078664624
 20
914.4156355891
 10
459.886252328
 20
914.4158889088
  0
LWPOLYLINE
  5
4B0
330
1F
100
AcDbEntity
  8
0
  6
CONTINUOUS
 62
     7
100
AcDbPolyline
 90
        3
 70
   128
 43
0.0
 10
459.886252328
 20
914.4158889088
 10
459.4720671021
 20
913.5837559137
 10
459.3640634858
 20
912.5659469995
  0
LWPOLYLINE
  5
4B1
330
1F
100
AcDbEntity
  8
0
  6
CONTINUOUS
 62
     7
100
AcDbPolyline
 90
        3
 70
   128
 43
0.0
 10
250.2883369171
 20
914.4155238304
 10
250.3158444606
 20
914.4156355891
 10
250.3374511443
 20
914.4158889088
  0
ARC
  5
4B2
330
1F
100
AcDbEntity
  8
0
  6
CONTINUOUS
 62
     7
100
AcDbCircle
 10
250.2896998088
 20
917.4685765272
 30
0.0
 40
3.053053000997492
100
AcDbArc
 50
219.1723498782
 51
269.974422997
  0
ARC
  5
4B3
330
1F
100
AcDbEntity
  8
0
  6
CONTINUOUS
 62
     7
100
AcDbCircle
 10
248.1107882586
 20
912.7953912271
 30
0.0
 40
2.751137049664806
100
AcDbArc
 50
93.9176724079
 51
156.0758238984
  0
ARC
  5
4B4
330
1F
100
AcDbEntity
  8
0
  6
CONTINUOUS
 62
     7
100
AcDbCircle
 10
242.9735889856
 20
912.3448449278
 30
0.0
 40
3.054530243151833
100
AcDbArc
 50
339.1506226477
 51
30.8471180191
  0
ARC
  5
4B5
330
1F
100
AcDbEntity
  8
0
  6
CONTINUOUS
 62
     7
100
AcDbCircle
 10
248.1175183702
 20
912.7953094305
 30
0.0
 40
2.75783449273544
100
AcDbArc
 50
213.8860135477
 51
269.8827202379
  0
LWPOLYLINE
  5
4B6
330
1F
100
AcDbEntity
  8
0
  6
CONTINUOUS
 62
     7
100
AcDbPolyline
 90
        3
 70
   128
 43
0.0
 10
250.3374511443
 20
914.4158889088
 10
250.7516438209
 20
913.5837559137
 10
250.8596474372
 20
912.5659171972
  0
LWPOLYLINE
  5
4B7
330
1F
100
AcDbEntity
  8
0
  6
CONTINUOUS
 62
     7
100
AcDbPolyline
 90
        3
 70
   128
 43
0.0
 10
459.886252328
 20
693.772770885
 10
459.9137598716
 20
693.7730689082
 10
459.9353740059
 20
693.7731285128
  0
ARC
  5
4B8
330
1F
100
AcDbEntity
  8
0
  6
CONTINUOUS
 62
     7
100
AcDbCircle
 10
459.9340997032
 20
690.7202696111
 30
0.0
 40
3.052866618250504
100
AcDbArc
 50
39.170688814
 51
89.9760840612
  0
ARC
  5
4B9
330
1F
100
AcDbEntity
  8
0
  6
CONTINUOUS
 62
     7
100
AcDbCircle
 10
462.113071876
 20
695.3930554448
 30
0.0
 40
2.750914234456793
100
AcDbArc
 50
273.914875184
 51
336.0786211223
  0
ARC
  5
4BA
330
1F
100
AcDbEntity
  8
0
  6
CONTINUOUS
 62
     7
100
AcDbCircle
 10
467.2505368172
 20
695.8438591717
 30
0.0
 40
3.054909156200765
100
AcDbArc
 50
159.1542183635
 51
210.8438416317
  0
ARC
  5
4BB
330
1F
100
AcDbEntity
  8
0
  6
CONTINUOUS
 62
     7
100
AcDbCircle
 10
462.1062277427
 20
695.393430238
 30
0.0
 40
2.757754561540825
100
AcDbArc
 50
33.8851298517
 51
89.8832931598
  0
LWPOLYLINE
  5
4BC
330
1F
100
AcDbEntity
  8
0
  6
CONTINUOUS
 62
     7
100
AcDbPolyline
 90
        3
 70
   128
 43
0.0
 10
459.3558007919
 20
695.3332502875
 10
459.5346445285
 20
694.420844737
 10
459.886252328
 20
693.772770885
  0
ARC
  5
4BD
330
1F
100
AcDbEntity
  8
0
  6
CONTINUOUS
 62
     7
100
AcDbCircle
 10
248.1174808223
 20
695.3934205697
 30
0.0
 40
2.757764179613817
100
AcDbArc
 50
90.1161930596
 51
146.114762384
  0
ARC
  5
4BE
330
1F
100
AcDbEntity
  8
0
  6
CONTINUOUS
 62
     7
100
AcDbCircle
 10
242.9732118069
 20
695.8438478574
 30
0.0
 40
3.054870986376109
100
AcDbArc
 50
329.1559780283
 51
20.8462813049
  0
ARC
  5
4BF
330
1F
100
AcDbEntity
  8
0
  6
CONTINUOUS
 62
     7
100
AcDbCircle
 10
248.1106818043
 20
695.3931165158
 30
0.0
 40
2.750978082504393
100
AcDbArc
 50
203.9221804813
 51
266.0843232124
  0
ARC
  5
4C0
330
1F
100
AcDbEntity
  8
0
  6
CONTINUOUS
 62
     7
100
AcDbCircle
 10
250.2896250268
 20
690.7202405684
 30
0.0
 40
3.052895666800175
100
AcDbArc
 50
90.0241748376
 51
140.8290522872
  0
LWPOLYLINE
  5
4C1
330
1F
100
AcDbEntity
  8
0
  6
CONTINUOUS
 62
     7
100
AcDbPolyline
 90
        3
 70
   128
 43
0.0
 10
250.3374511443
 20
693.772770885
 10
250.3099585019
 20
693.7730689082
 10
250.2883369171
 20
693.7731359634
  0
LWPOLYLINE
  5
4C2
330
1F
100
AcDbEntity
  8
0
  6
CONTINUOUS
 62
     7
100
AcDbPolyline
 90
        3
 70
   128
 43
0.0
 10
250.8679175817
 20
695.3333396945
 10
250.6890887462
 20
694.420934144
 10
250.3374511443
 20
693.772770885
  0
ARC
  5
4C3
330
1F
100
AcDbEntity
  8
0
  6
CONTINUOUS
 62
     7
100
AcDbCircle
 10
251.0660970381
 20
699.6161640667
 30
0.0
 40
3.044445858198703
100
AcDbArc
 50
208.7423228764
 51
260.9768356017
  0
ARC
  5
4C4
330
1F
100
AcDbEntity
  8
0
  6
CONTINUOUS
 62
     7
100
AcDbCircle
 10
251.0661969009
 20
908.5723510474
 30
0.0
 40
3.044604410327433
100
AcDbArc
 50
99.0245934292
 51
150.9087706253
  0
ARC
  5
4C5
330
1F
100
AcDbEntity
  8
0
  6
CONTINUOUS
 62
     7
100
AcDbCircle
 10
459.1574822151
 20
908.5722964953
 30
0.0
 40
3.044664329061378
100
AcDbArc
 50
28.9793624488
 51
81.1983650378
  0
ARC
  5
4C6
330
1F
100
AcDbEntity
  8
0
  6
CONTINUOUS
 62
     7
100
AcDbCircle
 10
459.1575400054
 20
699.6162755883
 30
0.0
 40
3.044570674540917
100
AcDbArc
 50
278.8494764165
 51
330.9083292014
  0
ARC
  5
4C7
330
1F
100
AcDbEntity
  8
0
  6
CONTINUOUS
 62
     7
100
AcDbCircle
 10
248.1118556701
 20
695.3943298969
 30
0.0
 40
2.752651079564498
100
AcDbArc
 50
350.3820553963
 51
27.2853826282
  0
ARC
  5
4C8
330
1F
100
AcDbEntity
  8
0
  6
CONTINUOUS
 62
     7
100
AcDbCircle
 10
248.1118556701
 20
695.3943298969
 30
0.0
 40
2.776325287902931
100
AcDbArc
 50
352.2050841035
 51
26.3203267907
  0
LWPOLYLINE
  5
4C9
330
1F
100
AcDbEntity
  8
0
  6
CONTINUOUS
 62
     7
100
AcDbPolyline
 90
        3
 70
   128
 43
0.0
 10
248.1118584119
 20
910.0416753921
 10
248.3077043735
 20
910.0486565862
 10
248.4609181129
 20
910.0639004741
  0
LWPOLYLINE
  5
4CA
330
1F
100
AcDbEntity
  8
0
  6
CONTINUOUS
 62
     7
100
AcDbPolyline
 90
        3
 70
   128
 43
0.0
 10
248.1118584119
 20
910.0180048976
 10
248.283251568
 20
910.0233022604
 10
248.4174961292
 20
910.0348804626
  0
LWPOLYLINE
  5
4CB
330
1F
100
AcDbEntity
  8
0
  6
CONTINUOUS
 62
     7
100
AcDbPolyline
 90
        3
 70
   128
 43
0.0
 10
461.7627853595
 20
698.1247593198
 10
461.9579309665
 20
698.1426705155
 10
462.1118525111
 20
698.1469844017
  0
LWPOLYLINE
  5
4CC
330
1F
100
AcDbEntity
  8
0
  6
CONTINUOUS
 62
     7
100
AcDbPolyline
 90
        3
 70
   128
 43
0.0
 10
462.1118525111
 20
698.1706548962
 10
461.940459355
 20
698.1653575334
 10
461.8062147938
 20
698.1537793312
  0
LWPOLYLINE
  5
4CD
330
1F
100
AcDbEntity
  8
0
  6
CONTINUOUS
 62
     7
100
AcDbPolyline
 90
        3
 70
   128
 43
0.0
 10
248.4609181129
 20
698.1247593198
 10
248.2657725059
 20
698.1426705155
 10
248.1118584119
 20
698.1469844017
  0
ARC
  5
4CE
330
1F
100
AcDbEntity
  8
0
  6
CONTINUOUS
 62
     7
100
AcDbCircle
 10
462.1118556701
 20
912.7943298969
 30
0.0
 40
2.752651079563542
100
AcDbArc
 50
162.1588731888
 51
207.3376314007
  0
ARC
  5
4CF
330
1F
100
AcDbEntity
  8
0
  6
CONTINUOUS
 62
     7
100
AcDbCircle
 10
462.1118556701
 20
695.3943298969
 30
0.0
 40
2.752651079563905
100
AcDbArc
 50
172.8944096675
 51
189.618236172
  0
ARC
  5
4D0
330
1F
100
AcDbEntity
  8
0
  6
CONTINUOUS
 62
     7
100
AcDbCircle
 10
248.1118556701
 20
912.7943298969
 30
0.0
 40
2.752651079563517
100
AcDbArc
 50
332.6623685993
 51
17.8411268111
  0
ARC
  5
4D1
330
1F
100
AcDbEntity
  8
0
  6
CONTINUOUS
 62
     7
100
AcDbCircle
 10
248.1118556701
 20
912.7943298969
 30
0.0
 40
2.776325350936085
100
AcDbArc
 50
333.6796681957
 51
14.3009031829
  0
LINE
  5
4D2
330
1F
100
AcDbEntity
  8
0
  6
CONTINUOUS
 62
     7
100
AcDbLine
 10
461.8062147938
 20
910.0348804626
 30
0.0
 11
461.9369352304
 21
910.0235183272
 31
0.0
  0
CIRCLE
  5
4D3
330
1F
100
AcDbEntity
  8
0
  6
CONTINUOUS
 62
     7
100
AcDbCircle
 10
444.0118556701
 20
715.0943298969
 30
0.0
 40
3.470633844066015
  0
CIRCLE
  5
4D4
330
1F
100
AcDbEntity
  8
0
  6
CONTINUOUS
 62
     7
100
AcDbCircle
 10
444.0118556701
 20
715.0943298969
 30
0.0
 40
1.999999999999432
  0
CIRCLE
  5
4D5
330
1F
100
AcDbEntity
  8
0
  6
CONTINUOUS
 62
     7
100
AcDbCircle
 10
444.0118556701
 20
893.0943298969
 30
0.0
 40
1.999999999999204
  0
CIRCLE
  5
4D6
330
1F
100
AcDbEntity
  8
0
  6
CONTINUOUS
 62
     7
100
AcDbCircle
 10
444.0118556701
 20
893.0943298969
 30
0.0
 40
3.470633844066128
  0
CIRCLE
  5
4D7
330
1F
100
AcDbEntity
  8
0
  6
CONTINUOUS
 62
     7
100
AcDbCircle
 10
266.2118556701
 20
893.0943298969
 30
0.0
 40
1.999999999999204
  0
CIRCLE
  5
4D8
330
1F
100
AcDbEntity
  8
0
  6
CONTINUOUS
 62
     7
100
AcDbCircle
 10
266.2118556701
 20
893.0943298969
 30
0.0
 40
3.470633844066015
  0
CIRCLE
  5
4D9
330
1F
100
AcDbEntity
  8
0
  6
CONTINUOUS
 62
     7
100
AcDbCircle
 10
266.2118556701
 20
715.0943298969
 30
0.0
 40
3.470633844066128
  0
CIRCLE
  5
4DA
330
1F
100
AcDbEntity
  8
0
  6
CONTINUOUS
 62
     7
100
AcDbCircle
 10
266.2118556701
 20
715.0943298969
 30
0.0
 40
1.999999999999432
  0
CIRCLE
  5
4DB
330
1F
100
AcDbEntity
  8
0
  6
CONTINUOUS
 62
     7
100
AcDbCircle
 10
444.0118556701
 20
715.0943298969
 30
0.0
 40
1.993891192545789
  0
CIRCLE
  5
4DC
330
1F
100
AcDbEntity
  8
0
  6
CONTINUOUS
 62
     7
100
AcDbCircle
 10
444.0118556701
 20
893.0943298969
 30
0.0
 40
1.993891192545561
  0
CIRCLE
  5
4DD
330
1F
100
AcDbEntity
  8
0
  6
CONTINUOUS
 62
     7
100
AcDbCircle
 10
266.2118556701
 20
893.0943298969
 30
0.0
 40
1.993891192545561
  0
CIRCLE
  5
4DE
330
1F
100
AcDbEntity
  8
0
  6
CONTINUOUS
 62
     7
100
AcDbCircle
 10
266.2118556701
 20
715.0943298969
 30
0.0
 40
1.993891192545789
  0
CIRCLE
  5
4DF
330
1F
100
AcDbEntity
  8
0
  6
CONTINUOUS
 62
     7
100
AcDbCircle
 10
444.0118556701
 20
893.0943298969
 30
0.0
 40
1.693891192546516
  0
CIRCLE
  5
4E0
330
1F
100
AcDbEntity
  8
0
  6
CONTINUOUS
 62
     7
100
AcDbCircle
 10
444.0118556701
 20
715.0943298969
 30
0.0
 40
1.693891192546403
  0
CIRCLE
  5
4E1
330
1F
100
AcDbEntity
  8
0
  6
CONTINUOUS
 62
     7
100
AcDbCircle
 10
266.2118556701
 20
715.0943298969
 30
0.0
 40
1.693891192546516
  0
CIRCLE
  5
4E2
330
1F
100
AcDbEntity
  8
0
  6
CONTINUOUS
 62
     7
100
AcDbCircle
 10
266.2118556701
 20
893.0943298969
 30
0.0
 40
1.693891192546403
  0
LINE
  5
4E3
330
1F
100
AcDbEntity
  8
0
  6
CONTINUOUS
 62
     7
100
AcDbLine
 10
454.0550926768
 20
901.9540925059
 30
0.0
 11
455.0537237965
 21
901.9540925059
 31
0.0
  0
LINE
  5
4E4
330
1F
100
AcDbEntity
  8
0
  6
CONTINUOUS
 62
     7
100
AcDbLine
 10
454.0550926768
 20
706.2345672879
 30
0.0
 11
455.0537237965
 21
706.2345672879
 31
0.0
  0
LINE
  5
4E5
330
1F
100
AcDbEntity
  8
0
  6
CONTINUOUS
 62
     7
100
AcDbLine
 10
454.0550926768
 20
706.2345672879
 30
0.0
 11
454.0550926768
 21
901.9540925059
 31
0.0
  0
LWPOLYLINE
  5
4E6
330
1F
100
AcDbEntity
  8
0
  6
CONTINUOUS
 62
     7
100
AcDbPolyline
 90
        9
 70
   128
 43
0.0
 10
453.5688454353
 20
902.4532367024
 10
453.5737851702
 20
902.6418332491
 10
453.5785460912
 20
902.8236646685
 10
453.5829568349
 20
902.9921893511
 10
453.5868683897
 20
903.1413499746
 10
453.5901242935
 20
903.2658044729
 10
453.592620238
 20
903.3610675964
 10
453.5942593657
 20
903.4237195287
 10
453.5949895226
 20
903.4515176449
  0
LINE
  5
4E7
330
1F
100
AcDbEntity
  8
0
  6
CONTINUOUS
 62
     7
100
AcDbLine
 10
453.5688454353
 20
902.4532367024
 30
0.0
 11
442.7105182849
 21
902.7375657592
 31
0.0
  0
LWPOLYLINE
  5
4E8
330
1F
100
AcDbEntity
  8
0
  6
CONTINUOUS
 62
     7
100
AcDbPolyline
 90
        9
 70
   128
 43
0.0
 10
442.7105182849
 20
902.7375657592
 10
442.7129918777
 20
902.9262368116
 10
442.7153686129
 20
903.1081278357
 10
442.7175814353
 20
903.2767046723
 10
442.7195334874
 20
903.4259249005
 10
442.7211651646
 20
903.5504166517
 10
442.7224094116
 20
903.6457095775
 10
442.7232289754
 20
903.7083913121
 10
442.7235940539
 20
903.7361968789
  0
LINE
  5
4E9
330
1F
100
AcDbEntity
  8
0
  6
CONTINUOUS
 62
     7
100
AcDbLine
 10
256.6548654877
 20
902.4532367024
 30
0.0
 11
267.513192638
 21
902.7375657592
 31
0.0
  0
LWPOLYLINE
  5
4EA
330
1F
100
AcDbEntity
  8
0
  6
CONTINUOUS
 62
     7
100
AcDbPolyline
 90
        9
 70
   128
 43
0.0
 10
256.6548654877
 20
902.4532367024
 10
256.6499257528
 20
902.6418332491
 10
256.6451648318
 20
902.8236646685
 10
256.6407540881
 20
902.9921893511
 10
256.6368425332
 20
903.1413499746
 10
256.6335866295
 20
903.2658044729
 10
256.631090685
 20
903.3610675964
 10
256.6294515573
 20
903.4237195287
 10
256.6287214004
 20
903.4515176449
  0
LWPOLYLINE
  5
4EB
330
1F
100
AcDbEntity
  8
0
  6
CONTINUOUS
 62
     7
100
AcDbPolyline
 90
        9
 70
   128
 43
0.0
 10
267.513192638
 20
902.7375657592
 10
267.5107190453
 20
902.9262368116
 10
267.5083423101
 20
903.1081278357
 10
267.5061294876
 20
903.2767046723
 10
267.5041774355
 20
903.4259249005
 10
267.5025457584
 20
903.5504166517
 10
267.5013015114
 20
903.6457095775
 10
267.5004819475
 20
903.7083913121
 10
267.5001168691
 20
903.7361968789
  0
LINE
  5
4EC
330
1F
100
AcDbEntity
  8
0
  6
CONTINUOUS
 62
     7
100
AcDbLine
 10
256.1686182462
 20
706.2345672879
 30
0.0
 11
255.1699871265
 21
706.2345672879
 31
0.0
  0
LINE
  5
4ED
330
1F
100
AcDbEntity
  8
0
  6
CONTINUOUS
 62
     7
100
AcDbLine
 10
256.1686182462
 20
901.9540925059
 30
0.0
 11
255.1699871265
 21
901.9540925059
 31
0.0
  0
LINE
  5
4EE
330
1F
100
AcDbEntity
  8
0
  6
CONTINUOUS
 62
     7
100
AcDbLine
 10
256.1686182462
 20
706.2345672879
 30
0.0
 11
256.1686182462
 21
901.9540925059
 31
0.0
  0
LINE
  5
4EF
330
1F
100
AcDbEntity
  8
0
  6
CONTINUOUS
 62
     7
100
AcDbLine
 10
442.7105182849
 20
705.4510940347
 30
0.0
 11
453.5688454353
 21
705.7354230914
 31
0.0
  0
LWPOLYLINE
  5
4F0
330
1F
100
AcDbEntity
  8
0
  6
CONTINUOUS
 62
     7
100
AcDbPolyline
 90
        5
 70
   128
 43
0.0
 10
453.5688454353
 20
705.7354230914
 10
453.5785460912
 20
705.3649951253
 10
453.5868683897
 20
705.0473098192
 10
453.592620238
 20
704.8275921974
 10
453.5949895226
 20
704.737142149
  0
LWPOLYLINE
  5
4F1
330
1F
100
AcDbEntity
  8
0
  6
CONTINUOUS
 62
     7
100
AcDbPolyline
 90
        9
 70
   128
 43
0.0
 10
442.7105182849
 20
705.4510940347
 10
442.7129918777
 20
705.2624229822
 10
442.7153686129
 20
705.0805319581
 10
442.7175814353
 20
704.9119551215
 10
442.7195334874
 20
704.7627348933
 10
442.7211651646
 20
704.6382431421
 10
442.7224094116
 20
704.5429502163
 10
442.7232289754
 20
704.4802684817
 10
442.7235940539
 20
704.4524629149
  0
LWPOLYLINE
  5
4F2
330
1F
100
AcDbEntity
  8
0
  6
CONTINUOUS
 62
     7
100
AcDbPolyline
 90
        5
 70
   128
 43
0.0
 10
256.6548654877
 20
705.7354230914
 10
256.6451648318
 20
705.3649951253
 10
256.6368425332
 20
705.0473098192
 10
256.631090685
 20
704.8275921974
 10
256.6287214004
 20
704.737142149
  0
LINE
  5
4F3
330
1F
100
AcDbEntity
  8
0
  6
CONTINUOUS
 62
     7
100
AcDbLine
 10
267.513192638
 20
705.4510940347
 30
0.0
 11
256.6548654877
 21
705.7354230914
 31
0.0
  0
LWPOLYLINE
  5
4F4
330
1F
100
AcDbEntity
  8
0
  6
CONTINUOUS
 62
     7
100
AcDbPolyline
 90
        9
 70
   128
 43
0.0
 10
267.513192638
 20
705.4510940347
 10
267.5107190453
 20
705.2624229822
 10
267.5083423101
 20
705.0805319581
 10
267.5061294876
 20
704.9119551215
 10
267.5041774355
 20
704.7627348933
 10
267.5025457584
 20
704.6382431421
 10
267.5013015114
 20
704.5429502163
 10
267.5004819475
 20
704.4802684817
 10
267.5001168691
 20
704.4524629149
  0
ARC
  5
4F5
330
1F
100
AcDbEntity
  8
0
  6
CONTINUOUS
 62
     7
100
AcDbCircle
 10
453.5559631318
 20
901.9542733956
 30
0.0
 40
0.4991295776976663
100
AcDbArc
 50
359.9792354244
 51
88.5210582189
  0
ARC
  5
4F6
330
1F
100
AcDbEntity
  8
0
  6
CONTINUOUS
 62
     7
100
AcDbCircle
 10
256.6677477911
 20
901.9542733956
 30
0.0
 40
0.4991295776976677
100
AcDbArc
 50
91.4789417811
 51
180.0207645756
  0
ARC
  5
4F7
330
1F
100
AcDbEntity
  8
0
  6
CONTINUOUS
 62
     7
100
AcDbCircle
 10
453.555978478
 20
706.2343714486
 30
0.0
 40
0.4991142371731614
100
AcDbArc
 50
271.4772249987
 51
0.0224813579
  0
ARC
  5
4F8
330
1F
100
AcDbEntity
  8
0
  6
CONTINUOUS
 62
     7
100
AcDbCircle
 10
256.667732445
 20
706.2343714486
 30
0.0
 40
0.4991142371732227
100
AcDbArc
 50
179.9775186421
 51
268.5227750013
  0
LINE
  5
4F9
330
1F
100
AcDbEntity
  8
0
  6
CONTINUOUS
 62
     7
100
AcDbLine
 10
267.513192638
 20
705.4510940347
 30
0.0
 11
442.7105182849
 21
705.4510940347
 31
0.0
  0
LINE
  5
4FA
330
1F
100
AcDbEntity
  8
0
  6
CONTINUOUS
 62
     7
100
AcDbLine
 10
442.7105182849
 20
902.7375657592
 30
0.0
 11
267.513192638
 21
902.7375657592
 31
0.0
  0
ENDSEC
  0
SECTION
  2
OBJECTS
  0
DICTIONARY
  5
C
330
0
100
AcDbDictionary
  3
ACAD_GROUP
350
D
  3
ACAD_MLINESTYLE
350
17
  0
DICTIONARY
  5
D
102
{ACAD_REACTORS
330
C
102
}
330
C
100
AcDbDictionary
  0
DICTIONARY
  5
17
102
{ACAD_REACTORS
330
C
102
}
330
C
100
AcDbDictionary
  3
STANDARD
350
18
  0
MLINESTYLE
  5
18
102
{ACAD_REACTORS
330
17
102
}
330
17
100
AcDbMlineStyle
  2
Standard
 70
     0
  3

 62
   256
 51
90.0
 52
90.0
 71
     2
 49
0.5
 62
   256
  6
BYLAYER
 49
-0.5
 62
   256
  6
BYLAYER
  0
ENDSEC
  0
EOF
