  0
SECTION
  2
HEADER
  9
$ACADVER
  1
AC1014
  9
$ACADMAINTVER
 70
     9
  9
$DWGCODEPAGE
  3
ANSI_1252
  9
$INSBASE
 10
0.0
 20
0.0
 30
0.0
  9
$EXTMIN
 10
0.0
 20
0.0
 30
0.0
  9
$EXTMAX
 10
1260.0
 20
891.0
 30
0.0
  9
$LIMMIN
 10
0.0
 20
0.0
  9
$LIMMAX
 10
1260.0
 20
891.0
  9
$ORTHOMODE
 70
     0
  9
$REGENMODE
 70
     1
  9
$FILLMODE
 70
     1
  9
$QTEXTMODE
 70
     0
  9
$MIRRTEXT
 70
     1
  9
$DRAGMODE
 70
     2
  9
$LTSCALE
 40
3.0
  9
$OSMODE
 70
    37
  9
$ATTMODE
 70
     1
  9
$TEXTSIZE
 40
10.5
  9
$TRACEWID
 40
1.0
  9
$TEXTSTYLE
  7
STANDARD
  9
$CLAYER
  8
0
  9
$CELTYPE
  6
BYLAYER
  9
$CECOLOR
 62
   256
  9
$CELTSCALE
 40
1.0
  9
$DELOBJ
 70
     1
  9
$DISPSILH
 70
     0
  9
$DIMSCALE
 40
1.0
  9
$DIMASZ
 40
18.0
  9
$DIMEXO
 40
3.0
  9
$DIMDLI
 40
3.75
  9
$DIMRND
 40
0.0
  9
$DIMDLE
 40
0.0
  9
$DIMEXE
 40
3.0
  9
$DIMTP
 40
0.0
  9
$DIMTM
 40
0.0
  9
$DIMTXT
 40
10.5
  9
$DIMCEN
 40
2.5
  9
$DIMTSZ
 40
0.0
  9
$DIMTOL
 70
     0
  9
$DIMLIM
 70
     0
  9
$DIMTIH
 70
     1
  9
$DIMTOH
 70
     1
  9
$DIMSE1
 70
     0
  9
$DIMSE2
 70
     0
  9
$DIMTAD
 70
     1
  9
$DIMZIN
 70
     0
  9
$DIMBLK
  1

  9
$DIMASO
 70
     1
  9
$DIMSHO
 70
     1
  9
$DIMPOST
  1

  9
$DIMAPOST
  1

  9
$DIMALT
 70
     0
  9
$DIMALTD
 70
     3
  9
$DIMALTF
 40
0.0393700787
  9
$DIMLFAC
 40
1.0
  9
$DIMTOFL
 70
     1
  9
$DIMTVP
 40
0.0
  9
$DIMTIX
 70
     0
  9
$DIMSOXD
 70
     0
  9
$DIMSAH
 70
     0
  9
$DIMBLK1
  1

  9
$DIMBLK2
  1

  9
$DIMSTYLE
  2
ISO-25
  9
$DIMCLRD
 70
     0
  9
$DIMCLRE
 70
     0
  9
$DIMCLRT
 70
     0
  9
$DIMTFAC
 40
1.0
  9
$DIMGAP
 40
4.572
  9
$DIMJUST
 70
     0
  9
$DIMSD1
 70
     0
  9
$DIMSD2
 70
     0
  9
$DIMTOLJ
 70
     0
  9
$DIMTZIN
 70
     0
  9
$DIMALTZ
 70
     0
  9
$DIMALTTZ
 70
     0
  9
$DIMFIT
 70
     3
  9
$DIMUPT
 70
     0
  9
$DIMUNIT
 70
     2
  9
$DIMDEC
 70
     2
  9
$DIMTDEC
 70
     2
  9
$DIMALTU
 70
     2
  9
$DIMALTTD
 70
     3
  9
$DIMTXSTY
  7
STANDARD
  9
$DIMAUNIT
 70
     0
  9
$LUNITS
 70
     2
  9
$LUPREC
 70
     2
  9
$SKETCHINC
 40
1.0
  9
$FILLETRAD
 40
10.0
  9
$AUNITS
 70
     0
  9
$AUPREC
 70
     2
  9
$MENU
  1
.
  9
$ELEVATION
 40
0.0
  9
$PELEVATION
 40
0.0
  9
$THICKNESS
 40
0.0
  9
$LIMCHECK
 70
     0
  9
$CHAMFERA
 40
10.0
  9
$CHAMFERB
 40
10.0
  9
$CHAMFERC
 40
20.0
  9
$CHAMFERD
 40
0.0
  9
$SKPOLY
 70
     0
  9
$TDCREATE
 40
2455559.36322581
  9
$TDUPDATE
 40
2455559.363225822
  9
$TDINDWG
 40
0.0000000116
  9
$TDUSRTIMER
 40
0.0000000116
  9
$USRTIMER
 70
     1
  9
$ANGBASE
 50
0.0
  9
$ANGDIR
 70
     0
  9
$PDMODE
 70
     0
  9
$PDSIZE
 40
-1.0
  9
$PLINEWID
 40
0.0
  9
$COORDS
 70
     1
  9
$SPLFRAME
 70
     0
  9
$SPLINETYPE
 70
     6
  9
$SPLINESEGS
 70
     8
  9
$ATTDIA
 70
     0
  9
$ATTREQ
 70
     1
  9
$HANDLING
 70
     1
  9
$HANDSEED
  5
57D
  9
$SURFTAB1
 70
     6
  9
$SURFTAB2
 70
     6
  9
$SURFTYPE
 70
     6
  9
$SURFU
 70
     6
  9
$SURFV
 70
     6
  9
$UCSNAME
  2

  9
$UCSORG
 10
0.0
 20
0.0
 30
0.0
  9
$UCSXDIR
 10
1.0
 20
0.0
 30
0.0
  9
$UCSYDIR
 10
0.0
 20
1.0
 30
0.0
  9
$PUCSNAME
  2

  9
$PUCSORG
 10
0.0
 20
0.0
 30
0.0
  9
$PUCSXDIR
 10
1.0
 20
0.0
 30
0.0
  9
$PUCSYDIR
 10
0.0
 20
1.0
 30
0.0
  9
$USERI1
 70
     0
  9
$USERI2
 70
     0
  9
$USERI3
 70
     0
  9
$USERI4
 70
     0
  9
$USERI5
 70
     0
  9
$USERR1
 40
0.0
  9
$USERR2
 40
0.0
  9
$USERR3
 40
0.0
  9
$USERR4
 40
0.0
  9
$USERR5
 40
0.0
  9
$WORLDVIEW
 70
     1
  9
$SHADEDGE
 70
     3
  9
$SHADEDIF
 70
    70
  9
$TILEMODE
 70
     1
  9
$MAXACTVP
 70
    64
  9
$PINSBASE
 10
0.0
 20
0.0
 30
0.0
  9
$PLIMCHECK
 70
     0
  9
$PEXTMIN
 10
1.0000000000E+20
 20
1.0000000000E+20
 30
1.0000000000E+20
  9
$PEXTMAX
 10
-1.0000000000E+20
 20
-1.0000000000E+20
 30
-1.0000000000E+20
  9
$PLIMMIN
 10
0.0
 20
0.0
  9
$PLIMMAX
 10
420.0
 20
297.0
  9
$UNITMODE
 70
     0
  9
$VISRETAIN
 70
     1
  9
$PLINEGEN
 70
     0
  9
$PSLTSCALE
 70
     1
  9
$TREEDEPTH
 70
  3020
  9
$PICKSTYLE
 70
     1
  9
$CMLSTYLE
  2
STANDARD
  9
$CMLJUST
 70
     0
  9
$CMLSCALE
 40
20.0
  9
$PROXYGRAPHICS
 70
     1
  9
$MEASUREMENT
 70
     1
  0
ENDSEC
  0
SECTION
  2
CLASSES
  0
CLASS
  1
ACDBDICTIONARYWDFLT
  2
AcDbDictionaryWithDefault
  3
ObjectDBX Classes
 90
        0
280
     0
281
     0
  0
CLASS
  1
VISUALSTYLE
  2
AcDbVisualStyle
  3
ObjectDBX Classes
 90
     4095
280
     0
281
     0
  0
CLASS
  1
MATERIAL
  2
AcDbMaterial
  3
ObjectDBX Classes
 90
     1153
280
     0
281
     0
  0
CLASS
  1
XRECORD
  2
AcDbXrecord
  3
AutoCAD 2000
 90
        0
280
     0
281
     0
  0
CLASS
  1
LWPOLYLINE
  2
AcDbPolyline
  3
AutoCAD 2000
 90
        0
280
     0
281
     1
  0
CLASS
  1
HATCH
  2
AcDbHatch
  3
AutoCAD 2000
 90
        0
280
     0
281
     1
  0
ENDSEC
  0
SECTION
  2
TABLES
  0
TABLE
  2
VPORT
  5
8
330
0
100
AcDbSymbolTable
 70
     1
  0
VPORT
  5
29
330
8
100
AcDbSymbolTableRecord
100
AcDbViewportTableRecord
  2
*ACTIVE
 70
     0
 10
0.0
 20
0.0
 11
1.0
 21
1.0
 12
630.0
 22
445.5
 13
0.0
 23
0.0
 14
10.0
 24
10.0
 15
10.0
 25
10.0
 16
0.0
 26
0.0
 36
1.0
 17
0.0
 27
0.0
 37
0.0
 40
891.0
 41
1.4141414141
 42
50.0
 43
0.0
 44
0.0
 50
0.0
 51
0.0
 71
     0
 72
  2000
 73
     1
 74
     3
 75
     0
 76
     0
 77
     0
 78
     0
  0
ENDTAB
  0
TABLE
  2
LTYPE
  5
5
330
0
100
AcDbSymbolTable
 70
     6
  0
LTYPE
  5
14
330
5
100
AcDbSymbolTableRecord
100
AcDbLinetypeTableRecord
  2
BYBLOCK
 70
     0
  3

 72
    65
 73
     0
 40
0.0
  0
LTYPE
  5
15
330
5
100
AcDbSymbolTableRecord
100
AcDbLinetypeTableRecord
  2
BYLAYER
 70
     0
  3

 72
    65
 73
     0
 40
0.0
  0
LTYPE
  5
16
330
5
100
AcDbSymbolTableRecord
100
AcDbLinetypeTableRecord
  2
CONTINUOUS
 70
     0
  3
Solid line
 72
    65
 73
     0
 40
0.0
  0
LTYPE
  5
3F
330
5
100
AcDbSymbolTableRecord
100
AcDbLinetypeTableRecord
  2
HIDDEN
 70
     0
  3
Hidden __ __ __ __ __ __ __ __ __ __ __ __ __ __
 72
    65
 73
     2
 40
1.905
 49
1.27
 74
     0
 49
-0.635
 74
     0
  0
LTYPE
  5
40
330
5
100
AcDbSymbolTableRecord
100
AcDbLinetypeTableRecord
  2
PHANTOM
 70
     0
  3
Phantom ______  __  __  ______  __  __  ______
 72
    65
 73
     6
 40
12.7
 49
6.35
 74
     0
 49
-1.27
 74
     0
 49
1.27
 74
     0
 49
-1.27
 74
     0
 49
1.27
 74
     0
 49
-1.27
 74
     0
  0
LTYPE
  5
41
330
5
100
AcDbSymbolTableRecord
100
AcDbLinetypeTableRecord
  2
CENTER
 70
     0
  3
Center ____ _ ____ _ ____ _ ____ _ ____ _ ____
 72
    65
 73
     4
 40
10.16
 49
6.35
 74
     0
 49
-1.27
 74
     0
 49
1.27
 74
     0
 49
-1.27
 74
     0
  0
LTYPE
  5
42
330
5
100
AcDbSymbolTableRecord
100
AcDbLinetypeTableRecord
  2
CENTERX2
 70
     0
  3
Center (2x) ________  __  ________  __  _____
 72
    65
 73
     4
 40
20.32
 49
12.7
 74
     0
 49
-2.54
 74
     0
 49
2.54
 74
     0
 49
-2.54
 74
     0
  0
LTYPE
  5
43
330
5
100
AcDbSymbolTableRecord
100
AcDbLinetypeTableRecord
  2
DOT2
 70
     0
  3
Dot (.5x) ........................................
 72
    65
 73
     2
 40
0.635
 49
0.0
 74
     0
 49
-0.635
 74
     0
  0
ENDTAB
  0
TABLE
  2
LAYER
  5
2
330
0
100
AcDbSymbolTable
 70
     1
  0
LAYER
  5
10
330
2
100
AcDbSymbolTableRecord
100
AcDbLayerTableRecord
  2
0
 70
     0
 62
     7
  6
CONTINUOUS
  0
ENDTAB
  0
TABLE
  2
STYLE
  5
3
330
0
100
AcDbSymbolTable
 70
     1
  0
STYLE
  5
11
330
3
100
AcDbSymbolTableRecord
100
AcDbTextStyleTableRecord
  2
STANDARD
 70
     0
 40
0.0
 41
1.0
 50
0.0
 71
     0
 42
2.5
  3
txt
  4

  0
ENDTAB
  0
TABLE
  2
VIEW
  5
6
330
0
100
AcDbSymbolTable
 70
     0
  0
ENDTAB
  0
TABLE
  2
UCS
  5
7
330
0
100
AcDbSymbolTable
 70
     0
  0
ENDTAB
  0
TABLE
  2
APPID
  5
9
330
0
100
AcDbSymbolTable
 70
     1
  0
APPID
  5
12
330
9
100
AcDbSymbolTableRecord
100
AcDbRegAppTableRecord
  2
ACAD
 70
     0
  0
ENDTAB
  0
TABLE
  2
DIMSTYLE
  5
A
330
0
100
AcDbSymbolTable
 70
     1
  0
DIMSTYLE
105
27
330
A
100
AcDbSymbolTableRecord
100
AcDbDimStyleTableRecord
  2
ISO-25
 70
     0
  3

  4

  5

  6

  7

 40
1.0
 41
2.5
 42
0.625
 43
3.75
 44
1.25
 45
0.0
 46
0.0
 47
0.0
 48
0.0
140
2.5
141
2.5
142
0.0
143
0.0393700787
144
1.0
145
0.0
146
1.0
147
0.625
 71
     0
 72
     0
 73
     0
 74
     0
 75
     0
 76
     0
 77
     1
 78
     8
170
     0
171
     3
172
     1
173
     0
174
     0
175
     0
176
     0
177
     0
178
     0
270
     2
271
     2
272
     2
273
     2
274
     3
340
11
275
     0
280
     0
281
     0
282
     0
283
     0
284
     8
285
     0
286
     0
287
     3
288
     0
  0
ENDTAB
  0
TABLE
  2
BLOCK_RECORD
  5
1
330
0
100
AcDbSymbolTable
 70
     1
  0
BLOCK_RECORD
  5
1F
330
1
100
AcDbSymbolTableRecord
100
AcDbBlockTableRecord
  2
*MODEL_SPACE
  0
BLOCK_RECORD
  5
1B
330
1
100
AcDbSymbolTableRecord
100
AcDbBlockTableRecord
  2
*PAPER_SPACE
  0
BLOCK_RECORD
  5
23
330
1
100
AcDbSymbolTableRecord
100
AcDbBlockTableRecord
  2
*PAPER_SPACE0
  0
ENDTAB
  0
ENDSEC
  0
SECTION
  2
BLOCKS
  0
BLOCK
  5
20
330
1F
100
AcDbEntity
  8
0
100
AcDbBlockBegin
  2
*MODEL_SPACE
 70
     0
 10
0.0
 20
0.0
 30
0.0
  3
*MODEL_SPACE
  1

  0
ENDBLK
  5
21
330
1F
100
AcDbEntity
  8
0
100
AcDbBlockEnd
  0
BLOCK
  5
1C
330
1B
100
AcDbEntity
 67
     1
  8
0
100
AcDbBlockBegin
  2
*PAPER_SPACE
 70
     0
 10
0.0
 20
0.0
 30
0.0
  3
*PAPER_SPACE
  1

  0
ENDBLK
  5
1D
330
1B
100
AcDbEntity
 67
     1
  8
0
100
AcDbBlockEnd
  0
BLOCK
  5
24
330
23
100
AcDbEntity
  8
0
100
AcDbBlockBegin
  2
*PAPER_SPACE0
 70
     0
 10
0.0
 20
0.0
 30
0.0
  3
*PAPER_SPACE0
  1

  0
ENDBLK
  5
25
330
23
100
AcDbEntity
  8
0
100
AcDbBlockEnd
  0
ENDSEC
  0
SECTION
  2
ENTITIES
  0
LINE
  5
44
330
1F
100
AcDbEntity
  8
0
  6
CONTINUOUS
 62
     7
100
AcDbLine
 10
785.1002615938
 20
617.7736053504
 30
0.0
 11
785.4241532335
 21
617.7736053504
 31
0.0
  0
LINE
  5
45
330
1F
100
AcDbEntity
  8
0
  6
CONTINUOUS
 62
     7
100
AcDbLine
 10
568.7266838799
 20
617.7736053504
 30
0.0
 11
569.0505755196
 21
617.7736053504
 31
0.0
  0
LINE
  5
46
330
1F
100
AcDbEntity
  8
0
  6
CONTINUOUS
 62
     7
100
AcDbLine
 10
563.4938580046
 20
653.4828933216
 30
0.0
 11
563.0754184971
 21
665.4654534794
 31
0.0
  0
LINE
  5
47
330
1F
100
AcDbEntity
  8
0
  6
CONTINUOUS
 62
     7
100
AcDbLine
 10
568.5720694313
 20
665.4654534794
 30
0.0
 11
563.0754184971
 21
665.4654534794
 31
0.0
  0
LINE
  5
48
330
1F
100
AcDbEntity
  8
0
  6
CONTINUOUS
 62
     7
100
AcDbLine
 10
568.9905089388
 20
653.4828942529
 30
0.0
 11
568.5720694313
 21
665.4654534794
 31
0.0
  0
ARC
  5
49
330
1F
100
AcDbEntity
  8
0
  6
CONTINUOUS
 62
     7
100
AcDbCircle
 10
566.2422026414
 20
540.3438726908
 30
0.0
 40
113.172396756223
100
AcDbArc
 50
88.6084784167
 51
91.3915409991
  0
LWPOLYLINE
  5
4A
330
1F
100
AcDbEntity
  8
0
  6
CONTINUOUS
 62
     7
100
AcDbPolyline
 90
        3
 70
   128
 43
0.0
 10
570.9718120346
 20
653.4173645339
 10
569.8618394384
 20
653.4406774006
 10
568.9905089388
 20
653.4828942529
  0
LINE
  5
4B
330
1F
100
AcDbEntity
  8
0
  6
CONTINUOUS
 62
     7
100
AcDbLine
 10
568.5720694313
 20
665.4654534794
 30
0.0
 11
785.5787676821
 21
665.4654534794
 31
0.0
  0
LINE
  5
4C
330
1F
100
AcDbEntity
  8
0
  6
CONTINUOUS
 62
     7
100
AcDbLine
 10
785.1603281746
 20
653.4828942529
 30
0.0
 11
785.5787676821
 21
665.4654534794
 31
0.0
  0
LWPOLYLINE
  5
4D
330
1F
100
AcDbEntity
  8
0
  6
CONTINUOUS
 62
     7
100
AcDbPolyline
 90
        3
 70
   128
 43
0.0
 10
783.1790250788
 20
653.4173645339
 10
784.288997675
 20
653.4406774006
 10
785.1603281746
 20
653.4828942529
  0
LINE
  5
4E
330
1F
100
AcDbEntity
  8
0
  6
CONTINUOUS
 62
     7
100
AcDbLine
 10
570.9718120346
 20
653.4173645339
 30
0.0
 11
783.1790250788
 21
653.4173645339
 31
0.0
  0
LINE
  5
4F
330
1F
100
AcDbEntity
  8
0
  6
CONTINUOUS
 62
     7
100
AcDbLine
 10
785.5787676821
 20
665.4654534794
 30
0.0
 11
791.0754186163
 21
665.4654534794
 31
0.0
  0
LINE
  5
50
330
1F
100
AcDbEntity
  8
0
  6
CONTINUOUS
 62
     7
100
AcDbLine
 10
790.6569791088
 20
653.4828933216
 30
0.0
 11
791.0754186163
 21
665.4654534794
 31
0.0
  0
ARC
  5
51
330
1F
100
AcDbEntity
  8
0
  6
CONTINUOUS
 62
     7
100
AcDbCircle
 10
787.9086344786
 20
540.3822952923
 30
0.0
 40
113.1339854897466
100
AcDbArc
 50
88.607986455
 51
91.3919941292
  0
LINE
  5
52
330
1F
100
AcDbEntity
  8
0
  6
CONTINUOUS
 62
     7
100
AcDbLine
 10
570.9718120346
 20
653.4173645339
 30
0.0
 11
570.9718120346
 21
651.0592734701
 31
0.0
  0
LINE
  5
53
330
1F
100
AcDbEntity
  8
0
  6
CONTINUOUS
 62
     7
100
AcDbLine
 10
570.9718120346
 20
651.0592734701
 30
0.0
 11
568.8586187611
 21
651.10314342
 31
0.0
  0
ARC
  5
54
330
1F
100
AcDbEntity
  8
0
  6
CONTINUOUS
 62
     7
100
AcDbCircle
 10
159.1162803434
 20
676.7486314432
 30
0.0
 40
410.5340153917923
100
AcDbArc
 50
356.4186295028
 51
356.751199462
  0
ARC
  5
55
330
1F
100
AcDbEntity
  8
0
  6
CONTINUOUS
 62
     7
100
AcDbCircle
 10
1194.9279281398
 20
676.7424226579
 30
0.0
 40
410.4272060543153
100
AcDbArc
 50
183.2487782466
 51
183.581432807
  0
LINE
  5
56
330
1F
100
AcDbEntity
  8
0
  6
CONTINUOUS
 62
     7
100
AcDbLine
 10
783.1790250788
 20
651.0592734701
 30
0.0
 11
785.292330111
 21
651.103634227
 31
0.0
  0
LINE
  5
57
330
1F
100
AcDbEntity
  8
0
  6
CONTINUOUS
 62
     7
100
AcDbLine
 10
783.1790250788
 20
653.4173645339
 30
0.0
 11
783.1790250788
 21
651.0592734701
 31
0.0
  0
ARC
  5
58
330
1F
100
AcDbEntity
  8
0
  6
CONTINUOUS
 62
     7
100
AcDbCircle
 10
567.227689819
 20
632.1535803163
 30
0.0
 40
19.01976593781821
100
AcDbArc
 50
85.1113053949
 51
94.8888262877
  0
LINE
  5
59
330
1F
100
AcDbEntity
  8
0
  6
CONTINUOUS
 62
     7
100
AcDbLine
 10
563.4939697633
 20
653.4828970469
 30
0.0
 11
563.5756206761
 21
653.085093785
 31
0.0
  0
ARC
  5
5A
330
1F
100
AcDbEntity
  8
0
  6
CONTINUOUS
 62
     7
100
AcDbCircle
 10
788.1616170171
 20
653.5716125447
 30
0.0
 40
2.496938706534659
100
AcDbArc
 50
278.8211345069
 51
357.9638051137
  0
ARC
  5
5B
330
1F
100
AcDbEntity
  8
0
  6
CONTINUOUS
 62
     7
100
AcDbCircle
 10
786.9231472944
 20
632.1535803163
 30
0.0
 40
19.01976593781854
100
AcDbArc
 50
85.1111737123
 51
94.8886946051
  0
LINE
  5
5C
330
1F
100
AcDbEntity
  8
0
  6
CONTINUOUS
 62
     7
100
AcDbLine
 10
783.1790250788
 20
651.0592734701
 30
0.0
 11
570.9718120346
 21
651.0592734701
 31
0.0
  0
LINE
  5
5D
330
1F
100
AcDbEntity
  8
0
  6
CONTINUOUS
 62
     7
100
AcDbLine
 10
565.6063285718
 20
651.1036426089
 30
0.0
 11
565.474706615
 21
651.0592734701
 31
0.0
  0
LINE
  5
5E
330
1F
100
AcDbEntity
  8
0
  6
CONTINUOUS
 62
     7
100
AcDbLine
 10
570.9718120346
 20
651.0592734701
 30
0.0
 11
576.6350952039
 21
649.85545988
 31
0.0
  0
LINE
  5
5F
330
1F
100
AcDbEntity
  8
0
  6
CONTINUOUS
 62
     7
100
AcDbLine
 10
574.6209126959
 20
649.9151837341
 30
0.0
 11
576.6350952039
 21
649.85545988
 31
0.0
  0
ARC
  5
60
330
1F
100
AcDbEntity
  8
0
  6
CONTINUOUS
 62
     7
100
AcDbCircle
 10
576.7605293622
 20
730.1784387323
 30
0.0
 40
80.29176833514694
100
AcDbArc
 50
264.7398071033
 51
268.4730001477
  0
LINE
  5
61
330
1F
100
AcDbEntity
  8
0
  6
CONTINUOUS
 62
     7
100
AcDbLine
 10
569.3994787583
 20
650.2248084433
 30
0.0
 11
565.474706615
 21
651.0592734701
 31
0.0
  0
ARC
  5
62
330
1F
100
AcDbEntity
  8
0
  6
CONTINUOUS
 62
     7
100
AcDbCircle
 10
777.3903077512
 20
730.1784387323
 30
0.0
 40
80.29176833513021
100
AcDbArc
 50
271.5269998523
 51
275.2601928967
  0
LINE
  5
63
330
1F
100
AcDbEntity
  8
0
  6
CONTINUOUS
 62
     7
100
AcDbLine
 10
779.5299244175
 20
649.9151837341
 30
0.0
 11
777.5157419095
 21
649.85545988
 31
0.0
  0
LINE
  5
64
330
1F
100
AcDbEntity
  8
0
  6
CONTINUOUS
 62
     7
100
AcDbLine
 10
783.1790250788
 20
651.0592734701
 30
0.0
 11
777.5157419095
 21
649.85545988
 31
0.0
  0
LINE
  5
65
330
1F
100
AcDbEntity
  8
0
  6
CONTINUOUS
 62
     7
100
AcDbLine
 10
788.5413271437
 20
651.1031303815
 30
0.0
 11
788.6761304984
 21
651.0592734701
 31
0.0
  0
LINE
  5
66
330
1F
100
AcDbEntity
  8
0
  6
CONTINUOUS
 62
     7
100
AcDbLine
 10
784.7513583551
 20
650.2248084433
 30
0.0
 11
788.6761304984
 21
651.0592734701
 31
0.0
  0
LINE
  5
67
330
1F
100
AcDbEntity
  8
0
  6
CONTINUOUS
 62
     7
100
AcDbLine
 10
576.6350952039
 20
649.85545988
 30
0.0
 11
777.5157419095
 21
649.85545988
 31
0.0
  0
ARC
  5
68
330
1F
100
AcDbEntity
  8
0
  6
CONTINUOUS
 62
     7
100
AcDbCircle
 10
565.9946290678
 20
653.5046190421
 30
0.0
 40
2.500006864589824
100
AcDbArc
 50
182.0001267415
 51
257.9966776039
  0
LWPOLYLINE
  5
69
330
1F
100
AcDbEntity
  8
0
  6
CONTINUOUS
 62
     7
100
AcDbPolyline
 90
        3
 70
   128
 43
0.0
 10
563.4954449782
 20
653.4375034533
 10
563.4956237922
 20
653.4323709346
 10
563.4961453328
 20
653.4173645339
  0
ARC
  5
6A
330
1F
100
AcDbEntity
  8
0
  6
CONTINUOUS
 62
     7
100
AcDbCircle
 10
788.1562080456
 20
653.5046190421
 30
0.0
 40
2.500006864589963
100
AcDbArc
 50
282.0033223961
 51
357.9998732585
  0
LWPOLYLINE
  5
6B
330
1F
100
AcDbEntity
  8
0
  6
CONTINUOUS
 62
     7
100
AcDbPolyline
 90
        3
 70
   128
 43
0.0
 10
790.6553921352
 20
653.4375034533
 10
790.6552133212
 20
653.4323709346
 10
790.6546917806
 20
653.4173645339
  0
LINE
  5
6C
330
1F
100
AcDbEntity
  8
0
  6
CONTINUOUS
 62
     7
100
AcDbLine
 10
575.3129524241
 20
570.6154497601
 30
0.0
 11
574.6209126959
 21
649.9151837341
 31
0.0
  0
LINE
  5
6D
330
1F
100
AcDbEntity
  8
0
  6
CONTINUOUS
 62
     7
100
AcDbLine
 10
569.8131647954
 20
570.6154497601
 30
0.0
 11
575.3129524241
 21
570.6154497601
 31
0.0
  0
LINE
  5
6E
330
1F
100
AcDbEntity
  8
0
  6
CONTINUOUS
 62
     7
100
AcDbLine
 10
569.8131647954
 20
570.6154497601
 30
0.0
 11
569.1178989658
 21
650.284675721
 31
0.0
  0
LINE
  5
6F
330
1F
100
AcDbEntity
  8
0
  6
CONTINUOUS
 62
     7
100
AcDbLine
 10
784.337672318
 20
570.6154497601
 30
0.0
 11
778.8378846893
 21
570.6154497601
 31
0.0
  0
LINE
  5
70
330
1F
100
AcDbEntity
  8
0
  6
CONTINUOUS
 62
     7
100
AcDbLine
 10
778.8378846893
 20
570.6154497601
 30
0.0
 11
779.5299244175
 21
649.9151837341
 31
0.0
  0
LINE
  5
71
330
1F
100
AcDbEntity
  8
0
  6
CONTINUOUS
 62
     7
100
AcDbLine
 10
784.337672318
 20
570.6154497601
 30
0.0
 11
785.0329381476
 21
650.284675721
 31
0.0
  0
LINE
  5
72
330
1F
100
AcDbEntity
  8
0
  6
CONTINUOUS
 62
     7
100
AcDbLine
 10
594.04031458
 20
570.6154497601
 30
0.0
 11
594.0563109765
 21
572.6154538132
 31
0.0
  0
LINE
  5
73
330
1F
100
AcDbEntity
  8
0
  6
CONTINUOUS
 62
     7
100
AcDbLine
 10
575.3129524241
 20
570.6154497601
 30
0.0
 11
594.04031458
 21
570.6154497601
 31
0.0
  0
LINE
  5
74
330
1F
100
AcDbEntity
  8
0
  6
CONTINUOUS
 62
     7
100
AcDbLine
 10
778.8378846893
 20
570.6154497601
 30
0.0
 11
760.1105225334
 21
570.6154497601
 31
0.0
  0
LINE
  5
75
330
1F
100
AcDbEntity
  8
0
  6
CONTINUOUS
 62
     7
100
AcDbLine
 10
760.1105225334
 20
570.6154497601
 30
0.0
 11
760.0945261369
 21
572.6154538132
 31
0.0
  0
LINE
  5
76
330
1F
100
AcDbEntity
  8
0
  6
CONTINUOUS
 62
     7
100
AcDbLine
 10
760.0945261369
 20
572.6154538132
 30
0.0
 11
594.0563109765
 21
572.6154538132
 31
0.0
  0
LINE
  5
77
330
1F
100
AcDbEntity
  8
0
  6
CONTINUOUS
 62
     7
100
AcDbLine
 10
594.2910862217
 20
570.6154497601
 30
0.0
 11
594.3101373563
 21
572.6154538132
 31
0.0
  0
LINE
  5
78
330
1F
100
AcDbEntity
  8
0
  6
CONTINUOUS
 62
     7
100
AcDbLine
 10
594.2910862217
 20
570.6154497601
 30
0.0
 11
594.04031458
 21
570.6154497601
 31
0.0
  0
LINE
  5
79
330
1F
100
AcDbEntity
  8
0
  6
CONTINUOUS
 62
     7
100
AcDbLine
 10
759.8597508917
 20
570.6154497601
 30
0.0
 11
759.8406997571
 21
572.6154538132
 31
0.0
  0
LINE
  5
7A
330
1F
100
AcDbEntity
  8
0
  6
CONTINUOUS
 62
     7
100
AcDbLine
 10
759.8597508917
 20
570.6154497601
 30
0.0
 11
760.1105225334
 21
570.6154497601
 31
0.0
  0
LINE
  5
7B
330
1F
100
AcDbEntity
  8
0
  6
CONTINUOUS
 62
     7
100
AcDbLine
 10
568.9303529511
 20
625.3679262734
 30
0.0
 11
568.2731819401
 21
650.4642756916
 31
0.0
  0
ELLIPSE
  5
7C
330
1F
100
AcDbEntity
  8
0
  6
CONTINUOUS
 62
     7
100
AcDbEllipse
 10
572.99828474
 20
470.0338452382
 30
0.0
 11
-3.991456850882628
 21
157.9809037442494
 31
0.0
210
0.0
220
0.0
230
0.9999999999999998
 40
0.0049780126
 41
0.1831830825911016
 42
0.3531833068050073
  0
ARC
  5
7D
330
1F
100
AcDbEntity
  8
0
  6
CONTINUOUS
 62
     7
100
AcDbCircle
 10
568.620408119
 20
626.6792963211
 30
0.0
 40
8.432399922857556
100
AcDbArc
 50
267.9364544485
 51
272.4522491965
  0
LINE
  5
7E
330
1F
100
AcDbEntity
  8
0
  6
CONTINUOUS
 62
     7
100
AcDbLine
 10
568.3167752872
 20
618.2523647583
 30
0.0
 11
567.4687949071
 21
650.6352991126
 31
0.0
  0
LINE
  5
7F
330
1F
100
AcDbEntity
  8
0
  6
CONTINUOUS
 62
     7
100
AcDbLine
 10
785.8340618262
 20
618.2523647583
 30
0.0
 11
786.6820422063
 21
650.6352972499
 31
0.0
  0
ARC
  5
80
330
1F
100
AcDbEntity
  8
0
  6
CONTINUOUS
 62
     7
100
AcDbCircle
 10
785.5307218066
 20
626.6820406779
 30
0.0
 40
8.435131965577678
100
AcDbArc
 50
267.5465547891
 51
272.0608866837
  0
ELLIPSE
  5
81
330
1F
100
AcDbEntity
  8
0
  6
CONTINUOUS
 62
     7
100
AcDbEllipse
 10
781.1525523734
 20
470.0338452382
 30
0.0
 11
3.991456850882742
 21
157.9809037442494
 31
0.0
210
0.0
220
0.0
230
0.9999999999999999
 40
0.0049780126
 41
5.930002000377137
 42
6.100002224591174
  0
LINE
  5
82
330
1F
100
AcDbEntity
  8
0
  6
CONTINUOUS
 62
     7
100
AcDbLine
 10
785.2204841623
 20
625.3679262734
 30
0.0
 11
785.8776551733
 21
650.4642756916
 31
0.0
  0
LINE
  5
83
330
1F
100
AcDbEntity
  8
0
  6
CONTINUOUS
 62
     7
100
AcDbLine
 10
568.9703700194
 20
650.3160435967
 30
0.0
 11
568.9303529511
 21
625.3679262734
 31
0.0
  0
LINE
  5
84
330
1F
100
AcDbEntity
  8
0
  6
CONTINUOUS
 62
     7
100
AcDbLine
 10
785.180467094
 20
650.3160435967
 30
0.0
 11
785.2204841623
 21
625.3679262734
 31
0.0
  0
ARC
  5
85
330
1F
100
AcDbEntity
  8
0
  6
CONTINUOUS
 62
     7
100
AcDbCircle
 10
783.1052533251
 20
618.089410969
 30
0.0
 40
2.070973237274202
100
AcDbArc
 50
351.0004211907
 51
4.5755135044
  0
LINE
  5
86
330
1F
100
AcDbEntity
  8
0
  6
CONTINUOUS
 62
     7
100
AcDbLine
 10
784.7491455326
 20
617.7654544152
 30
0.0
 11
785.1503816495
 21
617.7654544152
 31
0.0
  0
LINE
  5
87
330
1F
100
AcDbEntity
  8
0
  6
CONTINUOUS
 62
     7
100
AcDbLine
 10
569.4016915808
 20
617.7654544152
 30
0.0
 11
569.0004554639
 21
617.7654544152
 31
0.0
  0
ARC
  5
88
330
1F
100
AcDbEntity
  8
0
  6
CONTINUOUS
 62
     7
100
AcDbCircle
 10
571.1004719449
 20
618.0923641531
 30
0.0
 40
2.125655210956488
100
AcDbArc
 50
175.5652680041
 51
188.8467694472
  0
ARC
  5
89
330
1F
100
AcDbEntity
  8
0
  6
CONTINUOUS
 62
     7
100
AcDbCircle
 10
785.3342452138
 20
618.2654420773
 30
0.0
 40
0.4999876621435587
100
AcDbArc
 50
269.9993597668
 51
358.5012417396
  0
LINE
  5
8A
330
1F
100
AcDbEntity
  8
0
  6
CONTINUOUS
 62
     7
100
AcDbLine
 10
785.3342396269
 20
617.7654544152
 30
0.0
 11
785.1503816495
 21
617.7654544152
 31
0.0
  0
LINE
  5
8B
330
1F
100
AcDbEntity
  8
0
  6
CONTINUOUS
 62
     7
100
AcDbLine
 10
568.8165974865
 20
617.7654544152
 30
0.0
 11
569.0004554639
 21
617.7654544152
 31
0.0
  0
ARC
  5
8C
330
1F
100
AcDbEntity
  8
0
  6
CONTINUOUS
 62
     7
100
AcDbCircle
 10
568.8165918996
 20
618.2654420773
 30
0.0
 40
0.4999876621433905
100
AcDbArc
 50
181.4987582604
 51
270.0006402332
  0
ARC
  5
8D
330
1F
100
AcDbEntity
  8
0
  6
CONTINUOUS
 62
     8
100
AcDbCircle
 10
565.8975376194
 20
653.4340921551
 30
0.0
 40
2.347998755118547
100
AcDbArc
 50
188.5479193185
 51
262.8752161346
  0
LINE
  5
8E
330
1F
100
AcDbEntity
  8
0
  6
CONTINUOUS
 62
     8
100
AcDbLine
 10
569.3974000464
 20
618.2567270733
 30
0.0
 11
568.9811808119
 21
618.2567270733
 31
0.0
  0
LINE
  5
8F
330
1F
100
AcDbEntity
  8
0
  6
CONTINUOUS
 62
     8
100
AcDbLine
 10
784.753437067
 20
618.2567270733
 30
0.0
 11
785.1696563015
 21
618.2567270733
 31
0.0
  0
LINE
  5
90
330
1F
100
AcDbEntity
  8
0
  6
CONTINUOUS
 62
     8
100
AcDbLine
 10
563.4938580046
 20
653.4828942529
 30
0.0
 11
563.5755238185
 21
653.085070502
 31
0.0
  0
ARC
  5
91
330
1F
100
AcDbEntity
  8
0
  6
CONTINUOUS
 62
     7
100
AcDbCircle
 10
568.5712069953
 20
489.5571017949
 30
0.0
 40
4.295790621727074
100
AcDbArc
 50
89.9884971241
 51
180.0114035225
  0
LINE
  5
92
330
1F
100
AcDbEntity
  8
0
  6
CONTINUOUS
 62
     7
100
AcDbLine
 10
564.2754164586
 20
489.5562468079
 30
0.0
 11
564.2754164586
 21
269.149543157
 31
0.0
  0
ARC
  5
93
330
1F
100
AcDbEntity
  8
0
  6
CONTINUOUS
 62
     7
100
AcDbCircle
 10
568.5712099945
 20
269.1486911693
 30
0.0
 40
4.295793620398202
100
AcDbArc
 50
179.9886364887
 51
270.0114628647
  0
LINE
  5
94
330
1F
100
AcDbEntity
  8
0
  6
CONTINUOUS
 62
     7
100
AcDbLine
 10
785.5787676821
 20
264.8528976349
 30
0.0
 11
568.5720694313
 21
264.8528976349
 31
0.0
  0
ARC
  5
95
330
1F
100
AcDbEntity
  8
0
  6
CONTINUOUS
 62
     7
100
AcDbCircle
 10
785.5796271189
 20
269.1486911693
 30
0.0
 40
4.295793620398541
100
AcDbArc
 50
269.9885371353
 51
0.0113635113
  0
LINE
  5
96
330
1F
100
AcDbEntity
  8
0
  6
CONTINUOUS
 62
     7
100
AcDbLine
 10
789.8754206548
 20
489.5562468079
 30
0.0
 11
789.8754206548
 21
269.149543157
 31
0.0
  0
ARC
  5
97
330
1F
100
AcDbEntity
  8
0
  6
CONTINUOUS
 62
     7
100
AcDbCircle
 10
785.5796301181
 20
489.5571017949
 30
0.0
 40
4.295790621727328
100
AcDbArc
 50
359.9885964775
 51
90.0115028759
  0
LINE
  5
98
330
1F
100
AcDbEntity
  8
0
  6
CONTINUOUS
 62
     7
100
AcDbLine
 10
568.5720694313
 20
493.85289233
 30
0.0
 11
785.5787676821
 21
493.85289233
 31
0.0
  0
LINE
  5
99
330
1F
100
AcDbEntity
  8
0
  6
CONTINUOUS
 62
     7
100
AcDbLine
 10
568.5720694313
 20
263.6528922228
 30
0.0
 11
785.5787676821
 21
263.6528922228
 31
0.0
  0
ELLIPSE
  5
9A
330
1F
100
AcDbEntity
  8
0
  6
CONTINUOUS
 62
     7
100
AcDbEllipse
 10
785.5720660631
 20
269.156247339
 30
0.0
 11
3.893826995295513
 21
-3.89382699529557
 31
0.0
210
0.0
220
0.0
230
1.0
 40
0.998782766
 41
5.498396131367763
 42
7.067974482991443
  0
ELLIPSE
  5
9B
330
1F
100
AcDbEntity
  8
0
  6
CONTINUOUS
 62
     7
100
AcDbEllipse
 10
568.5787710503
 20
269.156247339
 30
0.0
 11
3.893826995295512
 21
3.893826995295512
 31
0.0
210
0.0
220
0.0
230
0.9999999999999998
 40
0.998782766
 41
2.356803477777965
 42
3.926381829401645
  0
LINE
  5
9C
330
1F
100
AcDbEntity
  8
0
  6
CONTINUOUS
 62
     7
100
AcDbLine
 10
791.0754186163
 20
269.149543157
 30
0.0
 11
791.0754186163
 21
489.5562468079
 31
0.0
  0
LINE
  5
9D
330
1F
100
AcDbEntity
  8
0
  6
CONTINUOUS
 62
     7
100
AcDbLine
 10
563.0754184971
 20
269.149543157
 30
0.0
 11
563.0754184971
 21
489.5562468079
 31
0.0
  0
ELLIPSE
  5
9E
330
1F
100
AcDbEntity
  8
0
  6
CONTINUOUS
 62
     7
100
AcDbEllipse
 10
785.5720660631
 20
489.5495423517
 30
0.0
 11
-3.89382699529574
 21
-3.893826995295626
 31
0.0
210
0.0
220
0.0
230
0.9999999999999998
 40
0.998782766
 41
2.356803477777958
 42
3.926381829401681
  0
ELLIPSE
  5
9F
330
1F
100
AcDbEntity
  8
0
  6
CONTINUOUS
 62
     7
100
AcDbEllipse
 10
568.5787710503
 20
489.5495423517
 30
0.0
 11
-3.893826995295512
 21
3.893826995295512
 31
0.0
210
0.0
220
0.0
230
0.9999999999999998
 40
0.998782766
 41
5.498396131367763
 42
7.067974482991449
  0
LINE
  5
A0
330
1F
100
AcDbEntity
  8
0
  6
CONTINUOUS
 62
     7
100
AcDbLine
 10
785.5787676821
 20
495.0528977421
 30
0.0
 11
568.5720694313
 21
495.0528977421
 31
0.0
  0
LINE
  5
A1
330
1F
100
AcDbEntity
  8
0
  6
CONTINUOUS
 62
     7
100
AcDbLine
 10
565.5302432428
 20
489.5562468079
 30
0.0
 11
564.2754164586
 21
489.5562468079
 31
0.0
  0
LINE
  5
A2
330
1F
100
AcDbEntity
  8
0
  6
CONTINUOUS
 62
     7
100
AcDbLine
 10
568.5720694313
 20
492.5980729965
 30
0.0
 11
568.5720694313
 21
493.85289233
 31
0.0
  0
ARC
  5
A3
330
1F
100
AcDbEntity
  8
0
  6
CONTINUOUS
 62
     7
100
AcDbCircle
 10
570.1430430251
 20
487.9852732142
 30
0.0
 40
4.872974437019596
100
AcDbArc
 50
108.8072176996
 51
161.1927823004
  0
ARC
  5
A4
330
1F
100
AcDbEntity
  8
0
  6
CONTINUOUS
 62
     7
100
AcDbCircle
 10
570.0754337213
 20
488.1766599884
 30
0.0
 40
4.670010404293205
100
AcDbArc
 50
53.9166680806
 51
108.779007411
  0
LINE
  5
A5
330
1F
100
AcDbEntity
  8
0
  6
CONTINUOUS
 62
     7
100
AcDbLine
 10
785.5787676821
 20
492.5980729965
 30
0.0
 11
785.5787676821
 21
493.85289233
 31
0.0
  0
ARC
  5
A6
330
1F
100
AcDbEntity
  8
0
  6
CONTINUOUS
 62
     7
100
AcDbCircle
 10
784.0754033921
 20
488.1766599884
 30
0.0
 40
4.67001040429446
100
AcDbArc
 50
71.220992589
 51
126.0833319194
  0
LINE
  5
A7
330
1F
100
AcDbEntity
  8
0
  6
CONTINUOUS
 62
     7
100
AcDbLine
 10
572.8258890162
 20
491.9507814554
 30
0.0
 11
781.3249480972
 21
491.9507814554
 31
0.0
  0
LINE
  5
A8
330
1F
100
AcDbEntity
  8
0
  6
CONTINUOUS
 62
     7
100
AcDbLine
 10
788.6205938707
 20
489.5562468079
 30
0.0
 11
789.8754206548
 21
489.5562468079
 31
0.0
  0
ARC
  5
A9
330
1F
100
AcDbEntity
  8
0
  6
CONTINUOUS
 62
     7
100
AcDbCircle
 10
784.0077940883
 20
487.9852732142
 30
0.0
 40
4.872974437020209
100
AcDbArc
 50
18.8072176997
 51
71.1927823003
  0
ARC
  5
AA
330
1F
100
AcDbEntity
  8
0
  6
CONTINUOUS
 62
     7
100
AcDbCircle
 10
784.1992185382
 20
488.0528767849
 30
0.0
 40
4.66997657989885
100
AcDbArc
 50
323.9164526834
 51
18.7792228083
  0
LINE
  5
AB
330
1F
100
AcDbEntity
  8
0
  6
CONTINUOUS
 62
     7
100
AcDbLine
 10
788.6205938707
 20
269.149543157
 30
0.0
 11
789.8754206548
 21
269.149543157
 31
0.0
  0
ARC
  5
AC
330
1F
100
AcDbEntity
  8
0
  6
CONTINUOUS
 62
     7
100
AcDbCircle
 10
784.1992076444
 20
270.6529115223
 30
0.0
 40
4.669986360069574
100
AcDbArc
 50
341.2208394732
 51
36.0834850351
  0
LINE
  5
AD
330
1F
100
AcDbEntity
  8
0
  6
CONTINUOUS
 62
     7
100
AcDbLine
 10
787.9733023296
 20
485.3024272231
 30
0.0
 11
787.9733023296
 21
273.4033627418
 31
0.0
  0
ARC
  5
AE
330
1F
100
AcDbEntity
  8
0
  6
CONTINUOUS
 62
     7
100
AcDbCircle
 10
569.951629469
 20
270.6529115223
 30
0.0
 40
4.669986360069574
100
AcDbArc
 50
143.9165149649
 51
198.7791605268
  0
LINE
  5
AF
330
1F
100
AcDbEntity
  8
0
  6
CONTINUOUS
 62
     7
100
AcDbLine
 10
565.5302432428
 20
269.149543157
 30
0.0
 11
564.2754164586
 21
269.149543157
 31
0.0
  0
ARC
  5
B0
330
1F
100
AcDbEntity
  8
0
  6
CONTINUOUS
 62
     7
100
AcDbCircle
 10
569.9516185752
 20
488.0528767849
 30
0.0
 40
4.669976579898528
100
AcDbArc
 50
161.2207771917
 51
216.0835473166
  0
LINE
  5
B1
330
1F
100
AcDbEntity
  8
0
  6
CONTINUOUS
 62
     7
100
AcDbLine
 10
566.1775347839
 20
485.3024272231
 30
0.0
 11
566.1775347839
 21
273.4033627418
 31
0.0
  0
LINE
  5
B2
330
1F
100
AcDbEntity
  8
0
  6
CONTINUOUS
 62
     7
100
AcDbLine
 10
785.5787676821
 20
266.107724419
 30
0.0
 11
785.5787676821
 21
264.8528976349
 31
0.0
  0
ARC
  5
B3
330
1F
100
AcDbEntity
  8
0
  6
CONTINUOUS
 62
     7
100
AcDbCircle
 10
784.0078302781
 20
270.7204918593
 30
0.0
 40
4.872932154858956
100
AcDbArc
 50
288.8069374954
 51
341.1929221655
  0
LINE
  5
B4
330
1F
100
AcDbEntity
  8
0
  6
CONTINUOUS
 62
     7
100
AcDbLine
 10
568.5720694313
 20
266.107724419
 30
0.0
 11
568.5720694313
 21
264.8528976349
 31
0.0
  0
ARC
  5
B5
330
1F
100
AcDbEntity
  8
0
  6
CONTINUOUS
 62
     7
100
AcDbCircle
 10
570.1430068353
 20
270.7204918593
 30
0.0
 40
4.87293215485856
100
AcDbArc
 50
198.8070778345
 51
251.1930625046
  0
ARC
  5
B6
330
1F
100
AcDbEntity
  8
0
  6
CONTINUOUS
 62
     7
100
AcDbCircle
 10
570.0754489065
 20
270.5290376346
 30
0.0
 40
4.669920812664926
100
AcDbArc
 50
251.2204220525
 51
306.0839024559
  0
LINE
  5
B7
330
1F
100
AcDbEntity
  8
0
  6
CONTINUOUS
 62
     7
100
AcDbLine
 10
781.3249480972
 20
266.7550159601
 30
0.0
 11
572.8258890162
 21
266.7550159601
 31
0.0
  0
ARC
  5
B8
330
1F
100
AcDbEntity
  8
0
  6
CONTINUOUS
 62
     7
100
AcDbCircle
 10
784.0753882069
 20
270.5290376346
 30
0.0
 40
4.66992081266536
100
AcDbArc
 50
233.9160975441
 51
288.7795779475
  0
ARC
  5
B9
330
1F
100
AcDbEntity
  8
0
  6
CONTINUOUS
 62
     7
100
AcDbCircle
 10
570.0754185567
 20
270.6528948454
 30
0.0
 40
4.750000000000137
100
AcDbArc
 50
144.2851759467
 51
305.7148240533
  0
LWPOLYLINE
  5
BA
330
1F
100
AcDbEntity
  8
0
  6
CONTINUOUS
 62
     7
100
AcDbPolyline
 90
        3
 70
   128
 43
0.0
 10
572.848240758
 20
266.7962176708
 10
572.8357982884
 20
266.7731357721
 10
572.8258890162
 20
266.7550159601
  0
LWPOLYLINE
  5
BB
330
1F
100
AcDbEntity
  8
0
  6
CONTINUOUS
 62
     7
100
AcDbPolyline
 90
        3
 70
   128
 43
0.0
 10
566.1775347839
 20
273.4033627418
 10
566.200609232
 20
273.415954223
 10
566.2187364946
 20
273.4257144836
  0
LWPOLYLINE
  5
BC
330
1F
100
AcDbEntity
  8
0
  6
CONTINUOUS
 62
     7
100
AcDbPolyline
 90
        3
 70
   128
 43
0.0
 10
781.3025963554
 20
266.7962176708
 10
781.315038825
 20
266.7731357721
 10
781.3249480972
 20
266.7550159601
  0
ARC
  5
BD
330
1F
100
AcDbEntity
  8
0
  6
CONTINUOUS
 62
     7
100
AcDbCircle
 10
784.0754185567
 20
270.6528948454
 30
0.0
 40
4.750000000000168
100
AcDbArc
 50
234.2851759467
 51
35.7148240533
  0
LWPOLYLINE
  5
BE
330
1F
100
AcDbEntity
  8
0
  6
CONTINUOUS
 62
     7
100
AcDbPolyline
 90
        3
 70
   128
 43
0.0
 10
787.9733023296
 20
273.4033627418
 10
787.9502278814
 20
273.415954223
 10
787.9321006189
 20
273.4257144836
  0
ARC
  5
BF
330
1F
100
AcDbEntity
  8
0
  6
CONTINUOUS
 62
     7
100
AcDbCircle
 10
784.0754185567
 20
488.0528948454
 30
0.0
 40
4.750000000000159
100
AcDbArc
 50
324.2851759467
 51
125.7148240533
  0
LWPOLYLINE
  5
C0
330
1F
100
AcDbEntity
  8
0
  6
CONTINUOUS
 62
     7
100
AcDbPolyline
 90
        3
 70
   128
 43
0.0
 10
781.3025963554
 20
491.9095722941
 10
781.315038825
 20
491.9326467422
 10
781.3249480972
 20
491.9507814554
  0
LWPOLYLINE
  5
C1
330
1F
100
AcDbEntity
  8
0
  6
CONTINUOUS
 62
     7
100
AcDbPolyline
 90
        3
 70
   128
 43
0.0
 10
787.9733023296
 20
485.3024272231
 10
787.9502278814
 20
485.2898282913
 10
787.9321006189
 20
485.2800754813
  0
LWPOLYLINE
  5
C2
330
1F
100
AcDbEntity
  8
0
  6
CONTINUOUS
 62
     7
100
AcDbPolyline
 90
        3
 70
   128
 43
0.0
 10
572.848240758
 20
491.9095722941
 10
572.8357982884
 20
491.9326467422
 10
572.8258890162
 20
491.9507814554
  0
ARC
  5
C3
330
1F
100
AcDbEntity
  8
0
  6
CONTINUOUS
 62
     7
100
AcDbCircle
 10
570.0754185567
 20
488.0528948454
 30
0.0
 40
4.750000000000175
100
AcDbArc
 50
54.2851759467
 51
215.7148240533
  0
LWPOLYLINE
  5
C4
330
1F
100
AcDbEntity
  8
0
  6
CONTINUOUS
 62
     7
100
AcDbPolyline
 90
        3
 70
   128
 43
0.0
 10
566.1775347839
 20
485.3024272231
 10
566.200609232
 20
485.2898282913
 10
566.2187364946
 20
485.2800754813
  0
LWPOLYLINE
  5
C5
330
1F
100
AcDbEntity
  8
0
  6
CONTINUOUS
 62
     7
100
AcDbPolyline
 90
        3
 70
   128
 43
0.0
 10
575.550752605
 20
491.6818900016
 10
575.4013088594
 20
491.809399238
 10
575.2792459974
 20
491.9095722941
  0
LINE
  5
C6
330
1F
100
AcDbEntity
  8
0
  6
CONTINUOUS
 62
     7
100
AcDbLine
 10
572.848240758
 20
491.9095722941
 30
0.0
 11
575.2792459974
 21
491.9095722941
 31
0.0
  0
LINE
  5
C7
330
1F
100
AcDbEntity
  8
0
  6
CONTINUOUS
 62
     7
100
AcDbLine
 10
781.3025963554
 20
491.9095722941
 30
0.0
 11
778.871591116
 21
491.9095722941
 31
0.0
  0
LWPOLYLINE
  5
C8
330
1F
100
AcDbEntity
  8
0
  6
CONTINUOUS
 62
     7
100
AcDbPolyline
 90
        3
 70
   128
 43
0.0
 10
778.600091959
 20
491.6818900016
 10
778.749528254
 20
491.809399238
 10
778.8715836654
 20
491.9095722941
  0
LINE
  5
C9
330
1F
100
AcDbEntity
  8
0
  6
CONTINUOUS
 62
     7
100
AcDbLine
 10
778.600091959
 20
491.6818900016
 30
0.0
 11
575.5507451544
 21
491.6818900016
 31
0.0
  0
LWPOLYLINE
  5
CA
330
1F
100
AcDbEntity
  8
0
  6
CONTINUOUS
 62
     7
100
AcDbPolyline
 90
        3
 70
   128
 43
0.0
 10
787.9321006189
 20
482.8490776924
 10
787.8045988331
 20
482.6944408921
 10
787.7044183264
 20
482.5775636343
  0
LINE
  5
CB
330
1F
100
AcDbEntity
  8
0
  6
CONTINUOUS
 62
     7
100
AcDbLine
 10
787.9321006189
 20
482.8490776924
 30
0.0
 11
787.9321006189
 21
485.2800754813
 31
0.0
  0
LINE
  5
CC
330
1F
100
AcDbEntity
  8
0
  6
CONTINUOUS
 62
     7
100
AcDbLine
 10
787.9321006189
 20
275.8567197231
 30
0.0
 11
787.9321006189
 21
273.4257144836
 31
0.0
  0
LWPOLYLINE
  5
CD
330
1F
100
AcDbEntity
  8
0
  6
CONTINUOUS
 62
     7
100
AcDbPolyline
 90
        3
 70
   128
 43
0.0
 10
787.9321006189
 20
275.8567346243
 10
787.8045988331
 20
276.0113490728
 10
787.7044183264
 20
276.1282188801
  0
LINE
  5
CE
330
1F
100
AcDbEntity
  8
0
  6
CONTINUOUS
 62
     7
100
AcDbLine
 10
787.7044183264
 20
368.4765970317
 30
0.0
 11
787.7044183264
 21
276.1282188801
 31
0.0
  0
LINE
  5
CF
330
1F
100
AcDbEntity
  8
0
  6
CONTINUOUS
 62
     7
100
AcDbLine
 10
787.6780656228
 20
372.9293880967
 30
0.0
 11
787.6780656228
 21
368.4763995913
 31
0.0
  0
LINE
  5
D0
330
1F
100
AcDbEntity
  8
0
  6
CONTINUOUS
 62
     7
100
AcDbLine
 10
787.7044183264
 20
372.9291943816
 30
0.0
 11
787.7044183264
 21
385.8765954134
 31
0.0
  0
LINE
  5
D1
330
1F
100
AcDbEntity
  8
0
  6
CONTINUOUS
 62
     7
100
AcDbLine
 10
787.6780656228
 20
390.3293892724
 30
0.0
 11
787.6780656228
 21
385.8763998357
 31
0.0
  0
LINE
  5
D2
330
1F
100
AcDbEntity
  8
0
  6
CONTINUOUS
 62
     7
100
AcDbLine
 10
787.7044183264
 20
482.5775636343
 30
0.0
 11
787.7044183264
 21
390.3291936946
 31
0.0
  0
LINE
  5
D3
330
1F
100
AcDbEntity
  8
0
  6
CONTINUOUS
 62
     7
100
AcDbLine
 10
566.4727714906
 20
390.3293892724
 30
0.0
 11
566.4727714906
 21
385.8763998357
 31
0.0
  0
LINE
  5
D4
330
1F
100
AcDbEntity
  8
0
  6
CONTINUOUS
 62
     7
100
AcDbLine
 10
566.446418787
 20
372.9291943816
 30
0.0
 11
566.446418787
 21
385.8765954134
 31
0.0
  0
LINE
  5
D5
330
1F
100
AcDbEntity
  8
0
  6
CONTINUOUS
 62
     7
100
AcDbLine
 10
566.4727714906
 20
372.9293880967
 30
0.0
 11
566.4727714906
 21
368.4763995913
 31
0.0
  0
LINE
  5
D6
330
1F
100
AcDbEntity
  8
0
  6
CONTINUOUS
 62
     7
100
AcDbLine
 10
566.446418787
 20
368.4765970317
 30
0.0
 11
566.446418787
 21
276.1282188801
 31
0.0
  0
LWPOLYLINE
  5
D7
330
1F
100
AcDbEntity
  8
0
  6
CONTINUOUS
 62
     7
100
AcDbPolyline
 90
        3
 70
   128
 43
0.0
 10
566.2187364946
 20
275.8567197231
 10
566.3462382803
 20
276.0113490728
 10
566.446418787
 20
276.1282337812
  0
LINE
  5
D8
330
1F
100
AcDbEntity
  8
0
  6
CONTINUOUS
 62
     7
100
AcDbLine
 10
566.2187364946
 20
275.8567197231
 30
0.0
 11
566.2187364946
 21
273.4257144836
 31
0.0
  0
LINE
  5
D9
330
1F
100
AcDbEntity
  8
0
  6
CONTINUOUS
 62
     7
100
AcDbLine
 10
566.2187364946
 20
482.8490776924
 30
0.0
 11
566.2187364946
 21
485.2800754813
 31
0.0
  0
LWPOLYLINE
  5
DA
330
1F
100
AcDbEntity
  8
0
  6
CONTINUOUS
 62
     7
100
AcDbPolyline
 90
        3
 70
   128
 43
0.0
 10
566.2187364946
 20
482.8490553406
 10
566.3462382803
 20
482.6944408921
 10
566.446418787
 20
482.5775710849
  0
LINE
  5
DB
330
1F
100
AcDbEntity
  8
0
  6
CONTINUOUS
 62
     7
100
AcDbLine
 10
566.446418787
 20
482.5775710849
 30
0.0
 11
566.446418787
 21
390.3291936946
 31
0.0
  0
LINE
  5
DC
330
1F
100
AcDbEntity
  8
0
  6
CONTINUOUS
 62
     7
100
AcDbLine
 10
572.848240758
 20
266.7962176708
 30
0.0
 11
575.2792459974
 21
266.7962176708
 31
0.0
  0
LWPOLYLINE
  5
DD
330
1F
100
AcDbEntity
  8
0
  6
CONTINUOUS
 62
     7
100
AcDbPolyline
 90
        3
 70
   128
 43
0.0
 10
575.5507451544
 20
267.0238925127
 10
575.4013088594
 20
266.8963981775
 10
575.279253448
 20
266.7962176708
  0
LINE
  5
DE
330
1F
100
AcDbEntity
  8
0
  6
CONTINUOUS
 62
     7
100
AcDbLine
 10
575.5507451544
 20
267.0238925127
 30
0.0
 11
778.600091959
 21
267.0238925127
 31
0.0
  0
LWPOLYLINE
  5
DF
330
1F
100
AcDbEntity
  8
0
  6
CONTINUOUS
 62
     7
100
AcDbPolyline
 90
        3
 70
   128
 43
0.0
 10
778.6000845084
 20
267.0238925127
 10
778.749528254
 20
266.8963981775
 10
778.871591116
 20
266.7962176708
  0
LINE
  5
E0
330
1F
100
AcDbEntity
  8
0
  6
CONTINUOUS
 62
     7
100
AcDbLine
 10
781.3025963554
 20
266.7962176708
 30
0.0
 11
778.871591116
 21
266.7962176708
 31
0.0
  0
ELLIPSE
  5
E1
330
1F
100
AcDbEntity
  8
0
  6
CONTINUOUS
 62
     7
100
AcDbEllipse
 10
576.429692922
 20
279.5459113224
 30
0.0
 11
-3.944339616773618
 21
-3.842405538928404
 31
0.0
210
0.0
220
0.0
230
1.0
 40
0.9988137614
 41
5.511470371821784
 42
7.054900242537494
  0
LINE
  5
E2
330
1F
100
AcDbEntity
  8
0
  6
CONTINUOUS
 62
     7
100
AcDbLine
 10
570.9263411412
 20
279.5393777994
 30
0.0
 11
570.9263411412
 21
479.1664047149
 31
0.0
  0
ELLIPSE
  5
E3
330
1F
100
AcDbEntity
  8
0
  6
CONTINUOUS
 62
     7
100
AcDbEllipse
 10
576.429692922
 20
479.1598783684
 30
0.0
 11
3.944339616773618
 21
-3.842405538928404
 31
0.0
210
0.0
220
0.0
230
0.9999999999999999
 40
0.9988137614
 41
2.369877718231895
 42
3.913307588947637
  0
LINE
  5
E4
330
1F
100
AcDbEntity
  8
0
  6
CONTINUOUS
 62
     7
100
AcDbLine
 10
576.279106463
 20
484.6611706523
 30
0.0
 11
677.0754185567
 21
487.3006207851
 31
0.0
  0
LINE
  5
E5
330
1F
100
AcDbEntity
  8
0
  6
CONTINUOUS
 62
     7
100
AcDbLine
 10
677.0754185567
 20
487.3006207851
 30
0.0
 11
777.8717306504
 21
484.6611706523
 31
0.0
  0
ELLIPSE
  5
E6
330
1F
100
AcDbEntity
  8
0
  6
CONTINUOUS
 62
     7
100
AcDbEllipse
 10
777.7211441914
 20
479.1598783684
 30
0.0
 11
3.944339616773619
 21
3.84240553892829
 31
0.0
210
0.0
220
0.0
230
1.0
 40
0.9988137614
 41
5.511470371821796
 42
7.054900242537481
  0
LINE
  5
E7
330
1F
100
AcDbEntity
  8
0
  6
CONTINUOUS
 62
     7
100
AcDbLine
 10
783.2244959722
 20
279.5393777994
 30
0.0
 11
783.2244959722
 21
479.1664047149
 31
0.0
  0
ELLIPSE
  5
E8
330
1F
100
AcDbEntity
  8
0
  6
CONTINUOUS
 62
     7
100
AcDbEllipse
 10
777.7211441914
 20
279.5459113224
 30
0.0
 11
-3.944339616773618
 21
3.842405538928346
 31
0.0
210
0.0
220
0.0
230
1.0
 40
0.9988137614
 41
2.369877718231916
 42
3.913307588947613
  0
LINE
  5
E9
330
1F
100
AcDbEntity
  8
0
  6
CONTINUOUS
 62
     7
100
AcDbLine
 10
677.0754185567
 20
271.4051766304
 30
0.0
 11
777.8717306504
 21
274.0446193126
 31
0.0
  0
LINE
  5
EA
330
1F
100
AcDbEntity
  8
0
  6
CONTINUOUS
 62
     7
100
AcDbLine
 10
677.0754185567
 20
271.4051766304
 30
0.0
 11
576.279106463
 21
274.0446193126
 31
0.0
  0
ARC
  5
EB
330
1F
100
AcDbEntity
  8
0
  6
CONTINUOUS
 62
     7
100
AcDbCircle
 10
576.462100665
 20
479.128309132
 30
0.0
 40
3.497601057082374
100
AcDbArc
 50
91.4957948298
 51
180.0042592755
  0
LINE
  5
EC
330
1F
100
AcDbEntity
  8
0
  6
CONTINUOUS
 62
     7
100
AcDbLine
 10
572.9644996176
 20
479.128049126
 30
0.0
 11
572.9644996176
 21
279.5777333883
 31
0.0
  0
ARC
  5
ED
330
1F
100
AcDbEntity
  8
0
  6
CONTINUOUS
 62
     7
100
AcDbCircle
 10
576.4621037513
 20
279.5774838388
 30
0.0
 40
3.497604142569193
100
AcDbArc
 50
179.9959120212
 51
268.5041559156
  0
LINE
  5
EE
330
1F
100
AcDbEntity
  8
0
  6
CONTINUOUS
 62
     7
100
AcDbLine
 10
677.0754185567
 20
273.4440280107
 30
0.0
 11
576.3708007584
 21
276.081071606
 31
0.0
  0
LINE
  5
EF
330
1F
100
AcDbEntity
  8
0
  6
CONTINUOUS
 62
     7
100
AcDbLine
 10
777.780036355
 20
276.081071606
 30
0.0
 11
677.0754185567
 21
273.4440280107
 31
0.0
  0
ARC
  5
F0
330
1F
100
AcDbEntity
  8
0
  6
CONTINUOUS
 62
     7
100
AcDbCircle
 10
777.6887333621
 20
279.5774838388
 30
0.0
 40
3.497604142569383
100
AcDbArc
 50
271.4958440844
 51
0.0040879788
  0
LINE
  5
F1
330
1F
100
AcDbEntity
  8
0
  6
CONTINUOUS
 62
     7
100
AcDbLine
 10
781.1863374958
 20
479.128049126
 30
0.0
 11
781.1863374958
 21
279.5777333883
 31
0.0
  0
ARC
  5
F2
330
1F
100
AcDbEntity
  8
0
  6
CONTINUOUS
 62
     7
100
AcDbCircle
 10
777.6887364484
 20
479.128309132
 30
0.0
 40
3.49760105708257
100
AcDbArc
 50
359.9957407245
 51
88.5042051702
  0
LINE
  5
F3
330
1F
100
AcDbEntity
  8
0
  6
CONTINUOUS
 62
     7
100
AcDbLine
 10
777.780036355
 20
482.6247183589
 30
0.0
 11
677.0754185567
 21
485.2617619542
 31
0.0
  0
LINE
  5
F4
330
1F
100
AcDbEntity
  8
0
  6
CONTINUOUS
 62
     7
100
AcDbLine
 10
576.3708007584
 20
482.6247183589
 30
0.0
 11
677.0754185567
 21
485.2617619542
 31
0.0
  0
LINE
  5
F5
330
1F
100
AcDbEntity
  8
0
  6
CONTINUOUS
 62
     7
100
AcDbLine
 10
575.9874460349
 20
484.9452910927
 30
0.0
 11
576.279106463
 21
484.6611706523
 31
0.0
  0
LINE
  5
F6
330
1F
100
AcDbEntity
  8
0
  6
CONTINUOUS
 62
     7
100
AcDbLine
 10
575.9874460349
 20
484.9452910927
 30
0.0
 11
677.0754185567
 21
487.5728650001
 31
0.0
  0
LINE
  5
F7
330
1F
100
AcDbEntity
  8
0
  6
CONTINUOUS
 62
     7
100
AcDbLine
 10
677.0754185567
 20
487.5728650001
 30
0.0
 11
677.0754185567
 21
487.3006207851
 31
0.0
  0
LINE
  5
F8
330
1F
100
AcDbEntity
  8
0
  6
CONTINUOUS
 62
     7
100
AcDbLine
 10
778.1633910785
 20
484.9452910927
 30
0.0
 11
677.0754185567
 21
487.5728650001
 31
0.0
  0
LINE
  5
F9
330
1F
100
AcDbEntity
  8
0
  6
CONTINUOUS
 62
     7
100
AcDbLine
 10
778.1633910785
 20
484.9452910927
 30
0.0
 11
777.8717306504
 21
484.6611706523
 31
0.0
  0
LINE
  5
FA
330
1F
100
AcDbEntity
  8
0
  6
CONTINUOUS
 62
     7
100
AcDbLine
 10
570.6534636269
 20
479.4322339801
 30
0.0
 11
570.9263411412
 21
479.1664047149
 31
0.0
  0
ELLIPSE
  5
FB
330
1F
100
AcDbEntity
  8
0
  6
CONTINUOUS
 62
     7
100
AcDbEllipse
 10
576.1162654467
 20
479.465205897
 30
0.0
 11
1.841882002971715
 21
5.192053248055174
 31
0.0
210
0.0
220
0.0
230
1.0
 40
0.9905382017
 41
1.344332940750685
 42
1.914703314169931
  0
LINE
  5
FC
330
1F
100
AcDbEntity
  8
0
  6
CONTINUOUS
 62
     7
100
AcDbLine
 10
571.5182152639
 20
482.4088601378
 30
0.0
 11
572.2732123981
 21
482.8013418225
 31
0.0
  0
ELLIPSE
  5
FD
330
1F
100
AcDbEntity
  8
0
  6
CONTINUOUS
 62
     7
100
AcDbEllipse
 10
576.4157246142
 20
479.1734856914
 30
0.0
 11
3.944339616773505
 21
-3.842405538928347
 31
0.0
210
0.0
220
0.0
230
1.0
 40
0.9988137614
 41
2.731695720920642
 42
3.194702237431228
  0
LINE
  5
FE
330
1F
100
AcDbEntity
  8
0
  6
CONTINUOUS
 62
     7
100
AcDbLine
 10
574.3275684366
 20
484.2676086334
 30
0.0
 11
574.9260139713
 21
484.8146526126
 31
0.0
  0
LWPOLYLINE
  5
FF
330
1F
100
AcDbEntity
  8
0
  6
CONTINUOUS
 62
     7
100
AcDbPolyline
 90
        3
 70
   128
 43
0.0
 10
574.9260139713
 20
484.8146526126
 10
575.5172845969
 20
484.9130449799
 10
575.9874460349
 20
484.9452910927
  0
LWPOLYLINE
  5
100
330
1F
100
AcDbEntity
  8
0
  6
CONTINUOUS
 62
     7
100
AcDbPolyline
 90
        3
 70
   128
 43
0.0
 10
779.2248231421
 20
484.8146526126
 10
778.6335525165
 20
484.9130449799
 10
778.1633910785
 20
484.9452910927
  0
LINE
  5
101
330
1F
100
AcDbEntity
  8
0
  6
CONTINUOUS
 62
     7
100
AcDbLine
 10
779.8232686768
 20
484.2676086334
 30
0.0
 11
779.2248231421
 21
484.8146526126
 31
0.0
  0
ELLIPSE
  5
102
330
1F
100
AcDbEntity
  8
0
  6
CONTINUOUS
 62
     7
100
AcDbEllipse
 10
777.7351124992
 20
479.1734856914
 30
0.0
 11
3.944339616773732
 21
3.842405538928404
 31
0.0
210
0.0
220
0.0
230
1.0
 40
0.9988137614
 41
6.230075723338422
 42
6.69308223984871
  0
LINE
  5
103
330
1F
100
AcDbEntity
  8
0
  6
CONTINUOUS
 62
     7
100
AcDbLine
 10
782.6326218495
 20
482.4088601378
 30
0.0
 11
781.8776247153
 21
482.8013418225
 31
0.0
  0
ELLIPSE
  5
104
330
1F
100
AcDbEntity
  8
0
  6
CONTINUOUS
 62
     7
100
AcDbEllipse
 10
778.0345716667
 20
479.465205897
 30
0.0
 11
-1.841882002971943
 21
5.192053248055175
 31
0.0
210
0.0
220
0.0
230
1.0
 40
0.9905382017
 41
4.368481993009642
 42
4.938852366429073
  0
LINE
  5
105
330
1F
100
AcDbEntity
  8
0
  6
CONTINUOUS
 62
     7
100
AcDbLine
 10
783.4973734865
 20
479.4322339801
 30
0.0
 11
783.2244959722
 21
479.1664047149
 31
0.0
  0
LINE
  5
106
330
1F
100
AcDbEntity
  8
0
  6
CONTINUOUS
 62
     7
100
AcDbLine
 10
783.4973734865
 20
479.4322339801
 30
0.0
 11
783.4973734865
 21
279.2735559848
 31
0.0
  0
LINE
  5
107
330
1F
100
AcDbEntity
  8
0
  6
CONTINUOUS
 62
     7
100
AcDbLine
 10
783.4973734865
 20
279.2735559848
 30
0.0
 11
783.2244959722
 21
279.5393777994
 31
0.0
  0
LINE
  5
108
330
1F
100
AcDbEntity
  8
0
  6
CONTINUOUS
 62
     7
100
AcDbLine
 10
570.6534636269
 20
479.4322339801
 30
0.0
 11
570.6534636269
 21
279.2735559848
 31
0.0
  0
LINE
  5
109
330
1F
100
AcDbEntity
  8
0
  6
CONTINUOUS
 62
     7
100
AcDbLine
 10
570.6534636269
 20
279.2735559848
 30
0.0
 11
570.9263411412
 21
279.5393777994
 31
0.0
  0
ELLIPSE
  5
10A
330
1F
100
AcDbEntity
  8
0
  6
CONTINUOUS
 62
     7
100
AcDbEllipse
 10
778.0345716667
 20
279.2405837937
 30
0.0
 11
1.841882002971715
 21
5.192053248055174
 31
0.0
210
0.0
220
0.0
230
1.0
 40
0.9905382017
 41
4.485925594340476
 42
5.056295967759744
  0
LINE
  5
10B
330
1F
100
AcDbEntity
  8
0
  6
CONTINUOUS
 62
     7
100
AcDbLine
 10
782.6326218495
 20
276.2969298271
 30
0.0
 11
781.8776247153
 21
275.9044481424
 31
0.0
  0
ELLIPSE
  5
10C
330
1F
100
AcDbEntity
  8
0
  6
CONTINUOUS
 62
     7
100
AcDbEllipse
 10
777.7351124992
 20
279.5323039993
 30
0.0
 11
-3.944339616773618
 21
3.842405538928404
 31
0.0
210
0.0
220
0.0
230
1.0
 40
0.9988137614
 41
2.731695720920641
 42
3.194702237431271
  0
LINE
  5
10D
330
1F
100
AcDbEntity
  8
0
  6
CONTINUOUS
 62
     7
100
AcDbLine
 10
779.8232686768
 20
274.4381887821
 30
0.0
 11
779.2248231421
 21
273.8911373523
 31
0.0
  0
LWPOLYLINE
  5
10E
330
1F
100
AcDbEntity
  8
0
  6
CONTINUOUS
 62
     7
100
AcDbPolyline
 90
        3
 70
   128
 43
0.0
 10
779.2248231421
 20
273.8911373523
 10
778.6335525165
 20
273.792744985
 10
778.1633910785
 20
273.7604988722
  0
LINE
  5
10F
330
1F
100
AcDbEntity
  8
0
  6
CONTINUOUS
 62
     7
100
AcDbLine
 10
778.1633910785
 20
273.7604988722
 30
0.0
 11
777.8717306504
 21
274.0446193126
 31
0.0
  0
LINE
  5
110
330
1F
100
AcDbEntity
  8
0
  6
CONTINUOUS
 62
     7
100
AcDbLine
 10
575.9874460349
 20
273.7604988722
 30
0.0
 11
576.279106463
 21
274.0446193126
 31
0.0
  0
LWPOLYLINE
  5
111
330
1F
100
AcDbEntity
  8
0
  6
CONTINUOUS
 62
     7
100
AcDbPolyline
 90
        3
 70
   128
 43
0.0
 10
574.9260139713
 20
273.8911373523
 10
575.5172845969
 20
273.792744985
 10
575.9874460349
 20
273.7604988722
  0
LINE
  5
112
330
1F
100
AcDbEntity
  8
0
  6
CONTINUOUS
 62
     7
100
AcDbLine
 10
574.3275684366
 20
274.4381887821
 30
0.0
 11
574.9260139713
 21
273.8911373523
 31
0.0
  0
ELLIPSE
  5
113
330
1F
100
AcDbEntity
  8
0
  6
CONTINUOUS
 62
     7
100
AcDbEllipse
 10
576.4157246142
 20
279.5323039993
 30
0.0
 11
-3.944339616773618
 21
-3.842405538928404
 31
0.0
210
0.0
220
0.0
230
1.0
 40
0.9988137614
 41
6.23007572333838
 42
6.693082239848439
  0
LINE
  5
114
330
1F
100
AcDbEntity
  8
0
  6
CONTINUOUS
 62
     7
100
AcDbLine
 10
571.5182152639
 20
276.2969298271
 30
0.0
 11
572.2732123981
 21
275.9044481424
 31
0.0
  0
ELLIPSE
  5
115
330
1F
100
AcDbEntity
  8
0
  6
CONTINUOUS
 62
     7
100
AcDbEllipse
 10
576.1162654467
 20
279.2405837937
 30
0.0
 11
-1.841882002971715
 21
5.192053248055174
 31
0.0
210
0.0
220
0.0
230
1.0
 40
0.9905382017
 41
1.226889339419867
 42
1.797259712839105
  0
LINE
  5
116
330
1F
100
AcDbEntity
  8
0
  6
CONTINUOUS
 62
     7
100
AcDbLine
 10
778.1633910785
 20
273.7604988722
 30
0.0
 11
677.0754185567
 21
271.1329324154
 31
0.0
  0
LINE
  5
117
330
1F
100
AcDbEntity
  8
0
  6
CONTINUOUS
 62
     7
100
AcDbLine
 10
677.0754185567
 20
271.1329324154
 30
0.0
 11
677.0754185567
 21
271.4051766304
 31
0.0
  0
LINE
  5
118
330
1F
100
AcDbEntity
  8
0
  6
CONTINUOUS
 62
     7
100
AcDbLine
 10
677.0754185567
 20
271.1329324154
 30
0.0
 11
575.9874460349
 21
273.7604988722
 31
0.0
  0
ARC
  5
119
330
1F
100
AcDbEntity
  8
0
  6
CONTINUOUS
 62
     7
100
AcDbCircle
 10
778.8716679412
 20
491.4098752453
 30
0.0
 40
0.4996970547487235
100
AcDbArc
 50
327.1202831173
 51
90.0088088599
  0
LWPOLYLINE
  5
11A
330
1F
100
AcDbEntity
  8
0
  6
CONTINUOUS
 62
     7
100
AcDbPolyline
 90
        3
 70
   128
 43
0.0
 10
779.0277031312
 20
490.9288151172
 10
779.1728851447
 20
491.0464076308
 10
779.2913270245
 20
491.1386160163
  0
ARC
  5
11B
330
1F
100
AcDbEntity
  8
0
  6
CONTINUOUS
 62
     7
100
AcDbCircle
 10
778.5954175007
 20
491.181297663
 30
0.0
 40
0.5006141628583624
100
AcDbArc
 50
329.7130666548
 51
89.4649959085
  0
ARC
  5
11C
330
1F
100
AcDbEntity
  8
0
  6
CONTINUOUS
 62
     7
100
AcDbCircle
 10
575.2791696748
 20
267.2959149933
 30
0.0
 40
0.4996973283119244
100
AcDbArc
 50
147.1203407543
 51
270.0087512229
  0
LWPOLYLINE
  5
11D
330
1F
100
AcDbEntity
  8
0
  6
CONTINUOUS
 62
     7
100
AcDbPolyline
 90
        3
 70
   128
 43
0.0
 10
575.1231339822
 20
267.7769822982
 10
574.9779519687
 20
267.6593823341
 10
574.8595100889
 20
267.5671739486
  0
ARC
  5
11E
330
1F
100
AcDbEntity
  8
0
  6
CONTINUOUS
 62
     7
100
AcDbCircle
 10
575.5554159607
 20
267.5244852755
 30
0.0
 40
0.500614552966268
100
AcDbArc
 50
149.7121614429
 51
269.4654143218
  0
ARC
  5
11F
330
1F
100
AcDbEntity
  8
0
  6
CONTINUOUS
 62
     7
100
AcDbCircle
 10
575.5554196127
 20
491.181297663
 30
0.0
 40
0.5006141628585487
100
AcDbArc
 50
90.5350040915
 51
210.2869333452
  0
LWPOLYLINE
  5
120
330
1F
100
AcDbEntity
  8
0
  6
CONTINUOUS
 62
     7
100
AcDbPolyline
 90
        3
 70
   128
 43
0.0
 10
575.1231339822
 20
490.9288225678
 10
574.9779519687
 20
491.0464076308
 10
574.8595175395
 20
491.1386011151
  0
ARC
  5
121
330
1F
100
AcDbEntity
  8
0
  6
CONTINUOUS
 62
     7
100
AcDbCircle
 10
575.2791691722
 20
491.4098752453
 30
0.0
 40
0.4996970547487118
100
AcDbArc
 50
89.9911911401
 51
212.8797168827
  0
ARC
  5
122
330
1F
100
AcDbEntity
  8
0
  6
CONTINUOUS
 62
     7
100
AcDbCircle
 10
778.5954211527
 20
267.5244852755
 30
0.0
 40
0.5006145529660375
100
AcDbArc
 50
270.5345856782
 51
30.2878385571
  0
LWPOLYLINE
  5
123
330
1F
100
AcDbEntity
  8
0
  6
CONTINUOUS
 62
     7
100
AcDbPolyline
 90
        3
 70
   128
 43
0.0
 10
779.0277031312
 20
267.7769673971
 10
779.1728851447
 20
267.6593823341
 10
779.2913195739
 20
267.5671888498
  0
ARC
  5
124
330
1F
100
AcDbEntity
  8
0
  6
CONTINUOUS
 62
     7
100
AcDbCircle
 10
778.8716674386
 20
267.2959149933
 30
0.0
 40
0.4996973283119079
100
AcDbArc
 50
269.9912487771
 51
32.8796592457
  0
ARC
  5
125
330
1F
100
AcDbEntity
  8
0
  6
CONTINUOUS
 62
     7
100
AcDbCircle
 10
566.7185083818
 20
482.849012238
 30
0.0
 40
0.4997718914917564
100
AcDbArc
 50
57.1370609695
 51
179.9924960614
  0
LWPOLYLINE
  5
126
330
1F
100
AcDbEntity
  8
0
  6
CONTINUOUS
 62
     7
100
AcDbPolyline
 90
        3
 70
   128
 43
0.0
 10
566.989700223
 20
483.2688061503
 10
567.1070766697
 20
483.1187440065
 10
567.199501122
 20
483.0051822571
  0
ARC
  5
127
330
1F
100
AcDbEntity
  8
0
  6
CONTINUOUS
 62
     7
100
AcDbCircle
 10
566.9463478647
 20
482.5740691082
 30
0.0
 40
0.4999413431192229
100
AcDbArc
 50
59.5789230922
 51
179.5986526724
  0
ARC
  5
128
330
1F
100
AcDbEntity
  8
0
  6
CONTINUOUS
 62
     7
100
AcDbCircle
 10
787.432318252
 20
275.8567969745
 30
0.0
 40
0.4997823727922035
100
AcDbArc
 50
237.1392674701
 51
359.9911437816
  0
LWPOLYLINE
  5
129
330
1F
100
AcDbEntity
  8
0
  6
CONTINUOUS
 62
     7
100
AcDbPolyline
 90
        3
 70
   128
 43
0.0
 10
787.1611368904
 20
275.4369838146
 10
787.0437604437
 20
275.5870385078
 10
786.9513359914
 20
275.7006151584
  0
ARC
  5
12A
330
1F
100
AcDbEntity
  8
0
  6
CONTINUOUS
 62
     7
100
AcDbCircle
 10
787.2044990874
 20
276.1317110408
 30
0.0
 40
0.4999314359588203
100
AcDbArc
 50
239.5769487428
 51
359.5997697135
  0
ARC
  5
12B
330
1F
100
AcDbEntity
  8
0
  6
CONTINUOUS
 62
     7
100
AcDbCircle
 10
787.2044892487
 20
482.5740691082
 30
0.0
 40
0.4999413431193639
100
AcDbArc
 50
0.4013473276
 51
120.4210769077
  0
LWPOLYLINE
  5
12C
330
1F
100
AcDbEntity
  8
0
  6
CONTINUOUS
 62
     7
100
AcDbPolyline
 90
        3
 70
   128
 43
0.0
 10
787.1611294398
 20
483.2687986997
 10
787.0437604437
 20
483.1187440065
 10
786.951343442
 20
483.0051822571
  0
ARC
  5
12D
330
1F
100
AcDbEntity
  8
0
  6
CONTINUOUS
 62
     7
100
AcDbCircle
 10
787.4323338859
 20
482.8490190681
 30
0.0
 40
0.4997667363454217
100
AcDbArc
 50
0.006720989
 51
122.865041257
  0
ARC
  5
12E
330
1F
100
AcDbEntity
  8
0
  6
CONTINUOUS
 62
     7
100
AcDbCircle
 10
566.946338026
 20
276.1317110408
 30
0.0
 40
0.4999314359588203
100
AcDbArc
 50
180.4002302865
 51
300.4230512572
  0
LWPOLYLINE
  5
12F
330
1F
100
AcDbEntity
  8
0
  6
CONTINUOUS
 62
     7
100
AcDbPolyline
 90
        3
 70
   128
 43
0.0
 10
566.9897076736
 20
275.4369838146
 10
567.1070766697
 20
275.5870385078
 10
567.1994936714
 20
275.7006151584
  0
ARC
  5
130
330
1F
100
AcDbEntity
  8
0
  6
CONTINUOUS
 62
     7
100
AcDbCircle
 10
566.7185282494
 20
275.8568094048
 30
0.0
 40
0.4997917629128228
100
AcDbArc
 50
180.0102810482
 51
302.8597727583
  0
ARC
  5
131
330
1F
100
AcDbEntity
  8
0
  6
CONTINUOUS
 62
     7
100
AcDbCircle
 10
570.0754185567
 20
488.0528948454
 30
0.0
 40
5.692904503901445
100
AcDbArc
 50
318.3243225821
 51
32.8217241538
  0
ARC
  5
132
330
1F
100
AcDbEntity
  8
0
  6
CONTINUOUS
 62
     7
100
AcDbCircle
 10
570.0754185567
 20
488.0528948454
 30
0.0
 40
5.692904418337036
100
AcDbArc
 50
237.1781474689
 51
292.7095024868
  0
CIRCLE
  5
133
330
1F
100
AcDbEntity
  8
0
  6
CONTINUOUS
 62
     7
100
AcDbCircle
 10
570.0754185567
 20
488.0528948454
 30
0.0
 40
3.499999999996078
  0
ARC
  5
134
330
1F
100
AcDbEntity
  8
0
  6
CONTINUOUS
 62
     7
100
AcDbCircle
 10
784.0754185567
 20
270.6528948454
 30
0.0
 40
5.692904503901511
100
AcDbArc
 50
138.3243225821
 51
212.8217241538
  0
ARC
  5
135
330
1F
100
AcDbEntity
  8
0
  6
CONTINUOUS
 62
     7
100
AcDbCircle
 10
784.0754185567
 20
270.6528948454
 30
0.0
 40
5.692904451066708
100
AcDbArc
 50
57.1781474689
 51
112.7095024868
  0
CIRCLE
  5
136
330
1F
100
AcDbEntity
  8
0
  6
CONTINUOUS
 62
     7
100
AcDbCircle
 10
784.0754185567
 20
270.6528948454
 30
0.0
 40
3.499999999996021
  0
ARC
  5
137
330
1F
100
AcDbEntity
  8
0
  6
CONTINUOUS
 62
     7
100
AcDbCircle
 10
784.0754185567
 20
488.0528948454
 30
0.0
 40
5.692904459695217
100
AcDbArc
 50
247.2904975132
 51
302.8217296808
  0
ARC
  5
138
330
1F
100
AcDbEntity
  8
0
  6
CONTINUOUS
 62
     7
100
AcDbCircle
 10
784.0754185567
 20
488.0528948454
 30
0.0
 40
5.692904418402344
100
AcDbArc
 50
147.1781772817
 51
221.675677418
  0
CIRCLE
  5
139
330
1F
100
AcDbEntity
  8
0
  6
CONTINUOUS
 62
     7
100
AcDbCircle
 10
784.0754185567
 20
488.0528948454
 30
0.0
 40
3.499999999996078
  0
ARC
  5
13A
330
1F
100
AcDbEntity
  8
0
  6
CONTINUOUS
 62
     7
100
AcDbCircle
 10
570.0754185567
 20
270.6528948454
 30
0.0
 40
5.692904503907275
100
AcDbArc
 50
67.2904975132
 51
122.8217241543
  0
ARC
  5
13B
330
1F
100
AcDbEntity
  8
0
  6
CONTINUOUS
 62
     7
100
AcDbCircle
 10
570.0754185567
 20
270.6528948454
 30
0.0
 40
5.692904459897899
100
AcDbArc
 50
327.1781772817
 51
41.675677418
  0
CIRCLE
  5
13C
330
1F
100
AcDbEntity
  8
0
  6
CONTINUOUS
 62
     7
100
AcDbCircle
 10
570.0754185567
 20
270.6528948454
 30
0.0
 40
3.499999999996021
  0
ARC
  5
13D
330
1F
100
AcDbEntity
  8
0
  6
CONTINUOUS
 62
     7
100
AcDbCircle
 10
784.075521551
 20
488.0313010108
 30
0.0
 40
5.820318030211996
100
AcDbArc
 50
150.143546129
 51
213.5495910008
  0
ARC
  5
13E
330
1F
100
AcDbEntity
  8
0
  6
CONTINUOUS
 62
     7
100
AcDbCircle
 10
570.0753160837
 20
270.6744889709
 30
0.0
 40
5.820317586432595
100
AcDbArc
 50
330.1435434306
 51
33.5495936992
  0
ARC
  5
13F
330
1F
100
AcDbEntity
  8
0
  6
CONTINUOUS
 62
     7
100
AcDbCircle
 10
570.0753155624
 20
488.0313010108
 30
0.0
 40
5.820318030211207
100
AcDbArc
 50
326.4504089992
 51
29.856453871
  0
ARC
  5
140
330
1F
100
AcDbEntity
  8
0
  6
CONTINUOUS
 62
     7
100
AcDbCircle
 10
784.053822381
 20
488.0529719364
 30
0.0
 40
5.820292857400369
100
AcDbArc
 50
255.8666061025
 51
299.8565904842
  0
ARC
  5
141
330
1F
100
AcDbEntity
  8
0
  6
CONTINUOUS
 62
     7
100
AcDbCircle
 10
784.0755210297
 20
270.6744889709
 30
0.0
 40
5.820317586433551
100
AcDbArc
 50
146.4504063008
 51
209.8564565694
  0
ARC
  5
142
330
1F
100
AcDbEntity
  8
0
  6
CONTINUOUS
 62
     7
100
AcDbCircle
 10
570.0970485075
 20
270.6525103481
 30
0.0
 40
5.820582978065932
100
AcDbArc
 50
75.8676680573
 51
119.8553345366
  0
ARC
  5
143
330
1F
100
AcDbEntity
  8
0
  6
CONTINUOUS
 62
     7
100
AcDbCircle
 10
570.0970147324
 20
488.0529719364
 30
0.0
 40
5.820292857399115
100
AcDbArc
 50
240.1434095158
 51
284.1333938975
  0
ARC
  5
144
330
1F
100
AcDbEntity
  8
0
  6
CONTINUOUS
 62
     7
100
AcDbCircle
 10
784.0537886059
 20
270.6525103481
 30
0.0
 40
5.820582978067081
100
AcDbArc
 50
60.1446654634
 51
104.1323319427
  0
CIRCLE
  5
145
330
1F
100
AcDbEntity
  8
0
  6
CONTINUOUS
 62
     7
100
AcDbCircle
 10
570.0754185567
 20
488.0528948454
 30
0.0
 40
3.02832998644999
  0
CIRCLE
  5
146
330
1F
100
AcDbEntity
  8
0
  6
CONTINUOUS
 62
     7
100
AcDbCircle
 10
784.0754185567
 20
270.6528948454
 30
0.0
 40
3.028329986449933
  0
CIRCLE
  5
147
330
1F
100
AcDbEntity
  8
0
  6
CONTINUOUS
 62
     7
100
AcDbCircle
 10
784.0754185567
 20
488.0528948454
 30
0.0
 40
3.02832998644999
  0
CIRCLE
  5
148
330
1F
100
AcDbEntity
  8
0
  6
CONTINUOUS
 62
     7
100
AcDbCircle
 10
570.0754185567
 20
270.6528948454
 30
0.0
 40
3.028329986449933
  0
LINE
  5
149
330
1F
100
AcDbEntity
  8
0
  6
CONTINUOUS
 62
     7
100
AcDbLine
 10
566.446418787
 20
368.4765970317
 30
0.0
 11
570.3809213886
 21
368.4473907558
 31
0.0
  0
LINE
  5
14A
330
1F
100
AcDbEntity
  8
0
  6
CONTINUOUS
 62
     7
100
AcDbLine
 10
570.3809213886
 20
372.9583969322
 30
0.0
 11
570.3809213886
 21
368.4473907558
 31
0.0
  0
LINE
  5
14B
330
1F
100
AcDbEntity
  8
0
  6
CONTINUOUS
 62
     7
100
AcDbLine
 10
566.446418787
 20
372.9291943816
 30
0.0
 11
570.3809213886
 21
372.9583969322
 31
0.0
  0
LINE
  5
14C
330
1F
100
AcDbEntity
  8
0
  6
CONTINUOUS
 62
     7
100
AcDbLine
 10
566.446418787
 20
385.8765954134
 30
0.0
 11
570.3809213886
 21
385.8473910001
 31
0.0
  0
LINE
  5
14D
330
1F
100
AcDbEntity
  8
0
  6
CONTINUOUS
 62
     7
100
AcDbLine
 10
570.3809213886
 20
390.3583981079
 30
0.0
 11
570.3809213886
 21
385.8473910001
 31
0.0
  0
LINE
  5
14E
330
1F
100
AcDbEntity
  8
0
  6
CONTINUOUS
 62
     7
100
AcDbLine
 10
566.446418787
 20
390.3291936946
 30
0.0
 11
570.3809213886
 21
390.3583981079
 31
0.0
  0
LINE
  5
14F
330
1F
100
AcDbEntity
  8
0
  6
CONTINUOUS
 62
     7
100
AcDbLine
 10
787.7044183264
 20
390.3291936946
 30
0.0
 11
783.7699157248
 21
390.3583981079
 31
0.0
  0
LINE
  5
150
330
1F
100
AcDbEntity
  8
0
  6
CONTINUOUS
 62
     7
100
AcDbLine
 10
783.7699157248
 20
390.3583981079
 30
0.0
 11
783.7699157248
 21
385.8473910001
 31
0.0
  0
LINE
  5
151
330
1F
100
AcDbEntity
  8
0
  6
CONTINUOUS
 62
     7
100
AcDbLine
 10
787.7044183264
 20
385.8765954134
 30
0.0
 11
783.7699157248
 21
385.8473910001
 31
0.0
  0
LINE
  5
152
330
1F
100
AcDbEntity
  8
0
  6
CONTINUOUS
 62
     7
100
AcDbLine
 10
787.7044183264
 20
372.9291943816
 30
0.0
 11
783.7699157248
 21
372.9583969322
 31
0.0
  0
LINE
  5
153
330
1F
100
AcDbEntity
  8
0
  6
CONTINUOUS
 62
     7
100
AcDbLine
 10
783.7699157248
 20
372.9583969322
 30
0.0
 11
783.7699157248
 21
368.4473907558
 31
0.0
  0
LINE
  5
154
330
1F
100
AcDbEntity
  8
0
  6
CONTINUOUS
 62
     7
100
AcDbLine
 10
787.7044183264
 20
368.4765970317
 30
0.0
 11
783.7699157248
 21
368.4473907558
 31
0.0
  0
LINE
  5
155
330
1F
100
AcDbEntity
  8
0
  6
CONTINUOUS
 62
     7
100
AcDbLine
 10
779.5335304985
 20
462.7236885933
 30
0.0
 11
760.7962143669
 21
481.4610047249
 31
0.0
  0
LINE
  5
156
330
1F
100
AcDbEntity
  8
0
  6
CONTINUOUS
 62
     7
100
AcDbLine
 10
778.5132554422
 20
461.0381102172
 30
0.0
 11
779.5335304985
 21
462.7236885933
 31
0.0
  0
LINE
  5
157
330
1F
100
AcDbEntity
  8
0
  6
CONTINUOUS
 62
     7
100
AcDbLine
 10
759.1105205069
 20
480.4406179098
 30
0.0
 11
778.5131436834
 21
461.0379984585
 31
0.0
  0
LINE
  5
158
330
1F
100
AcDbEntity
  8
0
  6
CONTINUOUS
 62
     7
100
AcDbLine
 10
759.1106322656
 20
480.4407296685
 30
0.0
 11
760.7962143669
 21
481.4610047249
 31
0.0
  0
LINE
  5
159
330
1F
100
AcDbEntity
  8
0
  6
CONTINUOUS
 62
     7
100
AcDbLine
 10
595.0403166065
 20
480.4406179098
 30
0.0
 11
575.63769343
 21
461.0379984585
 31
0.0
  0
LINE
  5
15A
330
1F
100
AcDbEntity
  8
0
  6
CONTINUOUS
 62
     7
100
AcDbLine
 10
575.6375816712
 20
461.0381102172
 30
0.0
 11
574.6173066149
 21
462.7236885933
 31
0.0
  0
LINE
  5
15B
330
1F
100
AcDbEntity
  8
0
  6
CONTINUOUS
 62
     7
100
AcDbLine
 10
574.6173066149
 20
462.7236885933
 30
0.0
 11
593.3546227465
 21
481.4610047249
 31
0.0
  0
LINE
  5
15C
330
1F
100
AcDbEntity
  8
0
  6
CONTINUOUS
 62
     7
100
AcDbLine
 10
595.0402048478
 20
480.4407296685
 30
0.0
 11
593.3546227465
 21
481.4610047249
 31
0.0
  0
LINE
  5
15D
330
1F
100
AcDbEntity
  8
0
  6
CONTINUOUS
 62
     7
100
AcDbLine
 10
760.7962143669
 20
481.4610047249
 30
0.0
 11
593.3546227465
 21
481.4610047249
 31
0.0
  0
LINE
  5
15E
330
1F
100
AcDbEntity
  8
0
  6
CONTINUOUS
 62
     7
100
AcDbLine
 10
595.0402048478
 20
480.4407296685
 30
0.0
 11
759.1106322656
 21
480.4407296685
 31
0.0
  0
LINE
  5
15F
330
1F
100
AcDbEntity
  8
0
  6
CONTINUOUS
 62
     7
100
AcDbLine
 10
574.6173066149
 20
295.9821013716
 30
0.0
 11
574.6173066149
 21
462.7236885933
 31
0.0
  0
LINE
  5
160
330
1F
100
AcDbEntity
  8
0
  6
CONTINUOUS
 62
     7
100
AcDbLine
 10
575.6375816712
 20
297.667683473
 30
0.0
 11
575.6375816712
 21
461.0381102172
 31
0.0
  0
LINE
  5
161
330
1F
100
AcDbEntity
  8
0
  6
CONTINUOUS
 62
     7
100
AcDbLine
 10
575.6375816712
 20
297.667683473
 30
0.0
 11
574.6173066149
 21
295.9821013716
 31
0.0
  0
LINE
  5
162
330
1F
100
AcDbEntity
  8
0
  6
CONTINUOUS
 62
     7
100
AcDbLine
 10
778.5132554422
 20
297.667683473
 30
0.0
 11
778.5132554422
 21
461.0381102172
 31
0.0
  0
LINE
  5
163
330
1F
100
AcDbEntity
  8
0
  6
CONTINUOUS
 62
     7
100
AcDbLine
 10
779.5335304985
 20
295.9821013716
 30
0.0
 11
779.5335304985
 21
462.7236885933
 31
0.0
  0
LINE
  5
164
330
1F
100
AcDbEntity
  8
0
  6
CONTINUOUS
 62
     7
100
AcDbLine
 10
778.5132554422
 20
297.667683473
 30
0.0
 11
779.5335304985
 21
295.9821013716
 31
0.0
  0
LINE
  5
165
330
1F
100
AcDbEntity
  8
0
  6
CONTINUOUS
 62
     7
100
AcDbLine
 10
575.63769343
 20
297.6677952317
 30
0.0
 11
595.0403166065
 21
278.2651795057
 31
0.0
  0
LINE
  5
166
330
1F
100
AcDbEntity
  8
0
  6
CONTINUOUS
 62
     7
100
AcDbLine
 10
595.0402048478
 20
278.2650602964
 30
0.0
 11
593.4725728879
 21
277.3161841539
 31
0.0
  0
LINE
  5
167
330
1F
100
AcDbEntity
  8
0
  6
CONTINUOUS
 62
     7
100
AcDbLine
 10
593.2832312832
 20
277.3161841539
 30
0.0
 11
574.6173066149
 21
295.9821013716
 31
0.0
  0
LINE
  5
168
330
1F
100
AcDbEntity
  8
0
  6
CONTINUOUS
 62
     7
100
AcDbLine
 10
760.8676058302
 20
277.3161841539
 30
0.0
 11
779.5335304985
 21
295.9821013716
 31
0.0
  0
LINE
  5
169
330
1F
100
AcDbEntity
  8
0
  6
CONTINUOUS
 62
     7
100
AcDbLine
 10
759.1106322656
 20
278.2650602964
 30
0.0
 11
760.6782642255
 21
277.3161841539
 31
0.0
  0
LINE
  5
16A
330
1F
100
AcDbEntity
  8
0
  6
CONTINUOUS
 62
     7
100
AcDbLine
 10
778.5131436834
 20
297.6677952317
 30
0.0
 11
759.1105205069
 21
278.2651795057
 31
0.0
  0
CIRCLE
  5
16B
330
1F
100
AcDbEntity
  8
0
  6
CONTINUOUS
 62
     7
100
AcDbCircle
 10
579.4454185567
 20
282.2428948454
 30
0.0
 40
3.500000000004661
  0
CIRCLE
  5
16C
330
1F
100
AcDbEntity
  8
0
  6
CONTINUOUS
 62
     7
100
AcDbCircle
 10
579.4454185567
 20
476.4628948454
 30
0.0
 40
3.500000000001705
  0
CIRCLE
  5
16D
330
1F
100
AcDbEntity
  8
0
  6
CONTINUOUS
 62
     7
100
AcDbCircle
 10
774.7054185567
 20
476.4628948454
 30
0.0
 40
3.500000000001705
  0
CIRCLE
  5
16E
330
1F
100
AcDbEntity
  8
0
  6
CONTINUOUS
 62
     7
100
AcDbCircle
 10
774.7054185567
 20
282.2428948454
 30
0.0
 40
3.500000000004661
  0
LINE
  5
16F
330
1F
100
AcDbEntity
  8
0
  6
CONTINUOUS
 62
     7
100
AcDbLine
 10
593.2832312832
 20
277.3161841539
 30
0.0
 11
760.8676058302
 21
277.3161841539
 31
0.0
  0
CIRCLE
  5
170
330
1F
100
AcDbEntity
  8
0
  6
CONTINUOUS
 62
     7
100
AcDbCircle
 10
774.7054185567
 20
476.4628948454
 30
0.0
 40
3.009463185910647
  0
CIRCLE
  5
171
330
1F
100
AcDbEntity
  8
0
  6
CONTINUOUS
 62
     7
100
AcDbCircle
 10
579.4454185567
 20
282.2428948454
 30
0.0
 40
3.009463185913603
  0
CIRCLE
  5
172
330
1F
100
AcDbEntity
  8
0
  6
CONTINUOUS
 62
     7
100
AcDbCircle
 10
579.4454185567
 20
476.4628948454
 30
0.0
 40
3.009463185910647
  0
CIRCLE
  5
173
330
1F
100
AcDbEntity
  8
0
  6
CONTINUOUS
 62
     7
100
AcDbCircle
 10
774.7054185567
 20
282.2428948454
 30
0.0
 40
3.009463185913603
  0
LINE
  5
174
330
1F
100
AcDbEntity
  8
0
  6
CONTINUOUS
 62
     7
100
AcDbLine
 10
759.1106322656
 20
278.2650602964
 30
0.0
 11
595.0402048478
 21
278.2650602964
 31
0.0
  0
CIRCLE
  5
175
330
1F
100
AcDbEntity
  8
0
  6
CONTINUOUS
 62
     7
100
AcDbCircle
 10
756.5754185567
 20
458.8528948454
 30
0.0
 40
3.499999999996987
  0
CIRCLE
  5
176
330
1F
100
AcDbEntity
  8
0
  6
CONTINUOUS
 62
     7
100
AcDbCircle
 10
756.5754185567
 20
458.8528948454
 30
0.0
 40
2.800731880563717
  0
CIRCLE
  5
177
330
1F
100
AcDbEntity
  8
0
  6
CONTINUOUS
 62
     7
100
AcDbCircle
 10
756.5754185567
 20
458.8528948454
 30
0.0
 40
7.360359480573379
  0
LWPOLYLINE
  5
178
330
1F
100
AcDbEntity
  8
0
  6
CONTINUOUS
 62
     7
100
AcDbPolyline
 90
        3
 70
   128
 43
0.0
 10
604.9634617815
 20
460.1439474133
 10
604.880119587
 20
460.1770950464
 10
604.8143980155
 20
460.203268936
  0
ARC
  5
179
330
1F
100
AcDbEntity
  8
0
  6
CONTINUOUS
 62
     7
100
AcDbCircle
 10
597.5754185567
 20
458.8528948454
 30
0.0
 40
7.499999999999122
100
AcDbArc
 50
175.4668918349
 51
9.91229553
  0
LWPOLYLINE
  5
17A
330
1F
100
AcDbEntity
  8
0
  6
CONTINUOUS
 62
     7
100
AcDbPolyline
 90
        3
 70
   128
 43
0.0
 10
590.0988829384
 20
459.445656648
 10
590.1836556444
 20
459.5414115099
 10
590.2511281023
 20
459.6151797084
  0
LWPOLYLINE
  5
17B
330
1F
100
AcDbEntity
  8
0
  6
CONTINUOUS
 62
     7
100
AcDbPolyline
 90
        3
 70
   128
 43
0.0
 10
590.5290049563
 20
460.9916595725
 10
590.3409597526
 20
460.2272411791
 10
590.2511281023
 20
459.6151797084
  0
LWPOLYLINE
  5
17C
330
1F
100
AcDbEntity
  8
0
  6
CONTINUOUS
 62
     7
100
AcDbPolyline
 90
        3
 70
   128
 43
0.0
 10
590.4257026563
 20
461.118196508
 10
590.4834595571
 20
461.0474942235
 10
590.5290049563
 20
460.9916595725
  0
ARC
  5
17D
330
1F
100
AcDbEntity
  8
0
  6
CONTINUOUS
 62
     7
100
AcDbCircle
 10
597.5754185567
 20
458.8528948454
 30
0.0
 40
7.499999999999176
100
AcDbArc
 50
113.486192938
 51
162.4198236013
  0
LWPOLYLINE
  5
17E
330
1F
100
AcDbEntity
  8
0
  6
CONTINUOUS
 62
     7
100
AcDbPolyline
 90
        3
 70
   128
 43
0.0
 10
594.5864570389
 20
465.7315662113
 10
594.6600091705
 20
465.680231711
 10
594.7180342922
 20
465.6397676078
  0
ARC
  5
17F
330
1F
100
AcDbEntity
  8
0
  6
CONTINUOUS
 62
     7
100
AcDbCircle
 10
597.5754185567
 20
458.8528948454
 30
0.0
 40
7.363850493559788
100
AcDbArc
 50
10.5666282867
 51
112.8318601813
  0
CIRCLE
  5
180
330
1F
100
AcDbEntity
  8
0
  6
CONTINUOUS
 62
     7
100
AcDbCircle
 10
597.5754185567
 20
458.8528948454
 30
0.0
 40
7.360359480573379
  0
CIRCLE
  5
181
330
1F
100
AcDbEntity
  8
0
  6
CONTINUOUS
 62
     7
100
AcDbCircle
 10
597.5754185567
 20
458.8528948454
 30
0.0
 40
3.499999999996987
  0
LWPOLYLINE
  5
182
330
1F
100
AcDbEntity
  8
0
  6
CONTINUOUS
 62
     7
100
AcDbPolyline
 90
        3
 70
   128
 43
0.0
 10
749.1873753319
 20
298.5618425516
 10
749.2707175264
 20
298.5286949185
 10
749.3364390979
 20
298.5025210289
  0
ARC
  5
183
330
1F
100
AcDbEntity
  8
0
  6
CONTINUOUS
 62
     7
100
AcDbCircle
 10
756.5754185567
 20
299.8528948454
 30
0.0
 40
7.499999999999848
100
AcDbArc
 50
355.4668918349
 51
189.91229553
  0
LWPOLYLINE
  5
184
330
1F
100
AcDbEntity
  8
0
  6
CONTINUOUS
 62
     7
100
AcDbPolyline
 90
        3
 70
   128
 43
0.0
 10
764.051954175
 20
299.2601333169
 10
763.967181469
 20
299.164378455
 10
763.8997090111
 20
299.0906102565
  0
LWPOLYLINE
  5
185
330
1F
100
AcDbEntity
  8
0
  6
CONTINUOUS
 62
     7
100
AcDbPolyline
 90
        3
 70
   128
 43
0.0
 10
763.6218321571
 20
297.7141303924
 10
763.8098773608
 20
298.4785525111
 10
763.8997090111
 20
299.0906102565
  0
LWPOLYLINE
  5
186
330
1F
100
AcDbEntity
  8
0
  6
CONTINUOUS
 62
     7
100
AcDbPolyline
 90
        3
 70
   128
 43
0.0
 10
763.7251344571
 20
297.5875971821
 10
763.6673775563
 20
297.6582957414
 10
763.6218321571
 20
297.7141303924
  0
ARC
  5
187
330
1F
100
AcDbEntity
  8
0
  6
CONTINUOUS
 62
     7
100
AcDbCircle
 10
756.5754185567
 20
299.8528948454
 30
0.0
 40
7.499999999999696
100
AcDbArc
 50
293.486192938
 51
342.4198236013
  0
LWPOLYLINE
  5
188
330
1F
100
AcDbEntity
  8
0
  6
CONTINUOUS
 62
     7
100
AcDbPolyline
 90
        3
 70
   128
 43
0.0
 10
759.5643800745
 20
292.9742274789
 10
759.4908279429
 20
293.0255545286
 10
759.4328028212
 20
293.0660186318
  0
ARC
  5
189
330
1F
100
AcDbEntity
  8
0
  6
CONTINUOUS
 62
     7
100
AcDbCircle
 10
756.5754185567
 20
299.8528948454
 30
0.0
 40
7.36385049356035
100
AcDbArc
 50
190.5666282867
 51
292.8318601813
  0
CIRCLE
  5
18A
330
1F
100
AcDbEntity
  8
0
  6
CONTINUOUS
 62
     7
100
AcDbCircle
 10
756.5754185567
 20
299.8528948454
 30
0.0
 40
7.360359480574459
  0
CIRCLE
  5
18B
330
1F
100
AcDbEntity
  8
0
  6
CONTINUOUS
 62
     7
100
AcDbCircle
 10
597.5754185567
 20
299.8528948454
 30
0.0
 40
7.360359480574459
  0
CIRCLE
  5
18C
330
1F
100
AcDbEntity
  8
0
  6
CONTINUOUS
 62
     7
100
AcDbCircle
 10
597.5754185567
 20
299.8528948454
 30
0.0
 40
3.499999999999886
  0
CIRCLE
  5
18D
330
1F
100
AcDbEntity
  8
0
  6
CONTINUOUS
 62
     7
100
AcDbCircle
 10
597.5754185567
 20
299.8528948454
 30
0.0
 40
2.800731880566502
  0
CIRCLE
  5
18E
330
1F
100
AcDbEntity
  8
0
  6
CONTINUOUS
 62
     7
100
AcDbCircle
 10
756.5754185567
 20
299.8528948454
 30
0.0
 40
3.499999999999886
  0
CIRCLE
  5
18F
330
1F
100
AcDbEntity
  8
0
  6
CONTINUOUS
 62
     7
100
AcDbCircle
 10
597.5754185567
 20
458.8528948454
 30
0.0
 40
2.800731880563717
  0
ARC
  5
190
330
1F
100
AcDbEntity
  8
0
  6
CONTINUOUS
 62
     7
100
AcDbCircle
 10
756.5754185567
 20
458.8528948454
 30
0.0
 40
7.499999999999149
100
AcDbArc
 50
17.5801763987
 51
66.513807062
  0
LWPOLYLINE
  5
191
330
1F
100
AcDbEntity
  8
0
  6
CONTINUOUS
 62
     7
100
AcDbPolyline
 90
        3
 70
   128
 43
0.0
 10
763.7251344571
 20
461.118196508
 10
763.6673775563
 20
461.0474942235
 10
763.6218321571
 20
460.9916595725
  0
LWPOLYLINE
  5
192
330
1F
100
AcDbEntity
  8
0
  6
CONTINUOUS
 62
     7
100
AcDbPolyline
 90
        3
 70
   128
 43
0.0
 10
763.6218321571
 20
460.9916595725
 10
763.8098773608
 20
460.2272411791
 10
763.8997090111
 20
459.6151797084
  0
LWPOLYLINE
  5
193
330
1F
100
AcDbEntity
  8
0
  6
CONTINUOUS
 62
     7
100
AcDbPolyline
 90
        3
 70
   128
 43
0.0
 10
764.051954175
 20
459.445656648
 10
763.967181469
 20
459.5414115099
 10
763.8997090111
 20
459.6151797084
  0
ARC
  5
194
330
1F
100
AcDbEntity
  8
0
  6
CONTINUOUS
 62
     7
100
AcDbCircle
 10
756.5754185567
 20
458.8528948454
 30
0.0
 40
7.499999999999234
100
AcDbArc
 50
170.08770447
 51
4.5331081651
  0
LWPOLYLINE
  5
195
330
1F
100
AcDbEntity
  8
0
  6
CONTINUOUS
 62
     7
100
AcDbPolyline
 90
        3
 70
   128
 43
0.0
 10
749.1873753319
 20
460.1439474133
 10
749.2707175264
 20
460.1770950464
 10
749.3364390979
 20
460.203268936
  0
ARC
  5
196
330
1F
100
AcDbEntity
  8
0
  6
CONTINUOUS
 62
     7
100
AcDbCircle
 10
756.5754185567
 20
458.8528948454
 30
0.0
 40
7.363850493559848
100
AcDbArc
 50
67.1681398187
 51
169.4333717133
  0
LWPOLYLINE
  5
197
330
1F
100
AcDbEntity
  8
0
  6
CONTINUOUS
 62
     7
100
AcDbPolyline
 90
        3
 70
   128
 43
0.0
 10
759.5643800745
 20
465.7315662113
 10
759.4908279429
 20
465.680231711
 10
759.4328028212
 20
465.6397676078
  0
ARC
  5
198
330
1F
100
AcDbEntity
  8
0
  6
CONTINUOUS
 62
     7
100
AcDbCircle
 10
597.5754185567
 20
299.8528948454
 30
0.0
 40
7.499999999999696
100
AcDbArc
 50
197.5801763987
 51
246.513807062
  0
LWPOLYLINE
  5
199
330
1F
100
AcDbEntity
  8
0
  6
CONTINUOUS
 62
     7
100
AcDbPolyline
 90
        3
 70
   128
 43
0.0
 10
590.4257026563
 20
297.5875971821
 10
590.4834595571
 20
297.6582957414
 10
590.5290049563
 20
297.7141303924
  0
LWPOLYLINE
  5
19A
330
1F
100
AcDbEntity
  8
0
  6
CONTINUOUS
 62
     7
100
AcDbPolyline
 90
        3
 70
   128
 43
0.0
 10
590.5290049563
 20
297.7141303924
 10
590.3409597526
 20
298.4785525111
 10
590.2511281023
 20
299.0906102565
  0
LWPOLYLINE
  5
19B
330
1F
100
AcDbEntity
  8
0
  6
CONTINUOUS
 62
     7
100
AcDbPolyline
 90
        3
 70
   128
 43
0.0
 10
590.0988829384
 20
299.2601333169
 10
590.1836556444
 20
299.164378455
 10
590.2511281023
 20
299.0906102565
  0
ARC
  5
19C
330
1F
100
AcDbEntity
  8
0
  6
CONTINUOUS
 62
     7
100
AcDbCircle
 10
597.5754185567
 20
299.8528948454
 30
0.0
 40
7.499999999999745
100
AcDbArc
 50
350.08770447
 51
184.5331081651
  0
LWPOLYLINE
  5
19D
330
1F
100
AcDbEntity
  8
0
  6
CONTINUOUS
 62
     7
100
AcDbPolyline
 90
        3
 70
   128
 43
0.0
 10
604.9634617815
 20
298.5618425516
 10
604.880119587
 20
298.5286949185
 10
604.8143980155
 20
298.5025210289
  0
ARC
  5
19E
330
1F
100
AcDbEntity
  8
0
  6
CONTINUOUS
 62
     7
100
AcDbCircle
 10
597.5754185567
 20
299.8528948454
 30
0.0
 40
7.363850493560623
100
AcDbArc
 50
247.1681398187
 51
349.4333717133
  0
LWPOLYLINE
  5
19F
330
1F
100
AcDbEntity
  8
0
  6
CONTINUOUS
 62
     7
100
AcDbPolyline
 90
        3
 70
   128
 43
0.0
 10
594.5864570389
 20
292.9742274789
 10
594.6600091705
 20
293.0255545286
 10
594.7180342922
 20
293.0660186318
  0
CIRCLE
  5
1A0
330
1F
100
AcDbEntity
  8
0
  6
CONTINUOUS
 62
     7
100
AcDbCircle
 10
756.5754185567
 20
299.8528948454
 30
0.0
 40
2.800731880566502
  0
ARC
  5
1A1
330
1F
100
AcDbEntity
  8
0
  6
CONTINUOUS
 62
     7
100
AcDbCircle
 10
766.2820559867
 20
458.6245713871
 30
0.0
 40
0.2999367128771273
100
AcDbArc
 50
228.0801473115
 51
314.5028348795
  0
LWPOLYLINE
  5
1A2
330
1F
100
AcDbEntity
  8
0
  6
CONTINUOUS
 62
     7
100
AcDbPolyline
 90
        3
 70
   128
 43
0.0
 10
766.082125629
 20
458.5818586854
 10
766.0821852336
 20
458.4810299782
 10
766.0816711435
 20
458.4013944474
  0
ARC
  5
1A3
330
1F
100
AcDbEntity
  8
0
  6
CONTINUOUS
 62
     7
100
AcDbCircle
 10
766.2766596888
 20
458.8101741655
 30
0.0
 40
0.2999524277116752
100
AcDbArc
 50
229.5676547856
 51
314.5004411998
  0
LWPOLYLINE
  5
1A4
330
1F
100
AcDbEntity
  8
0
  6
CONTINUOUS
 62
     7
100
AcDbPolyline
 90
        3
 70
   128
 43
0.0
 10
766.4869007716
 20
458.5962345806
 10
766.4902088294
 20
458.4925932792
 10
766.492294992
 20
458.4106517938
  0
ARC
  5
1A5
330
1F
100
AcDbEntity
  8
0
  6
CONTINUOUS
 62
     7
100
AcDbCircle
 10
587.8741774246
 20
458.8101741655
 30
0.0
 40
0.2999524277115564
100
AcDbArc
 50
225.4995588003
 51
310.4323452144
  0
LWPOLYLINE
  5
1A6
330
1F
100
AcDbEntity
  8
0
  6
CONTINUOUS
 62
     7
100
AcDbPolyline
 90
        3
 70
   128
 43
0.0
 10
588.0687114844
 20
458.5818586854
 10
588.0686518798
 20
458.4810299782
 10
588.0691659699
 20
458.4013944474
  0
ARC
  5
1A7
330
1F
100
AcDbEntity
  8
0
  6
CONTINUOUS
 62
     7
100
AcDbCircle
 10
587.8687811267
 20
458.6245713871
 30
0.0
 40
0.2999367128771522
100
AcDbArc
 50
225.4971651205
 51
311.9198526885
  0
LWPOLYLINE
  5
1A8
330
1F
100
AcDbEntity
  8
0
  6
CONTINUOUS
 62
     7
100
AcDbPolyline
 90
        3
 70
   128
 43
0.0
 10
587.6639363418
 20
458.5962345806
 10
587.660628284
 20
458.4925932792
 10
587.6585421214
 20
458.4106517938
  0
ARC
  5
1A9
330
1F
100
AcDbEntity
  8
0
  6
CONTINUOUS
 62
     7
100
AcDbCircle
 10
766.2766578926
 20
299.8956206619
 30
0.0
 40
0.2999475615854616
100
AcDbArc
 50
45.498164274
 51
130.4326864425
  0
LWPOLYLINE
  5
1AA
330
1F
100
AcDbEntity
  8
0
  6
CONTINUOUS
 62
     7
100
AcDbPolyline
 90
        3
 70
   128
 43
0.0
 10
766.082125629
 20
300.1239312795
 10
766.0821852336
 20
300.2247599868
 10
766.0816711435
 20
300.3043992428
  0
ARC
  5
1AB
330
1F
100
AcDbEntity
  8
0
  6
CONTINUOUS
 62
     7
100
AcDbCircle
 10
766.2820579159
 20
300.0812143427
 30
0.0
 40
0.2999383811375556
100
AcDbArc
 50
45.4979950386
 51
131.920061848
  0
LWPOLYLINE
  5
1AC
330
1F
100
AcDbEntity
  8
0
  6
CONTINUOUS
 62
     7
100
AcDbPolyline
 90
        3
 70
   128
 43
0.0
 10
766.4869007716
 20
300.109551659
 10
766.4902088294
 20
300.2131966857
 10
766.492294992
 20
300.2951381711
  0
ARC
  5
1AD
330
1F
100
AcDbEntity
  8
0
  6
CONTINUOUS
 62
     7
100
AcDbCircle
 10
587.8687791975
 20
300.0812143427
 30
0.0
 40
0.2999383811374605
100
AcDbArc
 50
48.0799381519
 51
134.5020049614
  0
LWPOLYLINE
  5
1AE
330
1F
100
AcDbEntity
  8
0
  6
CONTINUOUS
 62
     7
100
AcDbPolyline
 90
        3
 70
   128
 43
0.0
 10
588.0687114844
 20
300.1239312795
 10
588.0686518798
 20
300.2247599868
 10
588.0691659699
 20
300.3043917922
  0
ARC
  5
1AF
330
1F
100
AcDbEntity
  8
0
  6
CONTINUOUS
 62
     7
100
AcDbCircle
 10
587.8741792208
 20
299.8956206619
 30
0.0
 40
0.2999475615855747
100
AcDbArc
 50
49.5673135575
 51
134.5018357259
  0
LWPOLYLINE
  5
1B0
330
1F
100
AcDbEntity
  8
0
  6
CONTINUOUS
 62
     7
100
AcDbPolyline
 90
        3
 70
   128
 43
0.0
 10
587.6639363418
 20
300.109551659
 10
587.660628284
 20
300.2131966857
 10
587.6585421214
 20
300.2951381711
  0
ARC
  5
1B1
330
1F
100
AcDbEntity
  8
0
  6
CONTINUOUS
 62
     7
100
AcDbCircle
 10
587.3532710145
 20
459.32204189
 30
0.0
 40
0.2999308136942581
100
AcDbArc
 50
131.0809008841
 51
225.5052288064
  0
LWPOLYLINE
  5
1B2
330
1F
100
AcDbEntity
  8
0
  6
CONTINUOUS
 62
     7
100
AcDbPolyline
 90
        3
 70
   128
 43
0.0
 10
587.1430662522
 20
459.1080931929
 10
587.0313000927
 20
459.1110249964
 10
586.9440686951
 20
459.1127609817
  0
ARC
  5
1B3
330
1F
100
AcDbEntity
  8
0
  6
CONTINUOUS
 62
     7
100
AcDbCircle
 10
587.15429104
 20
459.3267044165
 30
0.0
 40
0.2999420404296528
100
AcDbArc
 50
132.5346914354
 51
225.502627256
  0
LWPOLYLINE
  5
1B4
330
1F
100
AcDbEntity
  8
0
  6
CONTINUOUS
 62
     7
100
AcDbPolyline
 90
        3
 70
   128
 43
0.0
 10
587.1561867247
 20
459.5481282083
 10
587.0412019143
 20
459.5482064394
 10
586.9515267263
 20
459.5477258769
  0
ARC
  5
1B5
330
1F
100
AcDbEntity
  8
0
  6
CONTINUOUS
 62
     7
100
AcDbCircle
 10
766.9965460734
 20
459.3267044165
 30
0.0
 40
0.2999420404299454
100
AcDbArc
 50
314.497372744
 51
47.4653085645
  0
LWPOLYLINE
  5
1B6
330
1F
100
AcDbEntity
  8
0
  6
CONTINUOUS
 62
     7
100
AcDbPolyline
 90
        3
 70
   128
 43
0.0
 10
767.0077708612
 20
459.1080969182
 10
767.1195370207
 20
459.1110249964
 10
767.2067684183
 20
459.1127609817
  0
ARC
  5
1B7
330
1F
100
AcDbEntity
  8
0
  6
CONTINUOUS
 62
     7
100
AcDbCircle
 10
766.7975660989
 20
459.32204189
 30
0.0
 40
0.2999308136945568
100
AcDbArc
 50
314.4947711937
 51
48.9190991158
  0
LWPOLYLINE
  5
1B8
330
1F
100
AcDbEntity
  8
0
  6
CONTINUOUS
 62
     7
100
AcDbPolyline
 90
        3
 70
   128
 43
0.0
 10
766.9946503887
 20
459.5481282083
 10
767.1096351991
 20
459.5482064394
 10
767.1993103871
 20
459.5477258769
  0
ARC
  5
1B9
330
1F
100
AcDbEntity
  8
0
  6
CONTINUOUS
 62
     7
100
AcDbCircle
 10
766.7975627011
 20
299.3837499875
 30
0.0
 40
0.2999344881211868
100
AcDbArc
 50
311.0811500725
 51
45.5050085026
  0
LWPOLYLINE
  5
1BA
330
1F
100
AcDbEntity
  8
0
  6
CONTINUOUS
 62
     7
100
AcDbPolyline
 90
        3
 70
   128
 43
0.0
 10
767.0077708612
 20
299.597696772
 10
767.1195370207
 20
299.5947612432
 10
767.2067684183
 20
299.5930252579
  0
ARC
  5
1BB
330
1F
100
AcDbEntity
  8
0
  6
CONTINUOUS
 62
     7
100
AcDbCircle
 10
766.996543376
 20
299.3790874269
 30
0.0
 40
0.2999452482631121
100
AcDbArc
 50
312.5348285316
 51
45.5025069661
  0
LWPOLYLINE
  5
1BC
330
1F
100
AcDbEntity
  8
0
  6
CONTINUOUS
 62
     7
100
AcDbPolyline
 90
        3
 70
   128
 43
0.0
 10
766.9946503887
 20
299.1576654819
 10
767.1096351991
 20
299.1575835255
 10
767.1993103871
 20
299.1580603627
  0
ARC
  5
1BD
330
1F
100
AcDbEntity
  8
0
  6
CONTINUOUS
 62
     7
100
AcDbCircle
 10
587.1542937374
 20
299.3790874269
 30
0.0
 40
0.2999452482629136
100
AcDbArc
 50
134.4974930339
 51
227.4651714684
  0
LWPOLYLINE
  5
1BE
330
1F
100
AcDbEntity
  8
0
  6
CONTINUOUS
 62
     7
100
AcDbPolyline
 90
        3
 70
   128
 43
0.0
 10
587.1430662522
 20
299.597696772
 10
587.0313000927
 20
299.5947612432
 10
586.9440686951
 20
299.5930327085
  0
ARC
  5
1BF
330
1F
100
AcDbEntity
  8
0
  6
CONTINUOUS
 62
     7
100
AcDbCircle
 10
587.3532744123
 20
299.3837499875
 30
0.0
 40
0.2999344881208681
100
AcDbArc
 50
134.4949914973
 51
228.9188499276
  0
LWPOLYLINE
  5
1C0
330
1F
100
AcDbEntity
  8
0
  6
CONTINUOUS
 62
     7
100
AcDbPolyline
 90
        3
 70
   128
 43
0.0
 10
587.1561867247
 20
299.1576580313
 10
587.0412019143
 20
299.1575835255
 10
586.9515267263
 20
299.1580603627
  0
LINE
  5
1C1
330
1F
100
AcDbEntity
  8
0
  6
CONTINUOUS
 62
     7
100
AcDbLine
 10
586.9440686951
 20
459.1127609817
 30
0.0
 11
587.6585421214
 21
458.4106517938
 31
0.0
  0
LINE
  5
1C2
330
1F
100
AcDbEntity
  8
0
  6
CONTINUOUS
 62
     7
100
AcDbLine
 10
587.1430662522
 20
459.1080969182
 30
0.0
 11
587.6639363418
 21
458.5962345806
 31
0.0
  0
LINE
  5
1C3
330
1F
100
AcDbEntity
  8
0
  6
CONTINUOUS
 62
     7
100
AcDbLine
 10
767.2067684183
 20
299.5930252579
 30
0.0
 11
766.492294992
 21
300.2951381711
 31
0.0
  0
LINE
  5
1C4
330
1F
100
AcDbEntity
  8
0
  6
CONTINUOUS
 62
     7
100
AcDbLine
 10
767.0077708612
 20
299.597696772
 30
0.0
 11
766.4869007716
 21
300.109551659
 31
0.0
  0
ARC
  5
1C5
330
1F
100
AcDbEntity
  8
0
  6
CONTINUOUS
 62
     7
100
AcDbCircle
 10
591.0754185567
 20
455.0528948454
 30
0.0
 40
5.963850493971887
100
AcDbArc
 50
95.25688548
 51
131.0840323638
  0
ARC
  5
1C6
330
1F
100
AcDbEntity
  8
0
  6
CONTINUOUS
 62
     7
100
AcDbCircle
 10
591.0754185567
 20
455.0528948454
 30
0.0
 40
4.636149506439377
100
AcDbArc
 50
100.2414189575
 51
130.4313046929
  0
ARC
  5
1C7
330
1F
100
AcDbEntity
  8
0
  6
CONTINUOUS
 62
     7
100
AcDbCircle
 10
763.0754185567
 20
303.6528948454
 30
0.0
 40
5.963850493972315
100
AcDbArc
 50
275.25688548
 51
311.0840323638
  0
ARC
  5
1C8
330
1F
100
AcDbEntity
  8
0
  6
CONTINUOUS
 62
     7
100
AcDbCircle
 10
763.0754185567
 20
303.6528948454
 30
0.0
 40
4.636149506439997
100
AcDbArc
 50
280.2414189575
 51
310.4313046929
  0
ARC
  5
1C9
330
1F
100
AcDbEntity
  8
0
  6
CONTINUOUS
 62
     7
100
AcDbCircle
 10
591.0754185567
 20
455.0528948454
 30
0.0
 40
4.499999999998986
100
AcDbArc
 50
102.5333945081
 51
131.9171992586
  0
ARC
  5
1CA
330
1F
100
AcDbEntity
  8
0
  6
CONTINUOUS
 62
     7
100
AcDbCircle
 10
763.0754185567
 20
303.6528948454
 30
0.0
 40
4.500000000254226
100
AcDbArc
 50
282.5333945081
 51
311.9171992586
  0
ARC
  5
1CB
330
1F
100
AcDbEntity
  8
0
  6
CONTINUOUS
 62
     7
100
AcDbCircle
 10
601.0754185567
 20
465.3528948454
 30
0.0
 40
6.363850493560784
100
AcDbArc
 50
305.9821875685
 51
177.4163008995
  0
ARC
  5
1CC
330
1F
100
AcDbEntity
  8
0
  6
CONTINUOUS
 62
     7
100
AcDbCircle
 10
601.0754185567
 20
465.3528948454
 30
0.0
 40
6.500000000000203
100
AcDbArc
 50
306.7382643539
 51
176.6602241141
  0
ARC
  5
1CD
330
1F
100
AcDbEntity
  8
0
  6
CONTINUOUS
 62
     7
100
AcDbCircle
 10
591.0754185567
 20
455.0528948454
 30
0.0
 40
6.100000000259064
100
AcDbArc
 50
96.1142013384
 51
132.5356023103
  0
ARC
  5
1CE
330
1F
100
AcDbEntity
  8
0
  6
CONTINUOUS
 62
     7
100
AcDbCircle
 10
763.0754185567
 20
455.0528948454
 30
0.0
 40
4.636149506439382
100
AcDbArc
 50
49.5686794119
 51
79.7585810425
  0
ARC
  5
1CF
330
1F
100
AcDbEntity
  8
0
  6
CONTINUOUS
 62
     7
100
AcDbCircle
 10
763.0754185567
 20
455.0528948454
 30
0.0
 40
5.963850493971655
100
AcDbArc
 50
48.9159766366
 51
84.74311452
  0
LINE
  5
1D0
330
1F
100
AcDbEntity
  8
0
  6
CONTINUOUS
 62
     7
100
AcDbLine
 10
767.0077708612
 20
459.1080969182
 30
0.0
 11
766.4869007716
 21
458.5962345806
 31
0.0
  0
ARC
  5
1D1
330
1F
100
AcDbEntity
  8
0
  6
CONTINUOUS
 62
     7
100
AcDbCircle
 10
763.0754185567
 20
455.0528948454
 30
0.0
 40
4.500000000508405
100
AcDbArc
 50
48.0828093773
 51
77.4666054919
  0
ARC
  5
1D2
330
1F
100
AcDbEntity
  8
0
  6
CONTINUOUS
 62
     7
100
AcDbCircle
 10
753.0754185567
 20
293.3528948454
 30
0.0
 40
6.363850493560143
100
AcDbArc
 50
125.9821875685
 51
357.4163008995
  0
ARC
  5
1D3
330
1F
100
AcDbEntity
  8
0
  6
CONTINUOUS
 62
     7
100
AcDbCircle
 10
753.0754185567
 20
293.3528948454
 30
0.0
 40
6.499999999999582
100
AcDbArc
 50
126.7382643539
 51
356.6602241141
  0
ARC
  5
1D4
330
1F
100
AcDbEntity
  8
0
  6
CONTINUOUS
 62
     7
100
AcDbCircle
 10
763.0754185567
 20
303.6528948454
 30
0.0
 40
6.100000000259434
100
AcDbArc
 50
276.1142013384
 51
312.5356023103
  0
ARC
  5
1D5
330
1F
100
AcDbEntity
  8
0
  6
CONTINUOUS
 62
     7
100
AcDbCircle
 10
591.0754185567
 20
303.6528948454
 30
0.0
 40
4.636149506994245
100
AcDbArc
 50
229.568679741
 51
259.7585810425
  0
ARC
  5
1D6
330
1F
100
AcDbEntity
  8
0
  6
CONTINUOUS
 62
     7
100
AcDbCircle
 10
591.0754185567
 20
303.6528948454
 30
0.0
 40
5.963850493560166
100
AcDbArc
 50
228.9159811983
 51
264.74311452
  0
LINE
  5
1D7
330
1F
100
AcDbEntity
  8
0
  6
CONTINUOUS
 62
     7
100
AcDbLine
 10
587.1430662522
 20
299.597696772
 30
0.0
 11
587.6639363418
 21
300.109551659
 31
0.0
  0
ARC
  5
1D8
330
1F
100
AcDbEntity
  8
0
  6
CONTINUOUS
 62
     7
100
AcDbCircle
 10
601.0754185567
 20
293.3528948454
 30
0.0
 40
6.363850493560924
100
AcDbArc
 50
182.5836991005
 51
54.0178124315
  0
ARC
  5
1D9
330
1F
100
AcDbEntity
  8
0
  6
CONTINUOUS
 62
     7
100
AcDbCircle
 10
601.0754185567
 20
293.3528948454
 30
0.0
 40
6.499999999999224
100
AcDbArc
 50
183.3397758859
 51
53.2617356461
  0
ARC
  5
1DA
330
1F
100
AcDbEntity
  8
0
  6
CONTINUOUS
 62
     7
100
AcDbCircle
 10
591.0754185567
 20
303.6528948454
 30
0.0
 40
6.100000000260089
100
AcDbArc
 50
227.4643910823
 51
263.8857986616
  0
ARC
  5
1DB
330
1F
100
AcDbEntity
  8
0
  6
CONTINUOUS
 62
     7
100
AcDbCircle
 10
753.0754185567
 20
465.3528948454
 30
0.0
 40
6.363850493560679
100
AcDbArc
 50
2.5836991005
 51
234.0178124315
  0
ARC
  5
1DC
330
1F
100
AcDbEntity
  8
0
  6
CONTINUOUS
 62
     7
100
AcDbCircle
 10
753.0754185567
 20
465.3528948454
 30
0.0
 40
6.500000000000203
100
AcDbArc
 50
3.3397758859
 51
233.2617356461
  0
ARC
  5
1DD
330
1F
100
AcDbEntity
  8
0
  6
CONTINUOUS
 62
     7
100
AcDbCircle
 10
763.0754185567
 20
455.0528948454
 30
0.0
 40
6.099999999999243
100
AcDbArc
 50
47.4643970449
 51
83.8857986616
  0
LINE
  5
1DE
330
1F
100
AcDbEntity
  8
0
  6
CONTINUOUS
 62
     7
100
AcDbLine
 10
767.2067684183
 20
459.1127609817
 30
0.0
 11
766.492294992
 21
458.4106517938
 31
0.0
  0
ARC
  5
1DF
330
1F
100
AcDbEntity
  8
0
  6
CONTINUOUS
 62
     7
100
AcDbCircle
 10
591.0754185567
 20
303.6528948454
 30
0.0
 40
4.499999999999666
100
AcDbArc
 50
228.0828089208
 51
257.4666054919
  0
LINE
  5
1E0
330
1F
100
AcDbEntity
  8
0
  6
CONTINUOUS
 62
     7
100
AcDbLine
 10
586.9440686951
 20
299.5930327085
 30
0.0
 11
587.6585421214
 21
300.2951381711
 31
0.0
  0
LINE
  5
1E1
330
1F
100
AcDbEntity
  8
0
  6
CONTINUOUS
 62
     7
100
AcDbLine
 10
576.137537981
 20
297.8748170642
 30
0.0
 11
595.2473458896
 21
278.7650091556
 31
0.0
  0
ARC
  5
1E2
330
1F
100
AcDbEntity
  8
0
  6
CONTINUOUS
 62
     7
100
AcDbCircle
 10
566.98537014
 20
290.1766472473
 30
0.0
 40
30.47892316344359
100
AcDbArc
 50
336.9950910922
 51
338.0120984577
  0
ARC
  5
1E3
330
1F
100
AcDbEntity
  8
0
  6
CONTINUOUS
 62
     7
100
AcDbCircle
 10
601.6522593039
 20
235.5832487918
 30
0.0
 40
67.31448939126591
100
AcDbArc
 50
112.2740810373
 51
112.7347041724
  0
LINE
  5
1E4
330
1F
100
AcDbEntity
  8
0
  6
CONTINUOUS
 62
     7
100
AcDbLine
 10
758.9034912238
 20
278.7650091556
 30
0.0
 11
595.2473458896
 21
278.7650091556
 31
0.0
  0
ARC
  5
1E5
330
1F
100
AcDbEntity
  8
0
  6
CONTINUOUS
 62
     7
100
AcDbCircle
 10
731.802966428
 20
267.2442765038
 30
0.0
 40
29.44767775298035
100
AcDbArc
 50
21.9780082209
 51
23.0308812337
  0
ARC
  5
1E6
330
1F
100
AcDbEntity
  8
0
  6
CONTINUOUS
 62
     7
100
AcDbCircle
 10
532.6481270298
 20
454.2972794093
 30
0.0
 40
67.6479960228068
100
AcDbArc
 50
22.2762488872
 51
22.7345977099
  0
ARC
  5
1E7
330
1F
100
AcDbEntity
  8
0
  6
CONTINUOUS
 62
     7
100
AcDbCircle
 10
696.5883164632
 20
506.0388613096
 30
0.0
 40
67.55953530959704
100
AcDbArc
 50
337.275684868
 51
337.7345236854
  0
LINE
  5
1E8
330
1F
100
AcDbEntity
  8
0
  6
CONTINUOUS
 62
     7
100
AcDbLine
 10
595.2473458896
 20
479.9407808093
 30
0.0
 11
758.9034912238
 21
479.9407808093
 31
0.0
  0
LINE
  5
1E9
330
1F
100
AcDbEntity
  8
0
  6
CONTINUOUS
 62
     7
100
AcDbLine
 10
595.2473458896
 20
479.9407808093
 30
0.0
 11
576.137537981
 21
460.8309691755
 31
0.0
  0
ARC
  5
1EA
330
1F
100
AcDbEntity
  8
0
  6
CONTINUOUS
 62
     7
100
AcDbCircle
 10
587.5516205648
 20
489.0988474984
 30
0.0
 40
30.4853116452235
100
AcDbArc
 50
246.9951976567
 51
248.0119918932
  0
LINE
  5
1EB
330
1F
100
AcDbEntity
  8
0
  6
CONTINUOUS
 62
     7
100
AcDbLine
 10
576.137537981
 20
297.8748170642
 30
0.0
 11
576.137537981
 21
460.8309691755
 31
0.0
  0
ARC
  5
1EC
330
1F
100
AcDbEntity
  8
0
  6
CONTINUOUS
 62
     7
100
AcDbCircle
 10
789.5453713884
 20
433.7021856342
 30
0.0
 40
29.47812047852969
100
AcDbArc
 50
111.9778802454
 51
113.0296765096
  0
LINE
  5
1ED
330
1F
100
AcDbEntity
  8
0
  6
CONTINUOUS
 62
     7
100
AcDbLine
 10
758.9034912238
 20
479.9407808093
 30
0.0
 11
778.0132991324
 21
460.8309691755
 31
0.0
  0
ARC
  5
1EE
330
1F
100
AcDbEntity
  8
0
  6
CONTINUOUS
 62
     7
100
AcDbCircle
 10
804.4932078168
 20
361.1120389292
 30
0.0
 40
68.55750719754286
100
AcDbArc
 50
247.2790244778
 51
247.7311840756
  0
LINE
  5
1EF
330
1F
100
AcDbEntity
  8
0
  6
CONTINUOUS
 62
     7
100
AcDbLine
 10
778.0132991324
 20
297.8748170642
 30
0.0
 11
778.0132991324
 21
460.8309691755
 31
0.0
  0
LINE
  5
1F0
330
1F
100
AcDbEntity
  8
0
  6
CONTINUOUS
 62
     7
100
AcDbLine
 10
778.0132991324
 20
297.8748170642
 30
0.0
 11
758.9034912238
 21
278.7650091556
 31
0.0
  0
LINE
  5
1F1
330
1F
100
AcDbEntity
  8
0
  6
CONTINUOUS
 62
     7
100
AcDbLine
 10
668.8004191095
 20
429.6528952179
 30
0.0
 11
670.262918255
 21
429.6528952179
 31
0.0
  0
LINE
  5
1F2
330
1F
100
AcDbEntity
  8
0
  6
CONTINUOUS
 62
     7
100
AcDbLine
 10
668.8004191095
 20
438.6528966931
 30
0.0
 11
668.8004191095
 21
429.6528952179
 31
0.0
  0
LINE
  5
1F3
330
1F
100
AcDbEntity
  8
0
  6
CONTINUOUS
 62
     7
100
AcDbLine
 10
670.262918255
 20
429.6528952179
 30
0.0
 11
670.262918255
 21
438.6528966931
 31
0.0
  0
LINE
  5
1F4
330
1F
100
AcDbEntity
  8
0
  6
CONTINUOUS
 62
     7
100
AcDbLine
 10
670.262918255
 20
438.6528966931
 30
0.0
 11
668.8004191095
 21
438.6528966931
 31
0.0
  0
LINE
  5
1F5
330
1F
100
AcDbEntity
  8
0
  6
CONTINUOUS
 62
     7
100
AcDbLine
 10
699.7566678623
 20
433.2911925373
 30
0.0
 11
703.1691697488
 21
429.6528952179
 31
0.0
  0
LINE
  5
1F6
330
1F
100
AcDbEntity
  8
0
  6
CONTINUOUS
 62
     7
100
AcDbLine
 10
696.3441678385
 20
429.6528952179
 30
0.0
 11
699.7566678623
 21
433.2911925373
 31
0.0
  0
LINE
  5
1F7
330
1F
100
AcDbEntity
  8
0
  6
CONTINUOUS
 62
     7
100
AcDbLine
 10
694.8816672961
 20
429.6528952179
 30
0.0
 11
696.3441678385
 21
429.6528952179
 31
0.0
  0
LINE
  5
1F8
330
1F
100
AcDbEntity
  8
0
  6
CONTINUOUS
 62
     7
100
AcDbLine
 10
699.0254194538
 20
434.2486387101
 30
0.0
 11
694.8816672961
 21
429.6528952179
 31
0.0
  0
LINE
  5
1F9
330
1F
100
AcDbEntity
  8
0
  6
CONTINUOUS
 62
     7
100
AcDbLine
 10
694.8816672961
 20
438.6528966931
 30
0.0
 11
699.0254194538
 21
434.2486387101
 31
0.0
  0
LINE
  5
1FA
330
1F
100
AcDbEntity
  8
0
  6
CONTINUOUS
 62
     7
100
AcDbLine
 10
696.3441678385
 20
438.6528966931
 30
0.0
 11
694.8816672961
 21
438.6528966931
 31
0.0
  0
LINE
  5
1FB
330
1F
100
AcDbEntity
  8
0
  6
CONTINUOUS
 62
     7
100
AcDbLine
 10
699.7566678623
 20
435.014597511
 30
0.0
 11
696.3441678385
 21
438.6528966931
 31
0.0
  0
LINE
  5
1FC
330
1F
100
AcDbEntity
  8
0
  6
CONTINUOUS
 62
     7
100
AcDbLine
 10
704.6316702912
 20
429.6528952179
 30
0.0
 11
700.4879181335
 21
434.2486387101
 31
0.0
  0
LINE
  5
1FD
330
1F
100
AcDbEntity
  8
0
  6
CONTINUOUS
 62
     7
100
AcDbLine
 10
703.1691697488
 20
429.6528952179
 30
0.0
 11
704.6316702912
 21
429.6528952179
 31
0.0
  0
LINE
  5
1FE
330
1F
100
AcDbEntity
  8
0
  6
CONTINUOUS
 62
     7
100
AcDbLine
 10
704.6316702912
 20
438.6528966931
 30
0.0
 11
703.1691697488
 21
438.6528966931
 31
0.0
  0
LINE
  5
1FF
330
1F
100
AcDbEntity
  8
0
  6
CONTINUOUS
 62
     7
100
AcDbLine
 10
703.1691697488
 20
438.6528966931
 30
0.0
 11
699.7566678623
 21
435.014597511
 31
0.0
  0
LINE
  5
200
330
1F
100
AcDbEntity
  8
0
  6
CONTINUOUS
 62
     7
100
AcDbLine
 10
700.4879181335
 20
434.2486387101
 30
0.0
 11
704.6316702912
 21
438.6528966931
 31
0.0
  0
LINE
  5
201
330
1F
100
AcDbEntity
  8
0
  6
CONTINUOUS
 62
     7
100
AcDbLine
 10
658.0754191676
 20
429.6528952179
 30
0.0
 11
659.5379178474
 21
429.6528952179
 31
0.0
  0
LINE
  5
202
330
1F
100
AcDbEntity
  8
0
  6
CONTINUOUS
 62
     7
100
AcDbLine
 10
658.0754191676
 20
438.6528966931
 30
0.0
 11
658.0754191676
 21
429.6528952179
 31
0.0
  0
LINE
  5
203
330
1F
100
AcDbEntity
  8
0
  6
CONTINUOUS
 62
     7
100
AcDbLine
 10
666.8504186968
 20
438.6528966931
 30
0.0
 11
658.0754191676
 21
438.6528966931
 31
0.0
  0
LINE
  5
204
330
1F
100
AcDbEntity
  8
0
  6
CONTINUOUS
 62
     7
100
AcDbLine
 10
666.8504186968
 20
437.5039575604
 30
0.0
 11
666.8504186968
 21
438.6528966931
 31
0.0
  0
LINE
  5
205
330
1F
100
AcDbEntity
  8
0
  6
CONTINUOUS
 62
     7
100
AcDbLine
 10
659.5379178474
 20
437.5039575604
 30
0.0
 11
666.8504186968
 21
437.5039575604
 31
0.0
  0
LINE
  5
206
330
1F
100
AcDbEntity
  8
0
  6
CONTINUOUS
 62
     7
100
AcDbLine
 10
659.5379178474
 20
435.014597511
 30
0.0
 11
659.5379178474
 21
437.5039575604
 31
0.0
  0
LINE
  5
207
330
1F
100
AcDbEntity
  8
0
  6
CONTINUOUS
 62
     7
100
AcDbLine
 10
665.8754189561
 20
435.014597511
 30
0.0
 11
659.5379178474
 21
435.014597511
 31
0.0
  0
LINE
  5
208
330
1F
100
AcDbEntity
  8
0
  6
CONTINUOUS
 62
     7
100
AcDbLine
 10
665.8754189561
 20
433.865660241
 30
0.0
 11
665.8754189561
 21
435.014597511
 31
0.0
  0
LINE
  5
209
330
1F
100
AcDbEntity
  8
0
  6
CONTINUOUS
 62
     7
100
AcDbLine
 10
659.5379178474
 20
433.865660241
 30
0.0
 11
665.8754189561
 21
433.865660241
 31
0.0
  0
LINE
  5
20A
330
1F
100
AcDbEntity
  8
0
  6
CONTINUOUS
 62
     7
100
AcDbLine
 10
659.5379178474
 20
429.6528952179
 30
0.0
 11
659.5379178474
 21
433.865660241
 31
0.0
  0
LINE
  5
20B
330
1F
100
AcDbEntity
  8
0
  6
CONTINUOUS
 62
     7
100
AcDbLine
 10
689.0316679204
 20
438.6528966931
 30
0.0
 11
687.0816693703
 21
438.6528966931
 31
0.0
  0
LINE
  5
20C
330
1F
100
AcDbEntity
  8
0
  6
CONTINUOUS
 62
     7
100
AcDbLine
 10
690.2504189933
 20
438.4614055959
 30
0.0
 11
689.0316679204
 21
438.6528966931
 31
0.0
  0
LINE
  5
20D
330
1F
100
AcDbEntity
  8
0
  6
CONTINUOUS
 62
     7
100
AcDbLine
 10
691.2254178027
 20
438.0784271268
 30
0.0
 11
690.2504189933
 21
438.4614055959
 31
0.0
  0
LINE
  5
20E
330
1F
100
AcDbEntity
  8
0
  6
CONTINUOUS
 62
     7
100
AcDbLine
 10
692.2004194061
 20
437.3124701885
 30
0.0
 11
691.2254178027
 21
438.0784271268
 31
0.0
  0
LINE
  5
20F
330
1F
100
AcDbEntity
  8
0
  6
CONTINUOUS
 62
     7
100
AcDbLine
 10
692.6879174138
 20
436.5465132502
 30
0.0
 11
692.2004194061
 21
437.3124701885
 31
0.0
  0
LINE
  5
210
330
1F
100
AcDbEntity
  8
0
  6
CONTINUOUS
 62
     7
100
AcDbLine
 10
692.9316696773
 20
435.5890652147
 30
0.0
 11
692.6879174138
 21
436.5465132502
 31
0.0
  0
LINE
  5
211
330
1F
100
AcDbEntity
  8
0
  6
CONTINUOUS
 62
     7
100
AcDbLine
 10
692.9316696773
 20
432.7167248336
 30
0.0
 11
692.9316696773
 21
435.5890652147
 31
0.0
  0
LINE
  5
212
330
1F
100
AcDbEntity
  8
0
  6
CONTINUOUS
 62
     7
100
AcDbLine
 10
692.6879174138
 20
431.7592786608
 30
0.0
 11
692.9316696773
 21
432.7167248336
 31
0.0
  0
LINE
  5
213
330
1F
100
AcDbEntity
  8
0
  6
CONTINUOUS
 62
     7
100
AcDbLine
 10
692.2004194061
 20
430.9933198599
 30
0.0
 11
692.6879174138
 21
431.7592786608
 31
0.0
  0
LINE
  5
214
330
1F
100
AcDbEntity
  8
0
  6
CONTINUOUS
 62
     7
100
AcDbLine
 10
691.2254178027
 20
430.2273629216
 30
0.0
 11
692.2004194061
 21
430.9933198599
 31
0.0
  0
LINE
  5
215
330
1F
100
AcDbEntity
  8
0
  6
CONTINUOUS
 62
     7
100
AcDbLine
 10
690.2504189933
 20
429.8443844525
 30
0.0
 11
691.2254178027
 21
430.2273629216
 31
0.0
  0
LINE
  5
216
330
1F
100
AcDbEntity
  8
0
  6
CONTINUOUS
 62
     7
100
AcDbLine
 10
689.0316679204
 20
429.6528952179
 30
0.0
 11
690.2504189933
 21
429.8443844525
 31
0.0
  0
LINE
  5
217
330
1F
100
AcDbEntity
  8
0
  6
CONTINUOUS
 62
     7
100
AcDbLine
 10
687.0816693703
 20
429.6528952179
 30
0.0
 11
689.0316679204
 21
429.6528952179
 31
0.0
  0
LINE
  5
218
330
1F
100
AcDbEntity
  8
0
  6
CONTINUOUS
 62
     7
100
AcDbLine
 10
685.8629182974
 20
429.8443844525
 30
0.0
 11
687.0816693703
 21
429.6528952179
 31
0.0
  0
LINE
  5
219
330
1F
100
AcDbEntity
  8
0
  6
CONTINUOUS
 62
     7
100
AcDbLine
 10
684.887919488
 20
430.2273629216
 30
0.0
 11
685.8629182974
 21
429.8443844525
 31
0.0
  0
LINE
  5
21A
330
1F
100
AcDbEntity
  8
0
  6
CONTINUOUS
 62
     7
100
AcDbLine
 10
683.912917419
 20
430.9933198599
 30
0.0
 11
684.887919488
 21
430.2273629216
 31
0.0
  0
LINE
  5
21B
330
1F
100
AcDbEntity
  8
0
  6
CONTINUOUS
 62
     7
100
AcDbLine
 10
683.4254194113
 20
431.7592786608
 30
0.0
 11
683.912917419
 21
430.9933198599
 31
0.0
  0
LINE
  5
21C
330
1F
100
AcDbEntity
  8
0
  6
CONTINUOUS
 62
     7
100
AcDbLine
 10
683.1816676135
 20
432.7167248336
 30
0.0
 11
683.4254194113
 21
431.7592786608
 31
0.0
  0
LINE
  5
21D
330
1F
100
AcDbEntity
  8
0
  6
CONTINUOUS
 62
     7
100
AcDbLine
 10
683.1816676135
 20
435.5890652147
 30
0.0
 11
683.1816676135
 21
432.7167248336
 31
0.0
  0
LINE
  5
21E
330
1F
100
AcDbEntity
  8
0
  6
CONTINUOUS
 62
     7
100
AcDbLine
 10
683.4254194113
 20
436.5465132502
 30
0.0
 11
683.1816676135
 21
435.5890652147
 31
0.0
  0
LINE
  5
21F
330
1F
100
AcDbEntity
  8
0
  6
CONTINUOUS
 62
     7
100
AcDbLine
 10
683.912917419
 20
437.3124701885
 30
0.0
 11
683.4254194113
 21
436.5465132502
 31
0.0
  0
LINE
  5
220
330
1F
100
AcDbEntity
  8
0
  6
CONTINUOUS
 62
     7
100
AcDbLine
 10
684.887919488
 20
438.0784271268
 30
0.0
 11
683.912917419
 21
437.3124701885
 31
0.0
  0
LINE
  5
221
330
1F
100
AcDbEntity
  8
0
  6
CONTINUOUS
 62
     7
100
AcDbLine
 10
685.8629182974
 20
438.4614055959
 30
0.0
 11
684.887919488
 21
438.0784271268
 31
0.0
  0
LINE
  5
222
330
1F
100
AcDbEntity
  8
0
  6
CONTINUOUS
 62
     7
100
AcDbLine
 10
686.1066677669
 20
437.3124701885
 30
0.0
 11
687.0816693703
 21
437.5039575604
 31
0.0
  0
LINE
  5
223
330
1F
100
AcDbEntity
  8
0
  6
CONTINUOUS
 62
     7
100
AcDbLine
 10
685.3754174957
 20
436.9294917194
 30
0.0
 11
686.1066677669
 21
437.3124701885
 31
0.0
  0
LINE
  5
224
330
1F
100
AcDbEntity
  8
0
  6
CONTINUOUS
 62
     7
100
AcDbLine
 10
684.887919488
 20
436.355022153
 30
0.0
 11
685.3754174957
 21
436.9294917194
 31
0.0
  0
LINE
  5
225
330
1F
100
AcDbEntity
  8
0
  6
CONTINUOUS
 62
     7
100
AcDbLine
 10
684.6441676902
 20
435.5890652147
 30
0.0
 11
684.887919488
 21
436.355022153
 31
0.0
  0
LINE
  5
226
330
1F
100
AcDbEntity
  8
0
  6
CONTINUOUS
 62
     7
100
AcDbLine
 10
684.6441676902
 20
432.7167248336
 30
0.0
 11
684.6441676902
 21
435.5890652147
 31
0.0
  0
LINE
  5
227
330
1F
100
AcDbEntity
  8
0
  6
CONTINUOUS
 62
     7
100
AcDbLine
 10
684.887919488
 20
431.9507678953
 30
0.0
 11
684.6441676902
 21
432.7167248336
 31
0.0
  0
LINE
  5
228
330
1F
100
AcDbEntity
  8
0
  6
CONTINUOUS
 62
     7
100
AcDbLine
 10
685.3754174957
 20
431.376298329
 30
0.0
 11
684.887919488
 21
431.9507678953
 31
0.0
  0
LINE
  5
229
330
1F
100
AcDbEntity
  8
0
  6
CONTINUOUS
 62
     7
100
AcDbLine
 10
686.1066677669
 20
430.9933198599
 30
0.0
 11
685.3754174957
 21
431.376298329
 31
0.0
  0
LINE
  5
22A
330
1F
100
AcDbEntity
  8
0
  6
CONTINUOUS
 62
     7
100
AcDbLine
 10
687.0816693703
 20
430.8018306253
 30
0.0
 11
686.1066677669
 21
430.9933198599
 31
0.0
  0
LINE
  5
22B
330
1F
100
AcDbEntity
  8
0
  6
CONTINUOUS
 62
     7
100
AcDbLine
 10
689.0316679204
 20
430.8018306253
 30
0.0
 11
687.0816693703
 21
430.8018306253
 31
0.0
  0
LINE
  5
22C
330
1F
100
AcDbEntity
  8
0
  6
CONTINUOUS
 62
     7
100
AcDbLine
 10
690.0066695238
 20
430.9933198599
 30
0.0
 11
689.0316679204
 21
430.8018306253
 31
0.0
  0
LINE
  5
22D
330
1F
100
AcDbEntity
  8
0
  6
CONTINUOUS
 62
     7
100
AcDbLine
 10
690.737919795
 20
431.376298329
 30
0.0
 11
690.0066695238
 21
430.9933198599
 31
0.0
  0
LINE
  5
22E
330
1F
100
AcDbEntity
  8
0
  6
CONTINUOUS
 62
     7
100
AcDbLine
 10
691.2254178027
 20
431.9507678953
 30
0.0
 11
690.737919795
 21
431.376298329
 31
0.0
  0
LINE
  5
22F
330
1F
100
AcDbEntity
  8
0
  6
CONTINUOUS
 62
     7
100
AcDbLine
 10
691.4691691349
 20
432.7167248336
 30
0.0
 11
691.2254178027
 21
431.9507678953
 31
0.0
  0
LINE
  5
230
330
1F
100
AcDbEntity
  8
0
  6
CONTINUOUS
 62
     7
100
AcDbLine
 10
691.4691691349
 20
435.5890652147
 30
0.0
 11
691.4691691349
 21
432.7167248336
 31
0.0
  0
LINE
  5
231
330
1F
100
AcDbEntity
  8
0
  6
CONTINUOUS
 62
     7
100
AcDbLine
 10
691.2254178027
 20
436.355022153
 30
0.0
 11
691.4691691349
 21
435.5890652147
 31
0.0
  0
LINE
  5
232
330
1F
100
AcDbEntity
  8
0
  6
CONTINUOUS
 62
     7
100
AcDbLine
 10
690.737919795
 20
436.9294917194
 30
0.0
 11
691.2254178027
 21
436.355022153
 31
0.0
  0
LINE
  5
233
330
1F
100
AcDbEntity
  8
0
  6
CONTINUOUS
 62
     7
100
AcDbLine
 10
690.0066695238
 20
437.3124701885
 30
0.0
 11
690.737919795
 21
436.9294917194
 31
0.0
  0
LINE
  5
234
330
1F
100
AcDbEntity
  8
0
  6
CONTINUOUS
 62
     7
100
AcDbLine
 10
689.0316679204
 20
437.5039575604
 30
0.0
 11
690.0066695238
 21
437.3124701885
 31
0.0
  0
LINE
  5
235
330
1F
100
AcDbEntity
  8
0
  6
CONTINUOUS
 62
     7
100
AcDbLine
 10
687.0816693703
 20
437.5039575604
 30
0.0
 11
689.0316679204
 21
437.5039575604
 31
0.0
  0
LINE
  5
236
330
1F
100
AcDbEntity
  8
0
  6
CONTINUOUS
 62
     7
100
AcDbLine
 10
687.0816693703
 20
438.6528966931
 30
0.0
 11
685.8629182974
 21
438.4614055959
 31
0.0
  0
LINE
  5
237
330
1F
100
AcDbEntity
  8
0
  6
CONTINUOUS
 62
     7
100
AcDbLine
 10
680.2566690898
 20
434.0571494756
 30
0.0
 11
679.7691680553
 21
434.2486387101
 31
0.0
  0
LINE
  5
238
330
1F
100
AcDbEntity
  8
0
  6
CONTINUOUS
 62
     7
100
AcDbLine
 10
680.9879191282
 20
433.2911925373
 30
0.0
 11
680.2566690898
 21
434.0571494756
 31
0.0
  0
LINE
  5
239
330
1F
100
AcDbEntity
  8
0
  6
CONTINUOUS
 62
     7
100
AcDbLine
 10
681.231668132
 20
432.7167248336
 30
0.0
 11
680.9879191282
 21
433.2911925373
 31
0.0
  0
LINE
  5
23A
330
1F
100
AcDbEntity
  8
0
  6
CONTINUOUS
 62
     7
100
AcDbLine
 10
681.231668132
 20
431.7592786608
 30
0.0
 11
681.231668132
 21
432.7167248336
 31
0.0
  0
LINE
  5
23B
330
1F
100
AcDbEntity
  8
0
  6
CONTINUOUS
 62
     7
100
AcDbLine
 10
680.9879191282
 20
431.1848090944
 30
0.0
 11
681.231668132
 21
431.7592786608
 31
0.0
  0
LINE
  5
23C
330
1F
100
AcDbEntity
  8
0
  6
CONTINUOUS
 62
     7
100
AcDbLine
 10
680.2566690898
 20
430.4188521562
 30
0.0
 11
680.9879191282
 21
431.1848090944
 31
0.0
  0
LINE
  5
23D
330
1F
100
AcDbEntity
  8
0
  6
CONTINUOUS
 62
     7
100
AcDbLine
 10
679.2816686506
 20
429.8443844525
 30
0.0
 11
680.2566690898
 21
430.4188521562
 31
0.0
  0
LINE
  5
23E
330
1F
100
AcDbEntity
  8
0
  6
CONTINUOUS
 62
     7
100
AcDbLine
 10
678.0629189747
 20
429.6528952179
 30
0.0
 11
679.2816686506
 21
429.8443844525
 31
0.0
  0
LINE
  5
23F
330
1F
100
AcDbEntity
  8
0
  6
CONTINUOUS
 62
     7
100
AcDbLine
 10
672.2129191334
 20
429.6528952179
 30
0.0
 11
678.0629189747
 21
429.6528952179
 31
0.0
  0
LINE
  5
240
330
1F
100
AcDbEntity
  8
0
  6
CONTINUOUS
 62
     7
100
AcDbLine
 10
672.2129191334
 20
438.6528966931
 30
0.0
 11
672.2129191334
 21
429.6528952179
 31
0.0
  0
LINE
  5
241
330
1F
100
AcDbEntity
  8
0
  6
CONTINUOUS
 62
     7
100
AcDbLine
 10
680.9879191282
 20
437.1209790913
 30
0.0
 11
680.2566690898
 21
437.8869360295
 31
0.0
  0
LINE
  5
242
330
1F
100
AcDbEntity
  8
0
  6
CONTINUOUS
 62
     7
100
AcDbLine
 10
681.231668132
 20
436.5465132502
 30
0.0
 11
680.9879191282
 21
437.1209790913
 31
0.0
  0
LINE
  5
243
330
1F
100
AcDbEntity
  8
0
  6
CONTINUOUS
 62
     7
100
AcDbLine
 10
681.231668132
 20
435.7805544493
 30
0.0
 11
681.231668132
 21
436.5465132502
 31
0.0
  0
LINE
  5
244
330
1F
100
AcDbEntity
  8
0
  6
CONTINUOUS
 62
     7
100
AcDbLine
 10
680.9879191282
 20
435.2060867456
 30
0.0
 11
681.231668132
 21
435.7805544493
 31
0.0
  0
LINE
  5
245
330
1F
100
AcDbEntity
  8
0
  6
CONTINUOUS
 62
     7
100
AcDbLine
 10
680.2566690898
 20
434.4401279447
 30
0.0
 11
680.9879191282
 21
435.2060867456
 31
0.0
  0
LINE
  5
246
330
1F
100
AcDbEntity
  8
0
  6
CONTINUOUS
 62
     7
100
AcDbLine
 10
679.7691680553
 20
434.2486387101
 30
0.0
 11
680.2566690898
 21
434.4401279447
 31
0.0
  0
LINE
  5
247
330
1F
100
AcDbEntity
  8
0
  6
CONTINUOUS
 62
     7
100
AcDbLine
 10
673.6754189773
 20
434.8231082765
 30
0.0
 11
673.6754189773
 21
437.5039575604
 31
0.0
  0
LINE
  5
248
330
1F
100
AcDbEntity
  8
0
  6
CONTINUOUS
 62
     7
100
AcDbLine
 10
678.306668095
 20
434.8231082765
 30
0.0
 11
673.6754189773
 21
434.8231082765
 31
0.0
  0
LINE
  5
249
330
1F
100
AcDbEntity
  8
0
  6
CONTINUOUS
 62
     7
100
AcDbLine
 10
679.0379180169
 20
435.014597511
 30
0.0
 11
678.306668095
 21
434.8231082765
 31
0.0
  0
LINE
  5
24A
330
1F
100
AcDbEntity
  8
0
  6
CONTINUOUS
 62
     7
100
AcDbLine
 10
679.5254190514
 20
435.3975759802
 30
0.0
 11
679.0379180169
 21
435.014597511
 31
0.0
  0
LINE
  5
24B
330
1F
100
AcDbEntity
  8
0
  6
CONTINUOUS
 62
     7
100
AcDbLine
 10
679.7691680553
 20
435.9720436839
 30
0.0
 11
679.5254190514
 21
435.3975759802
 31
0.0
  0
LINE
  5
24C
330
1F
100
AcDbEntity
  8
0
  6
CONTINUOUS
 62
     7
100
AcDbLine
 10
679.7691680553
 20
436.355022153
 30
0.0
 11
679.7691680553
 21
435.9720436839
 31
0.0
  0
LINE
  5
24D
330
1F
100
AcDbEntity
  8
0
  6
CONTINUOUS
 62
     7
100
AcDbLine
 10
679.5254190514
 20
436.9294917194
 30
0.0
 11
679.7691680553
 21
436.355022153
 31
0.0
  0
LINE
  5
24E
330
1F
100
AcDbEntity
  8
0
  6
CONTINUOUS
 62
     7
100
AcDbLine
 10
679.0379180169
 20
437.3124701885
 30
0.0
 11
679.5254190514
 21
436.9294917194
 31
0.0
  0
LINE
  5
24F
330
1F
100
AcDbEntity
  8
0
  6
CONTINUOUS
 62
     7
100
AcDbLine
 10
678.306668095
 20
437.5039575604
 30
0.0
 11
679.0379180169
 21
437.3124701885
 31
0.0
  0
LINE
  5
250
330
1F
100
AcDbEntity
  8
0
  6
CONTINUOUS
 62
     7
100
AcDbLine
 10
673.6754189773
 20
437.5039575604
 30
0.0
 11
678.306668095
 21
437.5039575604
 31
0.0
  0
LINE
  5
251
330
1F
100
AcDbEntity
  8
0
  6
CONTINUOUS
 62
     7
100
AcDbLine
 10
679.5254190514
 20
433.0997033027
 30
0.0
 11
679.7691680553
 21
432.525235599
 31
0.0
  0
LINE
  5
252
330
1F
100
AcDbEntity
  8
0
  6
CONTINUOUS
 62
     7
100
AcDbLine
 10
679.0379180169
 20
433.4826817719
 30
0.0
 11
679.5254190514
 21
433.0997033027
 31
0.0
  0
LINE
  5
253
330
1F
100
AcDbEntity
  8
0
  6
CONTINUOUS
 62
     7
100
AcDbLine
 10
678.306668095
 20
433.6741710064
 30
0.0
 11
679.0379180169
 21
433.4826817719
 31
0.0
  0
LINE
  5
254
330
1F
100
AcDbEntity
  8
0
  6
CONTINUOUS
 62
     7
100
AcDbLine
 10
673.6754189773
 20
433.6741710064
 30
0.0
 11
678.306668095
 21
433.6741710064
 31
0.0
  0
LINE
  5
255
330
1F
100
AcDbEntity
  8
0
  6
CONTINUOUS
 62
     7
100
AcDbLine
 10
673.6754189773
 20
430.8018306253
 30
0.0
 11
673.6754189773
 21
433.6741710064
 31
0.0
  0
LINE
  5
256
330
1F
100
AcDbEntity
  8
0
  6
CONTINUOUS
 62
     7
100
AcDbLine
 10
678.306668095
 20
430.8018306253
 30
0.0
 11
673.6754189773
 21
430.8018306253
 31
0.0
  0
LINE
  5
257
330
1F
100
AcDbEntity
  8
0
  6
CONTINUOUS
 62
     7
100
AcDbLine
 10
679.0379180169
 20
430.9933198599
 30
0.0
 11
678.306668095
 21
430.8018306253
 31
0.0
  0
LINE
  5
258
330
1F
100
AcDbEntity
  8
0
  6
CONTINUOUS
 62
     7
100
AcDbLine
 10
679.5254190514
 20
431.376298329
 30
0.0
 11
679.0379180169
 21
430.9933198599
 31
0.0
  0
LINE
  5
259
330
1F
100
AcDbEntity
  8
0
  6
CONTINUOUS
 62
     7
100
AcDbLine
 10
679.7691680553
 20
431.9507678953
 30
0.0
 11
679.5254190514
 21
431.376298329
 31
0.0
  0
LINE
  5
25A
330
1F
100
AcDbEntity
  8
0
  6
CONTINUOUS
 62
     7
100
AcDbLine
 10
679.7691680553
 20
432.525235599
 30
0.0
 11
679.7691680553
 21
431.9507678953
 31
0.0
  0
LINE
  5
25B
330
1F
100
AcDbEntity
  8
0
  6
CONTINUOUS
 62
     7
100
AcDbLine
 10
680.2566690898
 20
437.8869360295
 30
0.0
 11
679.2816686506
 21
438.4614055959
 31
0.0
  0
LINE
  5
25C
330
1F
100
AcDbEntity
  8
0
  6
CONTINUOUS
 62
     7
100
AcDbLine
 10
678.0629189747
 20
438.6528966931
 30
0.0
 11
672.2129191334
 21
438.6528966931
 31
0.0
  0
LINE
  5
25D
330
1F
100
AcDbEntity
  8
0
  6
CONTINUOUS
 62
     7
100
AcDbLine
 10
679.2816686506
 20
438.4614055959
 30
0.0
 11
678.0629189747
 21
438.6528966931
 31
0.0
  0
LINE
  5
25E
330
1F
100
AcDbEntity
  8
0
  6
CONTINUOUS
 62
     7
100
AcDbLine
 10
975.2639740028
 20
374.2444025335
 30
0.0
 11
975.2639740028
 21
374.2251949367
 31
0.0
  0
LINE
  5
25F
330
1F
100
AcDbEntity
  8
0
  6
CONTINUOUS
 62
     7
100
AcDbLine
 10
1010.9814138406
 20
494.6344582347
 30
0.0
 11
1022.963973067
 21
495.0528977421
 31
0.0
  0
LINE
  5
260
330
1F
100
AcDbEntity
  8
0
  6
CONTINUOUS
 62
     7
100
AcDbLine
 10
1022.963973067
 20
495.0528977421
 30
0.0
 11
1022.963973067
 21
489.5562468079
 31
0.0
  0
LINE
  5
261
330
1F
100
AcDbEntity
  8
0
  6
CONTINUOUS
 62
     7
100
AcDbLine
 10
1010.9814129092
 20
489.1378073004
 30
0.0
 11
1022.963973067
 21
489.5562468079
 31
0.0
  0
ARC
  5
262
330
1F
100
AcDbEntity
  8
0
  6
CONTINUOUS
 62
     7
100
AcDbCircle
 10
897.7392693691
 20
491.8861711418
 30
0.0
 40
113.2755018504102
100
AcDbArc
 50
358.6097161348
 51
1.3902450336
  0
LINE
  5
263
330
1F
100
AcDbEntity
  8
0
  6
CONTINUOUS
 62
     7
100
AcDbLine
 10
1010.9814129092
 20
269.5679826645
 30
0.0
 11
1022.963973067
 21
269.149543157
 31
0.0
  0
LWPOLYLINE
  5
264
330
1F
100
AcDbEntity
  8
0
  6
CONTINUOUS
 62
     7
100
AcDbPolyline
 90
        3
 70
   128
 43
0.0
 10
1010.9814129092
 20
269.5679826645
 10
1010.9308905222
 20
270.6770909933
 10
1010.9158841216
 20
271.5492857603
  0
LINE
  5
265
330
1F
100
AcDbEntity
  8
0
  6
CONTINUOUS
 62
     7
100
AcDbLine
 10
1010.9158841216
 20
271.5492857603
 30
0.0
 11
1010.9158841216
 21
487.1565042046
 31
0.0
  0
LWPOLYLINE
  5
266
330
1F
100
AcDbEntity
  8
0
  6
CONTINUOUS
 62
     7
100
AcDbPolyline
 90
        3
 70
   128
 43
0.0
 10
1010.9814129092
 20
489.1378073004
 10
1010.9308905222
 20
488.0287064222
 10
1010.9158841216
 20
487.1565042046
  0
LINE
  5
267
330
1F
100
AcDbEntity
  8
0
  6
CONTINUOUS
 62
     7
100
AcDbLine
 10
1022.963973067
 20
269.149543157
 30
0.0
 11
1022.963973067
 21
489.5562468079
 31
0.0
  0
LINE
  5
268
330
1F
100
AcDbEntity
  8
0
  6
CONTINUOUS
 62
     7
100
AcDbLine
 10
1022.963973067
 20
263.6528922228
 30
0.0
 11
1022.963973067
 21
269.149543157
 31
0.0
  0
LINE
  5
269
330
1F
100
AcDbEntity
  8
0
  6
CONTINUOUS
 62
     7
100
AcDbLine
 10
1010.9814138406
 20
264.0713317302
 30
0.0
 11
1022.963973067
 21
263.6528922228
 31
0.0
  0
ARC
  5
26A
330
1F
100
AcDbEntity
  8
0
  6
CONTINUOUS
 62
     7
100
AcDbCircle
 10
897.8408228558
 20
266.8196380274
 30
0.0
 40
113.1739657159474
100
AcDbArc
 50
358.6084977116
 51
1.3915217042
  0
ARC
  5
26B
330
1F
100
AcDbEntity
  8
0
  6
CONTINUOUS
 62
     7
100
AcDbCircle
 10
1034.2374818876
 20
-140.1419830671
 30
0.0
 40
410.3694683950022
100
AcDbArc
 50
93.2487520471
 51
93.5814536707
  0
LINE
  5
26C
330
1F
100
AcDbEntity
  8
0
  6
CONTINUOUS
 62
     7
100
AcDbLine
 10
1008.6021621965
 20
269.4359732774
 30
0.0
 11
1008.5577930578
 21
271.5492857603
 31
0.0
  0
LINE
  5
26D
330
1F
100
AcDbEntity
  8
0
  6
CONTINUOUS
 62
     7
100
AcDbLine
 10
1010.9158841216
 20
271.5492857603
 30
0.0
 11
1008.5577930578
 21
271.5492857603
 31
0.0
  0
LINE
  5
26E
330
1F
100
AcDbEntity
  8
0
  6
CONTINUOUS
 62
     7
100
AcDbLine
 10
1010.9158841216
 20
487.1565042046
 30
0.0
 11
1008.5577930578
 21
487.1565042046
 31
0.0
  0
LINE
  5
26F
330
1F
100
AcDbEntity
  8
0
  6
CONTINUOUS
 62
     7
100
AcDbLine
 10
1008.6016499691
 20
489.2696974782
 30
0.0
 11
1008.5577930578
 21
487.1565042046
 31
0.0
  0
ARC
  5
270
330
1F
100
AcDbEntity
  8
0
  6
CONTINUOUS
 62
     7
100
AcDbCircle
 10
1034.2455463333
 20
898.9853135988
 30
0.0
 40
410.5072451000425
100
AcDbArc
 50
266.418619928
 51
266.7512117047
  0
ARC
  5
271
330
1F
100
AcDbEntity
  8
0
  6
CONTINUOUS
 62
     7
100
AcDbCircle
 10
1011.0701278855
 20
266.5666893026
 30
0.0
 40
2.496934039139115
100
AcDbArc
 50
188.8212191936
 51
267.9638988171
  0
ARC
  5
272
330
1F
100
AcDbEntity
  8
0
  6
CONTINUOUS
 62
     7
100
AcDbCircle
 10
989.651488352
 20
267.8051162647
 30
0.0
 40
19.02037558247724
100
AcDbArc
 50
355.1114512088
 51
4.8886804735
  0
ARC
  5
273
330
1F
100
AcDbEntity
  8
0
  6
CONTINUOUS
 62
     7
100
AcDbCircle
 10
989.6518160148
 20
490.9006737
 30
0.0
 40
19.02004847674571
100
AcDbArc
 50
355.1112577734
 51
4.8886105436
  0
ARC
  5
274
330
1F
100
AcDbEntity
  8
0
  6
CONTINUOUS
 62
     7
100
AcDbCircle
 10
1011.0701298982
 20
492.1389794377
 30
0.0
 40
2.49693599233313
100
AcDbArc
 50
92.0360602676
 51
171.1761457942
  0
LINE
  5
275
330
1F
100
AcDbEntity
  8
0
  6
CONTINUOUS
 62
     7
100
AcDbLine
 10
1008.5577930578
 20
271.5492857603
 30
0.0
 11
1008.5577930578
 21
373.9632604626
 31
0.0
  0
LINE
  5
276
330
1F
100
AcDbEntity
  8
0
  6
CONTINUOUS
 62
     7
100
AcDbLine
 10
1008.5577930578
 20
384.7425295023
 30
0.0
 11
1008.5577930578
 21
373.9632604626
 31
0.0
  0
LINE
  5
277
330
1F
100
AcDbEntity
  8
0
  6
CONTINUOUS
 62
     7
100
AcDbLine
 10
1008.5577930578
 20
384.7425295023
 30
0.0
 11
1008.5577930578
 21
487.1565042046
 31
0.0
  0
LINE
  5
278
330
1F
100
AcDbEntity
  8
0
  6
CONTINUOUS
 62
     7
100
AcDbLine
 10
1008.5577930578
 20
266.0521877912
 30
0.0
 11
1008.6016630076
 21
266.1869836954
 31
0.0
  0
LINE
  5
279
330
1F
100
AcDbEntity
  8
0
  6
CONTINUOUS
 62
     7
100
AcDbLine
 10
1008.5577930578
 20
266.0521877912
 30
0.0
 11
1007.3539794677
 21
271.7141224054
 31
0.0
  0
ARC
  5
27A
330
1F
100
AcDbEntity
  8
0
  6
CONTINUOUS
 62
     7
100
AcDbCircle
 10
974.999901575
 20
276.2752342794
 30
0.0
 40
32.73321009436818
100
AcDbArc
 50
351.9893040708
 51
358.5991089914
  0
LINE
  5
27B
330
1F
100
AcDbEntity
  8
0
  6
CONTINUOUS
 62
     7
100
AcDbLine
 10
1007.7233280309
 20
275.4749817756
 30
0.0
 11
1008.5577930578
 21
271.5492857603
 31
0.0
  0
ARC
  5
27C
330
1F
100
AcDbEntity
  8
0
  6
CONTINUOUS
 62
     7
100
AcDbCircle
 10
975.0000354765
 20
482.430568293
 30
0.0
 40
32.73307574260438
100
AcDbArc
 50
1.4008616397
 51
8.0107067393
  0
LINE
  5
27D
330
1F
100
AcDbEntity
  8
0
  6
CONTINUOUS
 62
     7
100
AcDbLine
 10
1008.5577930578
 20
492.6536021737
 30
0.0
 11
1007.3539794677
 21
486.9916675595
 31
0.0
  0
LINE
  5
27E
330
1F
100
AcDbEntity
  8
0
  6
CONTINUOUS
 62
     7
100
AcDbLine
 10
1008.5577930578
 20
492.6536021737
 30
0.0
 11
1008.6021538146
 21
492.5219876674
 31
0.0
  0
LINE
  5
27F
330
1F
100
AcDbEntity
  8
0
  6
CONTINUOUS
 62
     7
100
AcDbLine
 10
1007.7233280309
 20
483.2308007387
 30
0.0
 11
1008.5577930578
 21
487.1565042046
 31
0.0
  0
ELLIPSE
  5
280
330
1F
100
AcDbEntity
  8
0
  6
CONTINUOUS
 62
     7
100
AcDbEllipse
 10
1006.6115938232
 20
277.2208093282
 30
0.0
 11
-0.002374878144678405
 21
5.500219689613687
 31
0.0
210
0.0
220
0.0
230
1.0
 40
0.2130095649
 41
4.389300669676163
 42
4.710361943765977
  0
LINE
  5
281
330
1F
100
AcDbEntity
  8
0
  6
CONTINUOUS
 62
     7
100
AcDbLine
 10
1007.7831953087
 20
297.5973648933
 30
0.0
 11
1007.7831953087
 21
277.210162392
 31
0.0
  0
LINE
  5
282
330
1F
100
AcDbEntity
  8
0
  6
CONTINUOUS
 62
     7
100
AcDbLine
 10
1007.7831953087
 20
297.5973648933
 30
0.0
 11
1007.2506687858
 21
299.7952638177
 31
0.0
  0
LINE
  5
283
330
1F
100
AcDbEntity
  8
0
  6
CONTINUOUS
 62
     7
100
AcDbLine
 10
1007.2506687858
 20
373.1711668876
 30
0.0
 11
1007.2506687858
 21
299.7952638177
 31
0.0
  0
ELLIPSE
  5
284
330
1F
100
AcDbEntity
  8
0
  6
CONTINUOUS
 62
     7
100
AcDbEllipse
 10
1007.9627171444
 20
373.9588613529
 30
0.0
 11
-0.0007511895885272679
 21
0.8001287847866934
 31
0.0
210
0.0
220
0.0
230
0.9999999999999999
 40
0.2138423392
 41
3.137659214647168
 42
4.708436543985344
  0
LINE
  5
285
330
1F
100
AcDbEntity
  8
0
  6
CONTINUOUS
 62
     7
100
AcDbLine
 10
1008.5577930578
 20
373.9632604626
 30
0.0
 11
1008.1338205629
 21
373.9558601735
 31
0.0
  0
LINE
  5
286
330
1F
100
AcDbEntity
  8
0
  6
CONTINUOUS
 62
     7
100
AcDbLine
 10
1008.3702340045
 20
368.3343393711
 30
0.0
 11
1008.3702340045
 21
373.0714520422
 31
0.0
  0
LINE
  5
287
330
1F
100
AcDbEntity
  8
0
  6
CONTINUOUS
 62
     7
100
AcDbLine
 10
1008.3702340045
 20
373.0714520422
 30
0.0
 11
1007.4840414592
 21
373.1023980287
 31
0.0
  0
LINE
  5
288
330
1F
100
AcDbEntity
  8
0
  6
CONTINUOUS
 62
     7
100
AcDbLine
 10
1007.4840414592
 20
373.1023980287
 30
0.0
 11
1007.4840414592
 21
368.3033933846
 31
0.0
  0
LINE
  5
289
330
1F
100
AcDbEntity
  8
0
  6
CONTINUOUS
 62
     7
100
AcDbLine
 10
1007.4840414592
 20
368.3033933846
 30
0.0
 11
1008.3702340045
 21
368.3343393711
 31
0.0
  0
LINE
  5
28A
330
1F
100
AcDbEntity
  8
0
  6
CONTINUOUS
 62
     7
100
AcDbLine
 10
1008.5577930578
 20
384.7425295023
 30
0.0
 11
1008.1338205629
 21
384.7499297914
 31
0.0
  0
ELLIPSE
  5
28B
330
1F
100
AcDbEntity
  8
0
  6
CONTINUOUS
 62
     7
100
AcDbEllipse
 10
1007.9627171444
 20
384.7469283378
 30
0.0
 11
0.0007511895885272679
 21
0.8001287847865797
 31
0.0
210
0.0
220
0.0
230
0.9999999999999999
 40
0.2138423392
 41
4.716341416066781
 42
6.287118746122281
  0
LINE
  5
28C
330
1F
100
AcDbEntity
  8
0
  6
CONTINUOUS
 62
     7
100
AcDbLine
 10
1007.2506687858
 20
458.9105261472
 30
0.0
 11
1007.2506687858
 21
385.5346212146
 31
0.0
  0
LINE
  5
28D
330
1F
100
AcDbEntity
  8
0
  6
CONTINUOUS
 62
     7
100
AcDbLine
 10
1007.7831953087
 20
461.1084250716
 30
0.0
 11
1007.2506687858
 21
458.9105261472
 31
0.0
  0
LINE
  5
28E
330
1F
100
AcDbEntity
  8
0
  6
CONTINUOUS
 62
     7
100
AcDbLine
 10
1007.7831953087
 20
461.1084250716
 30
0.0
 11
1007.7831953087
 21
481.4956201223
 31
0.0
  0
ELLIPSE
  5
28F
330
1F
100
AcDbEntity
  8
0
  6
CONTINUOUS
 62
     7
100
AcDbEllipse
 10
1006.6115938232
 20
481.4849803625
 30
0.0
 11
0.002374878144451031
 21
5.500219689613801
 31
0.0
210
0.0
220
0.0
230
1.0
 40
0.2130095649
 41
4.714416017003399
 42
5.035477291093171
  0
LINE
  5
290
330
1F
100
AcDbEntity
  8
0
  6
CONTINUOUS
 62
     7
100
AcDbLine
 10
1008.3702340045
 20
385.7343377528
 30
0.0
 11
1008.3702340045
 21
390.4714513553
 31
0.0
  0
LINE
  5
291
330
1F
100
AcDbEntity
  8
0
  6
CONTINUOUS
 62
     7
100
AcDbLine
 10
1008.3702340045
 20
390.4714513553
 30
0.0
 11
1007.4840414592
 21
390.5023982731
 31
0.0
  0
LINE
  5
292
330
1F
100
AcDbEntity
  8
0
  6
CONTINUOUS
 62
     7
100
AcDbLine
 10
1007.4840414592
 20
390.5023982731
 30
0.0
 11
1007.4840414592
 21
385.7033917663
 31
0.0
  0
LINE
  5
293
330
1F
100
AcDbEntity
  8
0
  6
CONTINUOUS
 62
     7
100
AcDbLine
 10
1007.4840414592
 20
385.7033917663
 30
0.0
 11
1008.3702340045
 21
385.7343377528
 31
0.0
  0
LINE
  5
294
330
1F
100
AcDbEntity
  8
0
  6
CONTINUOUS
 62
     7
100
AcDbLine
 10
1008.1338205629
 20
380.3522953746
 30
0.0
 11
975.750884346
 21
380.9175411222
 31
0.0
  0
LINE
  5
295
330
1F
100
AcDbEntity
  8
0
  6
CONTINUOUS
 62
     7
100
AcDbLine
 10
975.750884346
 20
384.1850342212
 30
0.0
 11
975.750884346
 21
380.9175411222
 31
0.0
  0
LINE
  5
296
330
1F
100
AcDbEntity
  8
0
  6
CONTINUOUS
 62
     7
100
AcDbLine
 10
1008.1338205629
 20
384.7499297914
 30
0.0
 11
975.750884346
 21
384.1850342212
 31
0.0
  0
LINE
  5
297
330
1F
100
AcDbEntity
  8
0
  6
CONTINUOUS
 62
     7
100
AcDbLine
 10
975.750884346
 20
374.5207557437
 30
0.0
 11
1008.1338187002
 21
373.9557726291
 31
0.0
  0
LINE
  5
298
330
1F
100
AcDbEntity
  8
0
  6
CONTINUOUS
 62
     7
100
AcDbLine
 10
975.750884346
 20
377.7882488427
 30
0.0
 11
975.750884346
 21
374.5207557437
 31
0.0
  0
LINE
  5
299
330
1F
100
AcDbEntity
  8
0
  6
CONTINUOUS
 62
     7
100
AcDbLine
 10
1008.1338205629
 20
378.3534945903
 30
0.0
 11
975.750884346
 21
377.7882488427
 31
0.0
  0
LINE
  5
29A
330
1F
100
AcDbEntity
  8
0
  6
CONTINUOUS
 62
     7
100
AcDbLine
 10
1008.1338205629
 20
378.3534945903
 30
0.0
 11
1008.1338205629
 21
380.3522953746
 31
0.0
  0
LINE
  5
29B
330
1F
100
AcDbEntity
  8
0
  6
CONTINUOUS
 62
     7
100
AcDbLine
 10
982.8664458611
 20
373.5967962054
 30
0.0
 11
1007.9627952792
 21
373.1587393192
 31
0.0
  0
ELLIPSE
  5
29C
330
1F
100
AcDbEntity
  8
0
  6
CONTINUOUS
 62
     7
100
AcDbEllipse
 10
827.5323648258
 20
377.1082848676
 30
0.0
 11
157.980904959899
 21
-3.544286533629986
 31
0.0
210
0.0
220
0.0
230
1.0
 40
0.0009227446
 41
5.929896930401791
 42
6.099897154616988
  0
ARC
  5
29D
330
1F
100
AcDbEntity
  8
0
  6
CONTINUOUS
 62
     7
100
AcDbCircle
 10
986.9465166244
 20
374.1586350601
 30
0.0
 40
11.20148711118698
100
AcDbArc
 50
178.1474243307
 51
182.1802175164
  0
ARC
  5
29E
330
1F
100
AcDbEntity
  8
0
  6
CONTINUOUS
 62
     7
100
AcDbCircle
 10
986.9353308093
 20
384.5468698065
 30
0.0
 40
11.19029792645478
100
AcDbArc
 50
177.8161406277
 51
181.8529682025
  0
LWPOLYLINE
  5
29F
330
1F
100
AcDbEntity
  8
0
  6
CONTINUOUS
 62
     7
100
AcDbPolyline
 90
        5
 70
   128
 43
0.0
 10
975.7552466609
 20
384.973333588
 10
978.1729637899
 20
385.0210508314
 10
979.7374106266
 20
385.0512852875
 10
981.3019058921
 20
385.0807579217
 10
982.8664458611
 20
385.1089937595
  0
LINE
  5
2A0
330
1F
100
AcDbEntity
  8
0
  6
CONTINUOUS
 62
     7
100
AcDbLine
 10
1007.9627952792
 20
385.5470506457
 30
0.0
 11
982.8664458611
 21
385.1089937595
 31
0.0
  0
LINE
  5
2A1
330
1F
100
AcDbEntity
  8
0
  6
CONTINUOUS
 62
     7
100
AcDbLine
 10
1007.2506687858
 20
378.338079339
 30
0.0
 11
1007.2506687858
 21
380.3677106259
 31
0.0
  0
LINE
  5
2A2
330
1F
100
AcDbEntity
  8
0
  6
CONTINUOUS
 62
     7
100
AcDbLine
 10
975.750884346
 20
374.5207557437
 30
0.0
 11
975.2639740028
 21
374.5207557437
 31
0.0
  0
LINE
  5
2A3
330
1F
100
AcDbEntity
  8
0
  6
CONTINUOUS
 62
     7
100
AcDbLine
 10
975.2639740028
 20
377.7797495929
 30
0.0
 11
975.2639740028
 21
374.5207557437
 31
0.0
  0
LWPOLYLINE
  5
2A4
330
1F
100
AcDbEntity
  8
0
  6
CONTINUOUS
 62
     7
100
AcDbPolyline
 90
        9
 70
   128
 43
0.0
 10
975.2639740028
 20
377.7797495929
 10
975.2732648768
 20
377.779911643
 10
975.3007910468
 20
377.7803922055
 10
975.3455317833
 20
377.7811726538
 10
975.4058218815
 20
377.7822250483
 10
975.4794224419
 20
377.7835102735
 10
975.5635991015
 20
377.7849799005
 10
975.6552226164
 20
377.78657805
 10
975.750884346
 20
377.7882488427
  0
LINE
  5
2A5
330
1F
100
AcDbEntity
  8
0
  6
CONTINUOUS
 62
     7
100
AcDbLine
 10
975.750884346
 20
384.1850342212
 30
0.0
 11
975.2639740028
 21
384.1850342212
 31
0.0
  0
LINE
  5
2A6
330
1F
100
AcDbEntity
  8
0
  6
CONTINUOUS
 62
     7
100
AcDbLine
 10
975.2639740028
 20
384.1850342212
 30
0.0
 11
975.2639740028
 21
380.926040372
 31
0.0
  0
LWPOLYLINE
  5
2A7
330
1F
100
AcDbEntity
  8
0
  6
CONTINUOUS
 62
     7
100
AcDbPolyline
 90
        9
 70
   128
 43
0.0
 10
975.750884346
 20
380.9175411222
 10
975.6552226164
 20
380.9192119149
 10
975.5635991015
 20
380.9208100644
 10
975.4794224419
 20
380.9222796915
 10
975.4058218815
 20
380.9235649166
 10
975.3455317833
 20
380.9246173111
 10
975.3007910468
 20
380.9253977594
 10
975.2732648768
 20
380.9258783219
 10
975.2639740028
 20
380.926040372
  0
LINE
  5
2A8
330
1F
100
AcDbEntity
  8
0
  6
CONTINUOUS
 62
     7
100
AcDbLine
 10
975.2639740028
 20
374.5207557437
 30
0.0
 11
975.2639740028
 21
374.3297433463
 31
0.0
  0
ARC
  5
2A9
330
1F
100
AcDbEntity
  8
0
  6
CONTINUOUS
 62
     7
100
AcDbCircle
 10
975.7696852088
 20
374.2380019433
 30
0.0
 40
0.5057517092387149
100
AcDbArc
 50
179.274868304
 51
268.3640583806
  0
LINE
  5
2AA
330
1F
100
AcDbEntity
  8
0
  6
CONTINUOUS
 62
     7
100
AcDbLine
 10
975.2639740028
 20
384.4613222388
 30
0.0
 11
975.2639740028
 21
384.1850342212
 31
0.0
  0
ARC
  5
2AB
330
1F
100
AcDbEntity
  8
0
  6
CONTINUOUS
 62
     7
100
AcDbCircle
 10
975.7707638283
 20
384.4667475426
 30
0.0
 40
0.5068181705351836
100
AcDbArc
 50
91.7549108415
 51
180.6059717163
  0
ARC
  5
2AC
330
1F
100
AcDbEntity
  8
0
  6
CONTINUOUS
 62
     7
100
AcDbCircle
 10
1011.0031332298
 20
266.572100437
 30
0.0
 40
2.500000000000023
100
AcDbArc
 50
192.0032126248
 51
268.0
  0
LWPOLYLINE
  5
2AD
330
1F
100
AcDbEntity
  8
0
  6
CONTINUOUS
 62
     7
100
AcDbPolyline
 90
        3
 70
   128
 43
0.0
 10
1010.9158841216
 20
264.0736265091
 10
1010.9391969883
 20
264.0728069452
 10
1010.9814138406
 20
264.0713317302
  0
ARC
  5
2AE
330
1F
100
AcDbEntity
  8
0
  6
CONTINUOUS
 62
     7
100
AcDbCircle
 10
1011.0031332298
 20
492.1336892537
 30
0.0
 40
2.499999999999933
100
AcDbArc
 50
92.0000000013
 51
167.9967874683
  0
LWPOLYLINE
  5
2AF
330
1F
100
AcDbEntity
  8
0
  6
CONTINUOUS
 62
     7
100
AcDbPolyline
 90
        3
 70
   128
 43
0.0
 10
1010.9158841216
 20
494.6321634558
 10
1010.9391969883
 20
494.6329830197
 10
1010.9814138406
 20
494.6344582347
  0
LINE
  5
2B0
330
1F
100
AcDbEntity
  8
0
  6
CONTINUOUS
 62
     7
100
AcDbLine
 10
928.1139693477
 20
480.8003617433
 30
0.0
 11
928.1139693477
 21
486.300149372
 31
0.0
  0
LINE
  5
2B1
330
1F
100
AcDbEntity
  8
0
  6
CONTINUOUS
 62
     7
100
AcDbLine
 10
928.1139693477
 20
486.300149372
 30
0.0
 11
1007.4137033217
 21
486.9921891001
 31
0.0
  0
LINE
  5
2B2
330
1F
100
AcDbEntity
  8
0
  6
CONTINUOUS
 62
     7
100
AcDbLine
 10
928.1139693477
 20
480.8003617433
 30
0.0
 11
1007.7831953087
 21
481.4956201223
 31
0.0
  0
LINE
  5
2B3
330
1F
100
AcDbEntity
  8
0
  6
CONTINUOUS
 62
     7
100
AcDbLine
 10
1007.7831953087
 20
461.1084250716
 30
0.0
 11
930.1139734008
 21
461.4148413745
 31
0.0
  0
LINE
  5
2B4
330
1F
100
AcDbEntity
  8
0
  6
CONTINUOUS
 62
     7
100
AcDbLine
 10
930.1139734008
 20
461.4148413745
 30
0.0
 11
930.1139734008
 21
462.0570031909
 31
0.0
  0
LINE
  5
2B5
330
1F
100
AcDbEntity
  8
0
  6
CONTINUOUS
 62
     7
100
AcDbLine
 10
928.1139693477
 20
462.0729958621
 30
0.0
 11
930.1139734008
 21
462.0570031909
 31
0.0
  0
LINE
  5
2B6
330
1F
100
AcDbEntity
  8
0
  6
CONTINUOUS
 62
     7
100
AcDbLine
 10
928.1139693477
 20
462.0729958621
 30
0.0
 11
928.1139693477
 21
480.8003617433
 31
0.0
  0
LINE
  5
2B7
330
1F
100
AcDbEntity
  8
0
  6
CONTINUOUS
 62
     7
100
AcDbLine
 10
1007.2506687858
 20
458.9105261472
 30
0.0
 11
930.1139734008
 21
459.2148413864
 31
0.0
  0
LINE
  5
2B8
330
1F
100
AcDbEntity
  8
0
  6
CONTINUOUS
 62
     7
100
AcDbLine
 10
930.1139734008
 20
461.4148413745
 30
0.0
 11
930.1139734008
 21
459.2148413864
 31
0.0
  0
LINE
  5
2B9
330
1F
100
AcDbEntity
  8
0
  6
CONTINUOUS
 62
     7
100
AcDbLine
 10
1007.2506687858
 20
299.7952638177
 30
0.0
 11
930.1139734008
 21
299.4909523038
 31
0.0
  0
LINE
  5
2BA
330
1F
100
AcDbEntity
  8
0
  6
CONTINUOUS
 62
     7
100
AcDbLine
 10
1007.7831953087
 20
297.5973648933
 30
0.0
 11
930.1139734008
 21
297.2909523157
 31
0.0
  0
LINE
  5
2BB
330
1F
100
AcDbEntity
  8
0
  6
CONTINUOUS
 62
     7
100
AcDbLine
 10
930.1139734008
 20
297.2909523157
 30
0.0
 11
930.1139734008
 21
299.4909523038
 31
0.0
  0
LINE
  5
2BC
330
1F
100
AcDbEntity
  8
0
  6
CONTINUOUS
 62
     7
100
AcDbLine
 10
928.1139693477
 20
296.6327903775
 30
0.0
 11
928.1139693477
 21
277.9054356722
 31
0.0
  0
LINE
  5
2BD
330
1F
100
AcDbEntity
  8
0
  6
CONTINUOUS
 62
     7
100
AcDbLine
 10
928.1139693477
 20
296.6327903775
 30
0.0
 11
930.1139734008
 21
296.648786774
 31
0.0
  0
LINE
  5
2BE
330
1F
100
AcDbEntity
  8
0
  6
CONTINUOUS
 62
     7
100
AcDbLine
 10
930.1139734008
 20
297.2909523157
 30
0.0
 11
930.1139734008
 21
296.648786774
 31
0.0
  0
LINE
  5
2BF
330
1F
100
AcDbEntity
  8
0
  6
CONTINUOUS
 62
     7
100
AcDbLine
 10
928.1139693477
 20
277.9054356722
 30
0.0
 11
1007.7831953087
 21
277.210162392
 31
0.0
  0
LINE
  5
2C0
330
1F
100
AcDbEntity
  8
0
  6
CONTINUOUS
 62
     7
100
AcDbLine
 10
928.1139693477
 20
272.4056405929
 30
0.0
 11
1007.4137033217
 21
271.7136008648
 31
0.0
  0
LINE
  5
2C1
330
1F
100
AcDbEntity
  8
0
  6
CONTINUOUS
 62
     7
100
AcDbLine
 10
928.1139693477
 20
277.9054356722
 30
0.0
 11
928.1139693477
 21
272.4056405929
 31
0.0
  0
LINE
  5
2C2
330
1F
100
AcDbEntity
  8
0
  6
CONTINUOUS
 62
     7
100
AcDbLine
 10
928.1139693477
 20
461.8222242204
 30
0.0
 11
930.1139734008
 21
461.8031768111
 31
0.0
  0
LINE
  5
2C3
330
1F
100
AcDbEntity
  8
0
  6
CONTINUOUS
 62
     7
100
AcDbLine
 10
928.1139693477
 20
462.0729958621
 30
0.0
 11
928.1139693477
 21
461.8222242204
 31
0.0
  0
LINE
  5
2C4
330
1F
100
AcDbEntity
  8
0
  6
CONTINUOUS
 62
     7
100
AcDbLine
 10
928.1139693477
 20
296.8835694698
 30
0.0
 11
930.1139734008
 21
296.9026131538
 31
0.0
  0
LINE
  5
2C5
330
1F
100
AcDbEntity
  8
0
  6
CONTINUOUS
 62
     7
100
AcDbLine
 10
928.1139693477
 20
296.6327903775
 30
0.0
 11
928.1139693477
 21
296.8835694698
 31
0.0
  0
LINE
  5
2C6
330
1F
100
AcDbEntity
  8
0
  6
CONTINUOUS
 62
     7
100
AcDbLine
 10
930.1139734008
 20
459.2148413864
 30
0.0
 11
930.1139734008
 21
299.4909523038
 31
0.0
  0
LINE
  5
2C7
330
1F
100
AcDbEntity
  8
0
  6
CONTINUOUS
 62
     8
100
AcDbLine
 10
975.2639740028
 20
374.3297433463
 30
0.0
 11
975.2639740028
 21
374.2444677261
 31
0.0
  0
LINE
  5
2C8
330
1F
100
AcDbEntity
  8
0
  6
CONTINUOUS
 62
     7
100
AcDbLine
 10
569.0056783209
 20
109.2285215569
 30
0.0
 11
568.7717822442
 21
109.2285215569
 31
0.0
  0
LINE
  5
2C9
330
1F
100
AcDbEntity
  8
0
  6
CONTINUOUS
 62
     7
100
AcDbLine
 10
785.4241532335
 20
109.2223822785
 30
0.0
 11
785.1002615938
 21
109.2223822785
 31
0.0
  0
LINE
  5
2CA
330
1F
100
AcDbEntity
  8
0
  6
CONTINUOUS
 62
     7
100
AcDbLine
 10
790.6569791088
 20
73.5130943073
 30
0.0
 11
791.0754186163
 21
61.5305341495
 31
0.0
  0
LINE
  5
2CB
330
1F
100
AcDbEntity
  8
0
  6
CONTINUOUS
 62
     7
100
AcDbLine
 10
785.5787676821
 20
61.5305341495
 30
0.0
 11
791.0754186163
 21
61.5305341495
 31
0.0
  0
LINE
  5
2CC
330
1F
100
AcDbEntity
  8
0
  6
CONTINUOUS
 62
     7
100
AcDbLine
 10
785.1603281746
 20
73.5130933759
 30
0.0
 11
785.5787676821
 21
61.5305341495
 31
0.0
  0
ARC
  5
2CD
330
1F
100
AcDbEntity
  8
0
  6
CONTINUOUS
 62
     7
100
AcDbCircle
 10
787.9086152765
 20
186.7286184586
 30
0.0
 40
113.2488902994345
100
AcDbArc
 50
268.6094282139
 51
271.3906106177
  0
LINE
  5
2CE
330
1F
100
AcDbEntity
  8
0
  6
CONTINUOUS
 62
     7
100
AcDbLine
 10
568.9905089388
 20
73.5130933759
 30
0.0
 11
568.5720694313
 21
61.5305341495
 31
0.0
  0
LWPOLYLINE
  5
2CF
330
1F
100
AcDbEntity
  8
0
  6
CONTINUOUS
 62
     7
100
AcDbPolyline
 90
        3
 70
   128
 43
0.0
 10
570.9718120346
 20
73.5786230949
 10
569.8618394384
 20
73.5553102282
 10
568.9905089388
 20
73.5130933759
  0
LINE
  5
2D0
330
1F
100
AcDbEntity
  8
0
  6
CONTINUOUS
 62
     7
100
AcDbLine
 10
783.1790250788
 20
73.5786230949
 30
0.0
 11
570.9718120346
 21
73.5786230949
 31
0.0
  0
LWPOLYLINE
  5
2D1
330
1F
100
AcDbEntity
  8
0
  6
CONTINUOUS
 62
     7
100
AcDbPolyline
 90
        3
 70
   128
 43
0.0
 10
783.1790250788
 20
73.5786230949
 10
784.288997675
 20
73.5553102282
 10
785.1603281746
 20
73.5130933759
  0
LINE
  5
2D2
330
1F
100
AcDbEntity
  8
0
  6
CONTINUOUS
 62
     7
100
AcDbLine
 10
785.5787676821
 20
61.5305341495
 30
0.0
 11
568.5720694313
 21
61.5305341495
 31
0.0
  0
LINE
  5
2D3
330
1F
100
AcDbEntity
  8
0
  6
CONTINUOUS
 62
     7
100
AcDbLine
 10
568.5720694313
 20
61.5305341495
 30
0.0
 11
563.0754184971
 21
61.5305341495
 31
0.0
  0
LINE
  5
2D4
330
1F
100
AcDbEntity
  8
0
  6
CONTINUOUS
 62
     7
100
AcDbLine
 10
563.4938580046
 20
73.5130943073
 30
0.0
 11
563.0754184971
 21
61.5305341495
 31
0.0
  0
ARC
  5
2D5
330
1F
100
AcDbEntity
  8
0
  6
CONTINUOUS
 62
     7
100
AcDbCircle
 10
566.242221845
 20
186.7522749562
 30
0.0
 40
113.2725398314253
100
AcDbArc
 50
268.609679773
 51
271.3902813955
  0
LINE
  5
2D6
330
1F
100
AcDbEntity
  8
0
  6
CONTINUOUS
 62
     7
100
AcDbLine
 10
783.1790250788
 20
73.5786230949
 30
0.0
 11
783.1790250788
 21
75.9367141587
 31
0.0
  0
LINE
  5
2D7
330
1F
100
AcDbEntity
  8
0
  6
CONTINUOUS
 62
     7
100
AcDbLine
 10
783.1790250788
 20
75.9367141587
 30
0.0
 11
785.2922183523
 21
75.8928442088
 31
0.0
  0
ARC
  5
2D8
330
1F
100
AcDbEntity
  8
0
  6
CONTINUOUS
 62
     7
100
AcDbCircle
 10
1195.034556788
 20
50.2473561845
 30
0.0
 40
410.5340154097655
100
AcDbArc
 50
176.4186295029
 51
176.751199462
  0
ARC
  5
2D9
330
1F
100
AcDbEntity
  8
0
  6
CONTINUOUS
 62
     7
100
AcDbCircle
 10
159.2229089816
 20
50.2535649715
 30
0.0
 40
410.4272060462698
100
AcDbArc
 50
3.2487782465
 51
3.581432807
  0
LINE
  5
2DA
330
1F
100
AcDbEntity
  8
0
  6
CONTINUOUS
 62
     7
100
AcDbLine
 10
570.9718120346
 20
75.9367141587
 30
0.0
 11
568.8585070024
 21
75.8923534019
 31
0.0
  0
LINE
  5
2DB
330
1F
100
AcDbEntity
  8
0
  6
CONTINUOUS
 62
     7
100
AcDbLine
 10
570.9718120346
 20
73.5786230949
 30
0.0
 11
570.9718120346
 21
75.9367141587
 31
0.0
  0
ARC
  5
2DC
330
1F
100
AcDbEntity
  8
0
  6
CONTINUOUS
 62
     7
100
AcDbCircle
 10
786.9231472944
 20
94.8424073126
 30
0.0
 40
19.01976593784383
100
AcDbArc
 50
265.1113053949
 51
274.8888262877
  0
LINE
  5
2DD
330
1F
100
AcDbEntity
  8
0
  6
CONTINUOUS
 62
     7
100
AcDbLine
 10
790.6568673501
 20
73.513090582
 30
0.0
 11
790.5752164374
 21
73.9108938438
 31
0.0
  0
ARC
  5
2DE
330
1F
100
AcDbEntity
  8
0
  6
CONTINUOUS
 62
     7
100
AcDbCircle
 10
565.9892200963
 20
73.4243750842
 30
0.0
 40
2.496938706535179
100
AcDbArc
 50
98.8211345069
 51
177.9638051137
  0
ARC
  5
2DF
330
1F
100
AcDbEntity
  8
0
  6
CONTINUOUS
 62
     7
100
AcDbCircle
 10
567.227689819
 20
94.8424073126
 30
0.0
 40
19.01976593784343
100
AcDbArc
 50
265.1111737123
 51
274.8886946051
  0
LINE
  5
2E0
330
1F
100
AcDbEntity
  8
0
  6
CONTINUOUS
 62
     7
100
AcDbLine
 10
570.9718120346
 20
75.9367141587
 30
0.0
 11
783.1790250788
 21
75.9367141587
 31
0.0
  0
LINE
  5
2E1
330
1F
100
AcDbEntity
  8
0
  6
CONTINUOUS
 62
     7
100
AcDbLine
 10
788.5445085416
 20
75.8923450199
 30
0.0
 11
788.6761304984
 21
75.9367141587
 31
0.0
  0
LINE
  5
2E2
330
1F
100
AcDbEntity
  8
0
  6
CONTINUOUS
 62
     7
100
AcDbLine
 10
783.1790250788
 20
75.9367141587
 30
0.0
 11
777.5157419095
 21
77.1405277488
 31
0.0
  0
LINE
  5
2E3
330
1F
100
AcDbEntity
  8
0
  6
CONTINUOUS
 62
     7
100
AcDbLine
 10
779.5299244175
 20
77.0808038948
 30
0.0
 11
777.5157419095
 21
77.1405277488
 31
0.0
  0
ARC
  5
2E4
330
1F
100
AcDbEntity
  8
0
  6
CONTINUOUS
 62
     7
100
AcDbCircle
 10
777.3903077512
 20
-3.1824511031
 30
0.0
 40
80.29176833483645
100
AcDbArc
 50
84.7398071033
 51
88.4730001477
  0
LINE
  5
2E5
330
1F
100
AcDbEntity
  8
0
  6
CONTINUOUS
 62
     7
100
AcDbLine
 10
784.7513583551
 20
76.7711791856
 30
0.0
 11
788.6761304984
 21
75.9367141587
 31
0.0
  0
ARC
  5
2E6
330
1F
100
AcDbEntity
  8
0
  6
CONTINUOUS
 62
     7
100
AcDbCircle
 10
576.7605293622
 20
-3.1824511031
 30
0.0
 40
80.29176833485326
100
AcDbArc
 50
91.5269998523
 51
95.2601928967
  0
LINE
  5
2E7
330
1F
100
AcDbEntity
  8
0
  6
CONTINUOUS
 62
     7
100
AcDbLine
 10
574.6209126959
 20
77.0808038948
 30
0.0
 11
576.6350952039
 21
77.1405277488
 31
0.0
  0
LINE
  5
2E8
330
1F
100
AcDbEntity
  8
0
  6
CONTINUOUS
 62
     7
100
AcDbLine
 10
570.9718120346
 20
75.9367141587
 30
0.0
 11
576.6350952039
 21
77.1405277488
 31
0.0
  0
LINE
  5
2E9
330
1F
100
AcDbEntity
  8
0
  6
CONTINUOUS
 62
     7
100
AcDbLine
 10
565.6095099697
 20
75.8928572474
 30
0.0
 11
565.474706615
 21
75.9367141587
 31
0.0
  0
LINE
  5
2EA
330
1F
100
AcDbEntity
  8
0
  6
CONTINUOUS
 62
     7
100
AcDbLine
 10
569.3994787583
 20
76.7711791856
 30
0.0
 11
565.474706615
 21
75.9367141587
 31
0.0
  0
LINE
  5
2EB
330
1F
100
AcDbEntity
  8
0
  6
CONTINUOUS
 62
     7
100
AcDbLine
 10
777.5157419095
 20
77.1405277488
 30
0.0
 11
576.6350952039
 21
77.1405277488
 31
0.0
  0
ARC
  5
2EC
330
1F
100
AcDbEntity
  8
0
  6
CONTINUOUS
 62
     7
100
AcDbCircle
 10
788.1562080456
 20
73.4913685868
 30
0.0
 40
2.500006864589971
100
AcDbArc
 50
2.0001267415
 51
77.9966776039
  0
LWPOLYLINE
  5
2ED
330
1F
100
AcDbEntity
  8
0
  6
CONTINUOUS
 62
     7
100
AcDbPolyline
 90
        3
 70
   128
 43
0.0
 10
790.6553921352
 20
73.5584841756
 10
790.6552133212
 20
73.5636166943
 10
790.6546917806
 20
73.5786230949
  0
ARC
  5
2EE
330
1F
100
AcDbEntity
  8
0
  6
CONTINUOUS
 62
     7
100
AcDbCircle
 10
565.9946290678
 20
73.4913685868
 30
0.0
 40
2.500006864589782
100
AcDbArc
 50
102.0033223961
 51
177.9998732585
  0
LWPOLYLINE
  5
2EF
330
1F
100
AcDbEntity
  8
0
  6
CONTINUOUS
 62
     7
100
AcDbPolyline
 90
        3
 70
   128
 43
0.0
 10
563.4954449782
 20
73.5584841756
 10
563.4956237922
 20
73.5636166943
 10
563.4961453328
 20
73.5786230949
  0
LINE
  5
2F0
330
1F
100
AcDbEntity
  8
0
  6
CONTINUOUS
 62
     7
100
AcDbLine
 10
778.8378846893
 20
156.3805378688
 30
0.0
 11
779.5299244175
 21
77.0808038948
 31
0.0
  0
LINE
  5
2F1
330
1F
100
AcDbEntity
  8
0
  6
CONTINUOUS
 62
     7
100
AcDbLine
 10
784.337672318
 20
156.3805378688
 30
0.0
 11
778.8378846893
 21
156.3805378688
 31
0.0
  0
LINE
  5
2F2
330
1F
100
AcDbEntity
  8
0
  6
CONTINUOUS
 62
     7
100
AcDbLine
 10
784.337672318
 20
156.3805378688
 30
0.0
 11
785.0329381476
 21
76.7113119078
 31
0.0
  0
LINE
  5
2F3
330
1F
100
AcDbEntity
  8
0
  6
CONTINUOUS
 62
     7
100
AcDbLine
 10
569.8131647954
 20
156.3805378688
 30
0.0
 11
575.3129524241
 21
156.3805378688
 31
0.0
  0
LINE
  5
2F4
330
1F
100
AcDbEntity
  8
0
  6
CONTINUOUS
 62
     7
100
AcDbLine
 10
575.3129524241
 20
156.3805378688
 30
0.0
 11
574.6209126959
 21
77.0808038948
 31
0.0
  0
LINE
  5
2F5
330
1F
100
AcDbEntity
  8
0
  6
CONTINUOUS
 62
     7
100
AcDbLine
 10
569.8131647954
 20
156.3805378688
 30
0.0
 11
569.1178989658
 21
76.7113119078
 31
0.0
  0
LINE
  5
2F6
330
1F
100
AcDbEntity
  8
0
  6
CONTINUOUS
 62
     7
100
AcDbLine
 10
575.3129524241
 20
156.3805378688
 30
0.0
 11
594.04031458
 21
156.3805378688
 31
0.0
  0
LINE
  5
2F7
330
1F
100
AcDbEntity
  8
0
  6
CONTINUOUS
 62
     7
100
AcDbLine
 10
594.04031458
 20
156.3805378688
 30
0.0
 11
594.0563109765
 21
154.3805338157
 31
0.0
  0
LINE
  5
2F8
330
1F
100
AcDbEntity
  8
0
  6
CONTINUOUS
 62
     7
100
AcDbLine
 10
594.0563109765
 20
154.3805338157
 30
0.0
 11
760.0945261369
 21
154.3805338157
 31
0.0
  0
LINE
  5
2F9
330
1F
100
AcDbEntity
  8
0
  6
CONTINUOUS
 62
     7
100
AcDbLine
 10
760.1105225334
 20
156.3805378688
 30
0.0
 11
760.0945261369
 21
154.3805338157
 31
0.0
  0
LINE
  5
2FA
330
1F
100
AcDbEntity
  8
0
  6
CONTINUOUS
 62
     7
100
AcDbLine
 10
778.8378846893
 20
156.3805378688
 30
0.0
 11
760.1105225334
 21
156.3805378688
 31
0.0
  0
LINE
  5
2FB
330
1F
100
AcDbEntity
  8
0
  6
CONTINUOUS
 62
     7
100
AcDbLine
 10
759.8597508917
 20
156.3805378688
 30
0.0
 11
759.8406997571
 21
154.3805338157
 31
0.0
  0
LINE
  5
2FC
330
1F
100
AcDbEntity
  8
0
  6
CONTINUOUS
 62
     7
100
AcDbLine
 10
759.8597508917
 20
156.3805378688
 30
0.0
 11
760.1105225334
 21
156.3805378688
 31
0.0
  0
LINE
  5
2FD
330
1F
100
AcDbEntity
  8
0
  6
CONTINUOUS
 62
     7
100
AcDbLine
 10
594.2910862217
 20
156.3805378688
 30
0.0
 11
594.3101373563
 21
154.3805338157
 31
0.0
  0
LINE
  5
2FE
330
1F
100
AcDbEntity
  8
0
  6
CONTINUOUS
 62
     7
100
AcDbLine
 10
594.2910862217
 20
156.3805378688
 30
0.0
 11
594.04031458
 21
156.3805378688
 31
0.0
  0
LINE
  5
2FF
330
1F
100
AcDbEntity
  8
0
  6
CONTINUOUS
 62
     7
100
AcDbLine
 10
785.8776551733
 20
76.5317119373
 30
0.0
 11
785.2204841623
 21
101.6280613554
 31
0.0
  0
LWPOLYLINE
  5
300
330
1F
100
AcDbEntity
  8
0
  6
CONTINUOUS
 62
     7
100
AcDbPolyline
 90
        5
 70
   128
 43
0.0
 10
785.1696563015
 20
108.7392605556
 10
785.1955470691
 20
106.3215434266
 10
785.2088240037
 20
104.7570965899
 10
785.2179956684
 20
103.1926013244
 10
785.2204841623
 20
101.6280613554
  0
ARC
  5
301
330
1F
100
AcDbEntity
  8
0
  6
CONTINUOUS
 62
     7
100
AcDbCircle
 10
785.5304289944
 20
100.3166913078
 30
0.0
 40
8.432399922860457
100
AcDbArc
 50
87.9364544485
 51
92.4522491965
  0
LINE
  5
302
330
1F
100
AcDbEntity
  8
0
  6
CONTINUOUS
 62
     7
100
AcDbLine
 10
786.6820422063
 20
76.3606866536
 30
0.0
 11
785.8340618262
 21
108.7436228705
 31
0.0
  0
LINE
  5
303
330
1F
100
AcDbEntity
  8
0
  6
CONTINUOUS
 62
     7
100
AcDbLine
 10
567.4687949071
 20
76.3606866536
 30
0.0
 11
568.3167752872
 21
108.7436228705
 31
0.0
  0
ARC
  5
304
330
1F
100
AcDbEntity
  8
0
  6
CONTINUOUS
 62
     7
100
AcDbCircle
 10
568.6201153068
 20
100.3139469508
 30
0.0
 40
8.435131965672273
100
AcDbArc
 50
87.5465547892
 51
92.0608866836
  0
LWPOLYLINE
  5
305
330
1F
100
AcDbEntity
  8
0
  6
CONTINUOUS
 62
     7
100
AcDbPolyline
 90
        5
 70
   128
 43
0.0
 10
568.9811808119
 20
108.7392605556
 10
568.9552900443
 20
106.3215434266
 10
568.9420131097
 20
104.7570965899
 10
568.932841445
 20
103.1926013244
 10
568.9303529511
 20
101.6280613554
  0
LINE
  5
306
330
1F
100
AcDbEntity
  8
0
  6
CONTINUOUS
 62
     7
100
AcDbLine
 10
568.2731819401
 20
76.5317119373
 30
0.0
 11
568.9303529511
 21
101.6280613554
 31
0.0
  0
LINE
  5
307
330
1F
100
AcDbEntity
  8
0
  6
CONTINUOUS
 62
     7
100
AcDbLine
 10
785.180467094
 20
76.6799440322
 30
0.0
 11
785.2204841623
 21
101.6280613554
 31
0.0
  0
LINE
  5
308
330
1F
100
AcDbEntity
  8
0
  6
CONTINUOUS
 62
     7
100
AcDbLine
 10
568.9703700194
 20
76.6799440322
 30
0.0
 11
568.9303529511
 21
101.6280613554
 31
0.0
  0
ARC
  5
309
330
1F
100
AcDbEntity
  8
0
  6
CONTINUOUS
 62
     7
100
AcDbCircle
 10
570.7082189436
 20
108.9188135191
 30
0.0
 40
1.736324115286852
100
AcDbArc
 50
169.6577014953
 51
185.9354335979
  0
LINE
  5
30A
330
1F
100
AcDbEntity
  8
0
  6
CONTINUOUS
 62
     7
100
AcDbLine
 10
569.0004554639
 20
109.2305332137
 30
0.0
 11
569.4016915808
 21
109.2305332137
 31
0.0
  0
LINE
  5
30B
330
1F
100
AcDbEntity
  8
0
  6
CONTINUOUS
 62
     7
100
AcDbLine
 10
785.1503816495
 20
109.2305332137
 30
0.0
 11
784.7491455326
 21
109.2305332137
 31
0.0
  0
ARC
  5
30C
330
1F
100
AcDbEntity
  8
0
  6
CONTINUOUS
 62
     7
100
AcDbCircle
 10
783.4439537426
 20
108.91878503
 30
0.0
 40
1.735015377101555
100
AcDbArc
 50
354.0608953417
 51
10.3511421096
  0
ARC
  5
30D
330
1F
100
AcDbEntity
  8
0
  6
CONTINUOUS
 62
     7
100
AcDbCircle
 10
568.8165918996
 20
108.7305455516
 30
0.0
 40
0.4999876621433479
100
AcDbArc
 50
89.9993597668
 51
178.5012417396
  0
LINE
  5
30E
330
1F
100
AcDbEntity
  8
0
  6
CONTINUOUS
 62
     7
100
AcDbLine
 10
569.0004554639
 20
109.2305332137
 30
0.0
 11
568.8165974865
 21
109.2305332137
 31
0.0
  0
LINE
  5
30F
330
1F
100
AcDbEntity
  8
0
  6
CONTINUOUS
 62
     7
100
AcDbLine
 10
785.1503816495
 20
109.2305332137
 30
0.0
 11
785.3342396269
 21
109.2305332137
 31
0.0
  0
ARC
  5
310
330
1F
100
AcDbEntity
  8
0
  6
CONTINUOUS
 62
     7
100
AcDbCircle
 10
785.3342452138
 20
108.7305455516
 30
0.0
 40
0.4999876621435591
100
AcDbArc
 50
1.4987582604
 51
90.0006402332
  0
LINE
  5
311
330
1F
100
AcDbEntity
  8
0
  6
CONTINUOUS
 62
     7
100
AcDbLine
 10
785.1507318268
 20
109.2305332137
 30
0.0
 11
785.1503816495
 21
109.2305332137
 31
0.0
  0
ARC
  5
312
330
1F
100
AcDbEntity
  8
0
  6
CONTINUOUS
 62
     8
100
AcDbCircle
 10
788.253299494
 20
73.5618954737
 30
0.0
 40
2.347998755118087
100
AcDbArc
 50
8.5479193185
 51
82.8752161346
  0
LINE
  5
313
330
1F
100
AcDbEntity
  8
0
  6
CONTINUOUS
 62
     8
100
AcDbLine
 10
785.1696563015
 20
108.7392605556
 30
0.0
 11
784.753437067
 21
108.7392605556
 31
0.0
  0
LINE
  5
314
330
1F
100
AcDbEntity
  8
0
  6
CONTINUOUS
 62
     8
100
AcDbLine
 10
568.9811808119
 20
108.7392605556
 30
0.0
 11
569.3974000464
 21
108.7392605556
 31
0.0
  0
LINE
  5
315
330
1F
100
AcDbEntity
  8
0
  6
CONTINUOUS
 62
     8
100
AcDbLine
 10
790.6569791088
 20
73.5130933759
 30
0.0
 11
790.5753132949
 21
73.9109171269
 31
0.0
  0
LINE
  5
316
330
1F
100
AcDbEntity
  8
0
  6
CONTINUOUS
 62
     7
100
AcDbLine
 10
371.9435181182
 20
264.0713317302
 30
0.0
 11
359.9609588917
 21
263.6528922228
 31
0.0
  0
LINE
  5
317
330
1F
100
AcDbEntity
  8
0
  6
CONTINUOUS
 62
     7
100
AcDbLine
 10
359.9609588917
 20
263.6528922228
 30
0.0
 11
359.9609588917
 21
269.149543157
 31
0.0
  0
LINE
  5
318
330
1F
100
AcDbEntity
  8
0
  6
CONTINUOUS
 62
     7
100
AcDbLine
 10
371.9435190495
 20
269.5679826645
 30
0.0
 11
359.9609588917
 21
269.149543157
 31
0.0
  0
ARC
  5
319
330
1F
100
AcDbEntity
  8
0
  6
CONTINUOUS
 62
     7
100
AcDbCircle
 10
485.051358764
 20
266.819638033
 30
0.0
 40
113.1412250379891
100
AcDbArc
 50
178.6080755425
 51
181.3919050418
  0
LINE
  5
31A
330
1F
100
AcDbEntity
  8
0
  6
CONTINUOUS
 62
     7
100
AcDbLine
 10
371.9435190495
 20
489.1378073004
 30
0.0
 11
359.9609588917
 21
489.5562468079
 31
0.0
  0
LWPOLYLINE
  5
31B
330
1F
100
AcDbEntity
  8
0
  6
CONTINUOUS
 62
     7
100
AcDbPolyline
 90
        3
 70
   128
 43
0.0
 10
371.9435190495
 20
489.1378073004
 10
371.9940414366
 20
488.0287064222
 10
372.0090478372
 20
487.1565042046
  0
LINE
  5
31C
330
1F
100
AcDbEntity
  8
0
  6
CONTINUOUS
 62
     7
100
AcDbLine
 10
372.0090478372
 20
271.5492857603
 30
0.0
 11
372.0090478372
 21
487.1565042046
 31
0.0
  0
LWPOLYLINE
  5
31D
330
1F
100
AcDbEntity
  8
0
  6
CONTINUOUS
 62
     7
100
AcDbPolyline
 90
        3
 70
   128
 43
0.0
 10
371.9435190495
 20
269.5679826645
 10
371.9940414366
 20
270.6770909933
 10
372.0090478372
 20
271.5492857603
  0
LINE
  5
31E
330
1F
100
AcDbEntity
  8
0
  6
CONTINUOUS
 62
     7
100
AcDbLine
 10
359.9609588917
 20
269.149543157
 30
0.0
 11
359.9609588917
 21
489.5562468079
 31
0.0
  0
LINE
  5
31F
330
1F
100
AcDbEntity
  8
0
  6
CONTINUOUS
 62
     7
100
AcDbLine
 10
359.9609588917
 20
495.0528977421
 30
0.0
 11
359.9609588917
 21
489.5562468079
 31
0.0
  0
LINE
  5
320
330
1F
100
AcDbEntity
  8
0
  6
CONTINUOUS
 62
     7
100
AcDbLine
 10
371.9435181182
 20
494.6344582347
 30
0.0
 11
359.9609588917
 21
495.0528977421
 31
0.0
  0
ARC
  5
321
330
1F
100
AcDbEntity
  8
0
  6
CONTINUOUS
 62
     7
100
AcDbCircle
 10
485.1661154791
 20
491.8861711352
 30
0.0
 40
113.2559604949672
100
AcDbArc
 50
178.6095150409
 51
181.3905237906
  0
LINE
  5
322
330
1F
100
AcDbEntity
  8
0
  6
CONTINUOUS
 62
     7
100
AcDbLine
 10
372.0090478372
 20
271.5492857603
 30
0.0
 11
374.367138901
 21
271.5492857603
 31
0.0
  0
LINE
  5
323
330
1F
100
AcDbEntity
  8
0
  6
CONTINUOUS
 62
     7
100
AcDbLine
 10
374.3232819896
 20
269.4360924867
 30
0.0
 11
374.367138901
 21
271.5492857603
 31
0.0
  0
ARC
  5
324
330
1F
100
AcDbEntity
  8
0
  6
CONTINUOUS
 62
     7
100
AcDbCircle
 10
348.7188079368
 20
-139.6189084214
 30
0.0
 40
409.8454574587028
100
AcDbArc
 50
86.4183514051
 51
86.7514802276
  0
ARC
  5
325
330
1F
100
AcDbEntity
  8
0
  6
CONTINUOUS
 62
     7
100
AcDbCircle
 10
348.6196034417
 20
899.9631361483
 30
0.0
 40
411.4868914196718
100
AcDbArc
 50
273.2493825827
 51
273.5811807898
  0
LINE
  5
326
330
1F
100
AcDbEntity
  8
0
  6
CONTINUOUS
 62
     7
100
AcDbLine
 10
374.3227697622
 20
489.2698092369
 30
0.0
 11
374.367138901
 21
487.1565042046
 31
0.0
  0
LINE
  5
327
330
1F
100
AcDbEntity
  8
0
  6
CONTINUOUS
 62
     7
100
AcDbLine
 10
372.0090478372
 20
487.1565042046
 30
0.0
 11
374.367138901
 21
487.1565042046
 31
0.0
  0
ARC
  5
328
330
1F
100
AcDbEntity
  8
0
  6
CONTINUOUS
 62
     7
100
AcDbCircle
 10
393.2734436067
 20
267.8051162647
 30
0.0
 40
19.02037558246685
100
AcDbArc
 50
175.1113195265
 51
184.8885487912
  0
ARC
  5
329
330
1F
100
AcDbEntity
  8
0
  6
CONTINUOUS
 62
     7
100
AcDbCircle
 10
371.8548106986
 20
266.566802151
 30
0.0
 40
2.496927314548369
100
AcDbArc
 50
272.0358690087
 51
351.176136377
  0
ARC
  5
32A
330
1F
100
AcDbEntity
  8
0
  6
CONTINUOUS
 62
     7
100
AcDbCircle
 10
371.8547986905
 20
492.1390946011
 30
0.0
 40
2.496940287715065
100
AcDbArc
 50
8.8213376889
 51
87.9637803218
  0
ARC
  5
32B
330
1F
100
AcDbEntity
  8
0
  6
CONTINUOUS
 62
     7
100
AcDbCircle
 10
393.273115944
 20
490.9006737
 30
0.0
 40
19.02004847673594
100
AcDbArc
 50
175.1113894564
 51
184.8887422266
  0
LINE
  5
32C
330
1F
100
AcDbEntity
  8
0
  6
CONTINUOUS
 62
     7
100
AcDbLine
 10
374.367138901
 20
384.7425295023
 30
0.0
 11
374.367138901
 21
373.9632604626
 31
0.0
  0
LINE
  5
32D
330
1F
100
AcDbEntity
  8
0
  6
CONTINUOUS
 62
     7
100
AcDbLine
 10
374.367138901
 20
271.5492857603
 30
0.0
 11
374.367138901
 21
373.9632604626
 31
0.0
  0
LINE
  5
32E
330
1F
100
AcDbEntity
  8
0
  6
CONTINUOUS
 62
     7
100
AcDbLine
 10
374.367138901
 20
384.7425295023
 30
0.0
 11
374.367138901
 21
487.1565042046
 31
0.0
  0
LINE
  5
32F
330
1F
100
AcDbEntity
  8
0
  6
CONTINUOUS
 62
     7
100
AcDbLine
 10
374.367138901
 20
492.6536021737
 30
0.0
 11
374.3232689511
 21
492.5188062695
 31
0.0
  0
LINE
  5
330
330
1F
100
AcDbEntity
  8
0
  6
CONTINUOUS
 62
     7
100
AcDbLine
 10
374.367138901
 20
492.6536021737
 30
0.0
 11
375.5709524911
 21
486.9916675595
 31
0.0
  0
ARC
  5
331
330
1F
100
AcDbEntity
  8
0
  6
CONTINUOUS
 62
     7
100
AcDbCircle
 10
407.9248964823
 20
482.430568293
 30
0.0
 40
32.73307574258882
100
AcDbArc
 50
171.9892932607
 51
178.5991383603
  0
LINE
  5
332
330
1F
100
AcDbEntity
  8
0
  6
CONTINUOUS
 62
     7
100
AcDbLine
 10
375.2016039278
 20
483.2308007387
 30
0.0
 11
374.367138901
 21
487.1565042046
 31
0.0
  0
ARC
  5
333
330
1F
100
AcDbEntity
  8
0
  6
CONTINUOUS
 62
     7
100
AcDbCircle
 10
407.9250303837
 20
276.2752342794
 30
0.0
 40
32.73321009435969
100
AcDbArc
 50
181.4008910086
 51
188.0106959292
  0
LINE
  5
334
330
1F
100
AcDbEntity
  8
0
  6
CONTINUOUS
 62
     7
100
AcDbLine
 10
374.367138901
 20
266.0521877912
 30
0.0
 11
375.5709524911
 21
271.7141224054
 31
0.0
  0
LINE
  5
335
330
1F
100
AcDbEntity
  8
0
  6
CONTINUOUS
 62
     7
100
AcDbLine
 10
374.367138901
 20
266.0521877912
 30
0.0
 11
374.3227781441
 21
266.1837948469
 31
0.0
  0
LINE
  5
336
330
1F
100
AcDbEntity
  8
0
  6
CONTINUOUS
 62
     7
100
AcDbLine
 10
375.2016039278
 20
275.4749817756
 30
0.0
 11
374.367138901
 21
271.5492857603
 31
0.0
  0
ELLIPSE
  5
337
330
1F
100
AcDbEntity
  8
0
  6
CONTINUOUS
 62
     7
100
AcDbEllipse
 10
376.3133381355
 20
481.4849803625
 30
0.0
 11
-0.002374878144564718
 21
5.500219689613801
 31
0.0
210
0.0
220
0.0
230
1.0
 40
0.2130095649
 41
1.247708016086426
 42
1.568769290176186
  0
LINE
  5
338
330
1F
100
AcDbEntity
  8
0
  6
CONTINUOUS
 62
     7
100
AcDbLine
 10
375.1417366501
 20
461.1084250716
 30
0.0
 11
375.1417366501
 21
481.4956201223
 31
0.0
  0
LINE
  5
339
330
1F
100
AcDbEntity
  8
0
  6
CONTINUOUS
 62
     7
100
AcDbLine
 10
375.1417366501
 20
461.1084250716
 30
0.0
 11
375.674263173
 21
458.9105261472
 31
0.0
  0
LINE
  5
33A
330
1F
100
AcDbEntity
  8
0
  6
CONTINUOUS
 62
     7
100
AcDbLine
 10
375.674263173
 20
458.9105261472
 30
0.0
 11
375.674263173
 21
385.5346212146
 31
0.0
  0
ELLIPSE
  5
33B
330
1F
100
AcDbEntity
  8
0
  6
CONTINUOUS
 62
     7
100
AcDbEllipse
 10
374.9622148143
 20
384.7469283378
 30
0.0
 11
-0.0007511895884704245
 21
0.8001287847865797
 31
0.0
210
0.0
220
0.0
230
0.9999999999999998
 40
0.2138423392
 41
6.279251868237354
 42
7.850029197933788
  0
LINE
  5
33C
330
1F
100
AcDbEntity
  8
0
  6
CONTINUOUS
 62
     7
100
AcDbLine
 10
374.367138901
 20
384.7425295023
 30
0.0
 11
374.7911113959
 21
384.7499297914
 31
0.0
  0
LINE
  5
33D
330
1F
100
AcDbEntity
  8
0
  6
CONTINUOUS
 62
     7
100
AcDbLine
 10
375.4408904996
 20
390.5023982731
 30
0.0
 11
375.4408904996
 21
385.7033917663
 31
0.0
  0
LINE
  5
33E
330
1F
100
AcDbEntity
  8
0
  6
CONTINUOUS
 62
     7
100
AcDbLine
 10
374.5546979543
 20
390.4714513553
 30
0.0
 11
375.4408904996
 21
390.5023982731
 31
0.0
  0
LINE
  5
33F
330
1F
100
AcDbEntity
  8
0
  6
CONTINUOUS
 62
     7
100
AcDbLine
 10
374.5546979543
 20
385.7343377528
 30
0.0
 11
374.5546979543
 21
390.4714513553
 31
0.0
  0
LINE
  5
340
330
1F
100
AcDbEntity
  8
0
  6
CONTINUOUS
 62
     7
100
AcDbLine
 10
375.4408904996
 20
385.7033917663
 30
0.0
 11
374.5546979543
 21
385.7343377528
 31
0.0
  0
LINE
  5
341
330
1F
100
AcDbEntity
  8
0
  6
CONTINUOUS
 62
     7
100
AcDbLine
 10
374.367138901
 20
373.9632604626
 30
0.0
 11
374.7911113959
 21
373.9558601735
 31
0.0
  0
ELLIPSE
  5
342
330
1F
100
AcDbEntity
  8
0
  6
CONTINUOUS
 62
     7
100
AcDbEllipse
 10
374.9622148143
 20
373.9588613529
 30
0.0
 11
0.0007511895884704244
 21
0.8001287847866934
 31
0.0
210
0.0
220
0.0
230
0.9999999999999998
 40
0.2138423392
 41
1.574748763194226
 42
3.145526092532154
  0
LINE
  5
343
330
1F
100
AcDbEntity
  8
0
  6
CONTINUOUS
 62
     7
100
AcDbLine
 10
375.674263173
 20
373.1711668876
 30
0.0
 11
375.674263173
 21
299.7952638177
 31
0.0
  0
LINE
  5
344
330
1F
100
AcDbEntity
  8
0
  6
CONTINUOUS
 62
     7
100
AcDbLine
 10
375.1417366501
 20
297.5973648933
 30
0.0
 11
375.674263173
 21
299.7952638177
 31
0.0
  0
LINE
  5
345
330
1F
100
AcDbEntity
  8
0
  6
CONTINUOUS
 62
     7
100
AcDbLine
 10
375.1417366501
 20
297.5973648933
 30
0.0
 11
375.1417366501
 21
277.210162392
 31
0.0
  0
ELLIPSE
  5
346
330
1F
100
AcDbEntity
  8
0
  6
CONTINUOUS
 62
     7
100
AcDbEllipse
 10
376.3133381355
 20
277.2208093282
 30
0.0
 11
0.002374878144564718
 21
5.500219689613687
 31
0.0
210
0.0
220
0.0
230
1.0
 40
0.2130095649
 41
1.572823363413607
 42
1.893884637503358
  0
LINE
  5
347
330
1F
100
AcDbEntity
  8
0
  6
CONTINUOUS
 62
     7
100
AcDbLine
 10
375.4408904996
 20
373.1023980287
 30
0.0
 11
375.4408904996
 21
368.3033933846
 31
0.0
  0
LINE
  5
348
330
1F
100
AcDbEntity
  8
0
  6
CONTINUOUS
 62
     7
100
AcDbLine
 10
374.5546979543
 20
373.0714520422
 30
0.0
 11
375.4408904996
 21
373.1023980287
 31
0.0
  0
LINE
  5
349
330
1F
100
AcDbEntity
  8
0
  6
CONTINUOUS
 62
     7
100
AcDbLine
 10
374.5546979543
 20
368.3343393711
 30
0.0
 11
374.5546979543
 21
373.0714520422
 31
0.0
  0
LINE
  5
34A
330
1F
100
AcDbEntity
  8
0
  6
CONTINUOUS
 62
     7
100
AcDbLine
 10
375.4408904996
 20
368.3033933846
 30
0.0
 11
374.5546979543
 21
368.3343393711
 31
0.0
  0
LINE
  5
34B
330
1F
100
AcDbEntity
  8
0
  6
CONTINUOUS
 62
     7
100
AcDbLine
 10
374.7911113959
 20
378.3534945903
 30
0.0
 11
407.1740476128
 21
377.7882488427
 31
0.0
  0
LINE
  5
34C
330
1F
100
AcDbEntity
  8
0
  6
CONTINUOUS
 62
     7
100
AcDbLine
 10
407.1740476128
 20
377.7882488427
 30
0.0
 11
407.1740476128
 21
374.5207557437
 31
0.0
  0
LINE
  5
34D
330
1F
100
AcDbEntity
  8
0
  6
CONTINUOUS
 62
     7
100
AcDbLine
 10
407.1740476128
 20
374.5207557437
 30
0.0
 11
374.7911151212
 21
373.9556850848
 31
0.0
  0
LINE
  5
34E
330
1F
100
AcDbEntity
  8
0
  6
CONTINUOUS
 62
     7
100
AcDbLine
 10
374.7911113959
 20
384.7499297914
 30
0.0
 11
407.1740476128
 21
384.1850342212
 31
0.0
  0
LINE
  5
34F
330
1F
100
AcDbEntity
  8
0
  6
CONTINUOUS
 62
     7
100
AcDbLine
 10
407.1740476128
 20
384.1850342212
 30
0.0
 11
407.1740476128
 21
380.9175411222
 31
0.0
  0
LINE
  5
350
330
1F
100
AcDbEntity
  8
0
  6
CONTINUOUS
 62
     7
100
AcDbLine
 10
374.7911113959
 20
380.3522953746
 30
0.0
 11
407.1740476128
 21
380.9175411222
 31
0.0
  0
LINE
  5
351
330
1F
100
AcDbEntity
  8
0
  6
CONTINUOUS
 62
     7
100
AcDbLine
 10
374.7911113959
 20
378.3534945903
 30
0.0
 11
374.7911113959
 21
380.3522953746
 31
0.0
  0
ARC
  5
352
330
1F
100
AcDbEntity
  8
0
  6
CONTINUOUS
 62
     7
100
AcDbCircle
 10
395.9896011495
 20
374.1589201584
 30
0.0
 40
11.19029792638488
100
AcDbArc
 50
357.8161406277
 51
1.8529682025
  0
ELLIPSE
  5
353
330
1F
100
AcDbEntity
  8
0
  6
CONTINUOUS
 62
     7
100
AcDbEllipse
 10
555.3925671329
 20
377.1082848676
 30
0.0
 11
157.9809049598988
 21
3.5442865336301
 31
0.0
210
0.0
220
0.0
230
0.9999999999999996
 40
0.0009227446
 41
3.324880806181
 42
3.494881030393344
  0
LINE
  5
354
330
1F
100
AcDbEntity
  8
0
  6
CONTINUOUS
 62
     7
100
AcDbLine
 10
400.0584860977
 20
373.5967962054
 30
0.0
 11
374.9621366795
 21
373.1587393192
 31
0.0
  0
LINE
  5
355
330
1F
100
AcDbEntity
  8
0
  6
CONTINUOUS
 62
     7
100
AcDbLine
 10
374.9621366795
 20
385.5470506457
 30
0.0
 11
400.0584860977
 21
385.1089937595
 31
0.0
  0
LWPOLYLINE
  5
356
330
1F
100
AcDbEntity
  8
0
  6
CONTINUOUS
 62
     7
100
AcDbPolyline
 90
        5
 70
   128
 43
0.0
 10
407.1696852978
 20
384.973333588
 10
404.7519681689
 20
385.0210508314
 10
403.1875213321
 20
385.0512852875
 10
401.6230260667
 20
385.0807579217
 10
400.0584860977
 20
385.1089937595
  0
ARC
  5
357
330
1F
100
AcDbEntity
  8
0
  6
CONTINUOUS
 62
     7
100
AcDbCircle
 10
395.9784153344
 20
384.5471549048
 30
0.0
 40
11.20148711121382
100
AcDbArc
 50
358.1474243307
 51
2.1802175164
  0
LINE
  5
358
330
1F
100
AcDbEntity
  8
0
  6
CONTINUOUS
 62
     7
100
AcDbLine
 10
375.674263173
 20
378.338079339
 30
0.0
 11
375.674263173
 21
380.3677106259
 31
0.0
  0
LINE
  5
359
330
1F
100
AcDbEntity
  8
0
  6
CONTINUOUS
 62
     7
100
AcDbLine
 10
407.660957956
 20
377.7797495929
 30
0.0
 11
407.660957956
 21
374.5207557437
 31
0.0
  0
LINE
  5
35A
330
1F
100
AcDbEntity
  8
0
  6
CONTINUOUS
 62
     7
100
AcDbLine
 10
407.1740476128
 20
374.5207557437
 30
0.0
 11
407.660957956
 21
374.5207557437
 31
0.0
  0
LWPOLYLINE
  5
35B
330
1F
100
AcDbEntity
  8
0
  6
CONTINUOUS
 62
     7
100
AcDbPolyline
 90
        9
 70
   128
 43
0.0
 10
407.660957956
 20
377.7797495929
 10
407.651667082
 20
377.779911643
 10
407.6241409119
 20
377.7803922055
 10
407.5794001755
 20
377.7811726538
 10
407.5191100773
 20
377.7822250483
 10
407.4455095168
 20
377.7835102735
 10
407.3613328573
 20
377.7849799005
 10
407.2697093424
 20
377.78657805
 10
407.1740476128
 20
377.7882488427
  0
LINE
  5
35C
330
1F
100
AcDbEntity
  8
0
  6
CONTINUOUS
 62
     7
100
AcDbLine
 10
407.1740476128
 20
384.1850342212
 30
0.0
 11
407.660957956
 21
384.1850342212
 31
0.0
  0
LINE
  5
35D
330
1F
100
AcDbEntity
  8
0
  6
CONTINUOUS
 62
     7
100
AcDbLine
 10
407.660957956
 20
384.1850342212
 30
0.0
 11
407.660957956
 21
380.926040372
 31
0.0
  0
LWPOLYLINE
  5
35E
330
1F
100
AcDbEntity
  8
0
  6
CONTINUOUS
 62
     7
100
AcDbPolyline
 90
        9
 70
   128
 43
0.0
 10
407.1740476128
 20
380.9175411222
 10
407.2697093424
 20
380.9192119149
 10
407.3613328573
 20
380.9208100644
 10
407.4455095168
 20
380.9222796915
 10
407.5191100773
 20
380.9235649166
 10
407.5794001755
 20
380.9246173111
 10
407.6241409119
 20
380.9253977594
 10
407.651667082
 20
380.9258783219
 10
407.660957956
 20
380.926040372
  0
LINE
  5
35F
330
1F
100
AcDbEntity
  8
0
  6
CONTINUOUS
 62
     7
100
AcDbLine
 10
407.660957956
 20
374.5207557437
 30
0.0
 11
407.660957956
 21
374.2444677261
 31
0.0
  0
ARC
  5
360
330
1F
100
AcDbEntity
  8
0
  6
CONTINUOUS
 62
     7
100
AcDbCircle
 10
407.1552344972
 20
374.2379976624
 30
0.0
 40
0.5057640151913493
100
AcDbArc
 50
271.8762672353
 51
0.7255990632
  0
LINE
  5
361
330
1F
100
AcDbEntity
  8
0
  6
CONTINUOUS
 62
     7
100
AcDbLine
 10
407.660957956
 20
384.3574276177
 30
0.0
 11
407.660957956
 21
384.1850342212
 31
0.0
  0
ARC
  5
362
330
1F
100
AcDbEntity
  8
0
  6
CONTINUOUS
 62
     7
100
AcDbCircle
 10
407.1540841204
 20
384.4666723415
 30
0.0
 40
0.5069013863487286
100
AcDbArc
 50
359.4026283276
 51
88.236298357
  0
ARC
  5
363
330
1F
100
AcDbEntity
  8
0
  6
CONTINUOUS
 62
     7
100
AcDbCircle
 10
371.9217987289
 20
266.572100437
 30
0.0
 40
2.500000000000014
100
AcDbArc
 50
272.0
 51
347.9967874683
  0
LWPOLYLINE
  5
364
330
1F
100
AcDbEntity
  8
0
  6
CONTINUOUS
 62
     7
100
AcDbPolyline
 90
        3
 70
   128
 43
0.0
 10
372.0090478372
 20
264.0736265091
 10
371.9857349705
 20
264.0728069452
 10
371.9435181182
 20
264.0713317302
  0
ARC
  5
365
330
1F
100
AcDbEntity
  8
0
  6
CONTINUOUS
 62
     7
100
AcDbCircle
 10
371.9217987289
 20
492.1336892537
 30
0.0
 40
2.500000000000014
100
AcDbArc
 50
12.0032126248
 51
88.0
  0
LWPOLYLINE
  5
366
330
1F
100
AcDbEntity
  8
0
  6
CONTINUOUS
 62
     7
100
AcDbPolyline
 90
        3
 70
   128
 43
0.0
 10
372.0090478372
 20
494.6321634558
 10
371.9857349705
 20
494.6329830197
 10
371.9435181182
 20
494.6344582347
  0
LINE
  5
367
330
1F
100
AcDbEntity
  8
0
  6
CONTINUOUS
 62
     7
100
AcDbLine
 10
454.8109626111
 20
277.9054356722
 30
0.0
 11
454.8109626111
 21
272.4056405929
 31
0.0
  0
LINE
  5
368
330
1F
100
AcDbEntity
  8
0
  6
CONTINUOUS
 62
     7
100
AcDbLine
 10
454.8109626111
 20
272.4056405929
 30
0.0
 11
375.511228637
 21
271.7136008648
 31
0.0
  0
LINE
  5
369
330
1F
100
AcDbEntity
  8
0
  6
CONTINUOUS
 62
     7
100
AcDbLine
 10
454.8109626111
 20
277.9054356722
 30
0.0
 11
375.1417366501
 21
277.210162392
 31
0.0
  0
LINE
  5
36A
330
1F
100
AcDbEntity
  8
0
  6
CONTINUOUS
 62
     7
100
AcDbLine
 10
375.1417366501
 20
297.5973648933
 30
0.0
 11
452.810958558
 21
297.2909523157
 31
0.0
  0
LINE
  5
36B
330
1F
100
AcDbEntity
  8
0
  6
CONTINUOUS
 62
     7
100
AcDbLine
 10
452.810958558
 20
297.2909523157
 30
0.0
 11
452.810958558
 21
296.648786774
 31
0.0
  0
LINE
  5
36C
330
1F
100
AcDbEntity
  8
0
  6
CONTINUOUS
 62
     7
100
AcDbLine
 10
454.8109626111
 20
296.6327903775
 30
0.0
 11
452.810958558
 21
296.648786774
 31
0.0
  0
LINE
  5
36D
330
1F
100
AcDbEntity
  8
0
  6
CONTINUOUS
 62
     7
100
AcDbLine
 10
454.8109626111
 20
296.6327903775
 30
0.0
 11
454.8109626111
 21
277.9054356722
 31
0.0
  0
LINE
  5
36E
330
1F
100
AcDbEntity
  8
0
  6
CONTINUOUS
 62
     7
100
AcDbLine
 10
375.674263173
 20
299.7952638177
 30
0.0
 11
452.810958558
 21
299.4909523038
 31
0.0
  0
LINE
  5
36F
330
1F
100
AcDbEntity
  8
0
  6
CONTINUOUS
 62
     7
100
AcDbLine
 10
452.810958558
 20
297.2909523157
 30
0.0
 11
452.810958558
 21
299.4909523038
 31
0.0
  0
LINE
  5
370
330
1F
100
AcDbEntity
  8
0
  6
CONTINUOUS
 62
     7
100
AcDbLine
 10
454.8109626111
 20
462.0729958621
 30
0.0
 11
454.8109626111
 21
480.8003617433
 31
0.0
  0
LINE
  5
371
330
1F
100
AcDbEntity
  8
0
  6
CONTINUOUS
 62
     7
100
AcDbLine
 10
454.8109626111
 20
462.0729958621
 30
0.0
 11
452.810958558
 21
462.0570031909
 31
0.0
  0
LINE
  5
372
330
1F
100
AcDbEntity
  8
0
  6
CONTINUOUS
 62
     7
100
AcDbLine
 10
452.810958558
 20
461.4148413745
 30
0.0
 11
452.810958558
 21
462.0570031909
 31
0.0
  0
LINE
  5
373
330
1F
100
AcDbEntity
  8
0
  6
CONTINUOUS
 62
     7
100
AcDbLine
 10
375.1417366501
 20
461.1084250716
 30
0.0
 11
452.810958558
 21
461.4148413745
 31
0.0
  0
LINE
  5
374
330
1F
100
AcDbEntity
  8
0
  6
CONTINUOUS
 62
     7
100
AcDbLine
 10
454.8109626111
 20
480.8003617433
 30
0.0
 11
375.1417366501
 21
481.4956201223
 31
0.0
  0
LINE
  5
375
330
1F
100
AcDbEntity
  8
0
  6
CONTINUOUS
 62
     7
100
AcDbLine
 10
375.674263173
 20
458.9105261472
 30
0.0
 11
452.810958558
 21
459.2148413864
 31
0.0
  0
LINE
  5
376
330
1F
100
AcDbEntity
  8
0
  6
CONTINUOUS
 62
     7
100
AcDbLine
 10
452.810958558
 20
461.4148413745
 30
0.0
 11
452.810958558
 21
459.2148413864
 31
0.0
  0
LINE
  5
377
330
1F
100
AcDbEntity
  8
0
  6
CONTINUOUS
 62
     7
100
AcDbLine
 10
454.8109626111
 20
486.300149372
 30
0.0
 11
375.511228637
 21
486.9921891001
 31
0.0
  0
LINE
  5
378
330
1F
100
AcDbEntity
  8
0
  6
CONTINUOUS
 62
     7
100
AcDbLine
 10
454.8109626111
 20
480.8003617433
 30
0.0
 11
454.8109626111
 21
486.300149372
 31
0.0
  0
LINE
  5
379
330
1F
100
AcDbEntity
  8
0
  6
CONTINUOUS
 62
     7
100
AcDbLine
 10
454.8109626111
 20
296.8835694698
 30
0.0
 11
452.810958558
 21
296.9026131538
 31
0.0
  0
LINE
  5
37A
330
1F
100
AcDbEntity
  8
0
  6
CONTINUOUS
 62
     7
100
AcDbLine
 10
454.8109626111
 20
296.6327903775
 30
0.0
 11
454.8109626111
 21
296.8835694698
 31
0.0
  0
LINE
  5
37B
330
1F
100
AcDbEntity
  8
0
  6
CONTINUOUS
 62
     7
100
AcDbLine
 10
454.8109626111
 20
461.8222242204
 30
0.0
 11
452.810958558
 21
461.8031768111
 31
0.0
  0
LINE
  5
37C
330
1F
100
AcDbEntity
  8
0
  6
CONTINUOUS
 62
     7
100
AcDbLine
 10
454.8109626111
 20
462.0729958621
 30
0.0
 11
454.8109626111
 21
461.8222242204
 31
0.0
  0
LINE
  5
37D
330
1F
100
AcDbEntity
  8
0
  6
CONTINUOUS
 62
     7
100
AcDbLine
 10
452.810958558
 20
459.2148413864
 30
0.0
 11
452.810958558
 21
299.4909523038
 31
0.0
  0
LINE
  5
37E
330
1F
100
AcDbEntity
  8
0
  6
CONTINUOUS
 62
     8
100
AcDbLine
 10
407.660957956
 20
384.4613222388
 30
0.0
 11
407.660957956
 21
384.3574276177
 31
0.0
  0
LINE
  5
37F
330
1F
100
AcDbEntity
  8
0
  6
CONTINUOUS
 62
     7
100
AcDbLine
 10
275.2912248955
 20
272.4056405929
 30
0.0
 11
256.5638627396
 21
272.4056405929
 31
0.0
  0
LINE
  5
380
330
1F
100
AcDbEntity
  8
0
  6
CONTINUOUS
 62
     7
100
AcDbLine
 10
256.3130910979
 20
275.2719981579
 30
0.0
 11
256.5638627396
 21
272.4056405929
 31
0.0
  0
LINE
  5
381
330
1F
100
AcDbEntity
  8
0
  6
CONTINUOUS
 62
     7
100
AcDbLine
 10
274.0687559829
 20
275.2719981579
 30
0.0
 11
256.3130910979
 21
275.2719981579
 31
0.0
  0
ARC
  5
382
330
1F
100
AcDbEntity
  8
0
  6
CONTINUOUS
 62
     7
100
AcDbCircle
 10
274.0687587629
 20
279.1278948454
 30
0.0
 40
3.855901478271392
100
AcDbArc
 50
270.0
 51
0.0000000004
  0
LINE
  5
383
330
1F
100
AcDbEntity
  8
0
  6
CONTINUOUS
 62
     7
100
AcDbLine
 10
277.9246624098
 20
296.8835694698
 30
0.0
 11
277.9246624098
 21
279.1278971342
 31
0.0
  0
LINE
  5
384
330
1F
100
AcDbEntity
  8
0
  6
CONTINUOUS
 62
     7
100
AcDbLine
 10
280.7910125242
 20
296.6327903775
 30
0.0
 11
277.9246624098
 21
296.8835694698
 31
0.0
  0
LINE
  5
385
330
1F
100
AcDbEntity
  8
0
  6
CONTINUOUS
 62
     7
100
AcDbLine
 10
280.7910125242
 20
296.6327903775
 30
0.0
 11
280.7910125242
 21
277.9054356722
 31
0.0
  0
ELLIPSE
  5
386
330
1F
100
AcDbEntity
  8
0
  6
CONTINUOUS
 62
     7
100
AcDbEllipse
 10
275.2908059218
 20
277.9058476864
 30
0.0
 11
-3.889383471219844
 21
3.889383471219958
 31
0.0
210
0.0
220
0.0
230
0.9999999999999998
 40
0.9999238505
 41
2.356232566403302
 42
3.926952740776337
  0
LINE
  5
387
330
1F
100
AcDbEntity
  8
0
  6
CONTINUOUS
 62
     7
100
AcDbLine
 10
277.9246624098
 20
279.1278971342
 30
0.0
 11
277.9072056995
 21
279.1278971342
 31
0.0
  0
LINE
  5
388
330
1F
100
AcDbEntity
  8
0
  6
CONTINUOUS
 62
     7
100
AcDbLine
 10
274.0687559829
 20
275.2894474176
 30
0.0
 11
274.0687559829
 21
275.2719981579
 31
0.0
  0
ARC
  5
389
330
1F
100
AcDbEntity
  8
0
  6
CONTINUOUS
 62
     7
100
AcDbCircle
 10
274.0687587629
 20
279.1278948454
 30
0.0
 40
3.838447742689823
100
AcDbArc
 50
270.0
 51
0.0000000001
  0
LINE
  5
38A
330
1F
100
AcDbEntity
  8
0
  6
CONTINUOUS
 62
     7
100
AcDbLine
 10
277.9246624098
 20
296.8835694698
 30
0.0
 11
277.9072056995
 21
296.9026131538
 31
0.0
  0
LINE
  5
38B
330
1F
100
AcDbEntity
  8
0
  6
CONTINUOUS
 62
     7
100
AcDbLine
 10
277.9072056995
 20
279.1278971342
 30
0.0
 11
277.9072056995
 21
296.9026131538
 31
0.0
  0
LINE
  5
38C
330
1F
100
AcDbEntity
  8
0
  6
CONTINUOUS
 62
     7
100
AcDbLine
 10
256.3130910979
 20
275.2719981579
 30
0.0
 11
256.2940399633
 21
275.2894474176
 31
0.0
  0
LINE
  5
38D
330
1F
100
AcDbEntity
  8
0
  6
CONTINUOUS
 62
     7
100
AcDbLine
 10
256.2940399633
 20
275.2894474176
 30
0.0
 11
274.0687559829
 21
275.2894474176
 31
0.0
  0
LINE
  5
38E
330
1F
100
AcDbEntity
  8
0
  6
CONTINUOUS
 62
     7
100
AcDbLine
 10
71.7662926302
 20
486.300149372
 30
0.0
 11
90.4936547862
 21
486.300149372
 31
0.0
  0
LINE
  5
38F
330
1F
100
AcDbEntity
  8
0
  6
CONTINUOUS
 62
     7
100
AcDbLine
 10
90.7444264279
 20
483.4337992576
 30
0.0
 11
90.4936547862
 21
486.300149372
 31
0.0
  0
LINE
  5
390
330
1F
100
AcDbEntity
  8
0
  6
CONTINUOUS
 62
     7
100
AcDbLine
 10
72.9887615428
 20
483.4337992576
 30
0.0
 11
90.7444264279
 21
483.4337992576
 31
0.0
  0
ARC
  5
391
330
1F
100
AcDbEntity
  8
0
  6
CONTINUOUS
 62
     7
100
AcDbCircle
 10
72.9887587629
 20
479.5778948454
 30
0.0
 40
3.85590147827142
100
AcDbArc
 50
90.0
 51
179.9999999996
  0
LINE
  5
392
330
1F
100
AcDbEntity
  8
0
  6
CONTINUOUS
 62
     7
100
AcDbLine
 10
69.1328551159
 20
461.8222242204
 30
0.0
 11
69.1328551159
 21
479.5778928307
 31
0.0
  0
LINE
  5
393
330
1F
100
AcDbEntity
  8
0
  6
CONTINUOUS
 62
     7
100
AcDbLine
 10
66.2665050016
 20
462.0729958621
 30
0.0
 11
69.1328551159
 21
461.8222242204
 31
0.0
  0
LINE
  5
394
330
1F
100
AcDbEntity
  8
0
  6
CONTINUOUS
 62
     7
100
AcDbLine
 10
66.2665050016
 20
462.0729958621
 30
0.0
 11
66.2665050016
 21
480.8003617433
 31
0.0
  0
ELLIPSE
  5
395
330
1F
100
AcDbEntity
  8
0
  6
CONTINUOUS
 62
     7
100
AcDbEllipse
 10
71.766711604
 20
480.7999420043
 30
0.0
 11
3.889383471219858
 21
-3.889383471219844
 31
0.0
210
0.0
220
0.0
230
1.0
 40
0.9999238505
 41
2.356232566403278
 42
3.926952740776296
  0
LINE
  5
396
330
1F
100
AcDbEntity
  8
0
  6
CONTINUOUS
 62
     7
100
AcDbLine
 10
72.9887615428
 20
483.4337992576
 30
0.0
 11
72.9887615428
 21
483.4163425473
 31
0.0
  0
LINE
  5
397
330
1F
100
AcDbEntity
  8
0
  6
CONTINUOUS
 62
     7
100
AcDbLine
 10
90.7444264279
 20
483.4337992576
 30
0.0
 11
90.7634775625
 21
483.4163425473
 31
0.0
  0
LINE
  5
398
330
1F
100
AcDbEntity
  8
0
  6
CONTINUOUS
 62
     7
100
AcDbLine
 10
72.9887615428
 20
483.4163425473
 30
0.0
 11
90.7634775625
 21
483.4163425473
 31
0.0
  0
LINE
  5
399
330
1F
100
AcDbEntity
  8
0
  6
CONTINUOUS
 62
     7
100
AcDbLine
 10
69.1328551159
 20
461.8222242204
 30
0.0
 11
69.1503118263
 21
461.8031768111
 31
0.0
  0
LINE
  5
39A
330
1F
100
AcDbEntity
  8
0
  6
CONTINUOUS
 62
     7
100
AcDbLine
 10
69.1503118263
 20
479.5778928307
 30
0.0
 11
69.1328551159
 21
479.5778928307
 31
0.0
  0
LINE
  5
39B
330
1F
100
AcDbEntity
  8
0
  6
CONTINUOUS
 62
     7
100
AcDbLine
 10
69.1503118263
 20
461.8031768111
 30
0.0
 11
69.1503118263
 21
479.5778928307
 31
0.0
  0
ARC
  5
39C
330
1F
100
AcDbEntity
  8
0
  6
CONTINUOUS
 62
     7
100
AcDbCircle
 10
72.9887587629
 20
479.5778948454
 30
0.0
 40
3.838447742689823
100
AcDbArc
 50
90.0
 51
179.9999999999
  0
LINE
  5
39D
330
1F
100
AcDbEntity
  8
0
  6
CONTINUOUS
 62
     7
100
AcDbLine
 10
280.7910125242
 20
462.0729958621
 30
0.0
 11
280.7910125242
 21
480.8003617433
 31
0.0
  0
LINE
  5
39E
330
1F
100
AcDbEntity
  8
0
  6
CONTINUOUS
 62
     7
100
AcDbLine
 10
280.7910125242
 20
462.0729958621
 30
0.0
 11
277.9246624098
 21
461.8222242204
 31
0.0
  0
LINE
  5
39F
330
1F
100
AcDbEntity
  8
0
  6
CONTINUOUS
 62
     7
100
AcDbLine
 10
277.9246624098
 20
461.8222242204
 30
0.0
 11
277.9246624098
 21
479.5778928307
 31
0.0
  0
ARC
  5
3A0
330
1F
100
AcDbEntity
  8
0
  6
CONTINUOUS
 62
     7
100
AcDbCircle
 10
274.0687587629
 20
479.5778948454
 30
0.0
 40
3.855901478271392
100
AcDbArc
 50
0.0000000002
 51
90.0
  0
LINE
  5
3A1
330
1F
100
AcDbEntity
  8
0
  6
CONTINUOUS
 62
     7
100
AcDbLine
 10
274.0687559829
 20
483.4337992576
 30
0.0
 11
256.3130910979
 21
483.4337992576
 31
0.0
  0
LINE
  5
3A2
330
1F
100
AcDbEntity
  8
0
  6
CONTINUOUS
 62
     7
100
AcDbLine
 10
256.3130910979
 20
483.4337992576
 30
0.0
 11
256.5638627396
 21
486.300149372
 31
0.0
  0
LINE
  5
3A3
330
1F
100
AcDbEntity
  8
0
  6
CONTINUOUS
 62
     7
100
AcDbLine
 10
275.2912248955
 20
486.300149372
 30
0.0
 11
256.5638627396
 21
486.300149372
 31
0.0
  0
ELLIPSE
  5
3A4
330
1F
100
AcDbEntity
  8
0
  6
CONTINUOUS
 62
     7
100
AcDbEllipse
 10
275.2908059218
 20
480.7999420043
 30
0.0
 11
3.889383471219844
 21
3.889383471220015
 31
0.0
210
0.0
220
0.0
230
0.9999999999999998
 40
0.9999238505
 41
5.497825219993089
 42
7.068545394366089
  0
LINE
  5
3A5
330
1F
100
AcDbEntity
  8
0
  6
CONTINUOUS
 62
     7
100
AcDbLine
 10
277.9072056995
 20
479.5778928307
 30
0.0
 11
277.9246624098
 21
479.5778928307
 31
0.0
  0
LINE
  5
3A6
330
1F
100
AcDbEntity
  8
0
  6
CONTINUOUS
 62
     7
100
AcDbLine
 10
277.9246624098
 20
461.8222242204
 30
0.0
 11
277.9072056995
 21
461.8031768111
 31
0.0
  0
LINE
  5
3A7
330
1F
100
AcDbEntity
  8
0
  6
CONTINUOUS
 62
     7
100
AcDbLine
 10
277.9072056995
 20
461.8031768111
 30
0.0
 11
277.9072056995
 21
479.5778928307
 31
0.0
  0
LINE
  5
3A8
330
1F
100
AcDbEntity
  8
0
  6
CONTINUOUS
 62
     7
100
AcDbLine
 10
274.0687559829
 20
483.4337992576
 30
0.0
 11
274.0687559829
 21
483.4163425473
 31
0.0
  0
ARC
  5
3A9
330
1F
100
AcDbEntity
  8
0
  6
CONTINUOUS
 62
     7
100
AcDbCircle
 10
274.0687587629
 20
479.5778948454
 30
0.0
 40
3.83844774268988
100
AcDbArc
 50
0.0
 51
90.0
  0
LINE
  5
3AA
330
1F
100
AcDbEntity
  8
0
  6
CONTINUOUS
 62
     7
100
AcDbLine
 10
256.3130910979
 20
483.4337992576
 30
0.0
 11
256.2940399633
 21
483.4163425473
 31
0.0
  0
LINE
  5
3AB
330
1F
100
AcDbEntity
  8
0
  6
CONTINUOUS
 62
     7
100
AcDbLine
 10
274.0687559829
 20
483.4163425473
 30
0.0
 11
256.2940399633
 21
483.4163425473
 31
0.0
  0
LINE
  5
3AC
330
1F
100
AcDbEntity
  8
0
  6
CONTINUOUS
 62
     7
100
AcDbLine
 10
66.2665050016
 20
296.6327903775
 30
0.0
 11
66.2665050016
 21
277.9054356722
 31
0.0
  0
LINE
  5
3AD
330
1F
100
AcDbEntity
  8
0
  6
CONTINUOUS
 62
     7
100
AcDbLine
 10
66.2665050016
 20
296.6327903775
 30
0.0
 11
69.1328551159
 21
296.8835694698
 31
0.0
  0
LINE
  5
3AE
330
1F
100
AcDbEntity
  8
0
  6
CONTINUOUS
 62
     7
100
AcDbLine
 10
69.1328551159
 20
296.8835694698
 30
0.0
 11
69.1328551159
 21
279.1278971342
 31
0.0
  0
ARC
  5
3AF
330
1F
100
AcDbEntity
  8
0
  6
CONTINUOUS
 62
     7
100
AcDbCircle
 10
72.9887587629
 20
279.1278948454
 30
0.0
 40
3.855901478271377
100
AcDbArc
 50
179.9999999998
 51
270.0
  0
LINE
  5
3B0
330
1F
100
AcDbEntity
  8
0
  6
CONTINUOUS
 62
     7
100
AcDbLine
 10
72.9887615428
 20
275.2719981579
 30
0.0
 11
90.7444264279
 21
275.2719981579
 31
0.0
  0
LINE
  5
3B1
330
1F
100
AcDbEntity
  8
0
  6
CONTINUOUS
 62
     7
100
AcDbLine
 10
90.7444264279
 20
275.2719981579
 30
0.0
 11
90.4936547862
 21
272.4056405929
 31
0.0
  0
LINE
  5
3B2
330
1F
100
AcDbEntity
  8
0
  6
CONTINUOUS
 62
     7
100
AcDbLine
 10
71.7662926302
 20
272.4056405929
 30
0.0
 11
90.4936547862
 21
272.4056405929
 31
0.0
  0
ELLIPSE
  5
3B3
330
1F
100
AcDbEntity
  8
0
  6
CONTINUOUS
 62
     7
100
AcDbEllipse
 10
71.766711604
 20
277.9058476864
 30
0.0
 11
-3.889383471219844
 21
-3.889383471219901
 31
0.0
210
0.0
220
0.0
230
1.0
 40
0.9999238505
 41
5.497825219993075
 42
7.068545394366103
  0
LINE
  5
3B4
330
1F
100
AcDbEntity
  8
0
  6
CONTINUOUS
 62
     7
100
AcDbLine
 10
90.7444264279
 20
275.2719981579
 30
0.0
 11
90.7634775625
 21
275.2894474176
 31
0.0
  0
LINE
  5
3B5
330
1F
100
AcDbEntity
  8
0
  6
CONTINUOUS
 62
     7
100
AcDbLine
 10
72.9887615428
 20
275.2894474176
 30
0.0
 11
72.9887615428
 21
275.2719981579
 31
0.0
  0
LINE
  5
3B6
330
1F
100
AcDbEntity
  8
0
  6
CONTINUOUS
 62
     7
100
AcDbLine
 10
90.7634775625
 20
275.2894474176
 30
0.0
 11
72.9887615428
 21
275.2894474176
 31
0.0
  0
LINE
  5
3B7
330
1F
100
AcDbEntity
  8
0
  6
CONTINUOUS
 62
     7
100
AcDbLine
 10
69.1328551159
 20
279.1278971342
 30
0.0
 11
69.1503118263
 21
279.1278971342
 31
0.0
  0
ARC
  5
3B8
330
1F
100
AcDbEntity
  8
0
  6
CONTINUOUS
 62
     7
100
AcDbCircle
 10
72.9887587629
 20
279.1278948454
 30
0.0
 40
3.838447742689809
100
AcDbArc
 50
180.0
 51
270.0
  0
LINE
  5
3B9
330
1F
100
AcDbEntity
  8
0
  6
CONTINUOUS
 62
     7
100
AcDbLine
 10
69.1328551159
 20
296.8835694698
 30
0.0
 11
69.1503118263
 21
296.9026131538
 31
0.0
  0
LINE
  5
3BA
330
1F
100
AcDbEntity
  8
0
  6
CONTINUOUS
 62
     7
100
AcDbLine
 10
69.1503118263
 20
279.1278971342
 30
0.0
 11
69.1503118263
 21
296.9026131538
 31
0.0
  0
ELLIPSE
  5
3BB
330
1F
100
AcDbEntity
  8
0
  6
CONTINUOUS
 62
     7
100
AcDbEllipse
 10
275.97584428
 20
277.2208093282
 30
0.0
 11
5.070604674228775
 21
-2.163069228687846
 31
0.0
210
0.0
220
0.0
230
1.0
 40
0.9973227904
 41
0.0811887089734888
 42
0.4022499830632422
  0
ARC
  5
3BC
330
1F
100
AcDbEntity
  8
0
  6
CONTINUOUS
 62
     7
100
AcDbCircle
 10
275.9859869345
 20
277.2146297381
 30
0.0
 40
5.501029546957071
100
AcDbArc
 50
269.9716458665
 51
341.5642861895
  0
LINE
  5
3BD
330
1F
100
AcDbEntity
  8
0
  6
CONTINUOUS
 62
     7
100
AcDbLine
 10
275.2912248955
 20
272.4056405929
 30
0.0
 11
275.9832646237
 21
271.7136008648
 31
0.0
  0
LINE
  5
3BE
330
1F
100
AcDbEntity
  8
0
  6
CONTINUOUS
 62
     7
100
AcDbLine
 10
280.7910125242
 20
277.9054356722
 30
0.0
 11
281.4862783537
 21
277.210162392
 31
0.0
  0
LINE
  5
3BF
330
1F
100
AcDbEntity
  8
0
  6
CONTINUOUS
 62
     7
100
AcDbLine
 10
280.7910125242
 20
296.6327903775
 30
0.0
 11
280.8084692345
 21
296.648786774
 31
0.0
  0
LINE
  5
3C0
330
1F
100
AcDbEntity
  8
0
  6
CONTINUOUS
 62
     7
100
AcDbLine
 10
280.8084692345
 20
297.2909523157
 30
0.0
 11
280.8084692345
 21
296.648786774
 31
0.0
  0
LINE
  5
3C1
330
1F
100
AcDbEntity
  8
0
  6
CONTINUOUS
 62
     7
100
AcDbLine
 10
281.4862783537
 20
297.5973648933
 30
0.0
 11
280.8084692345
 21
297.2909523157
 31
0.0
  0
LINE
  5
3C2
330
1F
100
AcDbEntity
  8
0
  6
CONTINUOUS
 62
     7
100
AcDbLine
 10
281.4862783537
 20
297.5973648933
 30
0.0
 11
281.4862783537
 21
277.210162392
 31
0.0
  0
LINE
  5
3C3
330
1F
100
AcDbEntity
  8
0
  6
CONTINUOUS
 62
     7
100
AcDbLine
 10
256.5638627396
 20
272.4056405929
 30
0.0
 11
256.5478663431
 21
272.3881913332
 31
0.0
  0
LINE
  5
3C4
330
1F
100
AcDbEntity
  8
0
  6
CONTINUOUS
 62
     7
100
AcDbLine
 10
275.9832646237
 20
271.7136008648
 30
0.0
 11
273.9690821157
 21
271.7141224054
 31
0.0
  0
LINE
  5
3C5
330
1F
100
AcDbEntity
  8
0
  6
CONTINUOUS
 62
     7
100
AcDbLine
 10
273.9690821157
 20
271.7141224054
 30
0.0
 11
73.0884354101
 21
271.7141224054
 31
0.0
  0
LINE
  5
3C6
330
1F
100
AcDbEntity
  8
0
  6
CONTINUOUS
 62
     7
100
AcDbLine
 10
71.0742529021
 20
271.7136008648
 30
0.0
 11
73.0884354101
 21
271.7141224054
 31
0.0
  0
LINE
  5
3C7
330
1F
100
AcDbEntity
  8
0
  6
CONTINUOUS
 62
     7
100
AcDbLine
 10
71.7662926302
 20
272.4056405929
 30
0.0
 11
71.0742529021
 21
271.7136008648
 31
0.0
  0
LINE
  5
3C8
330
1F
100
AcDbEntity
  8
0
  6
CONTINUOUS
 62
     7
100
AcDbLine
 10
90.4936547862
 20
272.4056405929
 30
0.0
 11
90.5096511827
 21
272.3881913332
 31
0.0
  0
LINE
  5
3C9
330
1F
100
AcDbEntity
  8
0
  6
CONTINUOUS
 62
     7
100
AcDbLine
 10
90.5096511827
 20
272.3881913332
 30
0.0
 11
256.5478663431
 21
272.3881913332
 31
0.0
  0
LINE
  5
3CA
330
1F
100
AcDbEntity
  8
0
  6
CONTINUOUS
 62
     7
100
AcDbLine
 10
280.8084692345
 20
296.648786774
 30
0.0
 11
277.9072056995
 21
296.9026131538
 31
0.0
  0
LINE
  5
3CB
330
1F
100
AcDbEntity
  8
0
  6
CONTINUOUS
 62
     7
100
AcDbLine
 10
256.2940399633
 20
275.2894474176
 30
0.0
 11
256.5478663431
 21
272.3881913332
 31
0.0
  0
LINE
  5
3CC
330
1F
100
AcDbEntity
  8
0
  6
CONTINUOUS
 62
     7
100
AcDbLine
 10
281.4862783537
 20
461.1084250716
 30
0.0
 11
281.4862783537
 21
481.4956201223
 31
0.0
  0
LINE
  5
3CD
330
1F
100
AcDbEntity
  8
0
  6
CONTINUOUS
 62
     7
100
AcDbLine
 10
281.4862783537
 20
461.1084250716
 30
0.0
 11
280.8084692345
 21
461.4148413745
 31
0.0
  0
LINE
  5
3CE
330
1F
100
AcDbEntity
  8
0
  6
CONTINUOUS
 62
     7
100
AcDbLine
 10
280.8084692345
 20
461.4148413745
 30
0.0
 11
280.8084692345
 21
462.0570031909
 31
0.0
  0
LINE
  5
3CF
330
1F
100
AcDbEntity
  8
0
  6
CONTINUOUS
 62
     7
100
AcDbLine
 10
280.7910125242
 20
462.0729958621
 30
0.0
 11
280.8084692345
 21
462.0570031909
 31
0.0
  0
LINE
  5
3D0
330
1F
100
AcDbEntity
  8
0
  6
CONTINUOUS
 62
     7
100
AcDbLine
 10
280.7910125242
 20
480.8003617433
 30
0.0
 11
281.4862783537
 21
481.4956201223
 31
0.0
  0
LINE
  5
3D1
330
1F
100
AcDbEntity
  8
0
  6
CONTINUOUS
 62
     7
100
AcDbLine
 10
280.8084692345
 20
462.0570031909
 30
0.0
 11
277.9072056995
 21
461.8031768111
 31
0.0
  0
LINE
  5
3D2
330
1F
100
AcDbEntity
  8
0
  6
CONTINUOUS
 62
     7
100
AcDbLine
 10
275.2912248955
 20
486.300149372
 30
0.0
 11
275.9832646237
 21
486.9921891001
 31
0.0
  0
ARC
  5
3D3
330
1F
100
AcDbEntity
  8
0
  6
CONTINUOUS
 62
     7
100
AcDbCircle
 10
275.9859814703
 20
481.4911560875
 30
0.0
 40
5.501033683586791
100
AcDbArc
 50
18.4356630944
 51
90.0282971999
  0
ELLIPSE
  5
3D4
330
1F
100
AcDbEntity
  8
0
  6
CONTINUOUS
 62
     7
100
AcDbEllipse
 10
275.97584428
 20
481.4849803625
 30
0.0
 11
5.070604674228775
 21
2.163069228687846
 31
0.0
210
0.0
220
0.0
230
1.0
 40
0.9973227904
 41
5.880935324116359
 42
6.201996598206108
  0
LINE
  5
3D5
330
1F
100
AcDbEntity
  8
0
  6
CONTINUOUS
 62
     7
100
AcDbLine
 10
275.9832646237
 20
486.9921891001
 30
0.0
 11
273.9690821157
 21
486.9916675595
 31
0.0
  0
LINE
  5
3D6
330
1F
100
AcDbEntity
  8
0
  6
CONTINUOUS
 62
     7
100
AcDbLine
 10
256.5638627396
 20
486.300149372
 30
0.0
 11
256.5478663431
 21
486.3176060823
 31
0.0
  0
LINE
  5
3D7
330
1F
100
AcDbEntity
  8
0
  6
CONTINUOUS
 62
     7
100
AcDbLine
 10
256.5478663431
 20
486.3176060823
 30
0.0
 11
90.5096511827
 21
486.3176060823
 31
0.0
  0
LINE
  5
3D8
330
1F
100
AcDbEntity
  8
0
  6
CONTINUOUS
 62
     7
100
AcDbLine
 10
90.4936547862
 20
486.300149372
 30
0.0
 11
90.5096511827
 21
486.3176060823
 31
0.0
  0
LINE
  5
3D9
330
1F
100
AcDbEntity
  8
0
  6
CONTINUOUS
 62
     7
100
AcDbLine
 10
71.7662926302
 20
486.300149372
 30
0.0
 11
71.0742529021
 21
486.9921891001
 31
0.0
  0
LINE
  5
3DA
330
1F
100
AcDbEntity
  8
0
  6
CONTINUOUS
 62
     7
100
AcDbLine
 10
71.0742529021
 20
486.9921891001
 30
0.0
 11
73.0884354101
 21
486.9916675595
 31
0.0
  0
LINE
  5
3DB
330
1F
100
AcDbEntity
  8
0
  6
CONTINUOUS
 62
     7
100
AcDbLine
 10
73.0884354101
 20
486.9916675595
 30
0.0
 11
273.9690821157
 21
486.9916675595
 31
0.0
  0
LINE
  5
3DC
330
1F
100
AcDbEntity
  8
0
  6
CONTINUOUS
 62
     7
100
AcDbLine
 10
256.2940399633
 20
483.4163425473
 30
0.0
 11
256.5478663431
 21
486.3176060823
 31
0.0
  0
LINE
  5
3DD
330
1F
100
AcDbEntity
  8
0
  6
CONTINUOUS
 62
     7
100
AcDbLine
 10
90.7634775625
 20
275.2894474176
 30
0.0
 11
90.5096511827
 21
272.3881913332
 31
0.0
  0
ARC
  5
3DE
330
1F
100
AcDbEntity
  8
0
  6
CONTINUOUS
 62
     7
100
AcDbCircle
 10
71.0715305913
 20
277.2146297381
 30
0.0
 40
5.501029546957048
100
AcDbArc
 50
198.4357138105
 51
270.0283541335
  0
ELLIPSE
  5
3DF
330
1F
100
AcDbEntity
  8
0
  6
CONTINUOUS
 62
     7
100
AcDbEllipse
 10
71.0816732457
 20
277.2208093282
 30
0.0
 11
5.070604674228804
 21
2.163069228687675
 31
0.0
210
0.0
220
0.0
230
1.0
 40
0.9973227904
 41
2.739342670526587
 42
3.060403944616335
  0
LINE
  5
3E0
330
1F
100
AcDbEntity
  8
0
  6
CONTINUOUS
 62
     7
100
AcDbLine
 10
66.2665050016
 20
277.9054356722
 30
0.0
 11
65.571239172
 21
277.210162392
 31
0.0
  0
LINE
  5
3E1
330
1F
100
AcDbEntity
  8
0
  6
CONTINUOUS
 62
     7
100
AcDbLine
 10
65.571239172
 20
297.5973648933
 30
0.0
 11
65.571239172
 21
277.210162392
 31
0.0
  0
LINE
  5
3E2
330
1F
100
AcDbEntity
  8
0
  6
CONTINUOUS
 62
     7
100
AcDbLine
 10
65.571239172
 20
297.5973648933
 30
0.0
 11
66.2490482913
 21
297.2909523157
 31
0.0
  0
LINE
  5
3E3
330
1F
100
AcDbEntity
  8
0
  6
CONTINUOUS
 62
     7
100
AcDbLine
 10
66.2490482913
 20
297.2909523157
 30
0.0
 11
66.2490482913
 21
296.648786774
 31
0.0
  0
LINE
  5
3E4
330
1F
100
AcDbEntity
  8
0
  6
CONTINUOUS
 62
     7
100
AcDbLine
 10
66.2665050016
 20
296.6327903775
 30
0.0
 11
66.2490482913
 21
296.648786774
 31
0.0
  0
LINE
  5
3E5
330
1F
100
AcDbEntity
  8
0
  6
CONTINUOUS
 62
     7
100
AcDbLine
 10
66.2490482913
 20
296.648786774
 30
0.0
 11
69.1503118263
 21
296.9026131538
 31
0.0
  0
LINE
  5
3E6
330
1F
100
AcDbEntity
  8
0
  6
CONTINUOUS
 62
     7
100
AcDbLine
 10
90.7634775625
 20
483.4163425473
 30
0.0
 11
90.5096511827
 21
486.3176060823
 31
0.0
  0
LINE
  5
3E7
330
1F
100
AcDbEntity
  8
0
  6
CONTINUOUS
 62
     7
100
AcDbLine
 10
66.2490482913
 20
462.0570031909
 30
0.0
 11
69.1503118263
 21
461.8031768111
 31
0.0
  0
LINE
  5
3E8
330
1F
100
AcDbEntity
  8
0
  6
CONTINUOUS
 62
     7
100
AcDbLine
 10
66.2665050016
 20
462.0729958621
 30
0.0
 11
66.2490482913
 21
462.0570031909
 31
0.0
  0
LINE
  5
3E9
330
1F
100
AcDbEntity
  8
0
  6
CONTINUOUS
 62
     7
100
AcDbLine
 10
66.2490482913
 20
461.4148413745
 30
0.0
 11
66.2490482913
 21
462.0570031909
 31
0.0
  0
LINE
  5
3EA
330
1F
100
AcDbEntity
  8
0
  6
CONTINUOUS
 62
     7
100
AcDbLine
 10
65.571239172
 20
461.1084250716
 30
0.0
 11
66.2490482913
 21
461.4148413745
 31
0.0
  0
LINE
  5
3EB
330
1F
100
AcDbEntity
  8
0
  6
CONTINUOUS
 62
     7
100
AcDbLine
 10
65.571239172
 20
461.1084250716
 30
0.0
 11
65.571239172
 21
481.4956201223
 31
0.0
  0
LINE
  5
3EC
330
1F
100
AcDbEntity
  8
0
  6
CONTINUOUS
 62
     7
100
AcDbLine
 10
66.2665050016
 20
480.8003617433
 30
0.0
 11
65.571239172
 21
481.4956201223
 31
0.0
  0
ELLIPSE
  5
3ED
330
1F
100
AcDbEntity
  8
0
  6
CONTINUOUS
 62
     7
100
AcDbEllipse
 10
71.0816732457
 20
481.4849803625
 30
0.0
 11
5.070604674228761
 21
-2.163069228687789
 31
0.0
210
0.0
220
0.0
230
1.0
 40
0.9973227904
 41
3.222781362563285
 42
3.543842636653031
  0
ARC
  5
3EE
330
1F
100
AcDbEntity
  8
0
  6
CONTINUOUS
 62
     7
100
AcDbCircle
 10
71.0715360555
 20
481.4911560875
 30
0.0
 40
5.50103368358679
100
AcDbArc
 50
89.9717028001
 51
161.5643369056
  0
LINE
  5
3EF
330
1F
100
AcDbEntity
  8
0
  6
CONTINUOUS
 62
     7
100
AcDbLine
 10
280.8084692345
 20
461.4148413745
 30
0.0
 11
278.3084716187
 21
459.2148413864
 31
0.0
  0
LINE
  5
3F0
330
1F
100
AcDbEntity
  8
0
  6
CONTINUOUS
 62
     7
100
AcDbLine
 10
278.3084716187
 20
459.2148413864
 30
0.0
 11
278.3084716187
 21
299.4909523038
 31
0.0
  0
LINE
  5
3F1
330
1F
100
AcDbEntity
  8
0
  6
CONTINUOUS
 62
     7
100
AcDbLine
 10
280.8084692345
 20
297.2909523157
 30
0.0
 11
278.3084716187
 21
299.4909523038
 31
0.0
  0
LINE
  5
3F2
330
1F
100
AcDbEntity
  8
0
  6
CONTINUOUS
 62
     7
100
AcDbLine
 10
66.2490482913
 20
297.2909523157
 30
0.0
 11
68.7490459071
 21
299.4909523038
 31
0.0
  0
LINE
  5
3F3
330
1F
100
AcDbEntity
  8
0
  6
CONTINUOUS
 62
     7
100
AcDbLine
 10
68.7490459071
 20
459.2148413864
 30
0.0
 11
68.7490459071
 21
299.4909523038
 31
0.0
  0
LINE
  5
3F4
330
1F
100
AcDbEntity
  8
0
  6
CONTINUOUS
 62
     7
100
AcDbLine
 10
66.2490482913
 20
461.4148413745
 30
0.0
 11
68.7490459071
 21
459.2148413864
 31
0.0
  0
ELLIPSE
  5
3F5
330
1F
100
AcDbEntity
  8
0
  6
CONTINUOUS
 62
     7
100
AcDbEllipse
 10
253.5284539907
 20
286.6525900732
 30
0.0
 11
0.3539842722996127
 21
0.3539842722995559
 31
0.0
210
0.0
220
0.0
230
0.9999999999999998
 40
0.998782766
 41
5.498396131367683
 42
7.067974482991508
  0
LINE
  5
3F6
330
1F
100
AcDbEntity
  8
0
  6
CONTINUOUS
 62
     7
100
AcDbLine
 10
245.5284576402
 20
287.1528951434
 30
0.0
 11
253.5290624486
 21
287.1528951434
 31
0.0
  0
ELLIPSE
  5
3F7
330
1F
100
AcDbEntity
  8
0
  6
CONTINUOUS
 62
     7
100
AcDbEllipse
 10
245.529063535
 20
286.6525900732
 30
0.0
 11
-0.3539842722996127
 21
0.3539842722995559
 31
0.0
210
0.0
220
0.0
230
0.9999999999999998
 40
0.998782766
 41
5.498396131367773
 42
7.067974482991437
  0
LINE
  5
3F8
330
1F
100
AcDbEntity
  8
0
  6
CONTINUOUS
 62
     7
100
AcDbLine
 10
245.0287621007
 20
283.6525900272
 30
0.0
 11
245.0287621007
 21
286.6531996039
 31
0.0
  0
ELLIPSE
  5
3F9
330
1F
100
AcDbEntity
  8
0
  6
CONTINUOUS
 62
     7
100
AcDbEllipse
 10
245.529063535
 20
283.6531996175
 30
0.0
 11
-0.3539842722996127
 21
-0.3539842722996127
 31
0.0
210
0.0
220
0.0
230
0.9999999999999998
 40
0.998782766
 41
5.498396131367676
 42
7.067974482991468
  0
LINE
  5
3FA
330
1F
100
AcDbEntity
  8
0
  6
CONTINUOUS
 62
     7
100
AcDbLine
 10
253.5290624486
 20
283.1528944877
 30
0.0
 11
245.5284576402
 21
283.1528944877
 31
0.0
  0
ELLIPSE
  5
3FB
330
1F
100
AcDbEntity
  8
0
  6
CONTINUOUS
 62
     7
100
AcDbEllipse
 10
253.5284539907
 20
283.6531996175
 30
0.0
 11
0.3539842722996127
 21
-0.3539842722996127
 31
0.0
210
0.0
220
0.0
230
0.9999999999999998
 40
0.998782766
 41
5.498396131367794
 42
7.067974482991464
  0
LINE
  5
3FC
330
1F
100
AcDbEntity
  8
0
  6
CONTINUOUS
 62
     7
100
AcDbLine
 10
254.028757988
 20
286.6531996039
 30
0.0
 11
254.028757988
 21
283.6525900272
 31
0.0
  0
CIRCLE
  5
3FD
330
1F
100
AcDbEntity
  8
0
  6
CONTINUOUS
 62
     7
100
AcDbCircle
 10
249.5287587629
 20
293.3528948454
 30
0.0
 40
3.50006554961675
  0
CIRCLE
  5
3FE
330
1F
100
AcDbEntity
  8
0
  6
CONTINUOUS
 62
     7
100
AcDbCircle
 10
249.5287587629
 20
465.3528948454
 30
0.0
 40
3.50006554961675
  0
ELLIPSE
  5
3FF
330
1F
100
AcDbEntity
  8
0
  6
CONTINUOUS
 62
     7
100
AcDbEllipse
 10
253.5284539907
 20
475.0525900732
 30
0.0
 11
-0.3539842722996127
 21
-0.3539842722996695
 31
0.0
210
0.0
220
0.0
230
0.9999999999999998
 40
0.998782766
 41
2.356803477777789
 42
3.926381829401594
  0
LINE
  5
400
330
1F
100
AcDbEntity
  8
0
  6
CONTINUOUS
 62
     7
100
AcDbLine
 10
253.5290624486
 20
475.5528954772
 30
0.0
 11
245.5284576402
 21
475.5528954772
 31
0.0
  0
ELLIPSE
  5
401
330
1F
100
AcDbEntity
  8
0
  6
CONTINUOUS
 62
     7
100
AcDbEllipse
 10
245.529063535
 20
475.0525900732
 30
0.0
 11
0.3539842722995842
 21
-0.3539842722996695
 31
0.0
210
0.0
220
0.0
230
1.0
 40
0.998782766
 41
2.356803477778107
 42
3.926381829401791
  0
LINE
  5
402
330
1F
100
AcDbEntity
  8
0
  6
CONTINUOUS
 62
     7
100
AcDbLine
 10
245.0287621007
 20
475.0531999377
 30
0.0
 11
245.0287621007
 21
472.052590361
 31
0.0
  0
ELLIPSE
  5
403
330
1F
100
AcDbEntity
  8
0
  6
CONTINUOUS
 62
     7
100
AcDbEllipse
 10
245.529063535
 20
472.0531996175
 30
0.0
 11
0.3539842722995843
 21
0.3539842722996128
 31
0.0
210
0.0
220
0.0
230
1.0
 40
0.998782766
 41
2.356803477777849
 42
3.926381829401614
  0
LINE
  5
404
330
1F
100
AcDbEntity
  8
0
  6
CONTINUOUS
 62
     7
100
AcDbLine
 10
245.5284576402
 20
471.5528948215
 30
0.0
 11
253.5290624486
 21
471.5528948215
 31
0.0
  0
ELLIPSE
  5
405
330
1F
100
AcDbEntity
  8
0
  6
CONTINUOUS
 62
     7
100
AcDbEllipse
 10
253.5284539907
 20
472.0531996175
 30
0.0
 11
-0.3539842722996127
 21
0.3539842722996127
 31
0.0
210
0.0
220
0.0
230
0.9999999999999998
 40
0.998782766
 41
2.356803477777986
 42
3.926381829401785
  0
LINE
  5
406
330
1F
100
AcDbEntity
  8
0
  6
CONTINUOUS
 62
     7
100
AcDbLine
 10
254.028757988
 20
472.052590361
 30
0.0
 11
254.028757988
 21
475.0531999377
 31
0.0
  0
ELLIPSE
  5
407
330
1F
100
AcDbEntity
  8
0
  6
CONTINUOUS
 62
     7
100
AcDbEllipse
 10
93.529063535
 20
472.0531996175
 30
0.0
 11
-0.3539842722995985
 21
-0.3539842722995559
 31
0.0
210
0.0
220
0.0
230
1.0
 40
0.998782766
 41
5.498396131367796
 42
7.067974482991496
  0
LINE
  5
408
330
1F
100
AcDbEntity
  8
0
  6
CONTINUOUS
 62
     7
100
AcDbLine
 10
101.5290598856
 20
471.5528948215
 30
0.0
 11
93.5284550772
 21
471.5528948215
 31
0.0
  0
ELLIPSE
  5
409
330
1F
100
AcDbEntity
  8
0
  6
CONTINUOUS
 62
     7
100
AcDbEllipse
 10
101.5284539907
 20
472.0531996175
 30
0.0
 11
0.3539842722996127
 21
-0.3539842722995559
 31
0.0
210
0.0
220
0.0
230
0.9999999999999998
 40
0.998782766
 41
5.498396131367773
 42
7.067974482991324
  0
LINE
  5
40A
330
1F
100
AcDbEntity
  8
0
  6
CONTINUOUS
 62
     7
100
AcDbLine
 10
102.028755425
 20
475.0531999377
 30
0.0
 11
102.028755425
 21
472.052590361
 31
0.0
  0
ELLIPSE
  5
40B
330
1F
100
AcDbEntity
  8
0
  6
CONTINUOUS
 62
     7
100
AcDbEllipse
 10
101.5284539907
 20
475.0525900732
 30
0.0
 11
0.3539842722996127
 21
0.3539842722996127
 31
0.0
210
0.0
220
0.0
230
0.9999999999999998
 40
0.998782766
 41
5.498396131367707
 42
7.067974482991437
  0
LINE
  5
40C
330
1F
100
AcDbEntity
  8
0
  6
CONTINUOUS
 62
     7
100
AcDbLine
 10
93.5284550772
 20
475.5528954772
 30
0.0
 11
101.5290598856
 21
475.5528954772
 31
0.0
  0
ELLIPSE
  5
40D
330
1F
100
AcDbEntity
  8
0
  6
CONTINUOUS
 62
     7
100
AcDbEllipse
 10
93.529063535
 20
475.0525900732
 30
0.0
 11
-0.3539842722995984
 21
0.3539842722996127
 31
0.0
210
0.0
220
0.0
230
0.9999999999999998
 40
0.998782766
 41
5.498396131367815
 42
7.067974482991454
  0
LINE
  5
40E
330
1F
100
AcDbEntity
  8
0
  6
CONTINUOUS
 62
     7
100
AcDbLine
 10
93.0287595377
 20
472.052590361
 30
0.0
 11
93.0287595377
 21
475.0531999377
 31
0.0
  0
CIRCLE
  5
40F
330
1F
100
AcDbEntity
  8
0
  6
CONTINUOUS
 62
     7
100
AcDbCircle
 10
97.5287587629
 20
465.3528948454
 30
0.0
 40
3.50006554961675
  0
CIRCLE
  5
410
330
1F
100
AcDbEntity
  8
0
  6
CONTINUOUS
 62
     7
100
AcDbCircle
 10
97.5287587629
 20
293.3528948454
 30
0.0
 40
3.50006554961675
  0
ELLIPSE
  5
411
330
1F
100
AcDbEntity
  8
0
  6
CONTINUOUS
 62
     7
100
AcDbEllipse
 10
93.529063535
 20
283.6531996175
 30
0.0
 11
0.3539842722995984
 21
0.3539842722996127
 31
0.0
210
0.0
220
0.0
230
0.9999999999999998
 40
0.998782766
 41
2.356803477777869
 42
3.926381829401663
  0
LINE
  5
412
330
1F
100
AcDbEntity
  8
0
  6
CONTINUOUS
 62
     7
100
AcDbLine
 10
93.5284550772
 20
283.1528944877
 30
0.0
 11
101.5290598856
 21
283.1528944877
 31
0.0
  0
ELLIPSE
  5
413
330
1F
100
AcDbEntity
  8
0
  6
CONTINUOUS
 62
     7
100
AcDbEllipse
 10
101.5284539907
 20
283.6531996175
 30
0.0
 11
-0.3539842722995843
 21
0.3539842722996128
 31
0.0
210
0.0
220
0.0
230
1.0
 40
0.998782766
 41
2.356803477778067
 42
3.926381829401671
  0
LINE
  5
414
330
1F
100
AcDbEntity
  8
0
  6
CONTINUOUS
 62
     7
100
AcDbLine
 10
102.028755425
 20
283.6525900272
 30
0.0
 11
102.028755425
 21
286.6531996039
 31
0.0
  0
ELLIPSE
  5
415
330
1F
100
AcDbEntity
  8
0
  6
CONTINUOUS
 62
     7
100
AcDbEllipse
 10
101.5284539907
 20
286.6525900732
 30
0.0
 11
-0.3539842722995842
 21
-0.3539842722996695
 31
0.0
210
0.0
220
0.0
230
1.0
 40
0.998782766
 41
2.356803477777605
 42
3.926381829401584
  0
LINE
  5
416
330
1F
100
AcDbEntity
  8
0
  6
CONTINUOUS
 62
     7
100
AcDbLine
 10
101.5290598856
 20
287.1528951434
 30
0.0
 11
93.5284550772
 21
287.1528951434
 31
0.0
  0
ELLIPSE
  5
417
330
1F
100
AcDbEntity
  8
0
  6
CONTINUOUS
 62
     7
100
AcDbEllipse
 10
93.529063535
 20
286.6525900732
 30
0.0
 11
0.3539842722995984
 21
-0.3539842722996695
 31
0.0
210
0.0
220
0.0
230
1.0
 40
0.998782766
 41
2.356803477778048
 42
3.926381829401895
  0
LINE
  5
418
330
1F
100
AcDbEntity
  8
0
  6
CONTINUOUS
 62
     7
100
AcDbLine
 10
93.0287595377
 20
286.6531996039
 30
0.0
 11
93.0287595377
 21
283.6525900272
 31
0.0
  0
LINE
  5
419
330
1F
100
AcDbEntity
  8
0
  6
CONTINUOUS
 62
     7
100
AcDbLine
 10
278.9816315756
 20
299.7952638177
 30
0.0
 11
278.3084716187
 21
299.4909523038
 31
0.0
  0
LINE
  5
41A
330
1F
100
AcDbEntity
  8
0
  6
CONTINUOUS
 62
     7
100
AcDbLine
 10
281.4862783537
 20
297.5973648933
 30
0.0
 11
278.9816315756
 21
299.7952638177
 31
0.0
  0
LINE
  5
41B
330
1F
100
AcDbEntity
  8
0
  6
CONTINUOUS
 62
     7
100
AcDbLine
 10
278.9816315756
 20
378.338079339
 30
0.0
 11
278.9816315756
 21
380.3677106259
 31
0.0
  0
LINE
  5
41C
330
1F
100
AcDbEntity
  8
0
  6
CONTINUOUS
 62
     7
100
AcDbLine
 10
278.9816315756
 20
378.338079339
 30
0.0
 11
278.7199373827
 21
377.8146592883
 31
0.0
  0
LINE
  5
41D
330
1F
100
AcDbEntity
  8
0
  6
CONTINUOUS
 62
     7
100
AcDbLine
 10
278.7199373827
 20
377.8146592883
 30
0.0
 11
278.7199373827
 21
373.991131222
 31
0.0
  0
LINE
  5
41E
330
1F
100
AcDbEntity
  8
0
  6
CONTINUOUS
 62
     7
100
AcDbLine
 10
278.9816315756
 20
373.4677111713
 30
0.0
 11
278.7199373827
 21
373.991131222
 31
0.0
  0
LINE
  5
41F
330
1F
100
AcDbEntity
  8
0
  6
CONTINUOUS
 62
     7
100
AcDbLine
 10
278.9816315756
 20
373.4677111713
 30
0.0
 11
278.9816315756
 21
299.7952638177
 31
0.0
  0
LINE
  5
420
330
1F
100
AcDbEntity
  8
0
  6
CONTINUOUS
 62
     7
100
AcDbLine
 10
278.9816315756
 20
458.9105261472
 30
0.0
 11
278.3084716187
 21
459.2148413864
 31
0.0
  0
LINE
  5
421
330
1F
100
AcDbEntity
  8
0
  6
CONTINUOUS
 62
     7
100
AcDbLine
 10
278.9816315756
 20
458.9105261472
 30
0.0
 11
278.9816315756
 21
385.2380787936
 31
0.0
  0
LINE
  5
422
330
1F
100
AcDbEntity
  8
0
  6
CONTINUOUS
 62
     7
100
AcDbLine
 10
278.9816315756
 20
385.2380787936
 30
0.0
 11
278.7199373827
 21
384.7146587429
 31
0.0
  0
LINE
  5
423
330
1F
100
AcDbEntity
  8
0
  6
CONTINUOUS
 62
     7
100
AcDbLine
 10
278.7199373827
 20
384.7146587429
 30
0.0
 11
278.7199373827
 21
380.8911306766
 31
0.0
  0
LINE
  5
424
330
1F
100
AcDbEntity
  8
0
  6
CONTINUOUS
 62
     7
100
AcDbLine
 10
278.9816315756
 20
380.3677106259
 30
0.0
 11
278.7199373827
 21
380.8911306766
 31
0.0
  0
LINE
  5
425
330
1F
100
AcDbEntity
  8
0
  6
CONTINUOUS
 62
     7
100
AcDbLine
 10
253.9519350515
 20
286.5763766674
 30
0.0
 11
253.9519350515
 21
283.7294129637
 31
0.0
  0
LINE
  5
426
330
1F
100
AcDbEntity
  8
0
  6
CONTINUOUS
 62
     7
100
AcDbLine
 10
254.028757988
 20
286.6531996039
 30
0.0
 11
253.9519350515
 21
286.5763766674
 31
0.0
  0
LINE
  5
427
330
1F
100
AcDbEntity
  8
0
  6
CONTINUOUS
 62
     7
100
AcDbLine
 10
254.028757988
 20
283.6525900272
 30
0.0
 11
253.9519350515
 21
283.7294129637
 31
0.0
  0
LINE
  5
428
330
1F
100
AcDbEntity
  8
0
  6
CONTINUOUS
 62
     7
100
AcDbLine
 10
253.452239512
 20
283.2297174243
 30
0.0
 11
245.6052805768
 21
283.2297174243
 31
0.0
  0
LINE
  5
429
330
1F
100
AcDbEntity
  8
0
  6
CONTINUOUS
 62
     7
100
AcDbLine
 10
253.5290624486
 20
283.1528944877
 30
0.0
 11
253.452239512
 21
283.2297174243
 31
0.0
  0
LINE
  5
42A
330
1F
100
AcDbEntity
  8
0
  6
CONTINUOUS
 62
     7
100
AcDbLine
 10
245.5284576402
 20
283.1528944877
 30
0.0
 11
245.6052805768
 21
283.2297174243
 31
0.0
  0
ELLIPSE
  5
42B
330
1F
100
AcDbEntity
  8
0
  6
CONTINUOUS
 62
     7
100
AcDbEllipse
 10
253.4516282979
 20
283.7300253104
 30
0.0
 11
0.3539842722995843
 21
-0.3539842722996128
 31
0.0
210
0.0
220
0.0
230
1.0
 40
0.998782766
 41
5.498396131367777
 42
7.067974482991391
  0
LINE
  5
42C
330
1F
100
AcDbEntity
  8
0
  6
CONTINUOUS
 62
     7
100
AcDbLine
 10
245.6052805768
 20
287.0760722068
 30
0.0
 11
253.452239512
 21
287.0760722068
 31
0.0
  0
LINE
  5
42D
330
1F
100
AcDbEntity
  8
0
  6
CONTINUOUS
 62
     7
100
AcDbLine
 10
245.5284576402
 20
287.1528951434
 30
0.0
 11
245.6052805768
 21
287.0760722068
 31
0.0
  0
LINE
  5
42E
330
1F
100
AcDbEntity
  8
0
  6
CONTINUOUS
 62
     7
100
AcDbLine
 10
253.5290624486
 20
287.1528951434
 30
0.0
 11
253.452239512
 21
287.0760722068
 31
0.0
  0
ELLIPSE
  5
42F
330
1F
100
AcDbEntity
  8
0
  6
CONTINUOUS
 62
     7
100
AcDbEllipse
 10
253.4516282979
 20
286.5757643803
 30
0.0
 11
0.3539842722995843
 21
0.3539842722996128
 31
0.0
210
0.0
220
0.0
230
1.0
 40
0.998782766
 41
5.498396131367696
 42
7.067974482991424
  0
ELLIPSE
  5
430
330
1F
100
AcDbEntity
  8
0
  6
CONTINUOUS
 62
     7
100
AcDbEllipse
 10
245.6058892279
 20
283.7300253104
 30
0.0
 11
-0.3539842722995843
 21
-0.3539842722996128
 31
0.0
210
0.0
220
0.0
230
1.0
 40
0.998782766
 41
5.49839613136781
 42
7.067974482991424
  0
LINE
  5
431
330
1F
100
AcDbEntity
  8
0
  6
CONTINUOUS
 62
     7
100
AcDbLine
 10
245.0287621007
 20
283.6525900272
 30
0.0
 11
245.1055850373
 21
283.7294129637
 31
0.0
  0
LINE
  5
432
330
1F
100
AcDbEntity
  8
0
  6
CONTINUOUS
 62
     7
100
AcDbLine
 10
245.0287621007
 20
286.6531996039
 30
0.0
 11
245.1055850373
 21
286.5763766674
 31
0.0
  0
LINE
  5
433
330
1F
100
AcDbEntity
  8
0
  6
CONTINUOUS
 62
     7
100
AcDbLine
 10
245.1055850373
 20
283.7294129637
 30
0.0
 11
245.1055850373
 21
286.5763766674
 31
0.0
  0
ELLIPSE
  5
434
330
1F
100
AcDbEntity
  8
0
  6
CONTINUOUS
 62
     7
100
AcDbEllipse
 10
245.6058892279
 20
286.5757643803
 30
0.0
 11
-0.3539842722995843
 21
0.3539842722996128
 31
0.0
210
0.0
220
0.0
230
1.0
 40
0.998782766
 41
5.498396131367737
 42
7.067974482991545
  0
LINE
  5
435
330
1F
100
AcDbEntity
  8
0
  6
CONTINUOUS
 62
     7
100
AcDbLine
 10
281.4862783537
 20
461.1084250716
 30
0.0
 11
278.9816315756
 21
458.9105261472
 31
0.0
  0
LINE
  5
436
330
1F
100
AcDbEntity
  8
0
  6
CONTINUOUS
 62
     7
100
AcDbLine
 10
254.028757988
 20
472.052590361
 30
0.0
 11
253.9519350515
 21
472.1294132975
 31
0.0
  0
LINE
  5
437
330
1F
100
AcDbEntity
  8
0
  6
CONTINUOUS
 62
     7
100
AcDbLine
 10
253.9519350515
 20
472.1294132975
 30
0.0
 11
253.9519350515
 21
474.9763770012
 31
0.0
  0
LINE
  5
438
330
1F
100
AcDbEntity
  8
0
  6
CONTINUOUS
 62
     7
100
AcDbLine
 10
254.028757988
 20
475.0531999377
 30
0.0
 11
253.9519350515
 21
474.9763770012
 31
0.0
  0
LINE
  5
439
330
1F
100
AcDbEntity
  8
0
  6
CONTINUOUS
 62
     7
100
AcDbLine
 10
253.5290624486
 20
471.5528948215
 30
0.0
 11
253.452239512
 21
471.6297177581
 31
0.0
  0
ELLIPSE
  5
43A
330
1F
100
AcDbEntity
  8
0
  6
CONTINUOUS
 62
     7
100
AcDbEllipse
 10
253.4516282979
 20
472.1300253104
 30
0.0
 11
-0.3539842722995843
 21
0.3539842722996128
 31
0.0
210
0.0
220
0.0
230
1.0
 40
0.998782766
 41
2.356803477777929
 42
3.926381829401751
  0
LINE
  5
43B
330
1F
100
AcDbEntity
  8
0
  6
CONTINUOUS
 62
     7
100
AcDbLine
 10
245.5284576402
 20
471.5528948215
 30
0.0
 11
245.6052805768
 21
471.6297177581
 31
0.0
  0
LINE
  5
43C
330
1F
100
AcDbEntity
  8
0
  6
CONTINUOUS
 62
     7
100
AcDbLine
 10
245.6052805768
 20
471.6297177581
 30
0.0
 11
253.452239512
 21
471.6297177581
 31
0.0
  0
ELLIPSE
  5
43D
330
1F
100
AcDbEntity
  8
0
  6
CONTINUOUS
 62
     7
100
AcDbEllipse
 10
253.4516282979
 20
474.9757643803
 30
0.0
 11
-0.3539842722995842
 21
-0.3539842722996695
 31
0.0
210
0.0
220
0.0
230
1.0
 40
0.998782766
 41
2.356803477777769
 42
3.926381829401591
  0
LINE
  5
43E
330
1F
100
AcDbEntity
  8
0
  6
CONTINUOUS
 62
     7
100
AcDbLine
 10
253.5290624486
 20
475.5528954772
 30
0.0
 11
253.452239512
 21
475.4760725406
 31
0.0
  0
LINE
  5
43F
330
1F
100
AcDbEntity
  8
0
  6
CONTINUOUS
 62
     7
100
AcDbLine
 10
253.452239512
 20
475.4760725406
 30
0.0
 11
245.6052805768
 21
475.4760725406
 31
0.0
  0
LINE
  5
440
330
1F
100
AcDbEntity
  8
0
  6
CONTINUOUS
 62
     7
100
AcDbLine
 10
245.5284576402
 20
475.5528954772
 30
0.0
 11
245.6052805768
 21
475.4760725406
 31
0.0
  0
LINE
  5
441
330
1F
100
AcDbEntity
  8
0
  6
CONTINUOUS
 62
     7
100
AcDbLine
 10
245.0287621007
 20
472.052590361
 30
0.0
 11
245.1055850373
 21
472.1294132975
 31
0.0
  0
ELLIPSE
  5
442
330
1F
100
AcDbEntity
  8
0
  6
CONTINUOUS
 62
     7
100
AcDbEllipse
 10
245.6058892279
 20
472.1300253104
 30
0.0
 11
0.3539842722995843
 21
0.3539842722996128
 31
0.0
210
0.0
220
0.0
230
1.0
 40
0.998782766
 41
2.356803477777929
 42
3.926381829401591
  0
ELLIPSE
  5
443
330
1F
100
AcDbEntity
  8
0
  6
CONTINUOUS
 62
     7
100
AcDbEllipse
 10
245.6058892279
 20
474.9757643803
 30
0.0
 11
0.3539842722995842
 21
-0.3539842722996695
 31
0.0
210
0.0
220
0.0
230
1.0
 40
0.998782766
 41
2.356803477778009
 42
3.926381829401832
  0
LINE
  5
444
330
1F
100
AcDbEntity
  8
0
  6
CONTINUOUS
 62
     7
100
AcDbLine
 10
245.0287621007
 20
475.0531999377
 30
0.0
 11
245.1055850373
 21
474.9763770012
 31
0.0
  0
LINE
  5
445
330
1F
100
AcDbEntity
  8
0
  6
CONTINUOUS
 62
     7
100
AcDbLine
 10
245.1055850373
 20
474.9763770012
 30
0.0
 11
245.1055850373
 21
472.1294132975
 31
0.0
  0
LINE
  5
446
330
1F
100
AcDbEntity
  8
0
  6
CONTINUOUS
 62
     7
100
AcDbLine
 10
101.5290598856
 20
283.1528944877
 30
0.0
 11
101.452236949
 21
283.2297174243
 31
0.0
  0
ELLIPSE
  5
447
330
1F
100
AcDbEntity
  8
0
  6
CONTINUOUS
 62
     7
100
AcDbEllipse
 10
101.4516282979
 20
283.7300253104
 30
0.0
 11
-0.3539842722995984
 21
0.3539842722996127
 31
0.0
210
0.0
220
0.0
230
0.9999999999999998
 40
0.998782766
 41
2.356803477777957
 42
3.926381829401598
  0
LINE
  5
448
330
1F
100
AcDbEntity
  8
0
  6
CONTINUOUS
 62
     7
100
AcDbLine
 10
102.028755425
 20
283.6525900272
 30
0.0
 11
101.9519324885
 21
283.7294129637
 31
0.0
  0
LINE
  5
449
330
1F
100
AcDbEntity
  8
0
  6
CONTINUOUS
 62
     7
100
AcDbLine
 10
101.9519324885
 20
283.7294129637
 30
0.0
 11
101.9519324885
 21
286.5763766674
 31
0.0
  0
LINE
  5
44A
330
1F
100
AcDbEntity
  8
0
  6
CONTINUOUS
 62
     7
100
AcDbLine
 10
102.028755425
 20
286.6531996039
 30
0.0
 11
101.9519324885
 21
286.5763766674
 31
0.0
  0
ELLIPSE
  5
44B
330
1F
100
AcDbEntity
  8
0
  6
CONTINUOUS
 62
     7
100
AcDbEllipse
 10
101.4516282979
 20
286.5757643803
 30
0.0
 11
-0.3539842722995984
 21
-0.3539842722996127
 31
0.0
210
0.0
220
0.0
230
0.9999999999999998
 40
0.998782766
 41
2.356803477777899
 42
3.926381829401632
  0
LINE
  5
44C
330
1F
100
AcDbEntity
  8
0
  6
CONTINUOUS
 62
     7
100
AcDbLine
 10
101.5290598856
 20
287.1528951434
 30
0.0
 11
101.452236949
 21
287.0760722068
 31
0.0
  0
LINE
  5
44D
330
1F
100
AcDbEntity
  8
0
  6
CONTINUOUS
 62
     7
100
AcDbLine
 10
93.5284550772
 20
283.1528944877
 30
0.0
 11
93.6052780138
 21
283.2297174243
 31
0.0
  0
LINE
  5
44E
330
1F
100
AcDbEntity
  8
0
  6
CONTINUOUS
 62
     7
100
AcDbLine
 10
93.6052780138
 20
283.2297174243
 30
0.0
 11
101.452236949
 21
283.2297174243
 31
0.0
  0
LINE
  5
44F
330
1F
100
AcDbEntity
  8
0
  6
CONTINUOUS
 62
     7
100
AcDbLine
 10
101.452236949
 20
287.0760722068
 30
0.0
 11
93.6052780138
 21
287.0760722068
 31
0.0
  0
LINE
  5
450
330
1F
100
AcDbEntity
  8
0
  6
CONTINUOUS
 62
     7
100
AcDbLine
 10
93.5284550772
 20
287.1528951434
 30
0.0
 11
93.6052780138
 21
287.0760722068
 31
0.0
  0
LINE
  5
451
330
1F
100
AcDbEntity
  8
0
  6
CONTINUOUS
 62
     7
100
AcDbLine
 10
93.0287595377
 20
283.6525900272
 30
0.0
 11
93.1055824743
 21
283.7294129637
 31
0.0
  0
ELLIPSE
  5
452
330
1F
100
AcDbEntity
  8
0
  6
CONTINUOUS
 62
     7
100
AcDbEllipse
 10
93.6058892279
 20
283.7300253104
 30
0.0
 11
0.3539842722995984
 21
0.3539842722996127
 31
0.0
210
0.0
220
0.0
230
0.9999999999999998
 40
0.998782766
 41
2.356803477778012
 42
3.926381829401633
  0
LINE
  5
453
330
1F
100
AcDbEntity
  8
0
  6
CONTINUOUS
 62
     7
100
AcDbLine
 10
93.0287595377
 20
286.6531996039
 30
0.0
 11
93.1055824743
 21
286.5763766674
 31
0.0
  0
LINE
  5
454
330
1F
100
AcDbEntity
  8
0
  6
CONTINUOUS
 62
     7
100
AcDbLine
 10
93.1055824743
 20
286.5763766674
 30
0.0
 11
93.1055824743
 21
283.7294129637
 31
0.0
  0
ELLIPSE
  5
455
330
1F
100
AcDbEntity
  8
0
  6
CONTINUOUS
 62
     7
100
AcDbEllipse
 10
93.6058892279
 20
286.5757643803
 30
0.0
 11
0.3539842722995984
 21
-0.3539842722996127
 31
0.0
210
0.0
220
0.0
230
0.9999999999999998
 40
0.998782766
 41
2.356803477777917
 42
3.926381829401751
  0
LINE
  5
456
330
1F
100
AcDbEntity
  8
0
  6
CONTINUOUS
 62
     7
100
AcDbLine
 10
68.337580143
 20
384.7146587429
 30
0.0
 11
68.337580143
 21
380.8911306766
 31
0.0
  0
LINE
  5
457
330
1F
100
AcDbEntity
  8
0
  6
CONTINUOUS
 62
     7
100
AcDbLine
 10
68.0758859501
 20
385.2380787936
 30
0.0
 11
68.337580143
 21
384.7146587429
 31
0.0
  0
LINE
  5
458
330
1F
100
AcDbEntity
  8
0
  6
CONTINUOUS
 62
     7
100
AcDbLine
 10
68.0758859501
 20
458.9105261472
 30
0.0
 11
68.0758859501
 21
385.2380787936
 31
0.0
  0
LINE
  5
459
330
1F
100
AcDbEntity
  8
0
  6
CONTINUOUS
 62
     7
100
AcDbLine
 10
68.0758859501
 20
458.9105261472
 30
0.0
 11
68.7490459071
 21
459.2148413864
 31
0.0
  0
LINE
  5
45A
330
1F
100
AcDbEntity
  8
0
  6
CONTINUOUS
 62
     7
100
AcDbLine
 10
68.0758859501
 20
299.7952638177
 30
0.0
 11
68.7490459071
 21
299.4909523038
 31
0.0
  0
LINE
  5
45B
330
1F
100
AcDbEntity
  8
0
  6
CONTINUOUS
 62
     7
100
AcDbLine
 10
68.0758859501
 20
373.4677111713
 30
0.0
 11
68.0758859501
 21
299.7952638177
 31
0.0
  0
LINE
  5
45C
330
1F
100
AcDbEntity
  8
0
  6
CONTINUOUS
 62
     7
100
AcDbLine
 10
68.0758859501
 20
373.4677111713
 30
0.0
 11
68.337580143
 21
373.991131222
 31
0.0
  0
LINE
  5
45D
330
1F
100
AcDbEntity
  8
0
  6
CONTINUOUS
 62
     7
100
AcDbLine
 10
68.337580143
 20
377.8146592883
 30
0.0
 11
68.337580143
 21
373.991131222
 31
0.0
  0
LINE
  5
45E
330
1F
100
AcDbEntity
  8
0
  6
CONTINUOUS
 62
     7
100
AcDbLine
 10
68.0758859501
 20
378.338079339
 30
0.0
 11
68.337580143
 21
377.8146592883
 31
0.0
  0
LINE
  5
45F
330
1F
100
AcDbEntity
  8
0
  6
CONTINUOUS
 62
     7
100
AcDbLine
 10
68.0758859501
 20
378.338079339
 30
0.0
 11
68.0758859501
 21
380.3677106259
 31
0.0
  0
LINE
  5
460
330
1F
100
AcDbEntity
  8
0
  6
CONTINUOUS
 62
     7
100
AcDbLine
 10
68.0758859501
 20
380.3677106259
 30
0.0
 11
68.337580143
 21
380.8911306766
 31
0.0
  0
LINE
  5
461
330
1F
100
AcDbEntity
  8
0
  6
CONTINUOUS
 62
     7
100
AcDbLine
 10
65.571239172
 20
297.5973648933
 30
0.0
 11
68.0758859501
 21
299.7952638177
 31
0.0
  0
LINE
  5
462
330
1F
100
AcDbEntity
  8
0
  6
CONTINUOUS
 62
     7
100
AcDbLine
 10
101.452236949
 20
471.6297177581
 30
0.0
 11
93.6052780138
 21
471.6297177581
 31
0.0
  0
LINE
  5
463
330
1F
100
AcDbEntity
  8
0
  6
CONTINUOUS
 62
     7
100
AcDbLine
 10
101.5290598856
 20
471.5528948215
 30
0.0
 11
101.452236949
 21
471.6297177581
 31
0.0
  0
LINE
  5
464
330
1F
100
AcDbEntity
  8
0
  6
CONTINUOUS
 62
     7
100
AcDbLine
 10
93.5284550772
 20
471.5528948215
 30
0.0
 11
93.6052780138
 21
471.6297177581
 31
0.0
  0
ELLIPSE
  5
465
330
1F
100
AcDbEntity
  8
0
  6
CONTINUOUS
 62
     7
100
AcDbEllipse
 10
101.4516282979
 20
472.1300253104
 30
0.0
 11
0.3539842722995985
 21
-0.3539842722995559
 31
0.0
210
0.0
220
0.0
230
1.0
 40
0.998782766
 41
5.498396131367684
 42
7.067974482991424
  0
LINE
  5
466
330
1F
100
AcDbEntity
  8
0
  6
CONTINUOUS
 62
     7
100
AcDbLine
 10
102.028755425
 20
472.052590361
 30
0.0
 11
101.9519324885
 21
472.1294132975
 31
0.0
  0
LINE
  5
467
330
1F
100
AcDbEntity
  8
0
  6
CONTINUOUS
 62
     7
100
AcDbLine
 10
101.9519324885
 20
474.9763770012
 30
0.0
 11
101.9519324885
 21
472.1294132975
 31
0.0
  0
LINE
  5
468
330
1F
100
AcDbEntity
  8
0
  6
CONTINUOUS
 62
     7
100
AcDbLine
 10
102.028755425
 20
475.0531999377
 30
0.0
 11
101.9519324885
 21
474.9763770012
 31
0.0
  0
ELLIPSE
  5
469
330
1F
100
AcDbEntity
  8
0
  6
CONTINUOUS
 62
     7
100
AcDbEllipse
 10
101.4516282979
 20
474.9757643803
 30
0.0
 11
0.3539842722995984
 21
0.3539842722996127
 31
0.0
210
0.0
220
0.0
230
0.9999999999999998
 40
0.998782766
 41
5.498396131367706
 42
7.067974482991426
  0
LINE
  5
46A
330
1F
100
AcDbEntity
  8
0
  6
CONTINUOUS
 62
     7
100
AcDbLine
 10
101.5290598856
 20
475.5528954772
 30
0.0
 11
101.452236949
 21
475.4760725406
 31
0.0
  0
LINE
  5
46B
330
1F
100
AcDbEntity
  8
0
  6
CONTINUOUS
 62
     7
100
AcDbLine
 10
93.6052780138
 20
475.4760725406
 30
0.0
 11
101.452236949
 21
475.4760725406
 31
0.0
  0
LINE
  5
46C
330
1F
100
AcDbEntity
  8
0
  6
CONTINUOUS
 62
     7
100
AcDbLine
 10
93.5284550772
 20
475.5528954772
 30
0.0
 11
93.6052780138
 21
475.4760725406
 31
0.0
  0
ELLIPSE
  5
46D
330
1F
100
AcDbEntity
  8
0
  6
CONTINUOUS
 62
     7
100
AcDbEllipse
 10
93.6058892279
 20
472.1300253104
 30
0.0
 11
-0.3539842722995985
 21
-0.3539842722995559
 31
0.0
210
0.0
220
0.0
230
1.0
 40
0.998782766
 41
5.498396131367866
 42
7.067974482991426
  0
LINE
  5
46E
330
1F
100
AcDbEntity
  8
0
  6
CONTINUOUS
 62
     7
100
AcDbLine
 10
93.0287595377
 20
472.052590361
 30
0.0
 11
93.1055824743
 21
472.1294132975
 31
0.0
  0
LINE
  5
46F
330
1F
100
AcDbEntity
  8
0
  6
CONTINUOUS
 62
     7
100
AcDbLine
 10
93.1055824743
 20
472.1294132975
 30
0.0
 11
93.1055824743
 21
474.9763770012
 31
0.0
  0
LINE
  5
470
330
1F
100
AcDbEntity
  8
0
  6
CONTINUOUS
 62
     7
100
AcDbLine
 10
93.0287595377
 20
475.0531999377
 30
0.0
 11
93.1055824743
 21
474.9763770012
 31
0.0
  0
ELLIPSE
  5
471
330
1F
100
AcDbEntity
  8
0
  6
CONTINUOUS
 62
     7
100
AcDbEllipse
 10
93.6058892279
 20
474.9757643803
 30
0.0
 11
-0.3539842722995984
 21
0.3539842722996127
 31
0.0
210
0.0
220
0.0
230
0.9999999999999998
 40
0.998782766
 41
5.498396131367764
 42
7.067974482991504
  0
LINE
  5
472
330
1F
100
AcDbEntity
  8
0
  6
CONTINUOUS
 62
     7
100
AcDbLine
 10
65.571239172
 20
461.1084250716
 30
0.0
 11
68.0758859501
 21
458.9105261472
 31
0.0
  0
CIRCLE
  5
473
330
1F
100
AcDbEntity
  8
0
  6
CONTINUOUS
 62
     7
100
AcDbCircle
 10
249.5287587629
 20
465.3528948454
 30
0.0
 40
2.800797430183422
  0
CIRCLE
  5
474
330
1F
100
AcDbEntity
  8
0
  6
CONTINUOUS
 62
     7
100
AcDbCircle
 10
97.5287587629
 20
293.3528948454
 30
0.0
 40
2.800797430183422
  0
CIRCLE
  5
475
330
1F
100
AcDbEntity
  8
0
  6
CONTINUOUS
 62
     7
100
AcDbCircle
 10
249.5287587629
 20
293.3528948454
 30
0.0
 40
2.800797430183422
  0
CIRCLE
  5
476
330
1F
100
AcDbEntity
  8
0
  6
CONTINUOUS
 62
     7
100
AcDbCircle
 10
97.5287587629
 20
465.3528948454
 30
0.0
 40
2.800797430183422
  0
LINE
  5
477
330
1F
100
AcDbEntity
  8
0
  6
CONTINUOUS
 62
     7
100
AcDbLine
 10
280.7068135129
 20
374.4106994924
 30
0.0
 11
281.6037218557
 21
374.2444677261
 31
0.0
  0
ARC
  5
478
330
1F
100
AcDbEntity
  8
0
  6
CONTINUOUS
 62
     7
100
AcDbCircle
 10
275.4606026132
 20
373.7609817089
 30
0.0
 40
6.162459915169489
100
AcDbArc
 50
359.7347833512
 51
4.4992519589
  0
LINE
  5
479
330
1F
100
AcDbEntity
  8
0
  6
CONTINUOUS
 62
     7
100
AcDbLine
 10
280.6982378946
 20
373.9038513956
 30
0.0
 11
281.6229965077
 21
373.7324563769
 31
0.0
  0
ELLIPSE
  5
47A
330
1F
100
AcDbEntity
  8
0
  6
CONTINUOUS
 62
     7
100
AcDbEllipse
 10
280.6980880068
 20
374.4123165888
 30
0.0
 11
-2.776973468598953E-5
 21
0.5085177055619852
 31
0.0
210
0.0
220
0.0
230
1.0
 40
0.0171626045
 41
3.155864086670866
 42
4.709207120947745
  0
LINE
  5
47B
330
1F
100
AcDbEntity
  8
0
  6
CONTINUOUS
 62
     7
100
AcDbLine
 10
281.7875798331
 20
377.7797495929
 30
0.0
 11
280.7068135129
 21
377.7797495929
 31
0.0
  0
LINE
  5
47C
330
1F
100
AcDbEntity
  8
0
  6
CONTINUOUS
 62
     7
100
AcDbLine
 10
281.7875798331
 20
377.7797495929
 30
0.0
 11
281.7875798331
 21
374.5207557437
 31
0.0
  0
ARC
  5
47D
330
1F
100
AcDbEntity
  8
0
  6
CONTINUOUS
 62
     7
100
AcDbCircle
 10
281.4880816729
 20
374.5207402298
 30
0.0
 40
0.2994981605418556
100
AcDbArc
 50
292.7128643211
 51
0.0029679069
  0
LINE
  5
47E
330
1F
100
AcDbEntity
  8
0
  6
CONTINUOUS
 62
     7
100
AcDbLine
 10
280.7068135129
 20
374.4106994924
 30
0.0
 11
280.7068135129
 21
377.7797495929
 31
0.0
  0
LINE
  5
47F
330
1F
100
AcDbEntity
  8
0
  6
CONTINUOUS
 62
     7
100
AcDbLine
 10
65.2699376927
 20
380.926040372
 30
0.0
 11
66.3507040129
 21
380.926040372
 31
0.0
  0
LINE
  5
480
330
1F
100
AcDbEntity
  8
0
  6
CONTINUOUS
 62
     7
100
AcDbLine
 10
65.2699376927
 20
384.1850342212
 30
0.0
 11
65.2699376927
 21
380.926040372
 31
0.0
  0
ARC
  5
481
330
1F
100
AcDbEntity
  8
0
  6
CONTINUOUS
 62
     7
100
AcDbCircle
 10
65.5695130678
 20
384.1849983518
 30
0.0
 40
0.2995753772920755
100
AcDbArc
 50
112.7226924864
 51
179.9931397416
  0
LINE
  5
482
330
1F
100
AcDbEntity
  8
0
  6
CONTINUOUS
 62
     7
100
AcDbLine
 10
65.4537956701
 20
384.4613222388
 30
0.0
 11
66.3507040129
 21
384.2950904725
 31
0.0
  0
LINE
  5
483
330
1F
100
AcDbEntity
  8
0
  6
CONTINUOUS
 62
     7
100
AcDbLine
 10
66.3507040129
 20
384.2950904725
 30
0.0
 11
66.3507040129
 21
380.926040372
 31
0.0
  0
ARC
  5
484
330
1F
100
AcDbEntity
  8
0
  6
CONTINUOUS
 62
     7
100
AcDbCircle
 10
71.7471265494
 20
384.9503609422
 30
0.0
 40
6.312647331873863
100
AcDbArc
 50
179.791491828
 51
184.4425434821
  0
LINE
  5
485
330
1F
100
AcDbEntity
  8
0
  6
CONTINUOUS
 62
     7
100
AcDbLine
 10
65.4345210181
 20
384.973333588
 30
0.0
 11
66.3592796312
 21
384.8019385693
 31
0.0
  0
ELLIPSE
  5
486
330
1F
100
AcDbEntity
  8
0
  6
CONTINUOUS
 62
     7
100
AcDbEllipse
 10
66.3594295189
 20
384.293473102
 30
0.0
 11
-2.776973467177868E-5
 21
0.5085177055619852
 31
0.0
210
0.0
220
0.0
230
1.0
 40
0.0171626045
 41
0.014271433085133
 42
1.567614467357962
  0
ARC
  5
487
330
1F
100
AcDbEntity
  8
0
  6
CONTINUOUS
 62
     7
100
AcDbCircle
 10
65.5703919584
 20
374.521161215
 30
0.0
 40
0.8002765677297107
100
AcDbArc
 50
180.0290297025
 51
260.2265969188
  0
LINE
  5
488
330
1F
100
AcDbEntity
  8
0
  6
CONTINUOUS
 62
     7
100
AcDbLine
 10
64.7701154933
 20
374.5207557437
 30
0.0
 11
65.2699376927
 21
374.5207557437
 31
0.0
  0
ARC
  5
489
330
1F
100
AcDbEntity
  8
0
  6
CONTINUOUS
 62
     7
100
AcDbCircle
 10
65.5694358528
 20
374.5207402298
 30
0.0
 40
0.2994981605418299
100
AcDbArc
 50
179.9970320931
 51
247.2871356789
  0
ARC
  5
48A
330
1F
100
AcDbEntity
  8
0
  6
CONTINUOUS
 62
     7
100
AcDbCircle
 10
71.3539516838
 20
373.7703111976
 30
0.0
 40
5.919521594228462
100
AcDbArc
 50
175.4062916181
 51
180.3659352177
  0
LINE
  5
48B
330
1F
100
AcDbEntity
  8
0
  6
CONTINUOUS
 62
     7
100
AcDbLine
 10
282.2874020324
 20
374.5207557437
 30
0.0
 11
281.7875798331
 21
374.5207557437
 31
0.0
  0
ARC
  5
48C
330
1F
100
AcDbEntity
  8
0
  6
CONTINUOUS
 62
     7
100
AcDbCircle
 10
281.4871255674
 20
374.521161215
 30
0.0
 40
0.8002765677297533
100
AcDbArc
 50
279.7734030812
 51
359.9709702975
  0
ARC
  5
48D
330
1F
100
AcDbEntity
  8
0
  6
CONTINUOUS
 62
     7
100
AcDbCircle
 10
281.4871255674
 20
384.1846287499
 30
0.0
 40
0.8002765677297066
100
AcDbArc
 50
0.0290297025
 51
80.2265969188
  0
LINE
  5
48E
330
1F
100
AcDbEntity
  8
0
  6
CONTINUOUS
 62
     7
100
AcDbLine
 10
282.2874020324
 20
384.1850342212
 30
0.0
 11
281.7875798331
 21
384.1850342212
 31
0.0
  0
ARC
  5
48F
330
1F
100
AcDbEntity
  8
0
  6
CONTINUOUS
 62
     7
100
AcDbCircle
 10
281.4880044579
 20
384.1849983518
 30
0.0
 40
0.2995753772920864
100
AcDbArc
 50
0.0068602584
 51
67.2773075136
  0
ARC
  5
490
330
1F
100
AcDbEntity
  8
0
  6
CONTINUOUS
 62
     7
100
AcDbCircle
 10
275.53918009
 20
384.9416376136
 30
0.0
 40
6.083876602786576
100
AcDbArc
 50
355.4724647535
 51
0.2984501044
  0
LINE
  5
491
330
1F
100
AcDbEntity
  8
0
  6
CONTINUOUS
 62
     7
100
AcDbLine
 10
64.7701154933
 20
384.1850342212
 30
0.0
 11
65.2699376927
 21
384.1850342212
 31
0.0
  0
ARC
  5
492
330
1F
100
AcDbEntity
  8
0
  6
CONTINUOUS
 62
     7
100
AcDbCircle
 10
65.5703919584
 20
384.1846287499
 30
0.0
 40
0.8002765677296994
100
AcDbArc
 50
99.7734030812
 51
179.9709702975
  0
LINE
  5
493
330
1F
100
AcDbEntity
  8
0
  6
CONTINUOUS
 62
     7
100
AcDbLine
 10
281.6037218557
 20
384.4613222388
 30
0.0
 11
280.7068135129
 21
384.2950904725
 31
0.0
  0
LINE
  5
494
330
1F
100
AcDbEntity
  8
0
  6
CONTINUOUS
 62
     7
100
AcDbLine
 10
281.7875798331
 20
384.1850342212
 30
0.0
 11
281.7875798331
 21
380.926040372
 31
0.0
  0
LINE
  5
495
330
1F
100
AcDbEntity
  8
0
  6
CONTINUOUS
 62
     7
100
AcDbLine
 10
281.7875798331
 20
380.926040372
 30
0.0
 11
280.7068135129
 21
380.926040372
 31
0.0
  0
LINE
  5
496
330
1F
100
AcDbEntity
  8
0
  6
CONTINUOUS
 62
     7
100
AcDbLine
 10
280.7068135129
 20
384.2950904725
 30
0.0
 11
280.7068135129
 21
380.926040372
 31
0.0
  0
LINE
  5
497
330
1F
100
AcDbEntity
  8
0
  6
CONTINUOUS
 62
     7
100
AcDbLine
 10
281.6229965077
 20
384.973333588
 30
0.0
 11
280.6982378946
 21
384.8019385693
 31
0.0
  0
ELLIPSE
  5
498
330
1F
100
AcDbEntity
  8
0
  6
CONTINUOUS
 62
     7
100
AcDbEllipse
 10
280.6980880068
 20
384.293473102
 30
0.0
 11
2.776973468598953E-5
 21
0.5085177055619852
 31
0.0
210
0.0
220
0.0
230
1.0
 40
0.0171626045
 41
4.715570839821635
 42
6.268913874100147
  0
LINE
  5
499
330
1F
100
AcDbEntity
  8
0
  6
CONTINUOUS
 62
     7
100
AcDbLine
 10
66.3592796312
 20
373.9038513956
 30
0.0
 11
65.4345210181
 21
373.7324563769
 31
0.0
  0
LINE
  5
49A
330
1F
100
AcDbEntity
  8
0
  6
CONTINUOUS
 62
     7
100
AcDbLine
 10
66.3507040129
 20
374.4106994924
 30
0.0
 11
65.4537956701
 21
374.2444677261
 31
0.0
  0
ELLIPSE
  5
49B
330
1F
100
AcDbEntity
  8
0
  6
CONTINUOUS
 62
     7
100
AcDbEllipse
 10
66.3594295189
 20
374.4123165888
 30
0.0
 11
2.776973468598953E-5
 21
0.5085177055619852
 31
0.0
210
0.0
220
0.0
230
1.0
 40
0.0171626045
 41
1.573978186231836
 42
3.127321220506297
  0
LINE
  5
49C
330
1F
100
AcDbEntity
  8
0
  6
CONTINUOUS
 62
     7
100
AcDbLine
 10
65.2699376927
 20
377.7797495929
 30
0.0
 11
65.2699376927
 21
374.5207557437
 31
0.0
  0
LINE
  5
49D
330
1F
100
AcDbEntity
  8
0
  6
CONTINUOUS
 62
     7
100
AcDbLine
 10
65.2699376927
 20
377.7797495929
 30
0.0
 11
66.3507040129
 21
377.7797495929
 31
0.0
  0
LINE
  5
49E
330
1F
100
AcDbEntity
  8
0
  6
CONTINUOUS
 62
     7
100
AcDbLine
 10
66.3507040129
 20
374.4106994924
 30
0.0
 11
66.3507040129
 21
377.7797495929
 31
0.0
  0
ELLIPSE
  5
49F
330
1F
100
AcDbEntity
  8
0
  6
CONTINUOUS
 62
     7
100
AcDbEllipse
 10
65.269940841
 20
377.7884765599
 30
0.0
 11
0.5000000000000142
 21
0.0
 31
0.0
210
0.0
220
0.0
230
1.0
 40
0.0174550649
 41
3.1677725923644
 42
4.71238898038469
  0
LINE
  5
4A0
330
1F
100
AcDbEntity
  8
0
  6
CONTINUOUS
 62
     7
100
AcDbLine
 10
64.7701154933
 20
377.7882488427
 30
0.0
 11
64.7701154933
 21
374.5207557437
 31
0.0
  0
LINE
  5
4A1
330
1F
100
AcDbEntity
  8
0
  6
CONTINUOUS
 62
     7
100
AcDbLine
 10
282.2874020324
 20
384.1850342212
 30
0.0
 11
282.2874020324
 21
380.9175411222
 31
0.0
  0
ELLIPSE
  5
4A2
330
1F
100
AcDbEntity
  8
0
  6
CONTINUOUS
 62
     7
100
AcDbEllipse
 10
281.7875766848
 20
380.9173131308
 30
0.0
 11
0.4999999999999432
 21
0.0
 31
0.0
210
0.0
220
0.0
230
1.0
 40
0.0174550649
 41
0.0261799387736448
 42
1.570796326794897
  0
ELLIPSE
  5
4A3
330
1F
100
AcDbEntity
  8
0
  6
CONTINUOUS
 62
     7
100
AcDbEllipse
 10
281.7875766848
 20
377.7884765599
 30
0.0
 11
0.4999999999999432
 21
0.0
 31
0.0
210
0.0
220
0.0
230
1.0
 40
0.0174550649
 41
4.71238898038469
 42
6.257005368406929
  0
LINE
  5
4A4
330
1F
100
AcDbEntity
  8
0
  6
CONTINUOUS
 62
     7
100
AcDbLine
 10
282.2874020324
 20
377.7882488427
 30
0.0
 11
282.2874020324
 21
374.5207557437
 31
0.0
  0
ELLIPSE
  5
4A5
330
1F
100
AcDbEntity
  8
0
  6
CONTINUOUS
 62
     7
100
AcDbEllipse
 10
65.269940841
 20
380.9173131308
 30
0.0
 11
0.5000000000000142
 21
0.0
 31
0.0
210
0.0
220
0.0
230
1.0
 40
0.0174550649
 41
1.570796326794897
 42
3.115412714816326
  0
LINE
  5
4A6
330
1F
100
AcDbEntity
  8
0
  6
CONTINUOUS
 62
     7
100
AcDbLine
 10
64.7701154933
 20
384.1850342212
 30
0.0
 11
64.7701154933
 21
380.9175411222
 31
0.0
  0
LINE
  5
4A7
330
1F
100
AcDbEntity
  8
0
  6
CONTINUOUS
 62
     7
100
AcDbLine
 10
278.9816315756
 20
378.338079339
 30
0.0
 11
283.1353824125
 21
378.3534945903
 31
0.0
  0
LINE
  5
4A8
330
1F
100
AcDbEntity
  8
0
  6
CONTINUOUS
 62
     7
100
AcDbLine
 10
283.1353824125
 20
378.3534945903
 30
0.0
 11
282.2874020324
 21
377.7882488427
 31
0.0
  0
LINE
  5
4A9
330
1F
100
AcDbEntity
  8
0
  6
CONTINUOUS
 62
     7
100
AcDbLine
 10
280.7068135129
 20
377.7797495929
 30
0.0
 11
280.6719075428
 21
377.8146592883
 31
0.0
  0
LINE
  5
4AA
330
1F
100
AcDbEntity
  8
0
  6
CONTINUOUS
 62
     7
100
AcDbLine
 10
278.7199373827
 20
377.8146592883
 30
0.0
 11
280.6719075428
 21
377.8146592883
 31
0.0
  0
LINE
  5
4AB
330
1F
100
AcDbEntity
  8
0
  6
CONTINUOUS
 62
     7
100
AcDbLine
 10
280.6982378946
 20
373.9038513956
 30
0.0
 11
280.6719075428
 21
373.8819485513
 31
0.0
  0
LINE
  5
4AC
330
1F
100
AcDbEntity
  8
0
  6
CONTINUOUS
 62
     7
100
AcDbLine
 10
280.6719075428
 20
377.8146592883
 30
0.0
 11
280.6719075428
 21
373.8819485513
 31
0.0
  0
LINE
  5
4AD
330
1F
100
AcDbEntity
  8
0
  6
CONTINUOUS
 62
     7
100
AcDbLine
 10
280.7068135129
 20
380.926040372
 30
0.0
 11
280.6719075428
 21
380.8911306766
 31
0.0
  0
LINE
  5
4AE
330
1F
100
AcDbEntity
  8
0
  6
CONTINUOUS
 62
     7
100
AcDbLine
 10
283.1353824125
 20
380.3522953746
 30
0.0
 11
282.2874020324
 21
380.9175411222
 31
0.0
  0
LINE
  5
4AF
330
1F
100
AcDbEntity
  8
0
  6
CONTINUOUS
 62
     7
100
AcDbLine
 10
278.9816315756
 20
380.3677106259
 30
0.0
 11
283.1353824125
 21
380.3522953746
 31
0.0
  0
LINE
  5
4B0
330
1F
100
AcDbEntity
  8
0
  6
CONTINUOUS
 62
     7
100
AcDbLine
 10
278.7199373827
 20
380.8911306766
 30
0.0
 11
280.6719075428
 21
380.8911306766
 31
0.0
  0
LINE
  5
4B1
330
1F
100
AcDbEntity
  8
0
  6
CONTINUOUS
 62
     7
100
AcDbLine
 10
280.6719075428
 20
384.8238414136
 30
0.0
 11
280.6719075428
 21
380.8911306766
 31
0.0
  0
LINE
  5
4B2
330
1F
100
AcDbEntity
  8
0
  6
CONTINUOUS
 62
     7
100
AcDbLine
 10
280.6982378946
 20
384.8019385693
 30
0.0
 11
280.6719075428
 21
384.8238414136
 31
0.0
  0
LINE
  5
4B3
330
1F
100
AcDbEntity
  8
0
  6
CONTINUOUS
 62
     7
100
AcDbLine
 10
66.3507040129
 20
377.7797495929
 30
0.0
 11
66.385609983
 21
377.8146592883
 31
0.0
  0
LINE
  5
4B4
330
1F
100
AcDbEntity
  8
0
  6
CONTINUOUS
 62
     7
100
AcDbLine
 10
66.385609983
 20
377.8146592883
 30
0.0
 11
66.385609983
 21
373.8819485513
 31
0.0
  0
LINE
  5
4B5
330
1F
100
AcDbEntity
  8
0
  6
CONTINUOUS
 62
     7
100
AcDbLine
 10
66.3592796312
 20
373.9038513956
 30
0.0
 11
66.385609983
 21
373.8819485513
 31
0.0
  0
LINE
  5
4B6
330
1F
100
AcDbEntity
  8
0
  6
CONTINUOUS
 62
     7
100
AcDbLine
 10
63.9221351133
 20
378.3534945903
 30
0.0
 11
64.7701154933
 21
377.7882488427
 31
0.0
  0
LINE
  5
4B7
330
1F
100
AcDbEntity
  8
0
  6
CONTINUOUS
 62
     7
100
AcDbLine
 10
68.0758859501
 20
378.338079339
 30
0.0
 11
63.9221351133
 21
378.3534945903
 31
0.0
  0
LINE
  5
4B8
330
1F
100
AcDbEntity
  8
0
  6
CONTINUOUS
 62
     7
100
AcDbLine
 10
68.337580143
 20
377.8146592883
 30
0.0
 11
66.385609983
 21
377.8146592883
 31
0.0
  0
LINE
  5
4B9
330
1F
100
AcDbEntity
  8
0
  6
CONTINUOUS
 62
     7
100
AcDbLine
 10
68.0758859501
 20
380.3677106259
 30
0.0
 11
63.9221351133
 21
380.3522953746
 31
0.0
  0
LINE
  5
4BA
330
1F
100
AcDbEntity
  8
0
  6
CONTINUOUS
 62
     7
100
AcDbLine
 10
63.9221351133
 20
380.3522953746
 30
0.0
 11
64.7701154933
 21
380.9175411222
 31
0.0
  0
LINE
  5
4BB
330
1F
100
AcDbEntity
  8
0
  6
CONTINUOUS
 62
     7
100
AcDbLine
 10
66.3507040129
 20
380.926040372
 30
0.0
 11
66.385609983
 21
380.8911306766
 31
0.0
  0
LINE
  5
4BC
330
1F
100
AcDbEntity
  8
0
  6
CONTINUOUS
 62
     7
100
AcDbLine
 10
68.337580143
 20
380.8911306766
 30
0.0
 11
66.385609983
 21
380.8911306766
 31
0.0
  0
LINE
  5
4BD
330
1F
100
AcDbEntity
  8
0
  6
CONTINUOUS
 62
     7
100
AcDbLine
 10
66.3592796312
 20
384.8019385693
 30
0.0
 11
66.385609983
 21
384.8238414136
 31
0.0
  0
LINE
  5
4BE
330
1F
100
AcDbEntity
  8
0
  6
CONTINUOUS
 62
     7
100
AcDbLine
 10
66.385609983
 20
384.8238414136
 30
0.0
 11
66.385609983
 21
380.8911306766
 31
0.0
  0
LINE
  5
4BF
330
1F
100
AcDbEntity
  8
0
  6
CONTINUOUS
 62
     7
100
AcDbLine
 10
64.7701154933
 20
374.5207557437
 30
0.0
 11
63.9221351133
 21
373.9556850848
 31
0.0
  0
ELLIPSE
  5
4C0
330
1F
100
AcDbEntity
  8
0
  6
CONTINUOUS
 62
     7
100
AcDbEllipse
 10
69.4516249462
 20
377.1082848676
 30
0.0
 11
4.059273920933265
 21
3.533773646897373
 31
0.0
210
0.0
220
0.0
230
0.9999999999999998
 40
0.0761939035
 41
2.916713042713681
 42
3.08671326692755
  0
LINE
  5
4C1
330
1F
100
AcDbEntity
  8
0
  6
CONTINUOUS
 62
     7
100
AcDbLine
 10
65.3836931572
 20
373.5967962054
 30
0.0
 11
64.7265221463
 21
373.1587393192
 31
0.0
  0
ELLIPSE
  5
4C2
330
1F
100
AcDbEntity
  8
0
  6
CONTINUOUS
 62
     7
100
AcDbEllipse
 10
64.7268898917
 20
373.9588613529
 30
0.0
 11
0.7658695557635296
 21
0.2488989763322706
 31
0.0
210
0.0
220
0.0
230
0.9999999999999999
 40
0.9928989273
 41
2.829021817595396
 42
4.399799146933319
  0
LINE
  5
4C3
330
1F
100
AcDbEntity
  8
0
  6
CONTINUOUS
 62
     7
100
AcDbLine
 10
281.6738243685
 20
373.5967962054
 30
0.0
 11
282.3309953795
 21
373.1587393192
 31
0.0
  0
ELLIPSE
  5
4C4
330
1F
100
AcDbEntity
  8
0
  6
CONTINUOUS
 62
     7
100
AcDbEllipse
 10
277.6058925796
 20
377.1082848676
 30
0.0
 11
4.059273920933208
 21
-3.53377364689726
 31
0.0
210
0.0
220
0.0
230
1.0
 40
0.0761939035
 41
0.054879386662004
 42
0.2248796108760358
  0
LINE
  5
4C5
330
1F
100
AcDbEntity
  8
0
  6
CONTINUOUS
 62
     7
100
AcDbLine
 10
282.2874020324
 20
374.5207557437
 30
0.0
 11
283.1353824125
 21
373.9557726291
 31
0.0
  0
ELLIPSE
  5
4C6
330
1F
100
AcDbEntity
  8
0
  6
CONTINUOUS
 62
     7
100
AcDbEllipse
 10
282.3306276341
 20
373.9588613529
 30
0.0
 11
0.7658695557635155
 21
-0.2488989763322706
 31
0.0
210
0.0
220
0.0
230
0.9999999999999998
 40
0.9928989273
 41
5.02497881383612
 42
6.595756143173995
  0
LINE
  5
4C7
330
1F
100
AcDbEntity
  8
0
  6
CONTINUOUS
 62
     7
100
AcDbLine
 10
283.1353824125
 20
384.7499297914
 30
0.0
 11
282.2874020324
 21
384.1850342212
 31
0.0
  0
ARC
  5
4C8
330
1F
100
AcDbEntity
  8
0
  6
CONTINUOUS
 62
     7
100
AcDbCircle
 10
281.3998249249
 20
385.134301326
 30
0.0
 40
0.2751657101620043
100
AcDbArc
 50
324.1980889169
 51
354.7229296229
  0
LINE
  5
4C9
330
1F
100
AcDbEntity
  8
0
  6
CONTINUOUS
 62
     7
100
AcDbLine
 10
282.3309953795
 20
385.5470506457
 30
0.0
 11
281.6738243685
 21
385.1089937595
 31
0.0
  0
ELLIPSE
  5
4CA
330
1F
100
AcDbEntity
  8
0
  6
CONTINUOUS
 62
     7
100
AcDbEllipse
 10
282.3306276341
 20
384.7469283378
 30
0.0
 11
0.7658695557635156
 21
0.2488989763322138
 31
0.0
210
0.0
220
0.0
230
1.0
 40
0.9928989273
 41
5.970614470468002
 42
7.541391800523161
  0
LINE
  5
4CB
330
1F
100
AcDbEntity
  8
0
  6
CONTINUOUS
 62
     7
100
AcDbLine
 10
64.7265221463
 20
385.5470506457
 30
0.0
 11
65.3836931572
 21
385.1089937595
 31
0.0
  0
ARC
  5
4CC
330
1F
100
AcDbEntity
  8
0
  6
CONTINUOUS
 62
     7
100
AcDbCircle
 10
65.6576926009
 20
385.134301326
 30
0.0
 40
0.275165710161976
100
AcDbArc
 50
185.2770703771
 51
215.8019110831
  0
LINE
  5
4CD
330
1F
100
AcDbEntity
  8
0
  6
CONTINUOUS
 62
     7
100
AcDbLine
 10
63.9221351133
 20
384.7499297914
 30
0.0
 11
64.7701154933
 21
384.1850342212
 31
0.0
  0
ELLIPSE
  5
4CE
330
1F
100
AcDbEntity
  8
0
  6
CONTINUOUS
 62
     7
100
AcDbEllipse
 10
64.7268898917
 20
384.7469283378
 30
0.0
 11
0.7658695557635299
 21
-0.2488989763323275
 31
0.0
210
0.0
220
0.0
230
0.9999999999999997
 40
0.9928989273
 41
1.883386160246342
 42
3.454163489942909
  0
LINE
  5
4CF
330
1F
100
AcDbEntity
  8
0
  6
CONTINUOUS
 62
     7
100
AcDbLine
 10
63.8548340188
 20
374.0007219819
 30
0.0
 11
63.9221351133
 21
373.9558601735
 31
0.0
  0
LINE
  5
4D0
330
1F
100
AcDbEntity
  8
0
  6
CONTINUOUS
 62
     7
100
AcDbLine
 10
63.8548340188
 20
384.705067983
 30
0.0
 11
63.8548340188
 21
374.0007219819
 31
0.0
  0
LINE
  5
4D1
330
1F
100
AcDbEntity
  8
0
  6
CONTINUOUS
 62
     7
100
AcDbLine
 10
63.8548340188
 20
384.705067983
 30
0.0
 11
63.9221351133
 21
384.7499297914
 31
0.0
  0
LINE
  5
4D2
330
1F
100
AcDbEntity
  8
0
  6
CONTINUOUS
 62
     7
100
AcDbLine
 10
63.9221351133
 20
378.3534945903
 30
0.0
 11
63.9221351133
 21
380.3522953746
 31
0.0
  0
LINE
  5
4D3
330
1F
100
AcDbEntity
  8
0
  6
CONTINUOUS
 62
     7
100
AcDbLine
 10
283.202683507
 20
384.705067983
 30
0.0
 11
283.1353824125
 21
384.7499297914
 31
0.0
  0
LINE
  5
4D4
330
1F
100
AcDbEntity
  8
0
  6
CONTINUOUS
 62
     7
100
AcDbLine
 10
283.202683507
 20
384.705067983
 30
0.0
 11
283.202683507
 21
374.0007219819
 31
0.0
  0
LINE
  5
4D5
330
1F
100
AcDbEntity
  8
0
  6
CONTINUOUS
 62
     7
100
AcDbLine
 10
283.202683507
 20
374.0007219819
 30
0.0
 11
283.1353824125
 21
373.9558601735
 31
0.0
  0
LINE
  5
4D6
330
1F
100
AcDbEntity
  8
0
  6
CONTINUOUS
 62
     7
100
AcDbLine
 10
283.1353824125
 20
378.3534945903
 30
0.0
 11
283.1353824125
 21
380.3522953746
 31
0.0
  0
LINE
  5
4D7
330
1F
100
AcDbEntity
  8
0
  6
CONTINUOUS
 62
     7
100
AcDbLine
 10
67.0231636153
 20
373.4638033417
 30
0.0
 11
66.9747050391
 21
373.991131222
 31
0.0
  0
LINE
  5
4D8
330
1F
100
AcDbEntity
  8
0
  6
CONTINUOUS
 62
     7
100
AcDbLine
 10
67.0231636153
 20
373.4638033417
 30
0.0
 11
65.4237102256
 21
373.1613246707
 31
0.0
  0
LINE
  5
4D9
330
1F
100
AcDbEntity
  8
0
  6
CONTINUOUS
 62
     7
100
AcDbLine
 10
65.4237102256
 20
373.1613246707
 30
0.0
 11
65.3836931572
 21
373.5967962054
 31
0.0
  0
LINE
  5
4DA
330
1F
100
AcDbEntity
  8
0
  6
CONTINUOUS
 62
     7
100
AcDbLine
 10
66.9747050391
 20
373.991131222
 30
0.0
 11
66.385609983
 21
373.8819485513
 31
0.0
  0
LINE
  5
4DB
330
1F
100
AcDbEntity
  8
0
  6
CONTINUOUS
 62
     7
100
AcDbLine
 10
281.6338073001
 20
373.1613246707
 30
0.0
 11
281.6738243685
 21
373.5967962054
 31
0.0
  0
LINE
  5
4DC
330
1F
100
AcDbEntity
  8
0
  6
CONTINUOUS
 62
     7
100
AcDbLine
 10
280.0343539105
 20
373.4638033417
 30
0.0
 11
281.6338073001
 21
373.1613246707
 31
0.0
  0
LINE
  5
4DD
330
1F
100
AcDbEntity
  8
0
  6
CONTINUOUS
 62
     7
100
AcDbLine
 10
280.0343539105
 20
373.4638033417
 30
0.0
 11
280.0828124867
 21
373.991131222
 31
0.0
  0
LINE
  5
4DE
330
1F
100
AcDbEntity
  8
0
  6
CONTINUOUS
 62
     7
100
AcDbLine
 10
280.0828124867
 20
373.991131222
 30
0.0
 11
280.6719075428
 21
373.8819485513
 31
0.0
  0
LINE
  5
4DF
330
1F
100
AcDbEntity
  8
0
  6
CONTINUOUS
 62
     7
100
AcDbLine
 10
280.0343539105
 20
385.2419866232
 30
0.0
 11
280.0828124867
 21
384.7146587429
 31
0.0
  0
LINE
  5
4E0
330
1F
100
AcDbEntity
  8
0
  6
CONTINUOUS
 62
     7
100
AcDbLine
 10
280.0343539105
 20
385.2419866232
 30
0.0
 11
281.6338073001
 21
385.5444634316
 31
0.0
  0
LINE
  5
4E1
330
1F
100
AcDbEntity
  8
0
  6
CONTINUOUS
 62
     7
100
AcDbLine
 10
281.6338073001
 20
385.5444634316
 30
0.0
 11
281.6738243685
 21
385.1089937595
 31
0.0
  0
LINE
  5
4E2
330
1F
100
AcDbEntity
  8
0
  6
CONTINUOUS
 62
     7
100
AcDbLine
 10
280.0828124867
 20
384.7146587429
 30
0.0
 11
280.6719075428
 21
384.8238414136
 31
0.0
  0
LINE
  5
4E3
330
1F
100
AcDbEntity
  8
0
  6
CONTINUOUS
 62
     7
100
AcDbLine
 10
65.4237102256
 20
385.5444634316
 30
0.0
 11
65.3836931572
 21
385.1089937595
 31
0.0
  0
LINE
  5
4E4
330
1F
100
AcDbEntity
  8
0
  6
CONTINUOUS
 62
     7
100
AcDbLine
 10
67.0231636153
 20
385.2419866232
 30
0.0
 11
65.4237102256
 21
385.5444634316
 31
0.0
  0
LINE
  5
4E5
330
1F
100
AcDbEntity
  8
0
  6
CONTINUOUS
 62
     7
100
AcDbLine
 10
67.0231636153
 20
385.2419866232
 30
0.0
 11
66.9747050391
 21
384.7146587429
 31
0.0
  0
LINE
  5
4E6
330
1F
100
AcDbEntity
  8
0
  6
CONTINUOUS
 62
     7
100
AcDbLine
 10
66.9747050391
 20
384.7146587429
 30
0.0
 11
66.385609983
 21
384.8238414136
 31
0.0
  0
LINE
  5
4E7
330
1F
100
AcDbEntity
  8
0
  6
CONTINUOUS
 62
     7
100
AcDbLine
 10
278.9816315756
 20
373.4677111713
 30
0.0
 11
280.0343539105
 21
373.4638033417
 31
0.0
  0
LINE
  5
4E8
330
1F
100
AcDbEntity
  8
0
  6
CONTINUOUS
 62
     7
100
AcDbLine
 10
280.0828124867
 20
373.991131222
 30
0.0
 11
278.7199373827
 21
373.991131222
 31
0.0
  0
LINE
  5
4E9
330
1F
100
AcDbEntity
  8
0
  6
CONTINUOUS
 62
     7
100
AcDbLine
 10
280.0828124867
 20
384.7146587429
 30
0.0
 11
278.7199373827
 21
384.7146587429
 31
0.0
  0
LINE
  5
4EA
330
1F
100
AcDbEntity
  8
0
  6
CONTINUOUS
 62
     7
100
AcDbLine
 10
278.9816315756
 20
385.2380787936
 30
0.0
 11
280.0343539105
 21
385.2419866232
 31
0.0
  0
LINE
  5
4EB
330
1F
100
AcDbEntity
  8
0
  6
CONTINUOUS
 62
     7
100
AcDbLine
 10
66.9747050391
 20
373.991131222
 30
0.0
 11
68.337580143
 21
373.991131222
 31
0.0
  0
LINE
  5
4EC
330
1F
100
AcDbEntity
  8
0
  6
CONTINUOUS
 62
     7
100
AcDbLine
 10
68.0758859501
 20
373.4677111713
 30
0.0
 11
67.0231636153
 21
373.4638033417
 31
0.0
  0
LINE
  5
4ED
330
1F
100
AcDbEntity
  8
0
  6
CONTINUOUS
 62
     7
100
AcDbLine
 10
66.9747050391
 20
384.7146587429
 30
0.0
 11
68.337580143
 21
384.7146587429
 31
0.0
  0
LINE
  5
4EE
330
1F
100
AcDbEntity
  8
0
  6
CONTINUOUS
 62
     7
100
AcDbLine
 10
68.0758859501
 20
385.2380787936
 30
0.0
 11
67.0231636153
 21
385.2419866232
 31
0.0
  0
LINE
  5
4EF
330
1F
100
AcDbEntity
  8
0
  6
CONTINUOUS
 62
     7
100
AcDbLine
 10
281.6338073001
 20
373.1613246707
 30
0.0
 11
282.3309953795
 21
373.1587393192
 31
0.0
  0
LINE
  5
4F0
330
1F
100
AcDbEntity
  8
0
  6
CONTINUOUS
 62
     7
100
AcDbLine
 10
65.4237102256
 20
373.1613246707
 30
0.0
 11
64.7265221463
 21
373.1587393192
 31
0.0
  0
LINE
  5
4F1
330
1F
100
AcDbEntity
  8
0
  6
CONTINUOUS
 62
     7
100
AcDbLine
 10
281.6338073001
 20
385.5444634316
 30
0.0
 11
282.3309953795
 21
385.5470506457
 31
0.0
  0
LINE
  5
4F2
330
1F
100
AcDbEntity
  8
0
  6
CONTINUOUS
 62
     7
100
AcDbLine
 10
65.4237102256
 20
385.5444634316
 30
0.0
 11
64.7265221463
 21
385.5470506457
 31
0.0
  0
LINE
  5
4F3
330
1F
100
AcDbEntity
  8
0
  6
CONTINUOUS
 62
     7
100
AcDbLine
 10
281.2046985612
 20
275.4749817756
 30
0.0
 11
285.1294707046
 21
271.5492857603
 31
0.0
  0
LINE
  5
4F4
330
1F
100
AcDbEntity
  8
0
  6
CONTINUOUS
 62
     7
100
AcDbLine
 10
285.1294707046
 20
373.9632604626
 30
0.0
 11
283.1353824125
 21
373.9558601735
 31
0.0
  0
LINE
  5
4F5
330
1F
100
AcDbEntity
  8
0
  6
CONTINUOUS
 62
     7
100
AcDbLine
 10
285.1294707046
 20
271.5492857603
 30
0.0
 11
285.1294707046
 21
373.9632604626
 31
0.0
  0
LINE
  5
4F6
330
1F
100
AcDbEntity
  8
0
  6
CONTINUOUS
 62
     7
100
AcDbLine
 10
284.2473145113
 20
368.3343393711
 30
0.0
 11
284.2473145113
 21
373.0714520422
 31
0.0
  0
LINE
  5
4F7
330
1F
100
AcDbEntity
  8
0
  6
CONTINUOUS
 62
     7
100
AcDbLine
 10
284.2473145113
 20
373.0714520422
 30
0.0
 11
280.0792585598
 21
373.1023980287
 31
0.0
  0
LINE
  5
4F8
330
1F
100
AcDbEntity
  8
0
  6
CONTINUOUS
 62
     7
100
AcDbLine
 10
280.0792585598
 20
373.1023980287
 30
0.0
 11
280.0792585598
 21
368.3033933846
 31
0.0
  0
LINE
  5
4F9
330
1F
100
AcDbEntity
  8
0
  6
CONTINUOUS
 62
     7
100
AcDbLine
 10
280.0792585598
 20
368.3033933846
 30
0.0
 11
284.2473145113
 21
368.3343393711
 31
0.0
  0
LINE
  5
4FA
330
1F
100
AcDbEntity
  8
0
  6
CONTINUOUS
 62
     7
100
AcDbLine
 10
285.1294707046
 20
384.7425295023
 30
0.0
 11
283.1353824125
 21
384.7499297914
 31
0.0
  0
LINE
  5
4FB
330
1F
100
AcDbEntity
  8
0
  6
CONTINUOUS
 62
     7
100
AcDbLine
 10
281.2046985612
 20
483.2308007387
 30
0.0
 11
285.1294707046
 21
487.1565042046
 31
0.0
  0
LINE
  5
4FC
330
1F
100
AcDbEntity
  8
0
  6
CONTINUOUS
 62
     7
100
AcDbLine
 10
285.1294707046
 20
384.7425295023
 30
0.0
 11
285.1294707046
 21
487.1565042046
 31
0.0
  0
LINE
  5
4FD
330
1F
100
AcDbEntity
  8
0
  6
CONTINUOUS
 62
     7
100
AcDbLine
 10
284.2473145113
 20
385.7343377528
 30
0.0
 11
284.2473145113
 21
390.4714513553
 31
0.0
  0
LINE
  5
4FE
330
1F
100
AcDbEntity
  8
0
  6
CONTINUOUS
 62
     7
100
AcDbLine
 10
284.2473145113
 20
390.4714513553
 30
0.0
 11
280.0792585598
 21
390.5023982731
 31
0.0
  0
LINE
  5
4FF
330
1F
100
AcDbEntity
  8
0
  6
CONTINUOUS
 62
     7
100
AcDbLine
 10
280.0792585598
 20
390.5023982731
 30
0.0
 11
280.0792585598
 21
385.7033917663
 31
0.0
  0
LINE
  5
500
330
1F
100
AcDbEntity
  8
0
  6
CONTINUOUS
 62
     7
100
AcDbLine
 10
280.0792585598
 20
385.7033917663
 30
0.0
 11
284.2473145113
 21
385.7343377528
 31
0.0
  0
LINE
  5
501
330
1F
100
AcDbEntity
  8
0
  6
CONTINUOUS
 62
     7
100
AcDbLine
 10
61.9280468212
 20
373.9632604626
 30
0.0
 11
63.9221351133
 21
373.9558601735
 31
0.0
  0
LINE
  5
502
330
1F
100
AcDbEntity
  8
0
  6
CONTINUOUS
 62
     7
100
AcDbLine
 10
65.8528189645
 20
275.4749817756
 30
0.0
 11
61.9280468212
 21
271.5492857603
 31
0.0
  0
LINE
  5
503
330
1F
100
AcDbEntity
  8
0
  6
CONTINUOUS
 62
     7
100
AcDbLine
 10
61.9280468212
 20
271.5492857603
 30
0.0
 11
61.9280468212
 21
373.9632604626
 31
0.0
  0
LINE
  5
504
330
1F
100
AcDbEntity
  8
0
  6
CONTINUOUS
 62
     7
100
AcDbLine
 10
66.978258966
 20
373.1023980287
 30
0.0
 11
66.978258966
 21
368.3033933846
 31
0.0
  0
LINE
  5
505
330
1F
100
AcDbEntity
  8
0
  6
CONTINUOUS
 62
     7
100
AcDbLine
 10
62.8102030144
 20
373.0714520422
 30
0.0
 11
66.978258966
 21
373.1023980287
 31
0.0
  0
LINE
  5
506
330
1F
100
AcDbEntity
  8
0
  6
CONTINUOUS
 62
     7
100
AcDbLine
 10
62.8102030144
 20
368.3343393711
 30
0.0
 11
62.8102030144
 21
373.0714520422
 31
0.0
  0
LINE
  5
507
330
1F
100
AcDbEntity
  8
0
  6
CONTINUOUS
 62
     7
100
AcDbLine
 10
66.978258966
 20
368.3033933846
 30
0.0
 11
62.8102030144
 21
368.3343393711
 31
0.0
  0
LINE
  5
508
330
1F
100
AcDbEntity
  8
0
  6
CONTINUOUS
 62
     7
100
AcDbLine
 10
65.8528189645
 20
483.2308007387
 30
0.0
 11
61.9280468212
 21
487.1565042046
 31
0.0
  0
LINE
  5
509
330
1F
100
AcDbEntity
  8
0
  6
CONTINUOUS
 62
     7
100
AcDbLine
 10
61.9280468212
 20
384.7425295023
 30
0.0
 11
63.9221351133
 21
384.7499297914
 31
0.0
  0
LINE
  5
50A
330
1F
100
AcDbEntity
  8
0
  6
CONTINUOUS
 62
     7
100
AcDbLine
 10
61.9280468212
 20
384.7425295023
 30
0.0
 11
61.9280468212
 21
487.1565042046
 31
0.0
  0
LINE
  5
50B
330
1F
100
AcDbEntity
  8
0
  6
CONTINUOUS
 62
     7
100
AcDbLine
 10
66.978258966
 20
390.5023982731
 30
0.0
 11
66.978258966
 21
385.7033917663
 31
0.0
  0
LINE
  5
50C
330
1F
100
AcDbEntity
  8
0
  6
CONTINUOUS
 62
     7
100
AcDbLine
 10
62.8102030144
 20
390.4714513553
 30
0.0
 11
66.978258966
 21
390.5023982731
 31
0.0
  0
LINE
  5
50D
330
1F
100
AcDbEntity
  8
0
  6
CONTINUOUS
 62
     7
100
AcDbLine
 10
62.8102030144
 20
385.7343377528
 30
0.0
 11
62.8102030144
 21
390.4714513553
 31
0.0
  0
LINE
  5
50E
330
1F
100
AcDbEntity
  8
0
  6
CONTINUOUS
 62
     7
100
AcDbLine
 10
66.978258966
 20
385.7033917663
 30
0.0
 11
62.8102030144
 21
385.7343377528
 31
0.0
  0
LINE
  5
50F
330
1F
100
AcDbEntity
  8
0
  6
CONTINUOUS
 62
     7
100
AcDbLine
 10
284.9978487478
 20
269.4359732774
 30
0.0
 11
285.1294707046
 21
271.5492857603
 31
0.0
  0
ARC
  5
510
330
1F
100
AcDbEntity
  8
0
  6
CONTINUOUS
 62
     7
100
AcDbCircle
 10
281.5887126692
 20
269.5929305418
 30
0.0
 40
3.412772389804545
100
AcDbArc
 50
272.8032109277
 51
357.1969207548
  0
LINE
  5
511
330
1F
100
AcDbEntity
  8
0
  6
CONTINUOUS
 62
     7
100
AcDbLine
 10
279.632365285
 20
266.0521877912
 30
0.0
 11
281.7455585585
 21
266.1869836954
 31
0.0
  0
LINE
  5
512
330
1F
100
AcDbEntity
  8
0
  6
CONTINUOUS
 62
     7
100
AcDbLine
 10
279.632365285
 20
266.0521877912
 30
0.0
 11
273.9690821157
 21
271.7141224054
 31
0.0
  0
LINE
  5
513
330
1F
100
AcDbEntity
  8
0
  6
CONTINUOUS
 62
     7
100
AcDbLine
 10
62.059668778
 20
489.2698092369
 30
0.0
 11
61.9280468212
 21
487.1565042046
 31
0.0
  0
ARC
  5
514
330
1F
100
AcDbEntity
  8
0
  6
CONTINUOUS
 62
     7
100
AcDbCircle
 10
65.4687804471
 20
489.1128756148
 30
0.0
 40
3.412747582085489
100
AcDbArc
 50
92.8028210256
 51
177.1970472916
  0
LINE
  5
515
330
1F
100
AcDbEntity
  8
0
  6
CONTINUOUS
 62
     7
100
AcDbLine
 10
67.4251522408
 20
492.6536021737
 30
0.0
 11
65.3119589673
 21
492.5188062695
 31
0.0
  0
LINE
  5
516
330
1F
100
AcDbEntity
  8
0
  6
CONTINUOUS
 62
     7
100
AcDbLine
 10
67.4251522408
 20
492.6536021737
 30
0.0
 11
73.0884354101
 21
486.9916675595
 31
0.0
  0
LINE
  5
517
330
1F
100
AcDbEntity
  8
0
  6
CONTINUOUS
 62
     7
100
AcDbLine
 10
279.632365285
 20
492.6536021737
 30
0.0
 11
273.9690821157
 21
486.9916675595
 31
0.0
  0
LINE
  5
518
330
1F
100
AcDbEntity
  8
0
  6
CONTINUOUS
 62
     7
100
AcDbLine
 10
279.632365285
 20
492.6536021737
 30
0.0
 11
281.7456703172
 21
492.5219876674
 31
0.0
  0
ARC
  5
519
330
1F
100
AcDbEntity
  8
0
  6
CONTINUOUS
 62
     7
100
AcDbCircle
 10
281.5887370787
 20
489.1128756148
 30
0.0
 40
3.412747582085491
100
AcDbArc
 50
2.8029527084
 51
87.1971789744
  0
LINE
  5
51A
330
1F
100
AcDbEntity
  8
0
  6
CONTINUOUS
 62
     7
100
AcDbLine
 10
284.9946673499
 20
489.2696974782
 30
0.0
 11
285.1294707046
 21
487.1565042046
 31
0.0
  0
LINE
  5
51B
330
1F
100
AcDbEntity
  8
0
  6
CONTINUOUS
 62
     7
100
AcDbLine
 10
67.4251522408
 20
266.0521877912
 30
0.0
 11
73.0884354101
 21
271.7141224054
 31
0.0
  0
LINE
  5
51C
330
1F
100
AcDbEntity
  8
0
  6
CONTINUOUS
 62
     7
100
AcDbLine
 10
67.4251522408
 20
266.0521877912
 30
0.0
 11
65.3118472086
 21
266.1837948469
 31
0.0
  0
ARC
  5
51D
330
1F
100
AcDbEntity
  8
0
  6
CONTINUOUS
 62
     7
100
AcDbCircle
 10
65.4688048565
 20
269.5929305418
 30
0.0
 40
3.412772389804474
100
AcDbArc
 50
182.8030792452
 51
267.1967890723
  0
LINE
  5
51E
330
1F
100
AcDbEntity
  8
0
  6
CONTINUOUS
 62
     7
100
AcDbLine
 10
62.0628501759
 20
269.4360924867
 30
0.0
 11
61.9280468212
 21
271.5492857603
 31
0.0
  0
LINE
  5
51F
330
1F
100
AcDbEntity
  8
0
  6
CONTINUOUS
 62
     7
100
AcDbLine
 10
67.4251522408
 20
266.0521877912
 30
0.0
 11
279.632365285
 21
266.0521877912
 31
0.0
  0
LINE
  5
520
330
1F
100
AcDbEntity
  8
0
  6
CONTINUOUS
 62
     7
100
AcDbLine
 10
279.632365285
 20
492.6536021737
 30
0.0
 11
67.4251522408
 21
492.6536021737
 31
0.0
  0
LINE
  5
521
330
1F
100
AcDbEntity
  8
0
  6
CONTINUOUS
 62
     7
100
AcDbLine
 10
280.223255931
 20
368.4473907558
 30
0.0
 11
280.0792585598
 21
368.3033933846
 31
0.0
  0
LINE
  5
522
330
1F
100
AcDbEntity
  8
0
  6
CONTINUOUS
 62
     7
100
AcDbLine
 10
284.131405829
 20
368.4763995913
 30
0.0
 11
280.223255931
 21
368.4473907558
 31
0.0
  0
LINE
  5
523
330
1F
100
AcDbEntity
  8
0
  6
CONTINUOUS
 62
     7
100
AcDbLine
 10
284.131405829
 20
368.4502480534
 30
0.0
 11
284.2473145113
 21
368.3343393711
 31
0.0
  0
LINE
  5
524
330
1F
100
AcDbEntity
  8
0
  6
CONTINUOUS
 62
     7
100
AcDbLine
 10
284.131405829
 20
372.9555433599
 30
0.0
 11
284.2473145113
 21
373.0714520422
 31
0.0
  0
LINE
  5
525
330
1F
100
AcDbEntity
  8
0
  6
CONTINUOUS
 62
     7
100
AcDbLine
 10
284.131405829
 20
372.9293880967
 30
0.0
 11
280.223255931
 21
372.9583969322
 31
0.0
  0
LINE
  5
526
330
1F
100
AcDbEntity
  8
0
  6
CONTINUOUS
 62
     7
100
AcDbLine
 10
280.223255931
 20
372.9583969322
 30
0.0
 11
280.0792585598
 21
373.1023980287
 31
0.0
  0
LINE
  5
527
330
1F
100
AcDbEntity
  8
0
  6
CONTINUOUS
 62
     7
100
AcDbLine
 10
280.223255931
 20
372.9583969322
 30
0.0
 11
280.223255931
 21
368.4473907558
 31
0.0
  0
LINE
  5
528
330
1F
100
AcDbEntity
  8
0
  6
CONTINUOUS
 62
     7
100
AcDbLine
 10
280.223255931
 20
385.8473910001
 30
0.0
 11
280.0792585598
 21
385.7033917663
 31
0.0
  0
LINE
  5
529
330
1F
100
AcDbEntity
  8
0
  6
CONTINUOUS
 62
     7
100
AcDbLine
 10
284.131405829
 20
385.8763998357
 30
0.0
 11
280.223255931
 21
385.8473910001
 31
0.0
  0
LINE
  5
52A
330
1F
100
AcDbEntity
  8
0
  6
CONTINUOUS
 62
     7
100
AcDbLine
 10
284.131405829
 20
385.8502482978
 30
0.0
 11
284.2473145113
 21
385.7343377528
 31
0.0
  0
LINE
  5
52B
330
1F
100
AcDbEntity
  8
0
  6
CONTINUOUS
 62
     7
100
AcDbLine
 10
284.131405829
 20
390.3555417416
 30
0.0
 11
284.2473145113
 21
390.4714513553
 31
0.0
  0
LINE
  5
52C
330
1F
100
AcDbEntity
  8
0
  6
CONTINUOUS
 62
     7
100
AcDbLine
 10
284.131405829
 20
390.3293892724
 30
0.0
 11
280.223255931
 21
390.3583981079
 31
0.0
  0
LINE
  5
52D
330
1F
100
AcDbEntity
  8
0
  6
CONTINUOUS
 62
     7
100
AcDbLine
 10
280.223255931
 20
390.3583981079
 30
0.0
 11
280.0792585598
 21
390.5023982731
 31
0.0
  0
LINE
  5
52E
330
1F
100
AcDbEntity
  8
0
  6
CONTINUOUS
 62
     7
100
AcDbLine
 10
280.223255931
 20
390.3583981079
 30
0.0
 11
280.223255931
 21
385.8473910001
 31
0.0
  0
LINE
  5
52F
330
1F
100
AcDbEntity
  8
0
  6
CONTINUOUS
 62
     7
100
AcDbLine
 10
62.9261116968
 20
368.4502480534
 30
0.0
 11
62.8102030144
 21
368.3343393711
 31
0.0
  0
LINE
  5
530
330
1F
100
AcDbEntity
  8
0
  6
CONTINUOUS
 62
     7
100
AcDbLine
 10
62.9261116968
 20
368.4763995913
 30
0.0
 11
66.8342615948
 21
368.4473907558
 31
0.0
  0
LINE
  5
531
330
1F
100
AcDbEntity
  8
0
  6
CONTINUOUS
 62
     7
100
AcDbLine
 10
66.8342615948
 20
368.4473907558
 30
0.0
 11
66.978258966
 21
368.3033933846
 31
0.0
  0
LINE
  5
532
330
1F
100
AcDbEntity
  8
0
  6
CONTINUOUS
 62
     7
100
AcDbLine
 10
66.8342615948
 20
372.9583969322
 30
0.0
 11
66.8342615948
 21
368.4473907558
 31
0.0
  0
LINE
  5
533
330
1F
100
AcDbEntity
  8
0
  6
CONTINUOUS
 62
     7
100
AcDbLine
 10
66.8342615948
 20
372.9583969322
 30
0.0
 11
66.978258966
 21
373.1023980287
 31
0.0
  0
LINE
  5
534
330
1F
100
AcDbEntity
  8
0
  6
CONTINUOUS
 62
     7
100
AcDbLine
 10
62.9261116968
 20
372.9293880967
 30
0.0
 11
66.8342615948
 21
372.9583969322
 31
0.0
  0
LINE
  5
535
330
1F
100
AcDbEntity
  8
0
  6
CONTINUOUS
 62
     7
100
AcDbLine
 10
62.9261116968
 20
372.9555433599
 30
0.0
 11
62.8102030144
 21
373.0714520422
 31
0.0
  0
LINE
  5
536
330
1F
100
AcDbEntity
  8
0
  6
CONTINUOUS
 62
     7
100
AcDbLine
 10
66.8342615948
 20
385.8473910001
 30
0.0
 11
66.978258966
 21
385.7033917663
 31
0.0
  0
LINE
  5
537
330
1F
100
AcDbEntity
  8
0
  6
CONTINUOUS
 62
     7
100
AcDbLine
 10
66.8342615948
 20
390.3583981079
 30
0.0
 11
66.8342615948
 21
385.8473910001
 31
0.0
  0
LINE
  5
538
330
1F
100
AcDbEntity
  8
0
  6
CONTINUOUS
 62
     7
100
AcDbLine
 10
66.8342615948
 20
390.3583981079
 30
0.0
 11
66.978258966
 21
390.5023982731
 31
0.0
  0
LINE
  5
539
330
1F
100
AcDbEntity
  8
0
  6
CONTINUOUS
 62
     7
100
AcDbLine
 10
62.9261116968
 20
385.8502482978
 30
0.0
 11
62.8102030144
 21
385.7343377528
 31
0.0
  0
LINE
  5
53A
330
1F
100
AcDbEntity
  8
0
  6
CONTINUOUS
 62
     7
100
AcDbLine
 10
62.9261116968
 20
385.8763998357
 30
0.0
 11
66.8342615948
 21
385.8473910001
 31
0.0
  0
LINE
  5
53B
330
1F
100
AcDbEntity
  8
0
  6
CONTINUOUS
 62
     7
100
AcDbLine
 10
62.9261116968
 20
390.3293892724
 30
0.0
 11
66.8342615948
 21
390.3583981079
 31
0.0
  0
LINE
  5
53C
330
1F
100
AcDbEntity
  8
0
  6
CONTINUOUS
 62
     7
100
AcDbLine
 10
62.9261116968
 20
390.3555417416
 30
0.0
 11
62.8102030144
 21
390.4714513553
 31
0.0
  0
LINE
  5
53D
330
1F
100
AcDbEntity
  8
0
  6
CONTINUOUS
 62
     7
100
AcDbLine
 10
284.6950869546
 20
374.0062614886
 30
0.0
 11
283.202683507
 21
374.0007219819
 31
0.0
  0
LINE
  5
53E
330
1F
100
AcDbEntity
  8
0
  6
CONTINUOUS
 62
     7
100
AcDbLine
 10
285.1294707046
 20
373.9632604626
 30
0.0
 11
284.6950869546
 21
374.0062614886
 31
0.0
  0
LINE
  5
53F
330
1F
100
AcDbEntity
  8
0
  6
CONTINUOUS
 62
     7
100
AcDbLine
 10
61.9280468212
 20
373.9632604626
 30
0.0
 11
62.3624305711
 21
374.0062614886
 31
0.0
  0
LINE
  5
540
330
1F
100
AcDbEntity
  8
0
  6
CONTINUOUS
 62
     7
100
AcDbLine
 10
62.3624305711
 20
374.0062614886
 30
0.0
 11
63.8548340188
 21
374.0007219819
 31
0.0
  0
LINE
  5
541
330
1F
100
AcDbEntity
  8
0
  6
CONTINUOUS
 62
     7
100
AcDbLine
 10
285.1294707046
 20
384.7425295023
 30
0.0
 11
284.6950869546
 21
384.6995284764
 31
0.0
  0
LINE
  5
542
330
1F
100
AcDbEntity
  8
0
  6
CONTINUOUS
 62
     7
100
AcDbLine
 10
283.202683507
 20
384.705067983
 30
0.0
 11
284.6950869546
 21
384.6995284764
 31
0.0
  0
LINE
  5
543
330
1F
100
AcDbEntity
  8
0
  6
CONTINUOUS
 62
     7
100
AcDbLine
 10
63.8548340188
 20
384.705067983
 30
0.0
 11
62.3624305711
 21
384.6995284764
 31
0.0
  0
LINE
  5
544
330
1F
100
AcDbEntity
  8
0
  6
CONTINUOUS
 62
     7
100
AcDbLine
 10
61.9280468212
 20
384.7425295023
 30
0.0
 11
62.3624305711
 21
384.6995284764
 31
0.0
  0
LINE
  5
545
330
1F
100
AcDbEntity
  8
0
  6
CONTINUOUS
 62
     7
100
AcDbLine
 10
284.131405829
 20
372.9555433599
 30
0.0
 11
284.131405829
 21
368.4502480534
 31
0.0
  0
LINE
  5
546
330
1F
100
AcDbEntity
  8
0
  6
CONTINUOUS
 62
     7
100
AcDbLine
 10
284.131405829
 20
390.3555417416
 30
0.0
 11
284.131405829
 21
385.8502482978
 31
0.0
  0
LINE
  5
547
330
1F
100
AcDbEntity
  8
0
  6
CONTINUOUS
 62
     7
100
AcDbLine
 10
62.9261116968
 20
372.9555433599
 30
0.0
 11
62.9261116968
 21
368.4502480534
 31
0.0
  0
LINE
  5
548
330
1F
100
AcDbEntity
  8
0
  6
CONTINUOUS
 62
     7
100
AcDbLine
 10
62.9261116968
 20
390.3555417416
 30
0.0
 11
62.9261116968
 21
385.8502482978
 31
0.0
  0
LINE
  5
549
330
1F
100
AcDbEntity
  8
0
  6
CONTINUOUS
 62
     7
100
AcDbLine
 10
279.632365285
 20
264.0736265091
 30
0.0
 11
279.632365285
 21
266.0521877912
 31
0.0
  0
ARC
  5
54A
330
1F
100
AcDbEntity
  8
0
  6
CONTINUOUS
 62
     7
100
AcDbCircle
 10
272.2254745351
 20
265.763175848
 30
0.0
 40
9.539419280195904
100
AcDbArc
 50
349.7843857644
 51
2.5270568286
  0
LWPOLYLINE
  5
54B
330
1F
100
AcDbEntity
  8
0
  6
CONTINUOUS
 62
     7
100
AcDbPolyline
 90
        3
 70
   128
 43
0.0
 10
279.632365285
 20
264.0736265091
 10
280.7423378811
 20
264.0728069452
 10
281.6136683808
 20
264.0713317302
  0
ARC
  5
54C
330
1F
100
AcDbEntity
  8
0
  6
CONTINUOUS
 62
     7
100
AcDbCircle
 10
74.8312274416
 20
265.763216519
 30
0.0
 40
9.538602730957798
100
AcDbArc
 50
177.4729712403
 51
190.2160187692
  0
LINE
  5
54D
330
1F
100
AcDbEntity
  8
0
  6
CONTINUOUS
 62
     7
100
AcDbLine
 10
67.4251522408
 20
264.0736265091
 30
0.0
 11
67.4251522408
 21
266.0521877912
 31
0.0
  0
LWPOLYLINE
  5
54E
330
1F
100
AcDbEntity
  8
0
  6
CONTINUOUS
 62
     7
100
AcDbPolyline
 90
        3
 70
   128
 43
0.0
 10
67.4251522408
 20
264.0736265091
 10
66.3151796446
 20
264.0728069452
 10
65.443849145
 20
264.0713317302
  0
ARC
  5
54F
330
1F
100
AcDbEntity
  8
0
  6
CONTINUOUS
 62
     7
100
AcDbCircle
 10
285.418427093
 20
278.9555382997
 30
0.0
 40
9.53877989789346
100
AcDbArc
 50
267.4730181024
 51
280.2159178292
  0
LINE
  5
550
330
1F
100
AcDbEntity
  8
0
  6
CONTINUOUS
 62
     7
100
AcDbLine
 10
287.1080319868
 20
271.5492857603
 30
0.0
 11
285.1294707046
 21
271.5492857603
 31
0.0
  0
LWPOLYLINE
  5
551
330
1F
100
AcDbEntity
  8
0
  6
CONTINUOUS
 62
     7
100
AcDbPolyline
 90
        3
 70
   128
 43
0.0
 10
287.110319315
 20
269.5679826645
 10
287.1085535274
 20
270.6770909933
 10
287.1080319868
 20
271.5492857603
  0
LINE
  5
552
330
1F
100
AcDbEntity
  8
0
  6
CONTINUOUS
 62
     7
100
AcDbLine
 10
59.949485539
 20
271.5492857603
 30
0.0
 11
61.9280468212
 21
271.5492857603
 31
0.0
  0
ARC
  5
553
330
1F
100
AcDbEntity
  8
0
  6
CONTINUOUS
 62
     7
100
AcDbCircle
 10
61.6390830236
 20
278.9567600516
 30
0.0
 40
9.540000788537307
100
AcDbArc
 50
259.7847667923
 51
272.5267028368
  0
LWPOLYLINE
  5
554
330
1F
100
AcDbEntity
  8
0
  6
CONTINUOUS
 62
     7
100
AcDbPolyline
 90
        3
 70
   128
 43
0.0
 10
59.9471982108
 20
269.5679826645
 10
59.9489639984
 20
270.6770909933
 10
59.949485539
 20
271.5492857603
  0
ARC
  5
555
330
1F
100
AcDbEntity
  8
0
  6
CONTINUOUS
 62
     7
100
AcDbCircle
 10
272.226175037
 20
492.9425642314
 30
0.0
 40
9.538717588529854
100
AcDbArc
 50
357.4730122944
 51
10.215950676
  0
LINE
  5
556
330
1F
100
AcDbEntity
  8
0
  6
CONTINUOUS
 62
     7
100
AcDbLine
 10
279.632365285
 20
494.6321634558
 30
0.0
 11
279.632365285
 21
492.6536021737
 31
0.0
  0
LWPOLYLINE
  5
557
330
1F
100
AcDbEntity
  8
0
  6
CONTINUOUS
 62
     7
100
AcDbPolyline
 90
        3
 70
   128
 43
0.0
 10
279.632365285
 20
494.6321634558
 10
280.7423378811
 20
494.6329830197
 10
281.6136683808
 20
494.6344582347
  0
LINE
  5
558
330
1F
100
AcDbEntity
  8
0
  6
CONTINUOUS
 62
     7
100
AcDbLine
 10
67.4251522408
 20
494.6321634558
 30
0.0
 11
67.4251522408
 21
492.6536021737
 31
0.0
  0
ARC
  5
559
330
1F
100
AcDbEntity
  8
0
  6
CONTINUOUS
 62
     7
100
AcDbCircle
 10
74.8320957382
 20
492.9426105725
 30
0.0
 40
9.539471820079907
100
AcDbArc
 50
169.7844210007
 51
182.5270215923
  0
LWPOLYLINE
  5
55A
330
1F
100
AcDbEntity
  8
0
  6
CONTINUOUS
 62
     7
100
AcDbPolyline
 90
        3
 70
   128
 43
0.0
 10
67.4251522408
 20
494.6321634558
 10
66.3151796446
 20
494.6329830197
 10
65.443849145
 20
494.6344582347
  0
LINE
  5
55B
330
1F
100
AcDbEntity
  8
0
  6
CONTINUOUS
 62
     7
100
AcDbLine
 10
287.1080319868
 20
487.1565042046
 30
0.0
 11
285.1294707046
 21
487.1565042046
 31
0.0
  0
ARC
  5
55C
330
1F
100
AcDbEntity
  8
0
  6
CONTINUOUS
 62
     7
100
AcDbCircle
 10
285.4184659833
 20
479.7494984113
 30
0.0
 40
9.53953413402485
100
AcDbArc
 50
79.7844538466
 51
92.5270157825
  0
LWPOLYLINE
  5
55D
330
1F
100
AcDbEntity
  8
0
  6
CONTINUOUS
 62
     7
100
AcDbPolyline
 90
        3
 70
   128
 43
0.0
 10
287.110319315
 20
489.1378073004
 10
287.1085535274
 20
488.0287064222
 10
287.1080319868
 20
487.1565042046
  0
ARC
  5
55E
330
1F
100
AcDbEntity
  8
0
  6
CONTINUOUS
 62
     7
100
AcDbCircle
 10
61.6390578999
 20
479.7512284719
 30
0.0
 40
9.53780547579616
100
AcDbArc
 50
87.4725641447
 51
100.2167741529
  0
LINE
  5
55F
330
1F
100
AcDbEntity
  8
0
  6
CONTINUOUS
 62
     7
100
AcDbLine
 10
59.949485539
 20
487.1565042046
 30
0.0
 11
61.9280468212
 21
487.1565042046
 31
0.0
  0
LWPOLYLINE
  5
560
330
1F
100
AcDbEntity
  8
0
  6
CONTINUOUS
 62
     7
100
AcDbPolyline
 90
        3
 70
   128
 43
0.0
 10
59.9471982108
 20
489.1378073004
 10
59.9489639984
 20
488.0287064222
 10
59.949485539
 20
487.1565042046
  0
LINE
  5
561
330
1F
100
AcDbEntity
  8
0
  6
CONTINUOUS
 62
     7
100
AcDbLine
 10
287.1080319868
 20
271.5492857603
 30
0.0
 11
287.1080319868
 21
487.1565042046
 31
0.0
  0
LINE
  5
562
330
1F
100
AcDbEntity
  8
0
  6
CONTINUOUS
 62
     7
100
AcDbLine
 10
285.1294707046
 20
384.7425295023
 30
0.0
 11
285.1294707046
 21
373.9632604626
 31
0.0
  0
LINE
  5
563
330
1F
100
AcDbEntity
  8
0
  6
CONTINUOUS
 62
     7
100
AcDbLine
 10
61.9280468212
 20
384.7425295023
 30
0.0
 11
61.9280468212
 21
373.9632604626
 31
0.0
  0
LINE
  5
564
330
1F
100
AcDbEntity
  8
0
  6
CONTINUOUS
 62
     7
100
AcDbLine
 10
59.949485539
 20
271.5492857603
 30
0.0
 11
59.949485539
 21
487.1565042046
 31
0.0
  0
LINE
  5
565
330
1F
100
AcDbEntity
  8
0
  6
CONTINUOUS
 62
     7
100
AcDbLine
 10
279.632365285
 20
264.0736265091
 30
0.0
 11
67.4251522408
 21
264.0736265091
 31
0.0
  0
LINE
  5
566
330
1F
100
AcDbEntity
  8
0
  6
CONTINUOUS
 62
     7
100
AcDbLine
 10
67.4251522408
 20
494.6321634558
 30
0.0
 11
279.632365285
 21
494.6321634558
 31
0.0
  0
ARC
  5
567
330
1F
100
AcDbEntity
  8
0
  6
CONTINUOUS
 62
     7
100
AcDbCircle
 10
281.6179299615
 20
269.5637210838
 30
0.0
 40
5.492391006820031
100
AcDbArc
 50
269.9555438402
 51
0.0444561598
  0
ARC
  5
568
330
1F
100
AcDbEntity
  8
0
  6
CONTINUOUS
 62
     7
100
AcDbCircle
 10
65.4395800857
 20
269.5637136052
 30
0.0
 40
5.492383534046947
100
AcDbArc
 50
179.9554657642
 51
270.0445342358
  0
ARC
  5
569
330
1F
100
AcDbEntity
  8
0
  6
CONTINUOUS
 62
     7
100
AcDbCircle
 10
281.6179257301
 20
489.1420646498
 30
0.0
 40
5.492395234874172
100
AcDbArc
 50
359.9555880151
 51
90.0444119849
  0
ARC
  5
56A
330
1F
100
AcDbEntity
  8
0
  6
CONTINUOUS
 62
     7
100
AcDbCircle
 10
65.4395843226
 20
489.1420721228
 30
0.0
 40
5.492387767675702
100
AcDbArc
 50
89.9555099974
 51
180.0444900026
  0
LINE
  5
56B
330
1F
100
AcDbEntity
  8
0
  6
CONTINUOUS
 62
     7
100
AcDbLine
 10
284.6950869546
 20
384.6995284764
 30
0.0
 11
284.6950869546
 21
374.0062614886
 31
0.0
  0
LINE
  5
56C
330
1F
100
AcDbEntity
  8
0
  6
CONTINUOUS
 62
     7
100
AcDbLine
 10
62.3624305711
 20
384.6995284764
 30
0.0
 11
62.3624305711
 21
374.0062614886
 31
0.0
  0
LINE
  5
56D
330
1F
100
AcDbEntity
  8
0
  6
CONTINUOUS
 62
     7
100
AcDbLine
 10
287.110319315
 20
269.5679826645
 30
0.0
 11
287.5287588225
 21
269.149543157
 31
0.0
  0
ELLIPSE
  5
56E
330
1F
100
AcDbEntity
  8
0
  6
CONTINUOUS
 62
     7
100
AcDbEllipse
 10
282.0254062692
 20
269.156247339
 30
0.0
 11
-3.89382699529557
 21
3.893826995295513
 31
0.0
210
0.0
220
0.0
230
1.0
 40
0.998782766
 41
2.356803477777944
 42
3.926381829401631
  0
LINE
  5
56F
330
1F
100
AcDbEntity
  8
0
  6
CONTINUOUS
 62
     7
100
AcDbLine
 10
281.6136683808
 20
264.0713317302
 30
0.0
 11
282.0321078883
 21
263.6528922228
 31
0.0
  0
LINE
  5
570
330
1F
100
AcDbEntity
  8
0
  6
CONTINUOUS
 62
     7
100
AcDbLine
 10
65.443849145
 20
264.0713317302
 30
0.0
 11
65.0254096375
 21
263.6528922228
 31
0.0
  0
ELLIPSE
  5
571
330
1F
100
AcDbEntity
  8
0
  6
CONTINUOUS
 62
     7
100
AcDbEllipse
 10
65.0321112565
 20
269.156247339
 30
0.0
 11
-3.893826995295548
 21
-3.893826995295569
 31
0.0
210
0.0
220
0.0
230
1.0
 40
0.998782766
 41
5.498396131367763
 42
7.067974482991435
  0
LINE
  5
572
330
1F
100
AcDbEntity
  8
0
  6
CONTINUOUS
 62
     7
100
AcDbLine
 10
59.9471982108
 20
269.5679826645
 30
0.0
 11
59.5287587033
 21
269.149543157
 31
0.0
  0
LINE
  5
573
330
1F
100
AcDbEntity
  8
0
  6
CONTINUOUS
 62
     7
100
AcDbLine
 10
281.6136683808
 20
494.6344582347
 30
0.0
 11
282.0321078883
 21
495.0528977421
 31
0.0
  0
ELLIPSE
  5
574
330
1F
100
AcDbEntity
  8
0
  6
CONTINUOUS
 62
     7
100
AcDbEllipse
 10
282.0254062692
 20
489.5495423517
 30
0.0
 11
3.893826995295512
 21
3.893826995295512
 31
0.0
210
0.0
220
0.0
230
0.9999999999999998
 40
0.998782766
 41
5.498396131367752
 42
7.067974482991438
  0
LINE
  5
575
330
1F
100
AcDbEntity
  8
0
  6
CONTINUOUS
 62
     7
100
AcDbLine
 10
287.110319315
 20
489.1378073004
 30
0.0
 11
287.5287588225
 21
489.5562468079
 31
0.0
  0
LINE
  5
576
330
1F
100
AcDbEntity
  8
0
  6
CONTINUOUS
 62
     7
100
AcDbLine
 10
59.9471982108
 20
489.1378073004
 30
0.0
 11
59.5287587033
 21
489.5562468079
 31
0.0
  0
ELLIPSE
  5
577
330
1F
100
AcDbEntity
  8
0
  6
CONTINUOUS
 62
     7
100
AcDbEllipse
 10
65.0321112565
 20
489.5495423517
 30
0.0
 11
3.893826995295541
 21
-3.893826995295626
 31
0.0
210
0.0
220
0.0
230
1.0
 40
0.998782766
 41
2.356803477777957
 42
3.926381829401662
  0
LINE
  5
578
330
1F
100
AcDbEntity
  8
0
  6
CONTINUOUS
 62
     7
100
AcDbLine
 10
65.443849145
 20
494.6344582347
 30
0.0
 11
65.0254096375
 21
495.0528977421
 31
0.0
  0
LINE
  5
579
330
1F
100
AcDbEntity
  8
0
  6
CONTINUOUS
 62
     7
100
AcDbLine
 10
287.5287588225
 20
269.149543157
 30
0.0
 11
287.5287588225
 21
489.5562468079
 31
0.0
  0
LINE
  5
57A
330
1F
100
AcDbEntity
  8
0
  6
CONTINUOUS
 62
     7
100
AcDbLine
 10
59.5287587033
 20
269.149543157
 30
0.0
 11
59.5287587033
 21
489.5562468079
 31
0.0
  0
LINE
  5
57B
330
1F
100
AcDbEntity
  8
0
  6
CONTINUOUS
 62
     7
100
AcDbLine
 10
282.0321078883
 20
263.6528922228
 30
0.0
 11
65.0254096375
 21
263.6528922228
 31
0.0
  0
LINE
  5
57C
330
1F
100
AcDbEntity
  8
0
  6
CONTINUOUS
 62
     7
100
AcDbLine
 10
65.0254096375
 20
495.0528977421
 30
0.0
 11
282.0321078883
 21
495.0528977421
 31
0.0
  0
ENDSEC
  0
SECTION
  2
OBJECTS
  0
DICTIONARY
  5
C
330
0
100
AcDbDictionary
  3
ACAD_GROUP
350
D
  3
ACAD_MLINESTYLE
350
17
  0
DICTIONARY
  5
D
102
{ACAD_REACTORS
330
C
102
}
330
C
100
AcDbDictionary
  0
DICTIONARY
  5
17
102
{ACAD_REACTORS
330
C
102
}
330
C
100
AcDbDictionary
  3
STANDARD
350
18
  0
MLINESTYLE
  5
18
102
{ACAD_REACTORS
330
17
102
}
330
17
100
AcDbMlineStyle
  2
Standard
 70
     0
  3

 62
   256
 51
90.0
 52
90.0
 71
     2
 49
0.5
 62
   256
  6
BYLAYER
 49
-0.5
 62
   256
  6
BYLAYER
  0
ENDSEC
  0
EOF
